  0
SECTION
  2
HEADER
  9
$ACADVER
  1
AC1014
  9
$ACADMAINTVER
 70
     9
  9
$DWGCODEPAGE
  3
ANSI_1252
  9
$INSBASE
 10
0.0
 20
0.0
 30
0.0
  9
$EXTMIN
 10
1.000000000000000E+20
 20
1.000000000000000E+20
 30
1.000000000000000E+20
  9
$EXTMAX
 10
-1.000000000000000E+20
 20
-1.000000000000000E+20
 30
-1.000000000000000E+20
  9
$LIMMIN
 10
0.0
 20
0.0
  9
$LIMMAX
 10
12.0
 20
9.0
  9
$ORTHOMODE
 70
     0
  9
$REGENMODE
 70
     1
  9
$FILLMODE
 70
     1
  9
$QTEXTMODE
 70
     0
  9
$MIRRTEXT
 70
     1
  9
$DRAGMODE
 70
     2
  9
$LTSCALE
 40
1.0
  9
$OSMODE
 70
    37
  9
$ATTMODE
 70
     1
  9
$TEXTSIZE
 40
0.2
  9
$TRACEWID
 40
0.05
  9
$TEXTSTYLE
  7
STANDARD
  9
$CLAYER
  8
0
  9
$CELTYPE
  6
BYLAYER
  9
$CECOLOR
 62
   256
  9
$CELTSCALE
 40
1.0
  9
$DELOBJ
 70
     1
  9
$DISPSILH
 70
     0
  9
$DIMSCALE
 40
1.0
  9
$DIMASZ
 40
0.18
  9
$DIMEXO
 40
0.0625
  9
$DIMDLI
 40
0.38
  9
$DIMRND
 40
0.0
  9
$DIMDLE
 40
0.0
  9
$DIMEXE
 40
0.18
  9
$DIMTP
 40
0.0
  9
$DIMTM
 40
0.0
  9
$DIMTXT
 40
0.18
  9
$DIMCEN
 40
0.09
  9
$DIMTSZ
 40
0.0
  9
$DIMTOL
 70
     0
  9
$DIMLIM
 70
     0
  9
$DIMTIH
 70
     1
  9
$DIMTOH
 70
     1
  9
$DIMSE1
 70
     0
  9
$DIMSE2
 70
     0
  9
$DIMTAD
 70
     0
  9
$DIMZIN
 70
     0
  9
$DIMBLK
  1

  9
$DIMASO
 70
     1
  9
$DIMSHO
 70
     1
  9
$DIMPOST
  1

  9
$DIMAPOST
  1

  9
$DIMALT
 70
     0
  9
$DIMALTD
 70
     2
  9
$DIMALTF
 40
25.4
  9
$DIMLFAC
 40
1.0
  9
$DIMTOFL
 70
     0
  9
$DIMTVP
 40
0.0
  9
$DIMTIX
 70
     0
  9
$DIMSOXD
 70
     0
  9
$DIMSAH
 70
     0
  9
$DIMBLK1
  1

  9
$DIMBLK2
  1

  9
$DIMSTYLE
  2
STANDARD
  9
$DIMCLRD
 70
     0
  9
$DIMCLRE
 70
     0
  9
$DIMCLRT
 70
     0
  9
$DIMTFAC
 40
1.0
  9
$DIMGAP
 40
0.09
  9
$DIMJUST
 70
     0
  9
$DIMSD1
 70
     0
  9
$DIMSD2
 70
     0
  9
$DIMTOLJ
 70
     1
  9
$DIMTZIN
 70
     0
  9
$DIMALTZ
 70
     0
  9
$DIMALTTZ
 70
     0
  9
$DIMFIT
 70
     3
  9
$DIMUPT
 70
     0
  9
$DIMUNIT
 70
     2
  9
$DIMDEC
 70
     4
  9
$DIMTDEC
 70
     4
  9
$DIMALTU
 70
     2
  9
$DIMALTTD
 70
     2
  9
$DIMTXSTY
  7
STANDARD
  9
$DIMAUNIT
 70
     0
  9
$LUNITS
 70
     2
  9
$LUPREC
 70
     4
  9
$SKETCHINC
 40
0.1
  9
$FILLETRAD
 40
0.5
  9
$AUNITS
 70
     0
  9
$AUPREC
 70
     0
  9
$MENU
  1
.
  9
$ELEVATION
 40
0.0
  9
$PELEVATION
 40
0.0
  9
$THICKNESS
 40
0.0
  9
$LIMCHECK
 70
     0
  9
$CHAMFERA
 40
0.5
  9
$CHAMFERB
 40
0.5
  9
$CHAMFERC
 40
1.0
  9
$CHAMFERD
 40
0.0
  9
$SKPOLY
 70
     0
  9
$TDCREATE
 40
2458417.406524063
  9
$TDUPDATE
 40
2458417.406524074
  9
$TDINDWG
 40
0.0000000116
  9
$TDUSRTIMER
 40
0.0000000116
  9
$USRTIMER
 70
     1
  9
$ANGBASE
 50
0.0
  9
$ANGDIR
 70
     0
  9
$PDMODE
 70
     0
  9
$PDSIZE
 40
0.0
  9
$PLINEWID
 40
0.0
  9
$COORDS
 70
     1
  9
$SPLFRAME
 70
     0
  9
$SPLINETYPE
 70
     6
  9
$SPLINESEGS
 70
     8
  9
$ATTDIA
 70
     0
  9
$ATTREQ
 70
     1
  9
$HANDLING
 70
     1
  9
$HANDSEED
  5
428
  9
$SURFTAB1
 70
     6
  9
$SURFTAB2
 70
     6
  9
$SURFTYPE
 70
     6
  9
$SURFU
 70
     6
  9
$SURFV
 70
     6
  9
$UCSNAME
  2

  9
$UCSORG
 10
0.0
 20
0.0
 30
0.0
  9
$UCSXDIR
 10
1.0
 20
0.0
 30
0.0
  9
$UCSYDIR
 10
0.0
 20
1.0
 30
0.0
  9
$PUCSNAME
  2

  9
$PUCSORG
 10
0.0
 20
0.0
 30
0.0
  9
$PUCSXDIR
 10
1.0
 20
0.0
 30
0.0
  9
$PUCSYDIR
 10
0.0
 20
1.0
 30
0.0
  9
$USERI1
 70
     0
  9
$USERI2
 70
     0
  9
$USERI3
 70
     0
  9
$USERI4
 70
     0
  9
$USERI5
 70
     0
  9
$USERR1
 40
0.0
  9
$USERR2
 40
0.0
  9
$USERR3
 40
0.0
  9
$USERR4
 40
0.0
  9
$USERR5
 40
0.0
  9
$WORLDVIEW
 70
     1
  9
$SHADEDGE
 70
     3
  9
$SHADEDIF
 70
    70
  9
$TILEMODE
 70
     1
  9
$MAXACTVP
 70
    64
  9
$PINSBASE
 10
0.0
 20
0.0
 30
0.0
  9
$PLIMCHECK
 70
     0
  9
$PEXTMIN
 10
1.000000000000000E+20
 20
1.000000000000000E+20
 30
1.000000000000000E+20
  9
$PEXTMAX
 10
-1.000000000000000E+20
 20
-1.000000000000000E+20
 30
-1.000000000000000E+20
  9
$PLIMMIN
 10
0.0
 20
0.0
  9
$PLIMMAX
 10
12.0
 20
9.0
  9
$UNITMODE
 70
     0
  9
$VISRETAIN
 70
     1
  9
$PLINEGEN
 70
     0
  9
$PSLTSCALE
 70
     1
  9
$TREEDEPTH
 70
  3020
  9
$PICKSTYLE
 70
     1
  9
$CMLSTYLE
  2
STANDARD
  9
$CMLJUST
 70
     0
  9
$CMLSCALE
 40
1.0
  9
$PROXYGRAPHICS
 70
     1
  9
$MEASUREMENT
 70
     0
  0
ENDSEC
  0
SECTION
  2
CLASSES
  0
CLASS
  1
ACDBDICTIONARYWDFLT
  2
AcDbDictionaryWithDefault
  3
ObjectDBX Classes
 90
        0
280
     0
281
     0
  0
CLASS
  1
VISUALSTYLE
  2
AcDbVisualStyle
  3
ObjectDBX Classes
 90
     4095
280
     0
281
     0
  0
CLASS
  1
XRECORD
  2
AcDbXrecord
  3
AutoCAD 2000
 90
        0
280
     0
281
     0
  0
CLASS
  1
LWPOLYLINE
  2
AcDbPolyline
  3
AutoCAD 2000
 90
        0
280
     0
281
     1
  0
CLASS
  1
HATCH
  2
AcDbHatch
  3
AutoCAD 2000
 90
        0
280
     0
281
     1
  0
CLASS
  1
ACDBPLACEHOLDER
  2
AcDbPlaceHolder
  3
ObjectDBX Classes
 90
        0
280
     0
281
     0
  0
CLASS
  1
LAYOUT
  2
AcDbLayout
  3
ObjectDBX Classes
 90
        0
280
     0
281
     0
  0
ENDSEC
  0
SECTION
  2
TABLES
  0
TABLE
  2
VPORT
  5
8
330
0
100
AcDbSymbolTable
 70
     1
  0
VPORT
  5
29
330
8
100
AcDbSymbolTableRecord
100
AcDbViewportTableRecord
  2
*ACTIVE
 70
     0
 10
0.0
 20
0.0
 11
1.0
 21
1.0
 12
0.0
 22
0.0
 13
0.0
 23
0.0
 14
0.5
 24
0.5
 15
0.5
 25
0.5
 16
0.0
 26
0.0
 36
1.0
 17
99.99303518550522
 27
127.3042018995976
 37
0.0
 40
209.9999294179862
 41
1.414285995518093
 42
50.0
 43
0.0
 44
0.0
 50
0.0
 51
0.0
 71
     0
 72
   100
 73
     1
 74
     3
 75
     0
 76
     0
 77
     0
 78
     0
  0
ENDTAB
  0
TABLE
  2
LTYPE
  5
5
330
0
100
AcDbSymbolTable
 70
     1
  0
LTYPE
  5
14
330
5
100
AcDbSymbolTableRecord
100
AcDbLinetypeTableRecord
  2
BYBLOCK
 70
     0
  3

 72
    65
 73
     0
 40
0.0
  0
LTYPE
  5
15
330
5
100
AcDbSymbolTableRecord
100
AcDbLinetypeTableRecord
  2
BYLAYER
 70
     0
  3

 72
    65
 73
     0
 40
0.0
  0
LTYPE
  5
16
330
5
100
AcDbSymbolTableRecord
100
AcDbLinetypeTableRecord
  2
CONTINUOUS
 70
     0
  3
Solid line
 72
    65
 73
     0
 40
0.0
  0
ENDTAB
  0
TABLE
  2
LAYER
  5
2
330
0
100
AcDbSymbolTable
 70
     5
  0
LAYER
  5
10
330
2
100
AcDbSymbolTableRecord
100
AcDbLayerTableRecord
  2
0
 70
     0
 62
     7
  6
CONTINUOUS
  0
LAYER
  5
3B
330
2
100
AcDbSymbolTableRecord
100
AcDbLayerTableRecord
  2
GRAU_10_
 70
     1
 62
     7
  6
CONTINUOUS
  0
LAYER
  5
4C
330
2
100
AcDbSymbolTableRecord
100
AcDbLayerTableRecord
  2
EBENE_3
 70
     1
 62
     7
  6
CONTINUOUS
  0
LAYER
  5
E5
330
2
100
AcDbSymbolTableRecord
100
AcDbLayerTableRecord
  2
STANDARDEBENE
 70
     0
 62
     7
  6
CONTINUOUS
  0
LAYER
  5
365
330
2
100
AcDbSymbolTableRecord
100
AcDbLayerTableRecord
  2
EBENE_2
 70
     1
 62
     7
  6
CONTINUOUS
  0
ENDTAB
  0
TABLE
  2
STYLE
  5
3
330
0
100
AcDbSymbolTable
 70
     1
  0
STYLE
  5
11
330
3
100
AcDbSymbolTableRecord
100
AcDbTextStyleTableRecord
  2
STANDARD
 70
     0
 40
0.0
 41
1.0
 50
0.0
 71
     0
 42
0.2
  3
txt
  4

  0
ENDTAB
  0
TABLE
  2
VIEW
  5
6
330
0
100
AcDbSymbolTable
 70
     0
  0
ENDTAB
  0
TABLE
  2
UCS
  5
7
330
0
100
AcDbSymbolTable
 70
     0
  0
ENDTAB
  0
TABLE
  2
APPID
  5
9
330
0
100
AcDbSymbolTable
 70
     1
  0
APPID
  5
12
330
9
100
AcDbSymbolTableRecord
100
AcDbRegAppTableRecord
  2
ACAD
 70
     0
  0
ENDTAB
  0
TABLE
  2
DIMSTYLE
  5
A
330
0
100
AcDbSymbolTable
 70
     1
  0
DIMSTYLE
105
27
330
A
100
AcDbSymbolTableRecord
100
AcDbDimStyleTableRecord
  2
STANDARD
 70
     0
  3

  4

  5

  6

  7

 40
1.0
 41
0.18
 42
0.0625
 43
0.38
 44
0.18
 45
0.0
 46
0.0
 47
0.0
 48
0.0
140
0.18
141
0.09
142
0.0
143
25.4
144
1.0
145
0.0
146
1.0
147
0.09
 71
     0
 72
     0
 73
     1
 74
     1
 75
     0
 76
     0
 77
     0
 78
     0
170
     0
171
     2
172
     0
173
     0
174
     0
175
     0
176
     0
177
     0
178
     0
270
     2
271
     4
272
     4
273
     2
274
     2
340
11
275
     0
280
     0
281
     0
282
     0
283
     1
284
     0
285
     0
286
     0
287
     3
288
     0
  0
ENDTAB
  0
TABLE
  2
BLOCK_RECORD
  5
1
330
0
100
AcDbSymbolTable
 70
     1
  0
BLOCK_RECORD
  5
1F
330
1
100
AcDbSymbolTableRecord
100
AcDbBlockTableRecord
  2
*MODEL_SPACE
  0
BLOCK_RECORD
  5
1B
330
1
100
AcDbSymbolTableRecord
100
AcDbBlockTableRecord
  2
*PAPER_SPACE
  0
ENDTAB
  0
ENDSEC
  0
SECTION
  2
BLOCKS
  0
BLOCK
  5
20
330
1F
100
AcDbEntity
  8
0
100
AcDbBlockBegin
  2
*MODEL_SPACE
 70
     0
 71
     0
 10
0.0
 20
0.0
 30
0.0
  3
*MODEL_SPACE
  1

  0
ENDBLK
  5
21
330
1F
100
AcDbEntity
  8
0
100
AcDbBlockEnd
  0
BLOCK
  5
1C
330
1B
100
AcDbEntity
 67
     1
  8
0
100
AcDbBlockBegin
  2
*PAPER_SPACE
 70
     0
 71
     0
 10
0.0
 20
0.0
 30
0.0
  3
*PAPER_SPACE
  1

  0
ENDBLK
  5
1D
330
1B
100
AcDbEntity
 67
     1
  8
0
100
AcDbBlockEnd
  0
ENDSEC
  0
SECTION
  2
ENTITIES
  0
POLYLINE
  5
3C
330
1F
100
AcDbEntity
  8
GRAU_10_
100
AcDb2dPolyline
 66
     1
 10
0.0
 20
0.0
 30
0.0
  0
VERTEX
  5
3D
330
3C
100
AcDbEntity
  8
GRAU_10_
100
AcDbVertex
100
AcDb2dVertex
 10
83.92614337094555
 20
158.74707162915
 30
0.0
  0
VERTEX
  5
3E
330
3C
100
AcDbEntity
  8
GRAU_10_
100
AcDbVertex
100
AcDb2dVertex
 10
87.66011011263359
 20
160.7190442849071
 30
0.0
  0
VERTEX
  5
3F
330
3C
100
AcDbEntity
  8
GRAU_10_
100
AcDbVertex
100
AcDb2dVertex
 10
87.63375513217143
 20
159.2466104745113
 30
0.0
  0
VERTEX
  5
40
330
3C
100
AcDbEntity
  8
GRAU_10_
100
AcDbVertex
100
AcDb2dVertex
 10
90.73623587141317
 20
159.2466104745113
 30
0.0
  0
VERTEX
  5
41
330
3C
100
AcDbEntity
  8
GRAU_10_
100
AcDbVertex
100
AcDb2dVertex
 10
90.84148353848755
 20
160.5876138921448
 30
0.0
  0
VERTEX
  5
42
330
3C
100
AcDbEntity
  8
GRAU_10_
100
AcDbVertex
100
AcDb2dVertex
 10
109.9305853674826
 20
157.9583170178021
 30
0.0
  0
VERTEX
  5
43
330
3C
100
AcDbEntity
  8
GRAU_10_
100
AcDbVertex
100
AcDb2dVertex
 10
109.8782199161068
 20
147.5193331879466
 30
0.0
  0
VERTEX
  5
44
330
3C
100
AcDbEntity
  8
GRAU_10_
100
AcDbVertex
100
AcDb2dVertex
 10
90.71005314572527
 20
144.7584336660673
 30
0.0
  0
VERTEX
  5
45
330
3C
100
AcDbEntity
  8
GRAU_10_
100
AcDbVertex
100
AcDb2dVertex
 10
90.52608504681292
 20
145.994533926175
 30
0.0
  0
VERTEX
  5
46
330
3C
100
AcDbEntity
  8
GRAU_10_
100
AcDbVertex
100
AcDb2dVertex
 10
87.52850746509705
 20
146.047071632325
 30
0.0
  0
VERTEX
  5
47
330
3C
100
AcDbEntity
  8
GRAU_10_
100
AcDbVertex
100
AcDb2dVertex
 10
87.55486244555921
 20
144.5217556062307
 30
0.0
  0
VERTEX
  5
48
330
3C
100
AcDbEntity
  8
GRAU_10_
100
AcDbVertex
100
AcDb2dVertex
 10
83.92614337094555
 20
146.5204277519984
 30
0.0
  0
VERTEX
  5
49
330
3C
100
AcDbEntity
  8
GRAU_10_
100
AcDbVertex
100
AcDb2dVertex
 10
83.92614337094555
 20
158.74707162915
 30
0.0
  0
SEQEND
  5
4A
330
3C
100
AcDbEntity
  8
GRAU_10_
  0
HATCH
  5
4B
330
1F
100
AcDbEntity
  8
GRAU_10_
 62
   255
100
AcDbHatch
 10
0.0
 20
0.0
 30
0.0
210
0.0
220
0.0
230
1.0
  2
SOLID
 70
     1
 71
     0
 91
        1
 92
        1
 93
       12
 72
     1
 10
83.92614337094555
 20
158.74707162915
 11
87.66011011263359
 21
160.7190442849071
 72
     1
 10
87.66011011263359
 20
160.7190442849071
 11
87.63375513217143
 21
159.2466104745113
 72
     1
 10
87.63375513217143
 20
159.2466104745113
 11
90.73623587141317
 21
159.2466104745113
 72
     1
 10
90.73623587141317
 20
159.2466104745113
 11
90.84148353848755
 21
160.5876138921448
 72
     1
 10
90.84148353848755
 20
160.5876138921448
 11
109.9305853674826
 21
157.9583170178021
 72
     1
 10
109.9305853674826
 20
157.9583170178021
 11
109.8782199161068
 21
147.5193331879466
 72
     1
 10
109.8782199161068
 20
147.5193331879466
 11
90.71005314572527
 21
144.7584336660673
 72
     1
 10
90.71005314572527
 20
144.7584336660673
 11
90.52608504681292
 21
145.994533926175
 72
     1
 10
90.52608504681292
 20
145.994533926175
 11
87.52850746509705
 21
146.047071632325
 72
     1
 10
87.52850746509705
 20
146.047071632325
 11
87.55486244555921
 21
144.5217556062307
 72
     1
 10
87.55486244555921
 20
144.5217556062307
 11
83.92614337094555
 21
146.5204277519984
 72
     1
 10
83.92614337094555
 20
146.5204277519984
 11
83.92614337094555
 21
158.74707162915
 97
        0
 75
     2
 76
     1
 98
        0
  0
POLYLINE
  5
4D
330
1F
100
AcDbEntity
  8
EBENE_3
 62
     7
100
AcDb2dPolyline
 66
     1
 10
0.0
 20
0.0
 30
0.0
  0
VERTEX
  5
4E
330
4D
100
AcDbEntity
  8
EBENE_3
 62
     7
100
AcDbVertex
100
AcDb2dVertex
 10
99.45904538529149
 20
154.0226399354527
 30
0.0
  0
VERTEX
  5
4F
330
4D
100
AcDbEntity
  8
EBENE_3
 62
     7
100
AcDbVertex
100
AcDb2dVertex
 10
98.99688582594523
 20
154.0226399354527
 30
0.0
  0
SEQEND
  5
50
330
4D
100
AcDbEntity
  8
EBENE_3
  0
POLYLINE
  5
51
330
1F
100
AcDbEntity
  8
EBENE_3
 62
     7
100
AcDb2dPolyline
 66
     1
 10
0.0
 20
0.0
 30
0.0
  0
VERTEX
  5
52
330
51
100
AcDbEntity
  8
EBENE_3
 62
     7
100
AcDbVertex
100
AcDb2dVertex
 10
98.07222219770416
 20
154.0226399354527
 30
0.0
  0
VERTEX
  5
53
330
51
100
AcDbEntity
  8
EBENE_3
 62
     7
100
AcDbVertex
100
AcDb2dVertex
 10
97.14721405991459
 20
154.0226399354527
 30
0.0
  0
SEQEND
  5
54
330
51
100
AcDbEntity
  8
EBENE_3
  0
POLYLINE
  5
55
330
1F
100
AcDbEntity
  8
EBENE_3
 62
     7
100
AcDb2dPolyline
 66
     1
 10
0.0
 20
0.0
 30
0.0
  0
VERTEX
  5
56
330
55
100
AcDbEntity
  8
EBENE_3
 62
     7
100
AcDbVertex
100
AcDb2dVertex
 10
96.22255043167354
 20
154.0226399354527
 30
0.0
  0
VERTEX
  5
57
330
55
100
AcDbEntity
  8
EBENE_3
 62
     7
100
AcDbVertex
100
AcDb2dVertex
 10
95.29754229388395
 20
154.0226399354527
 30
0.0
  0
SEQEND
  5
58
330
55
100
AcDbEntity
  8
EBENE_3
  0
POLYLINE
  5
59
330
1F
100
AcDbEntity
  8
EBENE_3
 62
     7
100
AcDb2dPolyline
 66
     1
 10
0.0
 20
0.0
 30
0.0
  0
VERTEX
  5
5A
330
59
100
AcDbEntity
  8
EBENE_3
 62
     7
100
AcDbVertex
100
AcDb2dVertex
 10
94.37253415609437
 20
154.0226399354527
 30
0.0
  0
VERTEX
  5
5B
330
59
100
AcDbEntity
  8
EBENE_3
 62
     7
100
AcDbVertex
100
AcDb2dVertex
 10
93.44804278262758
 20
154.0226399354527
 30
0.0
  0
SEQEND
  5
5C
330
59
100
AcDbEntity
  8
EBENE_3
  0
POLYLINE
  5
5D
330
1F
100
AcDbEntity
  8
EBENE_3
 62
     7
100
AcDb2dPolyline
 66
     1
 10
0.0
 20
0.0
 30
0.0
  0
VERTEX
  5
5E
330
5D
100
AcDbEntity
  8
EBENE_3
 62
     7
100
AcDbVertex
100
AcDb2dVertex
 10
92.52372366393504
 20
154.0226399354527
 30
0.0
  0
VERTEX
  5
5F
330
5D
100
AcDbEntity
  8
EBENE_3
 62
     7
100
AcDbVertex
100
AcDb2dVertex
 10
91.59871552614547
 20
154.0226399354527
 30
0.0
  0
SEQEND
  5
60
330
5D
100
AcDbEntity
  8
EBENE_3
  0
POLYLINE
  5
61
330
1F
100
AcDbEntity
  8
EBENE_3
 62
     7
100
AcDb2dPolyline
 66
     1
 10
0.0
 20
0.0
 30
0.0
  0
VERTEX
  5
62
330
61
100
AcDbEntity
  8
EBENE_3
 62
     7
100
AcDbVertex
100
AcDb2dVertex
 10
90.6740518979044
 20
154.0226399354527
 30
0.0
  0
VERTEX
  5
63
330
61
100
AcDbEntity
  8
EBENE_3
 62
     7
100
AcDbVertex
100
AcDb2dVertex
 10
90.21120331946109
 20
154.0226399354527
 30
0.0
  0
SEQEND
  5
64
330
61
100
AcDbEntity
  8
EBENE_3
  0
POLYLINE
  5
65
330
1F
100
AcDbEntity
  8
EBENE_3
 62
     7
100
AcDb2dPolyline
 66
     1
 10
0.0
 20
0.0
 30
0.0
  0
VERTEX
  5
66
330
65
100
AcDbEntity
  8
EBENE_3
 62
     7
100
AcDbVertex
100
AcDb2dVertex
 10
91.20924748153797
 20
154.6785861158442
 30
0.0
  0
VERTEX
  5
67
330
65
100
AcDbEntity
  8
EBENE_3
 62
     7
100
AcDbVertex
100
AcDb2dVertex
 10
90.1092284930977
 20
154.6785861158442
 30
0.0
  0
SEQEND
  5
68
330
65
100
AcDbEntity
  8
EBENE_3
  0
POLYLINE
  5
69
330
1F
100
AcDbEntity
  8
EBENE_3
 62
     7
100
AcDb2dPolyline
 66
     1
 10
0.0
 20
0.0
 30
0.0
  0
VERTEX
  5
6A
330
69
100
AcDbEntity
  8
EBENE_3
 62
     7
100
AcDbVertex
100
AcDb2dVertex
 10
89.00938175943169
 20
154.6785861158442
 30
0.0
  0
VERTEX
  5
6B
330
69
100
AcDbEntity
  8
EBENE_3
 62
     7
100
AcDbVertex
100
AcDb2dVertex
 10
88.45902775566303
 20
154.6785861158442
 30
0.0
  0
SEQEND
  5
6C
330
69
100
AcDbEntity
  8
EBENE_3
  0
POLYLINE
  5
6D
330
1F
100
AcDbEntity
  8
EBENE_3
 62
     7
100
AcDb2dPolyline
 66
     1
 10
0.0
 20
0.0
 30
0.0
  0
VERTEX
  5
6E
330
6D
100
AcDbEntity
  8
EBENE_3
 62
     7
100
AcDbVertex
100
AcDb2dVertex
 10
99.45904538529149
 20
154.1638888503479
 30
0.0
  0
VERTEX
  5
6F
330
6D
100
AcDbEntity
  8
EBENE_3
 62
     7
100
AcDbVertex
100
AcDb2dVertex
 10
98.99688582594523
 20
154.1638888503479
 30
0.0
  0
SEQEND
  5
70
330
6D
100
AcDbEntity
  8
EBENE_3
  0
POLYLINE
  5
71
330
1F
100
AcDbEntity
  8
EBENE_3
 62
     7
100
AcDb2dPolyline
 66
     1
 10
0.0
 20
0.0
 30
0.0
  0
VERTEX
  5
72
330
71
100
AcDbEntity
  8
EBENE_3
 62
     7
100
AcDbVertex
100
AcDb2dVertex
 10
98.07222219770416
 20
154.1638888503479
 30
0.0
  0
VERTEX
  5
73
330
71
100
AcDbEntity
  8
EBENE_3
 62
     7
100
AcDbVertex
100
AcDb2dVertex
 10
97.14721405991459
 20
154.1638888503479
 30
0.0
  0
SEQEND
  5
74
330
71
100
AcDbEntity
  8
EBENE_3
  0
POLYLINE
  5
75
330
1F
100
AcDbEntity
  8
EBENE_3
 62
     7
100
AcDb2dPolyline
 66
     1
 10
0.0
 20
0.0
 30
0.0
  0
VERTEX
  5
76
330
75
100
AcDbEntity
  8
EBENE_3
 62
     7
100
AcDbVertex
100
AcDb2dVertex
 10
96.22255043167354
 20
154.1638888503479
 30
0.0
  0
VERTEX
  5
77
330
75
100
AcDbEntity
  8
EBENE_3
 62
     7
100
AcDbVertex
100
AcDb2dVertex
 10
95.29754229388395
 20
154.1638888503479
 30
0.0
  0
SEQEND
  5
78
330
75
100
AcDbEntity
  8
EBENE_3
  0
POLYLINE
  5
79
330
1F
100
AcDbEntity
  8
EBENE_3
 62
     7
100
AcDb2dPolyline
 66
     1
 10
0.0
 20
0.0
 30
0.0
  0
VERTEX
  5
7A
330
79
100
AcDbEntity
  8
EBENE_3
 62
     7
100
AcDbVertex
100
AcDb2dVertex
 10
94.37253415609437
 20
154.1638888503479
 30
0.0
  0
VERTEX
  5
7B
330
79
100
AcDbEntity
  8
EBENE_3
 62
     7
100
AcDbVertex
100
AcDb2dVertex
 10
93.44804278262758
 20
154.1638888503479
 30
0.0
  0
SEQEND
  5
7C
330
79
100
AcDbEntity
  8
EBENE_3
  0
POLYLINE
  5
7D
330
1F
100
AcDbEntity
  8
EBENE_3
 62
     7
100
AcDb2dPolyline
 66
     1
 10
0.0
 20
0.0
 30
0.0
  0
VERTEX
  5
7E
330
7D
100
AcDbEntity
  8
EBENE_3
 62
     7
100
AcDbVertex
100
AcDb2dVertex
 10
92.52372366393504
 20
154.1638888503479
 30
0.0
  0
VERTEX
  5
7F
330
7D
100
AcDbEntity
  8
EBENE_3
 62
     7
100
AcDbVertex
100
AcDb2dVertex
 10
91.59871552614547
 20
154.1638888503479
 30
0.0
  0
SEQEND
  5
80
330
7D
100
AcDbEntity
  8
EBENE_3
  0
POLYLINE
  5
81
330
1F
100
AcDbEntity
  8
EBENE_3
 62
     7
100
AcDb2dPolyline
 66
     1
 10
0.0
 20
0.0
 30
0.0
  0
VERTEX
  5
82
330
81
100
AcDbEntity
  8
EBENE_3
 62
     7
100
AcDbVertex
100
AcDb2dVertex
 10
90.6740518979044
 20
154.1638888503479
 30
0.0
  0
VERTEX
  5
83
330
81
100
AcDbEntity
  8
EBENE_3
 62
     7
100
AcDbVertex
100
AcDb2dVertex
 10
90.21120331946109
 20
154.1638888503479
 30
0.0
  0
SEQEND
  5
84
330
81
100
AcDbEntity
  8
EBENE_3
  0
POLYLINE
  5
85
330
1F
100
AcDbEntity
  8
EBENE_3
 62
     7
100
AcDb2dPolyline
 66
     1
 10
0.0
 20
0.0
 30
0.0
  0
VERTEX
  5
86
330
85
100
AcDbEntity
  8
EBENE_3
 62
     7
100
AcDbVertex
100
AcDb2dVertex
 10
90.21120331946109
 20
154.0226399354527
 30
0.0
  0
VERTEX
  5
87
330
85
100
AcDbEntity
  8
EBENE_3
 62
     7
100
AcDbVertex
100
AcDb2dVertex
 10
90.20706920487879
 20
154.0581244189507
 30
0.0
  0
SEQEND
  5
88
330
85
100
AcDbEntity
  8
EBENE_3
  0
POLYLINE
  5
89
330
1F
100
AcDbEntity
  8
EBENE_3
 62
     7
100
AcDb2dPolyline
 66
     1
 10
0.0
 20
0.0
 30
0.0
  0
VERTEX
  5
8A
330
89
100
AcDbEntity
  8
EBENE_3
 62
     7
100
AcDbVertex
100
AcDb2dVertex
 10
90.20638018578174
 20
154.1285766216241
 30
0.0
  0
VERTEX
  5
8B
330
89
100
AcDbEntity
  8
EBENE_3
 62
     7
100
AcDbVertex
100
AcDb2dVertex
 10
90.21120331946109
 20
154.1638888503479
 30
0.0
  0
SEQEND
  5
8C
330
89
100
AcDbEntity
  8
EBENE_3
  0
POLYLINE
  5
8D
330
1F
100
AcDbEntity
  8
EBENE_3
 62
     7
100
AcDb2dPolyline
 66
     1
 10
0.0
 20
0.0
 30
0.0
  0
VERTEX
  5
8E
330
8D
100
AcDbEntity
  8
EBENE_3
 62
     7
100
AcDbVertex
100
AcDb2dVertex
 10
99.45904538529149
 20
151.1973171279993
 30
0.0
  0
VERTEX
  5
8F
330
8D
100
AcDbEntity
  8
EBENE_3
 62
     7
100
AcDbVertex
100
AcDb2dVertex
 10
98.99688582594523
 20
151.1973171279993
 30
0.0
  0
SEQEND
  5
90
330
8D
100
AcDbEntity
  8
EBENE_3
  0
POLYLINE
  5
91
330
1F
100
AcDbEntity
  8
EBENE_3
 62
     7
100
AcDb2dPolyline
 66
     1
 10
0.0
 20
0.0
 30
0.0
  0
VERTEX
  5
92
330
91
100
AcDbEntity
  8
EBENE_3
 62
     7
100
AcDbVertex
100
AcDb2dVertex
 10
98.07222219770416
 20
151.1973171279993
 30
0.0
  0
VERTEX
  5
93
330
91
100
AcDbEntity
  8
EBENE_3
 62
     7
100
AcDbVertex
100
AcDb2dVertex
 10
97.14721405991459
 20
151.1973171279993
 30
0.0
  0
SEQEND
  5
94
330
91
100
AcDbEntity
  8
EBENE_3
  0
POLYLINE
  5
95
330
1F
100
AcDbEntity
  8
EBENE_3
 62
     7
100
AcDb2dPolyline
 66
     1
 10
0.0
 20
0.0
 30
0.0
  0
VERTEX
  5
96
330
95
100
AcDbEntity
  8
EBENE_3
 62
     7
100
AcDbVertex
100
AcDb2dVertex
 10
96.22255043167354
 20
151.1973171279993
 30
0.0
  0
VERTEX
  5
97
330
95
100
AcDbEntity
  8
EBENE_3
 62
     7
100
AcDbVertex
100
AcDb2dVertex
 10
95.29754229388395
 20
151.1973171279993
 30
0.0
  0
SEQEND
  5
98
330
95
100
AcDbEntity
  8
EBENE_3
  0
POLYLINE
  5
99
330
1F
100
AcDbEntity
  8
EBENE_3
 62
     7
100
AcDb2dPolyline
 66
     1
 10
0.0
 20
0.0
 30
0.0
  0
VERTEX
  5
9A
330
99
100
AcDbEntity
  8
EBENE_3
 62
     7
100
AcDbVertex
100
AcDb2dVertex
 10
94.37253415609437
 20
151.1973171279993
 30
0.0
  0
VERTEX
  5
9B
330
99
100
AcDbEntity
  8
EBENE_3
 62
     7
100
AcDbVertex
100
AcDb2dVertex
 10
93.44804278262758
 20
151.1973171279993
 30
0.0
  0
SEQEND
  5
9C
330
99
100
AcDbEntity
  8
EBENE_3
  0
POLYLINE
  5
9D
330
1F
100
AcDbEntity
  8
EBENE_3
 62
     7
100
AcDb2dPolyline
 66
     1
 10
0.0
 20
0.0
 30
0.0
  0
VERTEX
  5
9E
330
9D
100
AcDbEntity
  8
EBENE_3
 62
     7
100
AcDbVertex
100
AcDb2dVertex
 10
92.52372366393504
 20
151.1973171279993
 30
0.0
  0
VERTEX
  5
9F
330
9D
100
AcDbEntity
  8
EBENE_3
 62
     7
100
AcDbVertex
100
AcDb2dVertex
 10
91.59871552614547
 20
151.1973171279993
 30
0.0
  0
SEQEND
  5
A0
330
9D
100
AcDbEntity
  8
EBENE_3
  0
POLYLINE
  5
A1
330
1F
100
AcDbEntity
  8
EBENE_3
 62
     7
100
AcDb2dPolyline
 66
     1
 10
0.0
 20
0.0
 30
0.0
  0
VERTEX
  5
A2
330
A1
100
AcDbEntity
  8
EBENE_3
 62
     7
100
AcDbVertex
100
AcDb2dVertex
 10
90.6740518979044
 20
151.1973171279993
 30
0.0
  0
VERTEX
  5
A3
330
A1
100
AcDbEntity
  8
EBENE_3
 62
     7
100
AcDbVertex
100
AcDb2dVertex
 10
90.21120331946109
 20
151.1973171279993
 30
0.0
  0
SEQEND
  5
A4
330
A1
100
AcDbEntity
  8
EBENE_3
  0
POLYLINE
  5
A5
330
1F
100
AcDbEntity
  8
EBENE_3
 62
     7
100
AcDb2dPolyline
 66
     1
 10
0.0
 20
0.0
 30
0.0
  0
VERTEX
  5
A6
330
A5
100
AcDbEntity
  8
EBENE_3
 62
     7
100
AcDbVertex
100
AcDb2dVertex
 10
99.45904538529149
 20
151.3392550619916
 30
0.0
  0
VERTEX
  5
A7
330
A5
100
AcDbEntity
  8
EBENE_3
 62
     7
100
AcDbVertex
100
AcDb2dVertex
 10
98.99688582594523
 20
151.3392550619916
 30
0.0
  0
SEQEND
  5
A8
330
A5
100
AcDbEntity
  8
EBENE_3
  0
POLYLINE
  5
A9
330
1F
100
AcDbEntity
  8
EBENE_3
 62
     7
100
AcDb2dPolyline
 66
     1
 10
0.0
 20
0.0
 30
0.0
  0
VERTEX
  5
AA
330
A9
100
AcDbEntity
  8
EBENE_3
 62
     7
100
AcDbVertex
100
AcDb2dVertex
 10
98.07222219770416
 20
151.3392550619916
 30
0.0
  0
VERTEX
  5
AB
330
A9
100
AcDbEntity
  8
EBENE_3
 62
     7
100
AcDbVertex
100
AcDb2dVertex
 10
97.14721405991459
 20
151.3392550619916
 30
0.0
  0
SEQEND
  5
AC
330
A9
100
AcDbEntity
  8
EBENE_3
  0
POLYLINE
  5
AD
330
1F
100
AcDbEntity
  8
EBENE_3
 62
     7
100
AcDb2dPolyline
 66
     1
 10
0.0
 20
0.0
 30
0.0
  0
VERTEX
  5
AE
330
AD
100
AcDbEntity
  8
EBENE_3
 62
     7
100
AcDbVertex
100
AcDb2dVertex
 10
96.22255043167354
 20
151.3392550619916
 30
0.0
  0
VERTEX
  5
AF
330
AD
100
AcDbEntity
  8
EBENE_3
 62
     7
100
AcDbVertex
100
AcDb2dVertex
 10
95.29754229388395
 20
151.3392550619916
 30
0.0
  0
SEQEND
  5
B0
330
AD
100
AcDbEntity
  8
EBENE_3
  0
POLYLINE
  5
B1
330
1F
100
AcDbEntity
  8
EBENE_3
 62
     7
100
AcDb2dPolyline
 66
     1
 10
0.0
 20
0.0
 30
0.0
  0
VERTEX
  5
B2
330
B1
100
AcDbEntity
  8
EBENE_3
 62
     7
100
AcDbVertex
100
AcDb2dVertex
 10
94.37253415609437
 20
151.3392550619916
 30
0.0
  0
VERTEX
  5
B3
330
B1
100
AcDbEntity
  8
EBENE_3
 62
     7
100
AcDbVertex
100
AcDb2dVertex
 10
93.44804278262758
 20
151.3392550619916
 30
0.0
  0
SEQEND
  5
B4
330
B1
100
AcDbEntity
  8
EBENE_3
  0
POLYLINE
  5
B5
330
1F
100
AcDbEntity
  8
EBENE_3
 62
     7
100
AcDb2dPolyline
 66
     1
 10
0.0
 20
0.0
 30
0.0
  0
VERTEX
  5
B6
330
B5
100
AcDbEntity
  8
EBENE_3
 62
     7
100
AcDbVertex
100
AcDb2dVertex
 10
92.52372366393504
 20
151.3392550619916
 30
0.0
  0
VERTEX
  5
B7
330
B5
100
AcDbEntity
  8
EBENE_3
 62
     7
100
AcDbVertex
100
AcDb2dVertex
 10
91.59871552614547
 20
151.3392550619916
 30
0.0
  0
SEQEND
  5
B8
330
B5
100
AcDbEntity
  8
EBENE_3
  0
POLYLINE
  5
B9
330
1F
100
AcDbEntity
  8
EBENE_3
 62
     7
100
AcDb2dPolyline
 66
     1
 10
0.0
 20
0.0
 30
0.0
  0
VERTEX
  5
BA
330
B9
100
AcDbEntity
  8
EBENE_3
 62
     7
100
AcDbVertex
100
AcDb2dVertex
 10
90.6740518979044
 20
151.3392550619916
 30
0.0
  0
VERTEX
  5
BB
330
B9
100
AcDbEntity
  8
EBENE_3
 62
     7
100
AcDbVertex
100
AcDb2dVertex
 10
90.21120331946109
 20
151.3392550619916
 30
0.0
  0
SEQEND
  5
BC
330
B9
100
AcDbEntity
  8
EBENE_3
  0
POLYLINE
  5
BD
330
1F
100
AcDbEntity
  8
EBENE_3
 62
     7
100
AcDb2dPolyline
 66
     1
 10
0.0
 20
0.0
 30
0.0
  0
VERTEX
  5
BE
330
BD
100
AcDbEntity
  8
EBENE_3
 62
     7
100
AcDbVertex
100
AcDb2dVertex
 10
90.21120331946109
 20
151.1973171279993
 30
0.0
  0
VERTEX
  5
BF
330
BD
100
AcDbEntity
  8
EBENE_3
 62
     7
100
AcDbVertex
100
AcDb2dVertex
 10
90.20638018578174
 20
151.2329738662716
 30
0.0
  0
SEQEND
  5
C0
330
BD
100
AcDbEntity
  8
EBENE_3
  0
POLYLINE
  5
C1
330
1F
100
AcDbEntity
  8
EBENE_3
 62
     7
100
AcDb2dPolyline
 66
     1
 10
0.0
 20
0.0
 30
0.0
  0
VERTEX
  5
C2
330
C1
100
AcDbEntity
  8
EBENE_3
 62
     7
100
AcDbVertex
100
AcDb2dVertex
 10
90.20706920487879
 20
151.3039428332678
 30
0.0
  0
VERTEX
  5
C3
330
C1
100
AcDbEntity
  8
EBENE_3
 62
     7
100
AcDbVertex
100
AcDb2dVertex
 10
90.21120331946109
 20
151.3392550619916
 30
0.0
  0
SEQEND
  5
C4
330
C1
100
AcDbEntity
  8
EBENE_3
  0
POLYLINE
  5
C5
330
1F
100
AcDbEntity
  8
EBENE_3
 62
     7
100
AcDb2dPolyline
 66
     1
 10
0.0
 20
0.0
 30
0.0
  0
VERTEX
  5
C6
330
C5
100
AcDbEntity
  8
EBENE_3
 62
     7
100
AcDbVertex
100
AcDb2dVertex
 10
89.74559866462958
 20
151.0502115507791
 30
0.0
  0
VERTEX
  5
C7
330
C5
100
AcDbEntity
  8
EBENE_3
 62
     7
100
AcDbVertex
100
AcDb2dVertex
 10
90.21120331946109
 20
151.1973171279993
 30
0.0
  0
SEQEND
  5
C8
330
C5
100
AcDbEntity
  8
EBENE_3
  0
POLYLINE
  5
C9
330
1F
100
AcDbEntity
  8
EBENE_3
 62
     7
100
AcDb2dPolyline
 66
     1
 10
0.0
 20
0.0
 30
0.0
  0
VERTEX
  5
CA
330
C9
100
AcDbEntity
  8
EBENE_3
 62
     7
100
AcDbVertex
100
AcDb2dVertex
 10
89.74559866462958
 20
151.1921494847714
 30
0.0
  0
VERTEX
  5
CB
330
C9
100
AcDbEntity
  8
EBENE_3
 62
     7
100
AcDbVertex
100
AcDb2dVertex
 10
90.21120331946109
 20
151.3392550619916
 30
0.0
  0
SEQEND
  5
CC
330
C9
100
AcDbEntity
  8
EBENE_3
  0
POLYLINE
  5
CD
330
1F
100
AcDbEntity
  8
EBENE_3
 62
     7
100
AcDb2dPolyline
 66
     1
 10
0.0
 20
0.0
 30
0.0
  0
VERTEX
  5
CE
330
CD
100
AcDbEntity
  8
EBENE_3
 62
     7
100
AcDbVertex
100
AcDb2dVertex
 10
88.45902775566303
 20
154.8439506991362
 30
0.0
  0
VERTEX
  5
CF
330
CD
100
AcDbEntity
  8
EBENE_3
 62
     7
100
AcDbVertex
100
AcDb2dVertex
 10
88.86709931589087
 20
154.5752332512868
 30
0.0
  0
SEQEND
  5
D0
330
CD
100
AcDbEntity
  8
EBENE_3
  0
POLYLINE
  5
D1
330
1F
100
AcDbEntity
  8
EBENE_3
 62
     7
100
AcDb2dPolyline
 66
     1
 10
0.0
 20
0.0
 30
0.0
  0
VERTEX
  5
D2
330
D1
100
AcDbEntity
  8
EBENE_3
 62
     7
100
AcDbVertex
100
AcDb2dVertex
 10
89.74559866462958
 20
154.1697455126728
 30
0.0
  0
VERTEX
  5
D3
330
D1
100
AcDbEntity
  8
EBENE_3
 62
     7
100
AcDbVertex
100
AcDb2dVertex
 10
90.21120331946109
 20
154.0226399354527
 30
0.0
  0
SEQEND
  5
D4
330
D1
100
AcDbEntity
  8
EBENE_3
  0
POLYLINE
  5
D5
330
1F
100
AcDbEntity
  8
EBENE_3
 62
     7
100
AcDb2dPolyline
 66
     1
 10
0.0
 20
0.0
 30
0.0
  0
VERTEX
  5
D6
330
D5
100
AcDbEntity
  8
EBENE_3
 62
     7
100
AcDbVertex
100
AcDb2dVertex
 10
88.45902775566303
 20
154.9858886331285
 30
0.0
  0
VERTEX
  5
D7
330
D5
100
AcDbEntity
  8
EBENE_3
 62
     7
100
AcDbVertex
100
AcDb2dVertex
 10
88.86709931589087
 20
154.7166544209562
 30
0.0
  0
SEQEND
  5
D8
330
D5
100
AcDbEntity
  8
EBENE_3
  0
POLYLINE
  5
D9
330
1F
100
AcDbEntity
  8
EBENE_3
 62
     7
100
AcDb2dPolyline
 66
     1
 10
0.0
 20
0.0
 30
0.0
  0
VERTEX
  5
DA
330
D9
100
AcDbEntity
  8
EBENE_3
 62
     7
100
AcDbVertex
100
AcDb2dVertex
 10
89.74559866462958
 20
154.3109944275681
 30
0.0
  0
VERTEX
  5
DB
330
D9
100
AcDbEntity
  8
EBENE_3
 62
     7
100
AcDbVertex
100
AcDb2dVertex
 10
90.21120331946109
 20
154.1638888503479
 30
0.0
  0
SEQEND
  5
DC
330
D9
100
AcDbEntity
  8
EBENE_3
  0
POLYLINE
  5
DD
330
1F
100
AcDbEntity
  8
EBENE_3
 62
     7
100
AcDb2dPolyline
 66
     1
 10
0.0
 20
0.0
 30
0.0
  0
VERTEX
  5
DE
330
DD
100
AcDbEntity
  8
EBENE_3
 62
     7
100
AcDbVertex
100
AcDb2dVertex
 10
88.45902775566303
 20
150.3760063643157
 30
0.0
  0
VERTEX
  5
DF
330
DD
100
AcDbEntity
  8
EBENE_3
 62
     7
100
AcDbVertex
100
AcDb2dVertex
 10
88.86709931589087
 20
150.6448960669395
 30
0.0
  0
SEQEND
  5
E0
330
DD
100
AcDbEntity
  8
EBENE_3
  0
POLYLINE
  5
E1
330
1F
100
AcDbEntity
  8
EBENE_3
 62
     7
100
AcDb2dPolyline
 66
     1
 10
0.0
 20
0.0
 30
0.0
  0
VERTEX
  5
E2
330
E1
100
AcDbEntity
  8
EBENE_3
 62
     7
100
AcDbVertex
100
AcDb2dVertex
 10
88.45902775566303
 20
150.517255279211
 30
0.0
  0
VERTEX
  5
E3
330
E1
100
AcDbEntity
  8
EBENE_3
 62
     7
100
AcDbVertex
100
AcDb2dVertex
 10
88.86709931589087
 20
150.7866617461575
 30
0.0
  0
SEQEND
  5
E4
330
E1
100
AcDbEntity
  8
EBENE_3
  0
POLYLINE
  5
E6
330
1F
100
AcDbEntity
  8
STANDARDEBENE
 62
     7
100
AcDb2dPolyline
 66
     1
 10
0.0
 20
0.0
 30
0.0
  0
VERTEX
  5
E7
330
E6
100
AcDbEntity
  8
STANDARDEBENE
 62
     7
100
AcDbVertex
100
AcDb2dVertex
 10
108.0440510797598
 20
150.525178998827
 30
0.0
  0
VERTEX
  5
E8
330
E6
100
AcDbEntity
  8
STANDARDEBENE
 62
     7
100
AcDbVertex
100
AcDb2dVertex
 10
108.5112060275597
 20
150.2550835127835
 30
0.0
  0
SEQEND
  5
E9
330
E6
100
AcDbEntity
  8
STANDARDEBENE
  0
POLYLINE
  5
EA
330
1F
100
AcDbEntity
  8
STANDARDEBENE
 62
     7
100
AcDb2dPolyline
 66
     1
 10
0.0
 20
0.0
 30
0.0
  0
VERTEX
  5
EB
330
EA
100
AcDbEntity
  8
STANDARDEBENE
 62
     7
100
AcDbVertex
100
AcDb2dVertex
 10
109.446549451805
 20
149.7154093050191
 30
0.0
  0
VERTEX
  5
EC
330
EA
100
AcDbEntity
  8
STANDARDEBENE
 62
     7
100
AcDbVertex
100
AcDb2dVertex
 10
109.915082437799
 20
149.4451415642012
 30
0.0
  0
SEQEND
  5
ED
330
EA
100
AcDbEntity
  8
STANDARDEBENE
  0
POLYLINE
  5
EE
330
1F
100
AcDbEntity
  8
STANDARDEBENE
 62
     7
100
AcDb2dPolyline
 66
     1
 10
0.0
 20
0.0
 30
0.0
  0
VERTEX
  5
EF
330
EE
100
AcDbEntity
  8
STANDARDEBENE
 62
     7
100
AcDbVertex
100
AcDb2dVertex
 10
109.915082437799
 20
155.9250216624076
 30
0.0
  0
VERTEX
  5
F0
330
EE
100
AcDbEntity
  8
STANDARDEBENE
 62
     7
100
AcDbVertex
100
AcDb2dVertex
 10
109.446549451805
 20
155.6552706859126
 30
0.0
  0
SEQEND
  5
F1
330
EE
100
AcDbEntity
  8
STANDARDEBENE
  0
POLYLINE
  5
F2
330
1F
100
AcDbEntity
  8
STANDARDEBENE
 62
     7
100
AcDb2dPolyline
 66
     1
 10
0.0
 20
0.0
 30
0.0
  0
VERTEX
  5
F3
330
F2
100
AcDbEntity
  8
STANDARDEBENE
 62
     7
100
AcDbVertex
100
AcDb2dVertex
 10
108.5112060275597
 20
155.1154242233739
 30
0.0
  0
VERTEX
  5
F4
330
F2
100
AcDbEntity
  8
STANDARDEBENE
 62
     7
100
AcDbVertex
100
AcDb2dVertex
 10
108.0440510797598
 20
154.8449842277818
 30
0.0
  0
SEQEND
  5
F5
330
F2
100
AcDbEntity
  8
STANDARDEBENE
  0
POLYLINE
  5
F6
330
1F
100
AcDbEntity
  8
STANDARDEBENE
 62
     7
100
AcDb2dPolyline
 66
     1
 10
0.0
 20
0.0
 30
0.0
  0
VERTEX
  5
F7
330
F6
100
AcDbEntity
  8
STANDARDEBENE
 62
     7
100
AcDbVertex
100
AcDb2dVertex
 10
99.8342162836352
 20
155.5619085982623
 30
0.0
  0
VERTEX
  5
F8
330
F6
100
AcDbEntity
  8
STANDARDEBENE
 62
     7
100
AcDbVertex
100
AcDb2dVertex
 10
99.04270559589905
 20
155.5619085982623
 30
0.0
  0
SEQEND
  5
F9
330
F6
100
AcDbEntity
  8
STANDARDEBENE
  0
POLYLINE
  5
FA
330
1F
100
AcDbEntity
  8
STANDARDEBENE
 62
     7
100
AcDb2dPolyline
 66
     1
 10
0.0
 20
0.0
 30
0.0
  0
VERTEX
  5
FB
330
FA
100
AcDbEntity
  8
STANDARDEBENE
 62
     7
100
AcDbVertex
100
AcDb2dVertex
 10
97.45847843700692
 20
155.5619085982623
 30
0.0
  0
VERTEX
  5
FC
330
FA
100
AcDbEntity
  8
STANDARDEBENE
 62
     7
100
AcDbVertex
100
AcDb2dVertex
 10
95.8745957876633
 20
155.5619085982623
 30
0.0
  0
SEQEND
  5
FD
330
FA
100
AcDbEntity
  8
STANDARDEBENE
  0
POLYLINE
  5
FE
330
1F
100
AcDbEntity
  8
STANDARDEBENE
 62
     7
100
AcDb2dPolyline
 66
     1
 10
0.0
 20
0.0
 30
0.0
  0
VERTEX
  5
FF
330
FE
100
AcDbEntity
  8
STANDARDEBENE
 62
     7
100
AcDbVertex
100
AcDb2dVertex
 10
94.29071313831969
 20
155.5619085982623
 30
0.0
  0
VERTEX
  5
100
330
FE
100
AcDbEntity
  8
STANDARDEBENE
 62
     7
100
AcDbVertex
100
AcDb2dVertex
 10
92.70631372465328
 20
155.5619085982623
 30
0.0
  0
SEQEND
  5
101
330
FE
100
AcDbEntity
  8
STANDARDEBENE
  0
POLYLINE
  5
102
330
1F
100
AcDbEntity
  8
STANDARDEBENE
 62
     7
100
AcDb2dPolyline
 66
     1
 10
0.0
 20
0.0
 30
0.0
  0
VERTEX
  5
103
330
102
100
AcDbEntity
  8
STANDARDEBENE
 62
     7
100
AcDbVertex
100
AcDb2dVertex
 10
91.12208656576115
 20
155.5619085982623
 30
0.0
  0
VERTEX
  5
104
330
102
100
AcDbEntity
  8
STANDARDEBENE
 62
     7
100
AcDbVertex
100
AcDb2dVertex
 10
89.5383761711918
 20
155.5619085982623
 30
0.0
  0
SEQEND
  5
105
330
102
100
AcDbEntity
  8
STANDARDEBENE
  0
POLYLINE
  5
106
330
1F
100
AcDbEntity
  8
STANDARDEBENE
 62
     7
100
AcDb2dPolyline
 66
     1
 10
0.0
 20
0.0
 30
0.0
  0
VERTEX
  5
107
330
106
100
AcDbEntity
  8
STANDARDEBENE
 62
     7
100
AcDbVertex
100
AcDb2dVertex
 10
91.12208656576115
 20
149.8085991378951
 30
0.0
  0
VERTEX
  5
108
330
106
100
AcDbEntity
  8
STANDARDEBENE
 62
     7
100
AcDbVertex
100
AcDb2dVertex
 10
89.5383761711918
 20
149.8085991378951
 30
0.0
  0
SEQEND
  5
109
330
106
100
AcDbEntity
  8
STANDARDEBENE
  0
POLYLINE
  5
10A
330
1F
100
AcDbEntity
  8
STANDARDEBENE
 62
     7
100
AcDb2dPolyline
 66
     1
 10
0.0
 20
0.0
 30
0.0
  0
VERTEX
  5
10B
330
10A
100
AcDbEntity
  8
STANDARDEBENE
 62
     7
100
AcDbVertex
100
AcDb2dVertex
 10
87.95432126707392
 20
149.8085991378951
 30
0.0
  0
VERTEX
  5
10C
330
10A
100
AcDbEntity
  8
STANDARDEBENE
 62
     7
100
AcDbVertex
100
AcDb2dVertex
 10
86.37043861773031
 20
149.8085991378951
 30
0.0
  0
SEQEND
  5
10D
330
10A
100
AcDbEntity
  8
STANDARDEBENE
  0
POLYLINE
  5
10E
330
1F
100
AcDbEntity
  8
STANDARDEBENE
 62
     7
100
AcDb2dPolyline
 66
     1
 10
0.0
 20
0.0
 30
0.0
  0
VERTEX
  5
10F
330
10E
100
AcDbEntity
  8
STANDARDEBENE
 62
     7
100
AcDbVertex
100
AcDb2dVertex
 10
104.1545382769128
 20
154.8449842277818
 30
0.0
  0
VERTEX
  5
110
330
10E
100
AcDbEntity
  8
STANDARDEBENE
 62
     7
100
AcDbVertex
100
AcDb2dVertex
 10
104.1545382769128
 20
154.8770236157946
 30
0.0
  0
SEQEND
  5
111
330
10E
100
AcDbEntity
  8
STANDARDEBENE
  0
POLYLINE
  5
112
330
1F
100
AcDbEntity
  8
STANDARDEBENE
 62
     7
100
AcDb2dPolyline
 66
     1
 10
0.0
 20
0.0
 30
0.0
  0
VERTEX
  5
113
330
112
100
AcDbEntity
  8
STANDARDEBENE
 62
     7
100
AcDbVertex
100
AcDb2dVertex
 10
104.1545382769128
 20
154.9421359204659
 30
0.0
  0
VERTEX
  5
114
330
112
100
AcDbEntity
  8
STANDARDEBENE
 62
     7
100
AcDbVertex
100
AcDb2dVertex
 10
104.1545382769128
 20
154.9740030537044
 30
0.0
  0
SEQEND
  5
115
330
112
100
AcDbEntity
  8
STANDARDEBENE
  0
POLYLINE
  5
116
330
1F
100
AcDbEntity
  8
STANDARDEBENE
 62
     7
100
AcDb2dPolyline
 66
     1
 10
0.0
 20
0.0
 30
0.0
  0
VERTEX
  5
117
330
116
100
AcDbEntity
  8
STANDARDEBENE
 62
     7
100
AcDbVertex
100
AcDb2dVertex
 10
104.1545382769128
 20
155.7806721615757
 30
0.0
  0
VERTEX
  5
118
330
116
100
AcDbEntity
  8
STANDARDEBENE
 62
     7
100
AcDbVertex
100
AcDb2dVertex
 10
104.1545382769128
 20
155.5796508400113
 30
0.0
  0
SEQEND
  5
119
330
116
100
AcDbEntity
  8
STANDARDEBENE
  0
POLYLINE
  5
11A
330
1F
100
AcDbEntity
  8
STANDARDEBENE
 62
     7
100
AcDb2dPolyline
 66
     1
 10
0.0
 20
0.0
 30
0.0
  0
VERTEX
  5
11B
330
11A
100
AcDbEntity
  8
STANDARDEBENE
 62
     7
100
AcDbVertex
100
AcDb2dVertex
 10
104.1545382769128
 20
155.1753688848173
 30
0.0
  0
VERTEX
  5
11C
330
11A
100
AcDbEntity
  8
STANDARDEBENE
 62
     7
100
AcDbVertex
100
AcDb2dVertex
 10
104.1545382769128
 20
154.9740030537044
 30
0.0
  0
SEQEND
  5
11D
330
11A
100
AcDbEntity
  8
STANDARDEBENE
  0
POLYLINE
  5
11E
330
1F
100
AcDbEntity
  8
STANDARDEBENE
 62
     7
100
AcDb2dPolyline
 66
     1
 10
0.0
 20
0.0
 30
0.0
  0
VERTEX
  5
11F
330
11E
100
AcDbEntity
  8
STANDARDEBENE
 62
     7
100
AcDbVertex
100
AcDb2dVertex
 10
109.915082437799
 20
155.0761501348421
 30
0.0
  0
VERTEX
  5
120
330
11E
100
AcDbEntity
  8
STANDARDEBENE
 62
     7
100
AcDbVertex
100
AcDb2dVertex
 10
109.7731445038067
 20
155.0181002759156
 30
0.0
  0
SEQEND
  5
121
330
11E
100
AcDbEntity
  8
STANDARDEBENE
  0
POLYLINE
  5
122
330
1F
100
AcDbEntity
  8
STANDARDEBENE
 62
     7
100
AcDb2dPolyline
 66
     1
 10
0.0
 20
0.0
 30
0.0
  0
VERTEX
  5
123
330
122
100
AcDbEntity
  8
STANDARDEBENE
 62
     7
100
AcDbVertex
100
AcDb2dVertex
 10
109.4909911835648
 20
154.9032063414825
 30
0.0
  0
VERTEX
  5
124
330
122
100
AcDbEntity
  8
STANDARDEBENE
 62
     7
100
AcDbVertex
100
AcDb2dVertex
 10
109.3504312877666
 20
154.8449842277818
 30
0.0
  0
SEQEND
  5
125
330
122
100
AcDbEntity
  8
STANDARDEBENE
  0
POLYLINE
  5
126
330
1F
100
AcDbEntity
  8
STANDARDEBENE
 62
     7
100
AcDb2dPolyline
 66
     1
 10
0.0
 20
0.0
 30
0.0
  0
VERTEX
  5
127
330
126
100
AcDbEntity
  8
STANDARDEBENE
 62
     7
100
AcDbVertex
100
AcDb2dVertex
 10
99.8342162836352
 20
154.9740030537044
 30
0.0
  0
VERTEX
  5
128
330
126
100
AcDbEntity
  8
STANDARDEBENE
 62
     7
100
AcDbVertex
100
AcDb2dVertex
 10
99.8342162836352
 20
154.9355902390439
 30
0.0
  0
SEQEND
  5
129
330
126
100
AcDbEntity
  8
STANDARDEBENE
  0
POLYLINE
  5
12A
330
1F
100
AcDbEntity
  8
STANDARDEBENE
 62
     7
100
AcDb2dPolyline
 66
     1
 10
0.0
 20
0.0
 30
0.0
  0
VERTEX
  5
12B
330
12A
100
AcDbEntity
  8
STANDARDEBENE
 62
     7
100
AcDbVertex
100
AcDb2dVertex
 10
99.8342162836352
 20
154.8592813740456
 30
0.0
  0
VERTEX
  5
12C
330
12A
100
AcDbEntity
  8
STANDARDEBENE
 62
     7
100
AcDbVertex
100
AcDb2dVertex
 10
99.8342162836352
 20
154.8206963046108
 30
0.0
  0
SEQEND
  5
12D
330
12A
100
AcDbEntity
  8
STANDARDEBENE
  0
POLYLINE
  5
12E
330
1F
100
AcDbEntity
  8
STANDARDEBENE
 62
     7
100
AcDb2dPolyline
 66
     1
 10
0.0
 20
0.0
 30
0.0
  0
VERTEX
  5
12F
330
12E
100
AcDbEntity
  8
STANDARDEBENE
 62
     7
100
AcDbVertex
100
AcDb2dVertex
 10
104.1545382769128
 20
154.9740030537044
 30
0.0
  0
VERTEX
  5
130
330
12E
100
AcDbEntity
  8
STANDARDEBENE
 62
     7
100
AcDbVertex
100
AcDb2dVertex
 10
103.6146918143741
 20
154.9740030537044
 30
0.0
  0
SEQEND
  5
131
330
12E
100
AcDbEntity
  8
STANDARDEBENE
  0
POLYLINE
  5
132
330
1F
100
AcDbEntity
  8
STANDARDEBENE
 62
     7
100
AcDb2dPolyline
 66
     1
 10
0.0
 20
0.0
 30
0.0
  0
VERTEX
  5
133
330
132
100
AcDbEntity
  8
STANDARDEBENE
 62
     7
100
AcDbVertex
100
AcDb2dVertex
 10
102.5339653606512
 20
154.9740030537044
 30
0.0
  0
VERTEX
  5
134
330
132
100
AcDbEntity
  8
STANDARDEBENE
 62
     7
100
AcDbVertex
100
AcDb2dVertex
 10
101.4546169451225
 20
154.9740030537044
 30
0.0
  0
SEQEND
  5
135
330
132
100
AcDbEntity
  8
STANDARDEBENE
  0
POLYLINE
  5
136
330
1F
100
AcDbEntity
  8
STANDARDEBENE
 62
     7
100
AcDb2dPolyline
 66
     1
 10
0.0
 20
0.0
 30
0.0
  0
VERTEX
  5
137
330
136
100
AcDbEntity
  8
STANDARDEBENE
 62
     7
100
AcDbVertex
100
AcDb2dVertex
 10
100.3745795104966
 20
154.9740030537044
 30
0.0
  0
VERTEX
  5
138
330
136
100
AcDbEntity
  8
STANDARDEBENE
 62
     7
100
AcDbVertex
100
AcDb2dVertex
 10
99.8342162836352
 20
154.9740030537044
 30
0.0
  0
SEQEND
  5
139
330
136
100
AcDbEntity
  8
STANDARDEBENE
  0
POLYLINE
  5
13A
330
1F
100
AcDbEntity
  8
STANDARDEBENE
 62
     7
100
AcDb2dPolyline
 66
     1
 10
0.0
 20
0.0
 30
0.0
  0
VERTEX
  5
13B
330
13A
100
AcDbEntity
  8
STANDARDEBENE
 62
     7
100
AcDbVertex
100
AcDb2dVertex
 10
104.1276665321278
 20
155.7777438304132
 30
0.0
  0
VERTEX
  5
13C
330
13A
100
AcDbEntity
  8
STANDARDEBENE
 62
     7
100
AcDbVertex
100
AcDb2dVertex
 10
103.054174778924
 20
155.7777438304132
 30
0.0
  0
SEQEND
  5
13D
330
13A
100
AcDbEntity
  8
STANDARDEBENE
  0
POLYLINE
  5
13E
330
1F
100
AcDbEntity
  8
STANDARDEBENE
 62
     7
100
AcDb2dPolyline
 66
     1
 10
0.0
 20
0.0
 30
0.0
  0
VERTEX
  5
13F
330
13E
100
AcDbEntity
  8
STANDARDEBENE
 62
     7
100
AcDbVertex
100
AcDb2dVertex
 10
100.9075357820648
 20
155.7777438304132
 30
0.0
  0
VERTEX
  5
140
330
13E
100
AcDbEntity
  8
STANDARDEBENE
 62
     7
100
AcDbVertex
100
AcDb2dVertex
 10
99.8342162836352
 20
155.7777438304132
 30
0.0
  0
SEQEND
  5
141
330
13E
100
AcDbEntity
  8
STANDARDEBENE
  0
POLYLINE
  5
142
330
1F
100
AcDbEntity
  8
STANDARDEBENE
 62
     7
100
AcDb2dPolyline
 66
     1
 10
0.0
 20
0.0
 30
0.0
  0
VERTEX
  5
143
330
142
100
AcDbEntity
  8
STANDARDEBENE
 62
     7
100
AcDbVertex
100
AcDb2dVertex
 10
104.1545382769128
 20
154.8449842277818
 30
0.0
  0
VERTEX
  5
144
330
142
100
AcDbEntity
  8
STANDARDEBENE
 62
     7
100
AcDbVertex
100
AcDb2dVertex
 10
104.8035942663338
 20
154.8449842277818
 30
0.0
  0
SEQEND
  5
145
330
142
100
AcDbEntity
  8
STANDARDEBENE
  0
POLYLINE
  5
146
330
1F
100
AcDbEntity
  8
STANDARDEBENE
 62
     7
100
AcDb2dPolyline
 66
     1
 10
0.0
 20
0.0
 30
0.0
  0
VERTEX
  5
147
330
146
100
AcDbEntity
  8
STANDARDEBENE
 62
     7
100
AcDbVertex
100
AcDb2dVertex
 10
106.1034287929186
 20
154.8449842277818
 30
0.0
  0
VERTEX
  5
148
330
146
100
AcDbEntity
  8
STANDARDEBENE
 62
     7
100
AcDbVertex
100
AcDb2dVertex
 10
107.4018852813093
 20
154.8449842277818
 30
0.0
  0
SEQEND
  5
149
330
146
100
AcDbEntity
  8
STANDARDEBENE
  0
POLYLINE
  5
14A
330
1F
100
AcDbEntity
  8
STANDARDEBENE
 62
     7
100
AcDb2dPolyline
 66
     1
 10
0.0
 20
0.0
 30
0.0
  0
VERTEX
  5
14B
330
14A
100
AcDbEntity
  8
STANDARDEBENE
 62
     7
100
AcDbVertex
100
AcDb2dVertex
 10
108.7003417696999
 20
154.8449842277818
 30
0.0
  0
VERTEX
  5
14C
330
14A
100
AcDbEntity
  8
STANDARDEBENE
 62
     7
100
AcDbVertex
100
AcDb2dVertex
 10
109.3504312877666
 20
154.8449842277818
 30
0.0
  0
SEQEND
  5
14D
330
14A
100
AcDbEntity
  8
STANDARDEBENE
  0
POLYLINE
  5
14E
330
1F
100
AcDbEntity
  8
STANDARDEBENE
 62
     7
100
AcDb2dPolyline
 66
     1
 10
0.0
 20
0.0
 30
0.0
  0
VERTEX
  5
14F
330
14E
100
AcDbEntity
  8
STANDARDEBENE
 62
     7
100
AcDbVertex
100
AcDb2dVertex
 10
99.8342162836352
 20
155.7777438304132
 30
0.0
  0
VERTEX
  5
150
330
14E
100
AcDbEntity
  8
STANDARDEBENE
 62
     7
100
AcDbVertex
100
AcDb2dVertex
 10
99.8342162836352
 20
155.5772392731717
 30
0.0
  0
SEQEND
  5
151
330
14E
100
AcDbEntity
  8
STANDARDEBENE
  0
POLYLINE
  5
152
330
1F
100
AcDbEntity
  8
STANDARDEBENE
 62
     7
100
AcDb2dPolyline
 66
     1
 10
0.0
 20
0.0
 30
0.0
  0
VERTEX
  5
153
330
152
100
AcDbEntity
  8
STANDARDEBENE
 62
     7
100
AcDbVertex
100
AcDb2dVertex
 10
99.8342162836352
 20
155.1741631013974
 30
0.0
  0
VERTEX
  5
154
330
152
100
AcDbEntity
  8
STANDARDEBENE
 62
     7
100
AcDbVertex
100
AcDb2dVertex
 10
99.8342162836352
 20
154.9740030537044
 30
0.0
  0
SEQEND
  5
155
330
152
100
AcDbEntity
  8
STANDARDEBENE
  0
POLYLINE
  5
156
330
1F
100
AcDbEntity
  8
STANDARDEBENE
 62
     7
100
AcDb2dPolyline
 66
     1
 10
0.0
 20
0.0
 30
0.0
  0
VERTEX
  5
157
330
156
100
AcDbEntity
  8
STANDARDEBENE
 62
     7
100
AcDbVertex
100
AcDb2dVertex
 10
104.1545382769128
 20
152.541076622021
 30
0.0
  0
VERTEX
  5
158
330
156
100
AcDbEntity
  8
STANDARDEBENE
 62
     7
100
AcDbVertex
100
AcDb2dVertex
 10
104.1545382769128
 20
152.055490413375
 30
0.0
  0
SEQEND
  5
159
330
156
100
AcDbEntity
  8
STANDARDEBENE
  0
POLYLINE
  5
15A
330
1F
100
AcDbEntity
  8
STANDARDEBENE
 62
     7
100
AcDb2dPolyline
 66
     1
 10
0.0
 20
0.0
 30
0.0
  0
VERTEX
  5
15B
330
15A
100
AcDbEntity
  8
STANDARDEBENE
 62
     7
100
AcDbVertex
100
AcDb2dVertex
 10
104.1545382769128
 20
151.0858682890515
 30
0.0
  0
VERTEX
  5
15C
330
15A
100
AcDbEntity
  8
STANDARDEBENE
 62
     7
100
AcDbVertex
100
AcDb2dVertex
 10
104.1545382769128
 20
150.6001098256312
 30
0.0
  0
SEQEND
  5
15D
330
15A
100
AcDbEntity
  8
STANDARDEBENE
  0
POLYLINE
  5
15E
330
1F
100
AcDbEntity
  8
STANDARDEBENE
 62
     7
100
AcDb2dPolyline
 66
     1
 10
0.0
 20
0.0
 30
0.0
  0
VERTEX
  5
15F
330
15E
100
AcDbEntity
  8
STANDARDEBENE
 62
     7
100
AcDbVertex
100
AcDb2dVertex
 10
104.1545382769128
 20
154.7698811462034
 30
0.0
  0
VERTEX
  5
160
330
15E
100
AcDbEntity
  8
STANDARDEBENE
 62
     7
100
AcDbVertex
100
AcDb2dVertex
 10
104.1545382769128
 20
154.2851562114287
 30
0.0
  0
SEQEND
  5
161
330
15E
100
AcDbEntity
  8
STANDARDEBENE
  0
POLYLINE
  5
162
330
1F
100
AcDbEntity
  8
STANDARDEBENE
 62
     7
100
AcDb2dPolyline
 66
     1
 10
0.0
 20
0.0
 30
0.0
  0
VERTEX
  5
163
330
162
100
AcDbEntity
  8
STANDARDEBENE
 62
     7
100
AcDbVertex
100
AcDb2dVertex
 10
104.1545382769128
 20
153.3139837941368
 30
0.0
  0
VERTEX
  5
164
330
162
100
AcDbEntity
  8
STANDARDEBENE
 62
     7
100
AcDbVertex
100
AcDb2dVertex
 10
104.1545382769128
 20
152.8294311141364
 30
0.0
  0
SEQEND
  5
165
330
162
100
AcDbEntity
  8
STANDARDEBENE
  0
POLYLINE
  5
166
330
1F
100
AcDbEntity
  8
STANDARDEBENE
 62
     7
100
AcDb2dPolyline
 66
     1
 10
0.0
 20
0.0
 30
0.0
  0
VERTEX
  5
167
330
166
100
AcDbEntity
  8
STANDARDEBENE
 62
     7
100
AcDbVertex
100
AcDb2dVertex
 10
109.915082437799
 20
154.8722004821153
 30
0.0
  0
VERTEX
  5
168
330
166
100
AcDbEntity
  8
STANDARDEBENE
 62
     7
100
AcDbVertex
100
AcDb2dVertex
 10
109.7731445038067
 20
154.8144951327374
 30
0.0
  0
SEQEND
  5
169
330
166
100
AcDbEntity
  8
STANDARDEBENE
  0
POLYLINE
  5
16A
330
1F
100
AcDbEntity
  8
STANDARDEBENE
 62
     7
100
AcDb2dPolyline
 66
     1
 10
0.0
 20
0.0
 30
0.0
  0
VERTEX
  5
16B
330
16A
100
AcDbEntity
  8
STANDARDEBENE
 62
     7
100
AcDbVertex
100
AcDb2dVertex
 10
109.4909911835648
 20
154.698739924433
 30
0.0
  0
VERTEX
  5
16C
330
16A
100
AcDbEntity
  8
STANDARDEBENE
 62
     7
100
AcDbVertex
100
AcDb2dVertex
 10
109.3504312877666
 20
154.6418958489263
 30
0.0
  0
SEQEND
  5
16D
330
16A
100
AcDbEntity
  8
STANDARDEBENE
  0
POLYLINE
  5
16E
330
1F
100
AcDbEntity
  8
STANDARDEBENE
 62
     7
100
AcDb2dPolyline
 66
     1
 10
0.0
 20
0.0
 30
0.0
  0
VERTEX
  5
16F
330
16E
100
AcDbEntity
  8
STANDARDEBENE
 62
     7
100
AcDbVertex
100
AcDb2dVertex
 10
109.915082437799
 20
150.4983072540421
 30
0.0
  0
VERTEX
  5
170
330
16E
100
AcDbEntity
  8
STANDARDEBENE
 62
     7
100
AcDbVertex
100
AcDb2dVertex
 10
109.7731445038067
 20
150.5561848581943
 30
0.0
  0
SEQEND
  5
171
330
16E
100
AcDbEntity
  8
STANDARDEBENE
  0
POLYLINE
  5
172
330
1F
100
AcDbEntity
  8
STANDARDEBENE
 62
     7
100
AcDb2dPolyline
 66
     1
 10
0.0
 20
0.0
 30
0.0
  0
VERTEX
  5
173
330
172
100
AcDbEntity
  8
STANDARDEBENE
 62
     7
100
AcDbVertex
100
AcDb2dVertex
 10
109.4909911835648
 20
150.6709065378531
 30
0.0
  0
VERTEX
  5
174
330
172
100
AcDbEntity
  8
STANDARDEBENE
 62
     7
100
AcDbVertex
100
AcDb2dVertex
 10
109.3504312877666
 20
150.7291286515538
 30
0.0
  0
SEQEND
  5
175
330
172
100
AcDbEntity
  8
STANDARDEBENE
  0
POLYLINE
  5
176
330
1F
100
AcDbEntity
  8
STANDARDEBENE
 62
     7
100
AcDb2dPolyline
 66
     1
 10
0.0
 20
0.0
 30
0.0
  0
VERTEX
  5
177
330
176
100
AcDbEntity
  8
STANDARDEBENE
 62
     7
100
AcDbVertex
100
AcDb2dVertex
 10
109.3504312877666
 20
154.6418958489263
 30
0.0
  0
VERTEX
  5
178
330
176
100
AcDbEntity
  8
STANDARDEBENE
 62
     7
100
AcDbVertex
100
AcDb2dVertex
 10
109.1864447426687
 20
154.4982353671914
 30
0.0
  0
VERTEX
  5
179
330
176
100
AcDbEntity
  8
STANDARDEBENE
 62
     7
100
AcDbVertex
100
AcDb2dVertex
 10
108.9208278807559
 20
154.2176323399178
 30
0.0
  0
SEQEND
  5
17A
330
176
100
AcDbEntity
  8
STANDARDEBENE
  0
POLYLINE
  5
17B
330
1F
100
AcDbEntity
  8
STANDARDEBENE
 62
     7
100
AcDb2dPolyline
 66
     1
 10
0.0
 20
0.0
 30
0.0
  0
VERTEX
  5
17C
330
17B
100
AcDbEntity
  8
STANDARDEBENE
 62
     7
100
AcDbVertex
100
AcDb2dVertex
 10
108.1866780328492
 20
153.2673027503116
 30
0.0
  0
VERTEX
  5
17D
330
17B
100
AcDbEntity
  8
STANDARDEBENE
 62
     7
100
AcDbVertex
100
AcDb2dVertex
 10
108.1529160970937
 20
153.210458674805
 30
0.0
  0
VERTEX
  5
17E
330
17B
100
AcDbEntity
  8
STANDARDEBENE
 62
     7
100
AcDbVertex
100
AcDb2dVertex
 10
108.046807156148
 20
152.7639742999166
 30
0.0
  0
VERTEX
  5
17F
330
17B
100
AcDbEntity
  8
STANDARDEBENE
 62
     7
100
AcDbVertex
100
AcDb2dVertex
 10
108.101239664815
 20
152.3064656194755
 30
0.0
  0
VERTEX
  5
180
330
17B
100
AcDbEntity
  8
STANDARDEBENE
 62
     7
100
AcDbVertex
100
AcDb2dVertex
 10
108.2004584147902
 20
152.1076836099766
 30
0.0
  0
SEQEND
  5
181
330
17B
100
AcDbEntity
  8
STANDARDEBENE
  0
POLYLINE
  5
182
330
1F
100
AcDbEntity
  8
STANDARDEBENE
 62
     7
100
AcDb2dPolyline
 66
     1
 10
0.0
 20
0.0
 30
0.0
  0
VERTEX
  5
183
330
182
100
AcDbEntity
  8
STANDARDEBENE
 62
     7
100
AcDbVertex
100
AcDb2dVertex
 10
108.9070474988149
 20
151.1392672690728
 30
0.0
  0
VERTEX
  5
184
330
182
100
AcDbEntity
  8
STANDARDEBENE
 62
     7
100
AcDbVertex
100
AcDb2dVertex
 10
109.3504312877666
 20
150.7291286515538
 30
0.0
  0
SEQEND
  5
185
330
182
100
AcDbEntity
  8
STANDARDEBENE
  0
POLYLINE
  5
186
330
1F
100
AcDbEntity
  8
STANDARDEBENE
 62
     7
100
AcDb2dPolyline
 66
     1
 10
0.0
 20
0.0
 30
0.0
  0
VERTEX
  5
187
330
186
100
AcDbEntity
  8
STANDARDEBENE
 62
     7
100
AcDbVertex
100
AcDb2dVertex
 10
104.1545382769128
 20
150.6001098256312
 30
0.0
  0
VERTEX
  5
188
330
186
100
AcDbEntity
  8
STANDARDEBENE
 62
     7
100
AcDbVertex
100
AcDb2dVertex
 10
103.6146918143741
 20
150.6001098256312
 30
0.0
  0
SEQEND
  5
189
330
186
100
AcDbEntity
  8
STANDARDEBENE
  0
POLYLINE
  5
18A
330
1F
100
AcDbEntity
  8
STANDARDEBENE
 62
     7
100
AcDb2dPolyline
 66
     1
 10
0.0
 20
0.0
 30
0.0
  0
VERTEX
  5
18B
330
18A
100
AcDbEntity
  8
STANDARDEBENE
 62
     7
100
AcDbVertex
100
AcDb2dVertex
 10
102.5339653606512
 20
150.6001098256312
 30
0.0
  0
VERTEX
  5
18C
330
18A
100
AcDbEntity
  8
STANDARDEBENE
 62
     7
100
AcDbVertex
100
AcDb2dVertex
 10
101.4546169451225
 20
150.6001098256312
 30
0.0
  0
SEQEND
  5
18D
330
18A
100
AcDbEntity
  8
STANDARDEBENE
  0
POLYLINE
  5
18E
330
1F
100
AcDbEntity
  8
STANDARDEBENE
 62
     7
100
AcDb2dPolyline
 66
     1
 10
0.0
 20
0.0
 30
0.0
  0
VERTEX
  5
18F
330
18E
100
AcDbEntity
  8
STANDARDEBENE
 62
     7
100
AcDbVertex
100
AcDb2dVertex
 10
100.3745795104966
 20
150.6001098256312
 30
0.0
  0
VERTEX
  5
190
330
18E
100
AcDbEntity
  8
STANDARDEBENE
 62
     7
100
AcDbVertex
100
AcDb2dVertex
 10
99.8342162836352
 20
150.6001098256312
 30
0.0
  0
SEQEND
  5
191
330
18E
100
AcDbEntity
  8
STANDARDEBENE
  0
POLYLINE
  5
192
330
1F
100
AcDbEntity
  8
STANDARDEBENE
 62
     7
100
AcDb2dPolyline
 66
     1
 10
0.0
 20
0.0
 30
0.0
  0
VERTEX
  5
193
330
192
100
AcDbEntity
  8
STANDARDEBENE
 62
     7
100
AcDbVertex
100
AcDb2dVertex
 10
104.1545382769128
 20
154.6418958489263
 30
0.0
  0
VERTEX
  5
194
330
192
100
AcDbEntity
  8
STANDARDEBENE
 62
     7
100
AcDbVertex
100
AcDb2dVertex
 10
104.8035942663338
 20
154.6418958489263
 30
0.0
  0
SEQEND
  5
195
330
192
100
AcDbEntity
  8
STANDARDEBENE
  0
POLYLINE
  5
196
330
1F
100
AcDbEntity
  8
STANDARDEBENE
 62
     7
100
AcDb2dPolyline
 66
     1
 10
0.0
 20
0.0
 30
0.0
  0
VERTEX
  5
197
330
196
100
AcDbEntity
  8
STANDARDEBENE
 62
     7
100
AcDbVertex
100
AcDb2dVertex
 10
106.1034287929186
 20
154.6418958489263
 30
0.0
  0
VERTEX
  5
198
330
196
100
AcDbEntity
  8
STANDARDEBENE
 62
     7
100
AcDbVertex
100
AcDb2dVertex
 10
107.4018852813093
 20
154.6418958489263
 30
0.0
  0
SEQEND
  5
199
330
196
100
AcDbEntity
  8
STANDARDEBENE
  0
POLYLINE
  5
19A
330
1F
100
AcDbEntity
  8
STANDARDEBENE
 62
     7
100
AcDb2dPolyline
 66
     1
 10
0.0
 20
0.0
 30
0.0
  0
VERTEX
  5
19B
330
19A
100
AcDbEntity
  8
STANDARDEBENE
 62
     7
100
AcDbVertex
100
AcDb2dVertex
 10
108.7003417696999
 20
154.6418958489263
 30
0.0
  0
VERTEX
  5
19C
330
19A
100
AcDbEntity
  8
STANDARDEBENE
 62
     7
100
AcDbVertex
100
AcDb2dVertex
 10
109.3504312877666
 20
154.6418958489263
 30
0.0
  0
SEQEND
  5
19D
330
19A
100
AcDbEntity
  8
STANDARDEBENE
  0
POLYLINE
  5
19E
330
1F
100
AcDbEntity
  8
STANDARDEBENE
 62
     7
100
AcDb2dPolyline
 66
     1
 10
0.0
 20
0.0
 30
0.0
  0
VERTEX
  5
19F
330
19E
100
AcDbEntity
  8
STANDARDEBENE
 62
     7
100
AcDbVertex
100
AcDb2dVertex
 10
104.1545382769128
 20
150.7291286515538
 30
0.0
  0
VERTEX
  5
1A0
330
19E
100
AcDbEntity
  8
STANDARDEBENE
 62
     7
100
AcDbVertex
100
AcDb2dVertex
 10
104.8035942663338
 20
150.7291286515538
 30
0.0
  0
SEQEND
  5
1A1
330
19E
100
AcDbEntity
  8
STANDARDEBENE
  0
POLYLINE
  5
1A2
330
1F
100
AcDbEntity
  8
STANDARDEBENE
 62
     7
100
AcDb2dPolyline
 66
     1
 10
0.0
 20
0.0
 30
0.0
  0
VERTEX
  5
1A3
330
1A2
100
AcDbEntity
  8
STANDARDEBENE
 62
     7
100
AcDbVertex
100
AcDb2dVertex
 10
106.1034287929186
 20
150.7291286515538
 30
0.0
  0
VERTEX
  5
1A4
330
1A2
100
AcDbEntity
  8
STANDARDEBENE
 62
     7
100
AcDbVertex
100
AcDb2dVertex
 10
107.4018852813093
 20
150.7291286515538
 30
0.0
  0
SEQEND
  5
1A5
330
1A2
100
AcDbEntity
  8
STANDARDEBENE
  0
POLYLINE
  5
1A6
330
1F
100
AcDbEntity
  8
STANDARDEBENE
 62
     7
100
AcDb2dPolyline
 66
     1
 10
0.0
 20
0.0
 30
0.0
  0
VERTEX
  5
1A7
330
1A6
100
AcDbEntity
  8
STANDARDEBENE
 62
     7
100
AcDbVertex
100
AcDb2dVertex
 10
108.7003417696999
 20
150.7291286515538
 30
0.0
  0
VERTEX
  5
1A8
330
1A6
100
AcDbEntity
  8
STANDARDEBENE
 62
     7
100
AcDbVertex
100
AcDb2dVertex
 10
109.3504312877666
 20
150.7291286515538
 30
0.0
  0
SEQEND
  5
1A9
330
1A6
100
AcDbEntity
  8
STANDARDEBENE
  0
POLYLINE
  5
1AA
330
1F
100
AcDbEntity
  8
STANDARDEBENE
 62
     7
100
AcDb2dPolyline
 66
     1
 10
0.0
 20
0.0
 30
0.0
  0
VERTEX
  5
1AB
330
1AA
100
AcDbEntity
  8
STANDARDEBENE
 62
     7
100
AcDbVertex
100
AcDb2dVertex
 10
99.8342162836352
 20
152.541076622021
 30
0.0
  0
VERTEX
  5
1AC
330
1AA
100
AcDbEntity
  8
STANDARDEBENE
 62
     7
100
AcDbVertex
100
AcDb2dVertex
 10
99.8342162836352
 20
152.055490413375
 30
0.0
  0
SEQEND
  5
1AD
330
1AA
100
AcDbEntity
  8
STANDARDEBENE
  0
POLYLINE
  5
1AE
330
1F
100
AcDbEntity
  8
STANDARDEBENE
 62
     7
100
AcDb2dPolyline
 66
     1
 10
0.0
 20
0.0
 30
0.0
  0
VERTEX
  5
1AF
330
1AE
100
AcDbEntity
  8
STANDARDEBENE
 62
     7
100
AcDbVertex
100
AcDb2dVertex
 10
99.8342162836352
 20
151.0858682890515
 30
0.0
  0
VERTEX
  5
1B0
330
1AE
100
AcDbEntity
  8
STANDARDEBENE
 62
     7
100
AcDbVertex
100
AcDb2dVertex
 10
99.8342162836352
 20
150.6001098256312
 30
0.0
  0
SEQEND
  5
1B1
330
1AE
100
AcDbEntity
  8
STANDARDEBENE
  0
POLYLINE
  5
1B2
330
1F
100
AcDbEntity
  8
STANDARDEBENE
 62
     7
100
AcDb2dPolyline
 66
     1
 10
0.0
 20
0.0
 30
0.0
  0
VERTEX
  5
1B3
330
1B2
100
AcDbEntity
  8
STANDARDEBENE
 62
     7
100
AcDbVertex
100
AcDb2dVertex
 10
104.1545382769128
 20
150.525178998827
 30
0.0
  0
VERTEX
  5
1B4
330
1B2
100
AcDbEntity
  8
STANDARDEBENE
 62
     7
100
AcDbVertex
100
AcDb2dVertex
 10
104.1545382769128
 20
150.4924505917172
 30
0.0
  0
SEQEND
  5
1B5
330
1B2
100
AcDbEntity
  8
STANDARDEBENE
  0
POLYLINE
  5
1B6
330
1F
100
AcDbEntity
  8
STANDARDEBENE
 62
     7
100
AcDb2dPolyline
 66
     1
 10
0.0
 20
0.0
 30
0.0
  0
VERTEX
  5
1B7
330
1B6
100
AcDbEntity
  8
STANDARDEBENE
 62
     7
100
AcDbVertex
100
AcDb2dVertex
 10
104.1545382769128
 20
150.4290608347886
 30
0.0
  0
VERTEX
  5
1B8
330
1B6
100
AcDbEntity
  8
STANDARDEBENE
 62
     7
100
AcDbVertex
100
AcDb2dVertex
 10
104.1545382769128
 20
150.396504682453
 30
0.0
  0
VERTEX
  5
1B9
330
1B6
100
AcDbEntity
  8
STANDARDEBENE
 62
     7
100
AcDbVertex
100
AcDb2dVertex
 10
104.1545382769128
 20
150.1944498322431
 30
0.0
  0
SEQEND
  5
1BA
330
1B6
100
AcDbEntity
  8
STANDARDEBENE
  0
POLYLINE
  5
1BB
330
1F
100
AcDbEntity
  8
STANDARDEBENE
 62
     7
100
AcDb2dPolyline
 66
     1
 10
0.0
 20
0.0
 30
0.0
  0
VERTEX
  5
1BC
330
1BB
100
AcDbEntity
  8
STANDARDEBENE
 62
     7
100
AcDbVertex
100
AcDb2dVertex
 10
104.1545382769128
 20
149.790856896146
 30
0.0
  0
VERTEX
  5
1BD
330
1BB
100
AcDbEntity
  8
STANDARDEBENE
 62
     7
100
AcDbVertex
100
AcDb2dVertex
 10
104.1545382769128
 20
149.5889743007104
 30
0.0
  0
SEQEND
  5
1BE
330
1BB
100
AcDbEntity
  8
STANDARDEBENE
  0
POLYLINE
  5
1BF
330
1F
100
AcDbEntity
  8
STANDARDEBENE
 62
     7
100
AcDb2dPolyline
 66
     1
 10
0.0
 20
0.0
 30
0.0
  0
VERTEX
  5
1C0
330
1BF
100
AcDbEntity
  8
STANDARDEBENE
 62
     7
100
AcDbVertex
100
AcDb2dVertex
 10
109.915082437799
 20
150.2948743656381
 30
0.0
  0
VERTEX
  5
1C1
330
1BF
100
AcDbEntity
  8
STANDARDEBENE
 62
     7
100
AcDbVertex
100
AcDb2dVertex
 10
109.7731445038067
 20
150.351890695919
 30
0.0
  0
SEQEND
  5
1C2
330
1BF
100
AcDbEntity
  8
STANDARDEBENE
  0
POLYLINE
  5
1C3
330
1F
100
AcDbEntity
  8
STANDARDEBENE
 62
     7
100
AcDb2dPolyline
 66
     1
 10
0.0
 20
0.0
 30
0.0
  0
VERTEX
  5
1C4
330
1C3
100
AcDbEntity
  8
STANDARDEBENE
 62
     7
100
AcDbVertex
100
AcDb2dVertex
 10
109.4909911835648
 20
150.4674736494491
 30
0.0
  0
VERTEX
  5
1C5
330
1C3
100
AcDbEntity
  8
STANDARDEBENE
 62
     7
100
AcDbVertex
100
AcDb2dVertex
 10
109.3504312877666
 20
150.525178998827
 30
0.0
  0
SEQEND
  5
1C6
330
1C3
100
AcDbEntity
  8
STANDARDEBENE
  0
POLYLINE
  5
1C7
330
1F
100
AcDbEntity
  8
STANDARDEBENE
 62
     7
100
AcDb2dPolyline
 66
     1
 10
0.0
 20
0.0
 30
0.0
  0
VERTEX
  5
1C8
330
1C7
100
AcDbEntity
  8
STANDARDEBENE
 62
     7
100
AcDbVertex
100
AcDb2dVertex
 10
104.1545382769128
 20
150.525178998827
 30
0.0
  0
VERTEX
  5
1C9
330
1C7
100
AcDbEntity
  8
STANDARDEBENE
 62
     7
100
AcDbVertex
100
AcDb2dVertex
 10
104.8035942663338
 20
150.525178998827
 30
0.0
  0
SEQEND
  5
1CA
330
1C7
100
AcDbEntity
  8
STANDARDEBENE
  0
POLYLINE
  5
1CB
330
1F
100
AcDbEntity
  8
STANDARDEBENE
 62
     7
100
AcDb2dPolyline
 66
     1
 10
0.0
 20
0.0
 30
0.0
  0
VERTEX
  5
1CC
330
1CB
100
AcDbEntity
  8
STANDARDEBENE
 62
     7
100
AcDbVertex
100
AcDb2dVertex
 10
106.1034287929186
 20
150.525178998827
 30
0.0
  0
VERTEX
  5
1CD
330
1CB
100
AcDbEntity
  8
STANDARDEBENE
 62
     7
100
AcDbVertex
100
AcDb2dVertex
 10
107.4018852813093
 20
150.525178998827
 30
0.0
  0
SEQEND
  5
1CE
330
1CB
100
AcDbEntity
  8
STANDARDEBENE
  0
POLYLINE
  5
1CF
330
1F
100
AcDbEntity
  8
STANDARDEBENE
 62
     7
100
AcDb2dPolyline
 66
     1
 10
0.0
 20
0.0
 30
0.0
  0
VERTEX
  5
1D0
330
1CF
100
AcDbEntity
  8
STANDARDEBENE
 62
     7
100
AcDbVertex
100
AcDb2dVertex
 10
108.7003417696999
 20
150.525178998827
 30
0.0
  0
VERTEX
  5
1D1
330
1CF
100
AcDbEntity
  8
STANDARDEBENE
 62
     7
100
AcDbVertex
100
AcDb2dVertex
 10
109.3504312877666
 20
150.525178998827
 30
0.0
  0
SEQEND
  5
1D2
330
1CF
100
AcDbEntity
  8
STANDARDEBENE
  0
POLYLINE
  5
1D3
330
1F
100
AcDbEntity
  8
STANDARDEBENE
 62
     7
100
AcDb2dPolyline
 66
     1
 10
0.0
 20
0.0
 30
0.0
  0
VERTEX
  5
1D4
330
1D3
100
AcDbEntity
  8
STANDARDEBENE
 62
     7
100
AcDbVertex
100
AcDb2dVertex
 10
99.8342162836352
 20
154.7698811462034
 30
0.0
  0
VERTEX
  5
1D5
330
1D3
100
AcDbEntity
  8
STANDARDEBENE
 62
     7
100
AcDbVertex
100
AcDb2dVertex
 10
99.8342162836352
 20
154.2851562114287
 30
0.0
  0
SEQEND
  5
1D6
330
1D3
100
AcDbEntity
  8
STANDARDEBENE
  0
POLYLINE
  5
1D7
330
1F
100
AcDbEntity
  8
STANDARDEBENE
 62
     7
100
AcDb2dPolyline
 66
     1
 10
0.0
 20
0.0
 30
0.0
  0
VERTEX
  5
1D8
330
1D7
100
AcDbEntity
  8
STANDARDEBENE
 62
     7
100
AcDbVertex
100
AcDb2dVertex
 10
99.8342162836352
 20
153.3139837941368
 30
0.0
  0
VERTEX
  5
1D9
330
1D7
100
AcDbEntity
  8
STANDARDEBENE
 62
     7
100
AcDbVertex
100
AcDb2dVertex
 10
99.8342162836352
 20
152.8294311141364
 30
0.0
  0
SEQEND
  5
1DA
330
1D7
100
AcDbEntity
  8
STANDARDEBENE
  0
POLYLINE
  5
1DB
330
1F
100
AcDbEntity
  8
STANDARDEBENE
 62
     7
100
AcDb2dPolyline
 66
     1
 10
0.0
 20
0.0
 30
0.0
  0
VERTEX
  5
1DC
330
1DB
100
AcDbEntity
  8
STANDARDEBENE
 62
     7
100
AcDbVertex
100
AcDb2dVertex
 10
99.8342162836352
 20
150.396504682453
 30
0.0
  0
VERTEX
  5
1DD
330
1DB
100
AcDbEntity
  8
STANDARDEBENE
 62
     7
100
AcDbVertex
100
AcDb2dVertex
 10
99.8342162836352
 20
150.4347452423392
 30
0.0
  0
SEQEND
  5
1DE
330
1DB
100
AcDbEntity
  8
STANDARDEBENE
  0
POLYLINE
  5
1DF
330
1F
100
AcDbEntity
  8
STANDARDEBENE
 62
     7
100
AcDb2dPolyline
 66
     1
 10
0.0
 20
0.0
 30
0.0
  0
VERTEX
  5
1E0
330
1DF
100
AcDbEntity
  8
STANDARDEBENE
 62
     7
100
AcDbVertex
100
AcDb2dVertex
 10
99.8342162836352
 20
150.5110541073375
 30
0.0
  0
VERTEX
  5
1E1
330
1DF
100
AcDbEntity
  8
STANDARDEBENE
 62
     7
100
AcDbVertex
100
AcDb2dVertex
 10
99.8342162836352
 20
150.5489501576753
 30
0.0
  0
SEQEND
  5
1E2
330
1DF
100
AcDbEntity
  8
STANDARDEBENE
  0
POLYLINE
  5
1E3
330
1F
100
AcDbEntity
  8
STANDARDEBENE
 62
     7
100
AcDb2dPolyline
 66
     1
 10
0.0
 20
0.0
 30
0.0
  0
VERTEX
  5
1E4
330
1E3
100
AcDbEntity
  8
STANDARDEBENE
 62
     7
100
AcDbVertex
100
AcDb2dVertex
 10
104.1545382769128
 20
154.7698811462034
 30
0.0
  0
VERTEX
  5
1E5
330
1E3
100
AcDbEntity
  8
STANDARDEBENE
 62
     7
100
AcDbVertex
100
AcDb2dVertex
 10
103.6146918143741
 20
154.7698811462034
 30
0.0
  0
SEQEND
  5
1E6
330
1E3
100
AcDbEntity
  8
STANDARDEBENE
  0
POLYLINE
  5
1E7
330
1F
100
AcDbEntity
  8
STANDARDEBENE
 62
     7
100
AcDb2dPolyline
 66
     1
 10
0.0
 20
0.0
 30
0.0
  0
VERTEX
  5
1E8
330
1E7
100
AcDbEntity
  8
STANDARDEBENE
 62
     7
100
AcDbVertex
100
AcDb2dVertex
 10
102.5339653606512
 20
154.7698811462034
 30
0.0
  0
VERTEX
  5
1E9
330
1E7
100
AcDbEntity
  8
STANDARDEBENE
 62
     7
100
AcDbVertex
100
AcDb2dVertex
 10
101.4546169451225
 20
154.7698811462034
 30
0.0
  0
SEQEND
  5
1EA
330
1E7
100
AcDbEntity
  8
STANDARDEBENE
  0
POLYLINE
  5
1EB
330
1F
100
AcDbEntity
  8
STANDARDEBENE
 62
     7
100
AcDb2dPolyline
 66
     1
 10
0.0
 20
0.0
 30
0.0
  0
VERTEX
  5
1EC
330
1EB
100
AcDbEntity
  8
STANDARDEBENE
 62
     7
100
AcDbVertex
100
AcDb2dVertex
 10
100.3745795104966
 20
154.7698811462034
 30
0.0
  0
VERTEX
  5
1ED
330
1EB
100
AcDbEntity
  8
STANDARDEBENE
 62
     7
100
AcDbVertex
100
AcDb2dVertex
 10
99.8342162836352
 20
154.7698811462034
 30
0.0
  0
SEQEND
  5
1EE
330
1EB
100
AcDbEntity
  8
STANDARDEBENE
  0
POLYLINE
  5
1EF
330
1F
100
AcDbEntity
  8
STANDARDEBENE
 62
     7
100
AcDb2dPolyline
 66
     1
 10
0.0
 20
0.0
 30
0.0
  0
VERTEX
  5
1F0
330
1EF
100
AcDbEntity
  8
STANDARDEBENE
 62
     7
100
AcDbVertex
100
AcDb2dVertex
 10
99.8342162836352
 20
150.396504682453
 30
0.0
  0
VERTEX
  5
1F1
330
1EF
100
AcDbEntity
  8
STANDARDEBENE
 62
     7
100
AcDbVertex
100
AcDb2dVertex
 10
99.8342162836352
 20
150.1954833608886
 30
0.0
  0
SEQEND
  5
1F2
330
1EF
100
AcDbEntity
  8
STANDARDEBENE
  0
POLYLINE
  5
1F3
330
1F
100
AcDbEntity
  8
STANDARDEBENE
 62
     7
100
AcDb2dPolyline
 66
     1
 10
0.0
 20
0.0
 30
0.0
  0
VERTEX
  5
1F4
330
1F3
100
AcDbEntity
  8
STANDARDEBENE
 62
     7
100
AcDbVertex
100
AcDb2dVertex
 10
99.8342162836352
 20
149.7936129725342
 30
0.0
  0
VERTEX
  5
1F5
330
1F3
100
AcDbEntity
  8
STANDARDEBENE
 62
     7
100
AcDbVertex
100
AcDb2dVertex
 10
99.8342162836352
 20
149.5929361605184
 30
0.0
  0
SEQEND
  5
1F6
330
1F3
100
AcDbEntity
  8
STANDARDEBENE
  0
POLYLINE
  5
1F7
330
1F
100
AcDbEntity
  8
STANDARDEBENE
 62
     7
100
AcDb2dPolyline
 66
     1
 10
0.0
 20
0.0
 30
0.0
  0
VERTEX
  5
1F8
330
1F7
100
AcDbEntity
  8
STANDARDEBENE
 62
     7
100
AcDbVertex
100
AcDb2dVertex
 10
104.1545382769128
 20
150.396504682453
 30
0.0
  0
VERTEX
  5
1F9
330
1F7
100
AcDbEntity
  8
STANDARDEBENE
 62
     7
100
AcDbVertex
100
AcDb2dVertex
 10
103.6146918143741
 20
150.396504682453
 30
0.0
  0
SEQEND
  5
1FA
330
1F7
100
AcDbEntity
  8
STANDARDEBENE
  0
POLYLINE
  5
1FB
330
1F
100
AcDbEntity
  8
STANDARDEBENE
 62
     7
100
AcDb2dPolyline
 66
     1
 10
0.0
 20
0.0
 30
0.0
  0
VERTEX
  5
1FC
330
1FB
100
AcDbEntity
  8
STANDARDEBENE
 62
     7
100
AcDbVertex
100
AcDb2dVertex
 10
102.5339653606512
 20
150.396504682453
 30
0.0
  0
VERTEX
  5
1FD
330
1FB
100
AcDbEntity
  8
STANDARDEBENE
 62
     7
100
AcDbVertex
100
AcDb2dVertex
 10
101.4546169451225
 20
150.396504682453
 30
0.0
  0
SEQEND
  5
1FE
330
1FB
100
AcDbEntity
  8
STANDARDEBENE
  0
POLYLINE
  5
1FF
330
1F
100
AcDbEntity
  8
STANDARDEBENE
 62
     7
100
AcDb2dPolyline
 66
     1
 10
0.0
 20
0.0
 30
0.0
  0
VERTEX
  5
200
330
1FF
100
AcDbEntity
  8
STANDARDEBENE
 62
     7
100
AcDbVertex
100
AcDb2dVertex
 10
100.3745795104966
 20
150.396504682453
 30
0.0
  0
VERTEX
  5
201
330
1FF
100
AcDbEntity
  8
STANDARDEBENE
 62
     7
100
AcDbVertex
100
AcDb2dVertex
 10
99.8342162836352
 20
150.396504682453
 30
0.0
  0
SEQEND
  5
202
330
1FF
100
AcDbEntity
  8
STANDARDEBENE
  0
POLYLINE
  5
203
330
1F
100
AcDbEntity
  8
STANDARDEBENE
 62
     7
100
AcDb2dPolyline
 66
     1
 10
0.0
 20
0.0
 30
0.0
  0
VERTEX
  5
204
330
203
100
AcDbEntity
  8
STANDARDEBENE
 62
     7
100
AcDbVertex
100
AcDb2dVertex
 10
104.1276665321278
 20
149.5929361605184
 30
0.0
  0
VERTEX
  5
205
330
203
100
AcDbEntity
  8
STANDARDEBENE
 62
     7
100
AcDbVertex
100
AcDb2dVertex
 10
103.054174778924
 20
149.5929361605184
 30
0.0
  0
SEQEND
  5
206
330
203
100
AcDbEntity
  8
STANDARDEBENE
  0
POLYLINE
  5
207
330
1F
100
AcDbEntity
  8
STANDARDEBENE
 62
     7
100
AcDb2dPolyline
 66
     1
 10
0.0
 20
0.0
 30
0.0
  0
VERTEX
  5
208
330
207
100
AcDbEntity
  8
STANDARDEBENE
 62
     7
100
AcDbVertex
100
AcDb2dVertex
 10
100.9075357820648
 20
149.5929361605184
 30
0.0
  0
VERTEX
  5
209
330
207
100
AcDbEntity
  8
STANDARDEBENE
 62
     7
100
AcDbVertex
100
AcDb2dVertex
 10
99.8342162836352
 20
149.5929361605184
 30
0.0
  0
SEQEND
  5
20A
330
207
100
AcDbEntity
  8
STANDARDEBENE
  0
POLYLINE
  5
20B
330
1F
100
AcDbEntity
  8
STANDARDEBENE
 62
     7
100
AcDb2dPolyline
 66
     1
 10
0.0
 20
0.0
 30
0.0
  0
VERTEX
  5
20C
330
20B
100
AcDbEntity
  8
STANDARDEBENE
 62
     7
100
AcDbVertex
100
AcDb2dVertex
 10
104.1545382769128
 20
149.5889743007104
 30
0.0
  0
VERTEX
  5
20D
330
20B
100
AcDbEntity
  8
STANDARDEBENE
 62
     7
100
AcDbVertex
100
AcDb2dVertex
 10
104.8952338062415
 20
149.5491834478558
 30
0.0
  0
SEQEND
  5
20E
330
20B
100
AcDbEntity
  8
STANDARDEBENE
  0
POLYLINE
  5
20F
330
1F
100
AcDbEntity
  8
STANDARDEBENE
 62
     7
100
AcDb2dPolyline
 66
     1
 10
0.0
 20
0.0
 30
0.0
  0
VERTEX
  5
210
330
20F
100
AcDbEntity
  8
STANDARDEBENE
 62
     7
100
AcDbVertex
100
AcDb2dVertex
 10
106.3500976296625
 20
149.3011365729178
 30
0.0
  0
VERTEX
  5
211
330
20F
100
AcDbEntity
  8
STANDARDEBENE
 62
     7
100
AcDbVertex
100
AcDb2dVertex
 10
107.0628878855607
 20
149.0933973151572
 30
0.0
  0
VERTEX
  5
212
330
20F
100
AcDbEntity
  8
STANDARDEBENE
 62
     7
100
AcDbVertex
100
AcDb2dVertex
 10
107.7102213272391
 20
148.7292507223663
 30
0.0
  0
SEQEND
  5
213
330
20F
100
AcDbEntity
  8
STANDARDEBENE
  0
POLYLINE
  5
214
330
1F
100
AcDbEntity
  8
STANDARDEBENE
 62
     7
100
AcDb2dPolyline
 66
     1
 10
0.0
 20
0.0
 30
0.0
  0
VERTEX
  5
215
330
214
100
AcDbEntity
  8
STANDARDEBENE
 62
     7
100
AcDbVertex
100
AcDb2dVertex
 10
108.9046359319752
 20
147.8640149912458
 30
0.0
  0
VERTEX
  5
216
330
214
100
AcDbEntity
  8
STANDARDEBENE
 62
     7
100
AcDbVertex
100
AcDb2dVertex
 10
109.4517170950329
 20
147.3617200694964
 30
0.0
  0
SEQEND
  5
217
330
214
100
AcDbEntity
  8
STANDARDEBENE
  0
POLYLINE
  5
218
330
1F
100
AcDbEntity
  8
STANDARDEBENE
 62
     7
100
AcDb2dPolyline
 66
     1
 10
0.0
 20
0.0
 30
0.0
  0
VERTEX
  5
219
330
218
100
AcDbEntity
  8
STANDARDEBENE
 62
     7
100
AcDbVertex
100
AcDb2dVertex
 10
104.1276665321278
 20
155.7777438304132
 30
0.0
  0
VERTEX
  5
21A
330
218
100
AcDbEntity
  8
STANDARDEBENE
 62
     7
100
AcDbVertex
100
AcDb2dVertex
 10
104.1335231944527
 20
155.7780883399617
 30
0.0
  0
VERTEX
  5
21B
330
218
100
AcDbEntity
  8
STANDARDEBENE
 62
     7
100
AcDbVertex
100
AcDb2dVertex
 10
104.1545382769128
 20
155.7806721615757
 30
0.0
  0
VERTEX
  5
21C
330
218
100
AcDbEntity
  8
STANDARDEBENE
 62
     7
100
AcDbVertex
100
AcDb2dVertex
 10
104.8952338062415
 20
155.8213242883016
 30
0.0
  0
SEQEND
  5
21D
330
218
100
AcDbEntity
  8
STANDARDEBENE
  0
POLYLINE
  5
21E
330
1F
100
AcDbEntity
  8
STANDARDEBENE
 62
     7
100
AcDb2dPolyline
 66
     1
 10
0.0
 20
0.0
 30
0.0
  0
VERTEX
  5
21F
330
21E
100
AcDbEntity
  8
STANDARDEBENE
 62
     7
100
AcDbVertex
100
AcDb2dVertex
 10
106.3500976296625
 20
156.0690266536911
 30
0.0
  0
VERTEX
  5
220
330
21E
100
AcDbEntity
  8
STANDARDEBENE
 62
     7
100
AcDbVertex
100
AcDb2dVertex
 10
107.0628878855607
 20
156.2762491471289
 30
0.0
  0
VERTEX
  5
221
330
21E
100
AcDbEntity
  8
STANDARDEBENE
 62
     7
100
AcDbVertex
100
AcDb2dVertex
 10
107.7102213272391
 20
156.6402234851455
 30
0.0
  0
SEQEND
  5
222
330
21E
100
AcDbEntity
  8
STANDARDEBENE
  0
POLYLINE
  5
223
330
1F
100
AcDbEntity
  8
STANDARDEBENE
 62
     7
100
AcDb2dPolyline
 66
     1
 10
0.0
 20
0.0
 30
0.0
  0
VERTEX
  5
224
330
223
100
AcDbEntity
  8
STANDARDEBENE
 62
     7
100
AcDbVertex
100
AcDb2dVertex
 10
108.9046359319752
 20
157.5066649996859
 30
0.0
  0
VERTEX
  5
225
330
223
100
AcDbEntity
  8
STANDARDEBENE
 62
     7
100
AcDbVertex
100
AcDb2dVertex
 10
109.4517170950329
 20
158.0079263927897
 30
0.0
  0
SEQEND
  5
226
330
223
100
AcDbEntity
  8
STANDARDEBENE
  0
POLYLINE
  5
227
330
1F
100
AcDbEntity
  8
STANDARDEBENE
 62
     7
100
AcDb2dPolyline
 66
     1
 10
0.0
 20
0.0
 30
0.0
  0
VERTEX
  5
228
330
227
100
AcDbEntity
  8
STANDARDEBENE
 62
     7
100
AcDbVertex
100
AcDb2dVertex
 10
104.1276665321278
 20
149.5929361605184
 30
0.0
  0
VERTEX
  5
229
330
227
100
AcDbEntity
  8
STANDARDEBENE
 62
     7
100
AcDbVertex
100
AcDb2dVertex
 10
104.1335231944527
 20
149.5913858675501
 30
0.0
  0
VERTEX
  5
22A
330
227
100
AcDbEntity
  8
STANDARDEBENE
 62
     7
100
AcDbVertex
100
AcDb2dVertex
 10
104.1545382769128
 20
149.5889743007104
 30
0.0
  0
SEQEND
  5
22B
330
227
100
AcDbEntity
  8
STANDARDEBENE
  0
POLYLINE
  5
22C
330
1F
100
AcDbEntity
  8
STANDARDEBENE
 62
     7
100
AcDb2dPolyline
 66
     1
 10
0.0
 20
0.0
 30
0.0
  0
VERTEX
  5
22D
330
22C
100
AcDbEntity
  8
STANDARDEBENE
 62
     7
100
AcDbVertex
100
AcDb2dVertex
 10
109.4527506236785
 20
147.3606865408508
 30
0.0
  0
VERTEX
  5
22E
330
22C
100
AcDbEntity
  8
STANDARDEBENE
 62
     7
100
AcDbVertex
100
AcDb2dVertex
 10
109.915082437799
 20
147.425109826425
 30
0.0
  0
SEQEND
  5
22F
330
22C
100
AcDbEntity
  8
STANDARDEBENE
  0
POLYLINE
  5
230
330
1F
100
AcDbEntity
  8
STANDARDEBENE
 62
     7
100
AcDb2dPolyline
 66
     1
 10
0.0
 20
0.0
 30
0.0
  0
VERTEX
  5
231
330
230
100
AcDbEntity
  8
STANDARDEBENE
 62
     7
100
AcDbVertex
100
AcDb2dVertex
 10
109.915082437799
 20
157.9448811454096
 30
0.0
  0
VERTEX
  5
232
330
230
100
AcDbEntity
  8
STANDARDEBENE
 62
     7
100
AcDbVertex
100
AcDb2dVertex
 10
109.4527506236785
 20
158.0099934500809
 30
0.0
  0
SEQEND
  5
233
330
230
100
AcDbEntity
  8
STANDARDEBENE
  0
POLYLINE
  5
234
330
1F
100
AcDbEntity
  8
STANDARDEBENE
 62
     7
100
AcDb2dPolyline
 66
     1
 10
0.0
 20
0.0
 30
0.0
  0
VERTEX
  5
235
330
234
100
AcDbEntity
  8
STANDARDEBENE
 62
     7
100
AcDbVertex
100
AcDb2dVertex
 10
83.99418400677924
 20
156.8648437107838
 30
0.0
  0
VERTEX
  5
236
330
234
100
AcDbEntity
  8
STANDARDEBENE
 62
     7
100
AcDbVertex
100
AcDb2dVertex
 10
83.99418400677924
 20
157.0689656182848
 30
0.0
  0
SEQEND
  5
237
330
234
100
AcDbEntity
  8
STANDARDEBENE
  0
POLYLINE
  5
238
330
1F
100
AcDbEntity
  8
STANDARDEBENE
 62
     7
100
AcDb2dPolyline
 66
     1
 10
0.0
 20
0.0
 30
0.0
  0
VERTEX
  5
239
330
238
100
AcDbEntity
  8
STANDARDEBENE
 62
     7
100
AcDbVertex
100
AcDb2dVertex
 10
83.99418400677924
 20
158.7408704572766
 30
0.0
  0
VERTEX
  5
23A
330
238
100
AcDbEntity
  8
STANDARDEBENE
 62
     7
100
AcDbVertex
100
AcDb2dVertex
 10
83.99418400677924
 20
158.5236571869316
 30
0.0
  0
VERTEX
  5
23B
330
238
100
AcDbEntity
  8
STANDARDEBENE
 62
     7
100
AcDbVertex
100
AcDb2dVertex
 10
83.99418400677924
 20
157.9545274127683
 30
0.0
  0
VERTEX
  5
23C
330
238
100
AcDbEntity
  8
STANDARDEBENE
 62
     7
100
AcDbVertex
100
AcDb2dVertex
 10
83.99418400677924
 20
157.0689656182848
 30
0.0
  0
SEQEND
  5
23D
330
238
100
AcDbEntity
  8
STANDARDEBENE
  0
POLYLINE
  5
23E
330
1F
100
AcDbEntity
  8
STANDARDEBENE
 62
     7
100
AcDb2dPolyline
 66
     1
 10
0.0
 20
0.0
 30
0.0
  0
VERTEX
  5
23F
330
23E
100
AcDbEntity
  8
STANDARDEBENE
 62
     7
100
AcDbVertex
100
AcDb2dVertex
 10
83.99418400677924
 20
156.8653604751066
 30
0.0
  0
VERTEX
  5
240
330
23E
100
AcDbEntity
  8
STANDARDEBENE
 62
     7
100
AcDbVertex
100
AcDb2dVertex
 10
83.99418400677924
 20
155.6724961633388
 30
0.0
  0
VERTEX
  5
241
330
23E
100
AcDbEntity
  8
STANDARDEBENE
 62
     7
100
AcDbVertex
100
AcDb2dVertex
 10
83.99418400677924
 20
154.2992811029182
 30
0.0
  0
VERTEX
  5
242
330
23E
100
AcDbEntity
  8
STANDARDEBENE
 62
     7
100
AcDbVertex
100
AcDb2dVertex
 10
83.99418400677924
 20
152.8294311141364
 30
0.0
  0
SEQEND
  5
243
330
23E
100
AcDbEntity
  8
STANDARDEBENE
  0
POLYLINE
  5
244
330
1F
100
AcDbEntity
  8
STANDARDEBENE
 62
     7
100
AcDb2dPolyline
 66
     1
 10
0.0
 20
0.0
 30
0.0
  0
VERTEX
  5
245
330
244
100
AcDbEntity
  8
STANDARDEBENE
 62
     7
100
AcDbVertex
100
AcDb2dVertex
 10
83.99418400677924
 20
148.5048027515023
 30
0.0
  0
VERTEX
  5
246
330
244
100
AcDbEntity
  8
STANDARDEBENE
 62
     7
100
AcDbVertex
100
AcDb2dVertex
 10
83.99418400677924
 20
148.3015421178725
 30
0.0
  0
SEQEND
  5
247
330
244
100
AcDbEntity
  8
STANDARDEBENE
  0
POLYLINE
  5
248
330
1F
100
AcDbEntity
  8
STANDARDEBENE
 62
     7
100
AcDb2dPolyline
 66
     1
 10
0.0
 20
0.0
 30
0.0
  0
VERTEX
  5
249
330
248
100
AcDbEntity
  8
STANDARDEBENE
 62
     7
100
AcDbVertex
100
AcDb2dVertex
 10
83.99418400677924
 20
152.541076622021
 30
0.0
  0
VERTEX
  5
24A
330
248
100
AcDbEntity
  8
STANDARDEBENE
 62
     7
100
AcDbVertex
100
AcDb2dVertex
 10
83.99418400677924
 20
151.0712266332391
 30
0.0
  0
VERTEX
  5
24B
330
248
100
AcDbEntity
  8
STANDARDEBENE
 62
     7
100
AcDbVertex
100
AcDb2dVertex
 10
83.99418400677924
 20
149.6980115728186
 30
0.0
  0
VERTEX
  5
24C
330
248
100
AcDbEntity
  8
STANDARDEBENE
 62
     7
100
AcDbVertex
100
AcDb2dVertex
 10
83.99418400677924
 20
148.5048027515023
 30
0.0
  0
SEQEND
  5
24D
330
248
100
AcDbEntity
  8
STANDARDEBENE
  0
POLYLINE
  5
24E
330
1F
100
AcDbEntity
  8
STANDARDEBENE
 62
     7
100
AcDb2dPolyline
 66
     1
 10
0.0
 20
0.0
 30
0.0
  0
VERTEX
  5
24F
330
24E
100
AcDbEntity
  8
STANDARDEBENE
 62
     7
100
AcDbVertex
100
AcDb2dVertex
 10
83.99418400677924
 20
148.3015421178725
 30
0.0
  0
VERTEX
  5
250
330
24E
100
AcDbEntity
  8
STANDARDEBENE
 62
     7
100
AcDbVertex
100
AcDb2dVertex
 10
83.99418400677924
 20
147.4149467947435
 30
0.0
  0
VERTEX
  5
251
330
24E
100
AcDbEntity
  8
STANDARDEBENE
 62
     7
100
AcDbVertex
100
AcDb2dVertex
 10
83.99418400677924
 20
146.8459892753545
 30
0.0
  0
VERTEX
  5
252
330
24E
100
AcDbEntity
  8
STANDARDEBENE
 62
     7
100
AcDbVertex
100
AcDb2dVertex
 10
83.99418400677924
 20
146.629120514558
 30
0.0
  0
SEQEND
  5
253
330
24E
100
AcDbEntity
  8
STANDARDEBENE
  0
POLYLINE
  5
254
330
1F
100
AcDbEntity
  8
STANDARDEBENE
 62
     7
100
AcDb2dPolyline
 66
     1
 10
0.0
 20
0.0
 30
0.0
  0
VERTEX
  5
255
330
254
100
AcDbEntity
  8
STANDARDEBENE
 62
     7
100
AcDbVertex
100
AcDb2dVertex
 10
109.915082437799
 20
156.5051757421237
 30
0.0
  0
VERTEX
  5
256
330
254
100
AcDbEntity
  8
STANDARDEBENE
 62
     7
100
AcDbVertex
100
AcDb2dVertex
 10
109.915082437799
 20
156.3010538346226
 30
0.0
  0
SEQEND
  5
257
330
254
100
AcDbEntity
  8
STANDARDEBENE
  0
POLYLINE
  5
258
330
1F
100
AcDbEntity
  8
STANDARDEBENE
 62
     7
100
AcDb2dPolyline
 66
     1
 10
0.0
 20
0.0
 30
0.0
  0
VERTEX
  5
259
330
258
100
AcDbEntity
  8
STANDARDEBENE
 62
     7
100
AcDbVertex
100
AcDb2dVertex
 10
109.915082437799
 20
157.9448811454096
 30
0.0
  0
VERTEX
  5
25A
330
258
100
AcDbEntity
  8
STANDARDEBENE
 62
     7
100
AcDbVertex
100
AcDb2dVertex
 10
109.915082437799
 20
157.7776217596007
 30
0.0
  0
VERTEX
  5
25B
330
258
100
AcDbEntity
  8
STANDARDEBENE
 62
     7
100
AcDbVertex
100
AcDb2dVertex
 10
109.915082437799
 20
157.287556926824
 30
0.0
  0
VERTEX
  5
25C
330
258
100
AcDbEntity
  8
STANDARDEBENE
 62
     7
100
AcDbVertex
100
AcDb2dVertex
 10
109.915082437799
 20
156.5051757421237
 30
0.0
  0
SEQEND
  5
25D
330
258
100
AcDbEntity
  8
STANDARDEBENE
  0
POLYLINE
  5
25E
330
1F
100
AcDbEntity
  8
STANDARDEBENE
 62
     7
100
AcDb2dPolyline
 66
     1
 10
0.0
 20
0.0
 30
0.0
  0
VERTEX
  5
25F
330
25E
100
AcDbEntity
  8
STANDARDEBENE
 62
     7
100
AcDbVertex
100
AcDb2dVertex
 10
90.91813691303436
 20
160.6134521082842
 30
0.0
  0
VERTEX
  5
260
330
25E
100
AcDbEntity
  8
STANDARDEBENE
 62
     7
100
AcDbVertex
100
AcDb2dVertex
 10
90.91813691303436
 20
160.331815552365
 30
0.0
  0
VERTEX
  5
261
330
25E
100
AcDbEntity
  8
STANDARDEBENE
 62
     7
100
AcDbVertex
100
AcDb2dVertex
 10
90.91813691303436
 20
159.5759616029011
 30
0.0
  0
VERTEX
  5
262
330
25E
100
AcDbEntity
  8
STANDARDEBENE
 62
     7
100
AcDbVertex
100
AcDb2dVertex
 10
90.91813691303436
 20
158.3936048323634
 30
0.0
  0
VERTEX
  5
263
330
25E
100
AcDbEntity
  8
STANDARDEBENE
 62
     7
100
AcDbVertex
100
AcDb2dVertex
 10
104.7043755163586
 20
157.0229735935568
 30
0.0
  0
VERTEX
  5
264
330
25E
100
AcDbEntity
  8
STANDARDEBENE
 62
     7
100
AcDbVertex
100
AcDb2dVertex
 10
109.915082437799
 20
156.5051757421237
 30
0.0
  0
SEQEND
  5
265
330
25E
100
AcDbEntity
  8
STANDARDEBENE
  0
POLYLINE
  5
266
330
1F
100
AcDbEntity
  8
STANDARDEBENE
 62
     7
100
AcDb2dPolyline
 66
     1
 10
0.0
 20
0.0
 30
0.0
  0
VERTEX
  5
267
330
266
100
AcDbEntity
  8
STANDARDEBENE
 62
     7
100
AcDbVertex
100
AcDb2dVertex
 10
109.4527506236785
 20
158.0099934500809
 30
0.0
  0
VERTEX
  5
268
330
266
100
AcDbEntity
  8
STANDARDEBENE
 62
     7
100
AcDbVertex
100
AcDb2dVertex
 10
109.4517170950329
 20
158.0079263927897
 30
0.0
  0
SEQEND
  5
269
330
266
100
AcDbEntity
  8
STANDARDEBENE
  0
POLYLINE
  5
26A
330
1F
100
AcDbEntity
  8
STANDARDEBENE
 62
     7
100
AcDb2dPolyline
 66
     1
 10
0.0
 20
0.0
 30
0.0
  0
VERTEX
  5
26B
330
26A
100
AcDbEntity
  8
STANDARDEBENE
 62
     7
100
AcDbVertex
100
AcDb2dVertex
 10
90.91813691303436
 20
160.6134521082842
 30
0.0
  0
VERTEX
  5
26C
330
26A
100
AcDbEntity
  8
STANDARDEBENE
 62
     7
100
AcDbVertex
100
AcDb2dVertex
 10
98.93125675695121
 20
159.487250394156
 30
0.0
  0
VERTEX
  5
26D
330
26A
100
AcDbEntity
  8
STANDARDEBENE
 62
     7
100
AcDbVertex
100
AcDb2dVertex
 10
108.4367919650783
 20
158.1508978554276
 30
0.0
  0
VERTEX
  5
26E
330
26A
100
AcDbEntity
  8
STANDARDEBENE
 62
     7
100
AcDbVertex
100
AcDb2dVertex
 10
109.4517170950329
 20
158.0079263927897
 30
0.0
  0
SEQEND
  5
26F
330
26A
100
AcDbEntity
  8
STANDARDEBENE
  0
POLYLINE
  5
270
330
1F
100
AcDbEntity
  8
STANDARDEBENE
 62
     7
100
AcDb2dPolyline
 66
     1
 10
0.0
 20
0.0
 30
0.0
  0
VERTEX
  5
271
330
270
100
AcDbEntity
  8
STANDARDEBENE
 62
     7
100
AcDbVertex
100
AcDb2dVertex
 10
90.47458086930844
 20
160.1686902811384
 30
0.0
  0
VERTEX
  5
272
330
270
100
AcDbEntity
  8
STANDARDEBENE
 62
     7
100
AcDbVertex
100
AcDb2dVertex
 10
90.47458086930844
 20
159.9027289096771
 30
0.0
  0
VERTEX
  5
273
330
270
100
AcDbEntity
  8
STANDARDEBENE
 62
     7
100
AcDbVertex
100
AcDb2dVertex
 10
90.47458086930844
 20
159.1920057110701
 30
0.0
  0
VERTEX
  5
274
330
270
100
AcDbEntity
  8
STANDARDEBENE
 62
     7
100
AcDbVertex
100
AcDb2dVertex
 10
90.47458086930844
 20
158.0785508502373
 30
0.0
  0
SEQEND
  5
275
330
270
100
AcDbEntity
  8
STANDARDEBENE
  0
POLYLINE
  5
276
330
1F
100
AcDbEntity
  8
STANDARDEBENE
 62
     7
100
AcDb2dPolyline
 66
     1
 10
0.0
 20
0.0
 30
0.0
  0
VERTEX
  5
277
330
276
100
AcDbEntity
  8
STANDARDEBENE
 62
     7
100
AcDbVertex
100
AcDb2dVertex
 10
90.47458086930844
 20
157.8756347261561
 30
0.0
  0
VERTEX
  5
278
330
276
100
AcDbEntity
  8
STANDARDEBENE
 62
     7
100
AcDbVertex
100
AcDb2dVertex
 10
90.47458086930844
 20
158.0785508502373
 30
0.0
  0
VERTEX
  5
279
330
276
100
AcDbEntity
  8
STANDARDEBENE
 62
     7
100
AcDbVertex
100
AcDb2dVertex
 10
90.91813691303436
 20
158.3936048323634
 30
0.0
  0
SEQEND
  5
27A
330
276
100
AcDbEntity
  8
STANDARDEBENE
  0
POLYLINE
  5
27B
330
1F
100
AcDbEntity
  8
STANDARDEBENE
 62
     7
100
AcDb2dPolyline
 66
     1
 10
0.0
 20
0.0
 30
0.0
  0
VERTEX
  5
27C
330
27B
100
AcDbEntity
  8
STANDARDEBENE
 62
     7
100
AcDbVertex
100
AcDb2dVertex
 10
87.59430878886532
 20
157.4191595743605
 30
0.0
  0
VERTEX
  5
27D
330
27B
100
AcDbEntity
  8
STANDARDEBENE
 62
     7
100
AcDbVertex
100
AcDb2dVertex
 10
90.47458086930844
 20
157.4191595743605
 30
0.0
  0
SEQEND
  5
27E
330
27B
100
AcDbEntity
  8
STANDARDEBENE
  0
POLYLINE
  5
27F
330
1F
100
AcDbEntity
  8
STANDARDEBENE
 62
     7
100
AcDb2dPolyline
 66
     1
 10
0.0
 20
0.0
 30
0.0
  0
VERTEX
  5
280
330
27F
100
AcDbEntity
  8
STANDARDEBENE
 62
     7
100
AcDbVertex
100
AcDb2dVertex
 10
87.59430878886532
 20
159.2357584237327
 30
0.0
  0
VERTEX
  5
281
330
27F
100
AcDbEntity
  8
STANDARDEBENE
 62
     7
100
AcDbVertex
100
AcDb2dVertex
 10
90.47458086930844
 20
159.2357584237327
 30
0.0
  0
SEQEND
  5
282
330
27F
100
AcDbEntity
  8
STANDARDEBENE
  0
POLYLINE
  5
283
330
1F
100
AcDbEntity
  8
STANDARDEBENE
 62
     7
100
AcDb2dPolyline
 66
     1
 10
0.0
 20
0.0
 30
0.0
  0
VERTEX
  5
284
330
283
100
AcDbEntity
  8
STANDARDEBENE
 62
     7
100
AcDbVertex
100
AcDb2dVertex
 10
90.47458086930844
 20
160.1686902811384
 30
0.0
  0
VERTEX
  5
285
330
283
100
AcDbEntity
  8
STANDARDEBENE
 62
     7
100
AcDbVertex
100
AcDb2dVertex
 10
90.91813691303436
 20
160.6134521082842
 30
0.0
  0
SEQEND
  5
286
330
283
100
AcDbEntity
  8
STANDARDEBENE
  0
POLYLINE
  5
287
330
1F
100
AcDbEntity
  8
STANDARDEBENE
 62
     7
100
AcDb2dPolyline
 66
     1
 10
0.0
 20
0.0
 30
0.0
  0
VERTEX
  5
288
330
287
100
AcDbEntity
  8
STANDARDEBENE
 62
     7
100
AcDbVertex
100
AcDb2dVertex
 10
87.59430878886532
 20
158.5391601166152
 30
0.0
  0
VERTEX
  5
289
330
287
100
AcDbEntity
  8
STANDARDEBENE
 62
     7
100
AcDbVertex
100
AcDb2dVertex
 10
87.59430878886532
 20
158.3350382091142
 30
0.0
  0
SEQEND
  5
28A
330
287
100
AcDbEntity
  8
STANDARDEBENE
  0
POLYLINE
  5
28B
330
1F
100
AcDbEntity
  8
STANDARDEBENE
 62
     7
100
AcDb2dPolyline
 66
     1
 10
0.0
 20
0.0
 30
0.0
  0
VERTEX
  5
28C
330
28B
100
AcDbEntity
  8
STANDARDEBENE
 62
     7
100
AcDbVertex
100
AcDb2dVertex
 10
87.59430878886532
 20
160.8203300921734
 30
0.0
  0
VERTEX
  5
28D
330
28B
100
AcDbEntity
  8
STANDARDEBENE
 62
     7
100
AcDbVertex
100
AcDb2dVertex
 10
87.59430878886532
 20
160.5312865809609
 30
0.0
  0
VERTEX
  5
28E
330
28B
100
AcDbEntity
  8
STANDARDEBENE
 62
     7
100
AcDbVertex
100
AcDb2dVertex
 10
87.59430878886532
 20
159.7552788229084
 30
0.0
  0
VERTEX
  5
28F
330
28B
100
AcDbEntity
  8
STANDARDEBENE
 62
     7
100
AcDbVertex
100
AcDb2dVertex
 10
87.59430878886532
 20
158.5391601166152
 30
0.0
  0
SEQEND
  5
290
330
28B
100
AcDbEntity
  8
STANDARDEBENE
  0
POLYLINE
  5
291
330
1F
100
AcDbEntity
  8
STANDARDEBENE
 62
     7
100
AcDb2dPolyline
 66
     1
 10
0.0
 20
0.0
 30
0.0
  0
VERTEX
  5
292
330
291
100
AcDbEntity
  8
STANDARDEBENE
 62
     7
100
AcDbVertex
100
AcDb2dVertex
 10
83.99418400677924
 20
158.7408704572766
 30
0.0
  0
VERTEX
  5
293
330
291
100
AcDbEntity
  8
STANDARDEBENE
 62
     7
100
AcDbVertex
100
AcDb2dVertex
 10
86.50514185120358
 20
160.190738892244
 30
0.0
  0
VERTEX
  5
294
330
291
100
AcDbEntity
  8
STANDARDEBENE
 62
     7
100
AcDbVertex
100
AcDb2dVertex
 10
87.59430878886532
 20
160.8203300921734
 30
0.0
  0
SEQEND
  5
295
330
291
100
AcDbEntity
  8
STANDARDEBENE
  0
POLYLINE
  5
296
330
1F
100
AcDbEntity
  8
STANDARDEBENE
 62
     7
100
AcDb2dPolyline
 66
     1
 10
0.0
 20
0.0
 30
0.0
  0
VERTEX
  5
297
330
296
100
AcDbEntity
  8
STANDARDEBENE
 62
     7
100
AcDbVertex
100
AcDb2dVertex
 10
83.99418400677924
 20
157.0689656182848
 30
0.0
  0
VERTEX
  5
298
330
296
100
AcDbEntity
  8
STANDARDEBENE
 62
     7
100
AcDbVertex
100
AcDb2dVertex
 10
87.59430878886532
 20
158.5391601166152
 30
0.0
  0
SEQEND
  5
299
330
296
100
AcDbEntity
  8
STANDARDEBENE
  0
POLYLINE
  5
29A
330
1F
100
AcDbEntity
  8
STANDARDEBENE
 62
     7
100
AcDb2dPolyline
 66
     1
 10
0.0
 20
0.0
 30
0.0
  0
VERTEX
  5
29B
330
29A
100
AcDbEntity
  8
STANDARDEBENE
 62
     7
100
AcDbVertex
100
AcDb2dVertex
 10
109.915082437799
 20
156.3010538346226
 30
0.0
  0
VERTEX
  5
29C
330
29A
100
AcDbEntity
  8
STANDARDEBENE
 62
     7
100
AcDbVertex
100
AcDb2dVertex
 10
109.915082437799
 20
155.2310071769041
 30
0.0
  0
VERTEX
  5
29D
330
29A
100
AcDbEntity
  8
STANDARDEBENE
 62
     7
100
AcDbVertex
100
AcDb2dVertex
 10
109.915082437799
 20
153.9995577957015
 30
0.0
  0
VERTEX
  5
29E
330
29A
100
AcDbEntity
  8
STANDARDEBENE
 62
     7
100
AcDbVertex
100
AcDb2dVertex
 10
109.915082437799
 20
152.6855983776272
 30
0.0
  0
VERTEX
  5
29F
330
29A
100
AcDbEntity
  8
STANDARDEBENE
 62
     7
100
AcDbVertex
100
AcDb2dVertex
 10
109.915082437799
 20
151.3699164118103
 30
0.0
  0
VERTEX
  5
2A0
330
29A
100
AcDbEntity
  8
STANDARDEBENE
 62
     7
100
AcDbVertex
100
AcDb2dVertex
 10
109.915082437799
 20
150.138639285382
 30
0.0
  0
VERTEX
  5
2A1
330
29A
100
AcDbEntity
  8
STANDARDEBENE
 62
     7
100
AcDbVertex
100
AcDb2dVertex
 10
109.915082437799
 20
149.0684203728892
 30
0.0
  0
SEQEND
  5
2A2
330
29A
100
AcDbEntity
  8
STANDARDEBENE
  0
POLYLINE
  5
2A3
330
1F
100
AcDbEntity
  8
STANDARDEBENE
 62
     7
100
AcDb2dPolyline
 66
     1
 10
0.0
 20
0.0
 30
0.0
  0
VERTEX
  5
2A4
330
2A3
100
AcDbEntity
  8
STANDARDEBENE
 62
     7
100
AcDbVertex
100
AcDb2dVertex
 10
90.91813691303436
 20
158.1898274344109
 30
0.0
  0
VERTEX
  5
2A5
330
2A3
100
AcDbEntity
  8
STANDARDEBENE
 62
     7
100
AcDbVertex
100
AcDb2dVertex
 10
104.7043755163586
 20
156.8185071765072
 30
0.0
  0
VERTEX
  5
2A6
330
2A3
100
AcDbEntity
  8
STANDARDEBENE
 62
     7
100
AcDbVertex
100
AcDb2dVertex
 10
109.915082437799
 20
156.3010538346226
 30
0.0
  0
SEQEND
  5
2A7
330
2A3
100
AcDbEntity
  8
STANDARDEBENE
  0
POLYLINE
  5
2A8
330
1F
100
AcDbEntity
  8
STANDARDEBENE
 62
     7
100
AcDb2dPolyline
 66
     1
 10
0.0
 20
0.0
 30
0.0
  0
VERTEX
  5
2A9
330
2A8
100
AcDbEntity
  8
STANDARDEBENE
 62
     7
100
AcDbVertex
100
AcDb2dVertex
 10
90.91813691303436
 20
158.1898274344109
 30
0.0
  0
VERTEX
  5
2AA
330
2A8
100
AcDbEntity
  8
STANDARDEBENE
 62
     7
100
AcDbVertex
100
AcDb2dVertex
 10
90.91813691303436
 20
156.6078395875842
 30
0.0
  0
VERTEX
  5
2AB
330
2A8
100
AcDbEntity
  8
STANDARDEBENE
 62
     7
100
AcDbVertex
100
AcDb2dVertex
 10
90.91813691303436
 20
154.7834892733701
 30
0.0
  0
VERTEX
  5
2AC
330
2A8
100
AcDbEntity
  8
STANDARDEBENE
 62
     7
100
AcDbVertex
100
AcDb2dVertex
 10
90.91813691303436
 20
152.8294311141364
 30
0.0
  0
VERTEX
  5
2AD
330
2A8
100
AcDbEntity
  8
STANDARDEBENE
 62
     7
100
AcDbVertex
100
AcDb2dVertex
 10
98.93125675695121
 20
152.8294311141364
 30
0.0
  0
VERTEX
  5
2AE
330
2A8
100
AcDbEntity
  8
STANDARDEBENE
 62
     7
100
AcDbVertex
100
AcDb2dVertex
 10
108.4367919650783
 20
152.8294311141364
 30
0.0
  0
VERTEX
  5
2AF
330
2A8
100
AcDbEntity
  8
STANDARDEBENE
 62
     7
100
AcDbVertex
100
AcDb2dVertex
 10
109.4517170950329
 20
152.8294311141364
 30
0.0
  0
VERTEX
  5
2B0
330
2A8
100
AcDbEntity
  8
STANDARDEBENE
 62
     7
100
AcDbVertex
100
AcDb2dVertex
 10
109.4527506236785
 20
152.6855983776272
 30
0.0
  0
VERTEX
  5
2B1
330
2A8
100
AcDbEntity
  8
STANDARDEBENE
 62
     7
100
AcDbVertex
100
AcDb2dVertex
 10
109.4517170950329
 20
152.541076622021
 30
0.0
  0
SEQEND
  5
2B2
330
2A8
100
AcDbEntity
  8
STANDARDEBENE
  0
POLYLINE
  5
2B3
330
1F
100
AcDbEntity
  8
STANDARDEBENE
 62
     7
100
AcDb2dPolyline
 66
     1
 10
0.0
 20
0.0
 30
0.0
  0
VERTEX
  5
2B4
330
2B3
100
AcDbEntity
  8
STANDARDEBENE
 62
     7
100
AcDbVertex
100
AcDb2dVertex
 10
90.91813691303436
 20
152.541076622021
 30
0.0
  0
VERTEX
  5
2B5
330
2B3
100
AcDbEntity
  8
STANDARDEBENE
 62
     7
100
AcDbVertex
100
AcDb2dVertex
 10
98.93125675695121
 20
152.541076622021
 30
0.0
  0
VERTEX
  5
2B6
330
2B3
100
AcDbEntity
  8
STANDARDEBENE
 62
     7
100
AcDbVertex
100
AcDb2dVertex
 10
108.4367919650783
 20
152.541076622021
 30
0.0
  0
VERTEX
  5
2B7
330
2B3
100
AcDbEntity
  8
STANDARDEBENE
 62
     7
100
AcDbVertex
100
AcDb2dVertex
 10
109.4517170950329
 20
152.541076622021
 30
0.0
  0
SEQEND
  5
2B8
330
2B3
100
AcDbEntity
  8
STANDARDEBENE
  0
POLYLINE
  5
2B9
330
1F
100
AcDbEntity
  8
STANDARDEBENE
 62
     7
100
AcDb2dPolyline
 66
     1
 10
0.0
 20
0.0
 30
0.0
  0
VERTEX
  5
2BA
330
2B9
100
AcDbEntity
  8
STANDARDEBENE
 62
     7
100
AcDbVertex
100
AcDb2dVertex
 10
90.91813691303436
 20
152.541076622021
 30
0.0
  0
VERTEX
  5
2BB
330
2B9
100
AcDbEntity
  8
STANDARDEBENE
 62
     7
100
AcDbVertex
100
AcDb2dVertex
 10
90.91813691303436
 20
150.586157188916
 30
0.0
  0
VERTEX
  5
2BC
330
2B9
100
AcDbEntity
  8
STANDARDEBENE
 62
     7
100
AcDbVertex
100
AcDb2dVertex
 10
90.91813691303436
 20
148.7619791294762
 30
0.0
  0
VERTEX
  5
2BD
330
2B9
100
AcDbEntity
  8
STANDARDEBENE
 62
     7
100
AcDbVertex
100
AcDb2dVertex
 10
90.91813691303436
 20
147.1808525565208
 30
0.0
  0
VERTEX
  5
2BE
330
2B9
100
AcDbEntity
  8
STANDARDEBENE
 62
     7
100
AcDbVertex
100
AcDb2dVertex
 10
104.7043755163586
 20
148.5511392857789
 30
0.0
  0
VERTEX
  5
2BF
330
2B9
100
AcDbEntity
  8
STANDARDEBENE
 62
     7
100
AcDbVertex
100
AcDb2dVertex
 10
109.915082437799
 20
149.0684203728892
 30
0.0
  0
SEQEND
  5
2C0
330
2B9
100
AcDbEntity
  8
STANDARDEBENE
  0
POLYLINE
  5
2C1
330
1F
100
AcDbEntity
  8
STANDARDEBENE
 62
     7
100
AcDb2dPolyline
 66
     1
 10
0.0
 20
0.0
 30
0.0
  0
VERTEX
  5
2C2
330
2C1
100
AcDbEntity
  8
STANDARDEBENE
 62
     7
100
AcDbVertex
100
AcDb2dVertex
 10
90.47458086930844
 20
152.541076622021
 30
0.0
  0
VERTEX
  5
2C3
330
2C1
100
AcDbEntity
  8
STANDARDEBENE
 62
     7
100
AcDbVertex
100
AcDb2dVertex
 10
90.47458086930844
 20
150.7015678876718
 30
0.0
  0
VERTEX
  5
2C4
330
2C1
100
AcDbEntity
  8
STANDARDEBENE
 62
     7
100
AcDbVertex
100
AcDb2dVertex
 10
90.47458086930844
 20
148.983671023952
 30
0.0
  0
VERTEX
  5
2C5
330
2C1
100
AcDbEntity
  8
STANDARDEBENE
 62
     7
100
AcDbVertex
100
AcDb2dVertex
 10
90.47458086930844
 20
147.4953897743241
 30
0.0
  0
VERTEX
  5
2C6
330
2C1
100
AcDbEntity
  8
STANDARDEBENE
 62
     7
100
AcDbVertex
100
AcDb2dVertex
 10
90.91813691303436
 20
147.1808525565208
 30
0.0
  0
SEQEND
  5
2C7
330
2C1
100
AcDbEntity
  8
STANDARDEBENE
  0
POLYLINE
  5
2C8
330
1F
100
AcDbEntity
  8
STANDARDEBENE
 62
     7
100
AcDb2dPolyline
 66
     1
 10
0.0
 20
0.0
 30
0.0
  0
VERTEX
  5
2C9
330
2C8
100
AcDbEntity
  8
STANDARDEBENE
 62
     7
100
AcDbVertex
100
AcDb2dVertex
 10
87.59430878886532
 20
148.1552978145237
 30
0.0
  0
VERTEX
  5
2CA
330
2C8
100
AcDbEntity
  8
STANDARDEBENE
 62
     7
100
AcDbVertex
100
AcDb2dVertex
 10
90.47458086930844
 20
148.1552978145237
 30
0.0
  0
SEQEND
  5
2CB
330
2C8
100
AcDbEntity
  8
STANDARDEBENE
  0
POLYLINE
  5
2CC
330
1F
100
AcDbEntity
  8
STANDARDEBENE
 62
     7
100
AcDb2dPolyline
 66
     1
 10
0.0
 20
0.0
 30
0.0
  0
VERTEX
  5
2CD
330
2CC
100
AcDbEntity
  8
STANDARDEBENE
 62
     7
100
AcDbVertex
100
AcDb2dVertex
 10
87.59430878886532
 20
152.541076622021
 30
0.0
  0
VERTEX
  5
2CE
330
2CC
100
AcDbEntity
  8
STANDARDEBENE
 62
     7
100
AcDbVertex
100
AcDb2dVertex
 10
90.47458086930844
 20
152.541076622021
 30
0.0
  0
VERTEX
  5
2CF
330
2CC
100
AcDbEntity
  8
STANDARDEBENE
 62
     7
100
AcDbVertex
100
AcDb2dVertex
 10
90.91813691303436
 20
152.541076622021
 30
0.0
  0
SEQEND
  5
2D0
330
2CC
100
AcDbEntity
  8
STANDARDEBENE
  0
POLYLINE
  5
2D1
330
1F
100
AcDbEntity
  8
STANDARDEBENE
 62
     7
100
AcDb2dPolyline
 66
     1
 10
0.0
 20
0.0
 30
0.0
  0
VERTEX
  5
2D2
330
2D1
100
AcDbEntity
  8
STANDARDEBENE
 62
     7
100
AcDbVertex
100
AcDb2dVertex
 10
87.59430878886532
 20
152.541076622021
 30
0.0
  0
VERTEX
  5
2D3
330
2D1
100
AcDbEntity
  8
STANDARDEBENE
 62
     7
100
AcDbVertex
100
AcDb2dVertex
 10
87.59430878886532
 20
150.5331027184431
 30
0.0
  0
VERTEX
  5
2D4
330
2D1
100
AcDbEntity
  8
STANDARDEBENE
 62
     7
100
AcDbVertex
100
AcDb2dVertex
 10
87.59430878886532
 20
148.6587985196929
 30
0.0
  0
VERTEX
  5
2D5
330
2D1
100
AcDbEntity
  8
STANDARDEBENE
 62
     7
100
AcDbVertex
100
AcDb2dVertex
 10
87.59430878886532
 20
147.0344359983976
 30
0.0
  0
SEQEND
  5
2D6
330
2D1
100
AcDbEntity
  8
STANDARDEBENE
  0
POLYLINE
  5
2D7
330
1F
100
AcDbEntity
  8
STANDARDEBENE
 62
     7
100
AcDb2dPolyline
 66
     1
 10
0.0
 20
0.0
 30
0.0
  0
VERTEX
  5
2D8
330
2D7
100
AcDbEntity
  8
STANDARDEBENE
 62
     7
100
AcDbVertex
100
AcDb2dVertex
 10
83.99418400677924
 20
148.5048027515023
 30
0.0
  0
VERTEX
  5
2D9
330
2D7
100
AcDbEntity
  8
STANDARDEBENE
 62
     7
100
AcDbVertex
100
AcDb2dVertex
 10
87.59430878886532
 20
147.0344359983976
 30
0.0
  0
SEQEND
  5
2DA
330
2D7
100
AcDbEntity
  8
STANDARDEBENE
  0
POLYLINE
  5
2DB
330
1F
100
AcDbEntity
  8
STANDARDEBENE
 62
     7
100
AcDb2dPolyline
 66
     1
 10
0.0
 20
0.0
 30
0.0
  0
VERTEX
  5
2DC
330
2DB
100
AcDbEntity
  8
STANDARDEBENE
 62
     7
100
AcDbVertex
100
AcDb2dVertex
 10
109.915082437799
 20
148.8653319940337
 30
0.0
  0
VERTEX
  5
2DD
330
2DB
100
AcDbEntity
  8
STANDARDEBENE
 62
     7
100
AcDbVertex
100
AcDb2dVertex
 10
109.915082437799
 20
149.0684203728892
 30
0.0
  0
SEQEND
  5
2DE
330
2DB
100
AcDbEntity
  8
STANDARDEBENE
  0
POLYLINE
  5
2DF
330
1F
100
AcDbEntity
  8
STANDARDEBENE
 62
     7
100
AcDb2dPolyline
 66
     1
 10
0.0
 20
0.0
 30
0.0
  0
VERTEX
  5
2E0
330
2DF
100
AcDbEntity
  8
STANDARDEBENE
 62
     7
100
AcDbVertex
100
AcDb2dVertex
 10
83.99418400677924
 20
152.541076622021
 30
0.0
  0
VERTEX
  5
2E1
330
2DF
100
AcDbEntity
  8
STANDARDEBENE
 62
     7
100
AcDbVertex
100
AcDb2dVertex
 10
86.50514185120358
 20
152.541076622021
 30
0.0
  0
VERTEX
  5
2E2
330
2DF
100
AcDbEntity
  8
STANDARDEBENE
 62
     7
100
AcDbVertex
100
AcDb2dVertex
 10
87.59430878886532
 20
152.541076622021
 30
0.0
  0
SEQEND
  5
2E3
330
2DF
100
AcDbEntity
  8
STANDARDEBENE
  0
POLYLINE
  5
2E4
330
1F
100
AcDbEntity
  8
STANDARDEBENE
 62
     7
100
AcDb2dPolyline
 66
     1
 10
0.0
 20
0.0
 30
0.0
  0
VERTEX
  5
2E5
330
2E4
100
AcDbEntity
  8
STANDARDEBENE
 62
     7
100
AcDbVertex
100
AcDb2dVertex
 10
104.1276665321278
 20
152.541076622021
 30
0.0
  0
VERTEX
  5
2E6
330
2E4
100
AcDbEntity
  8
STANDARDEBENE
 62
     7
100
AcDbVertex
100
AcDb2dVertex
 10
104.1545382769128
 20
152.6855983776272
 30
0.0
  0
SEQEND
  5
2E7
330
2E4
100
AcDbEntity
  8
STANDARDEBENE
  0
POLYLINE
  5
2E8
330
1F
100
AcDbEntity
  8
STANDARDEBENE
 62
     7
100
AcDb2dPolyline
 66
     1
 10
0.0
 20
0.0
 30
0.0
  0
VERTEX
  5
2E9
330
2E8
100
AcDbEntity
  8
STANDARDEBENE
 62
     7
100
AcDbVertex
100
AcDb2dVertex
 10
109.915082437799
 20
148.8653319940337
 30
0.0
  0
VERTEX
  5
2EA
330
2E8
100
AcDbEntity
  8
STANDARDEBENE
 62
     7
100
AcDbVertex
100
AcDb2dVertex
 10
109.915082437799
 20
148.0824340450106
 30
0.0
  0
VERTEX
  5
2EB
330
2E8
100
AcDbEntity
  8
STANDARDEBENE
 62
     7
100
AcDbVertex
100
AcDb2dVertex
 10
109.915082437799
 20
147.5920247026853
 30
0.0
  0
VERTEX
  5
2EC
330
2E8
100
AcDbEntity
  8
STANDARDEBENE
 62
     7
100
AcDbVertex
100
AcDb2dVertex
 10
109.915082437799
 20
147.425109826425
 30
0.0
  0
SEQEND
  5
2ED
330
2E8
100
AcDbEntity
  8
STANDARDEBENE
  0
POLYLINE
  5
2EE
330
1F
100
AcDbEntity
  8
STANDARDEBENE
 62
     7
100
AcDb2dPolyline
 66
     1
 10
0.0
 20
0.0
 30
0.0
  0
VERTEX
  5
2EF
330
2EE
100
AcDbEntity
  8
STANDARDEBENE
 62
     7
100
AcDbVertex
100
AcDb2dVertex
 10
90.91813691303436
 20
146.9772474133425
 30
0.0
  0
VERTEX
  5
2F0
330
2EE
100
AcDbEntity
  8
STANDARDEBENE
 62
     7
100
AcDbVertex
100
AcDb2dVertex
 10
104.7043755163586
 20
148.3477063973749
 30
0.0
  0
VERTEX
  5
2F1
330
2EE
100
AcDbEntity
  8
STANDARDEBENE
 62
     7
100
AcDbVertex
100
AcDb2dVertex
 10
109.915082437799
 20
148.8653319940337
 30
0.0
  0
SEQEND
  5
2F2
330
2EE
100
AcDbEntity
  8
STANDARDEBENE
  0
POLYLINE
  5
2F3
330
1F
100
AcDbEntity
  8
STANDARDEBENE
 62
     7
100
AcDb2dPolyline
 66
     1
 10
0.0
 20
0.0
 30
0.0
  0
VERTEX
  5
2F4
330
2F3
100
AcDbEntity
  8
STANDARDEBENE
 62
     7
100
AcDbVertex
100
AcDb2dVertex
 10
90.91813691303436
 20
146.9772474133425
 30
0.0
  0
VERTEX
  5
2F5
330
2F3
100
AcDbEntity
  8
STANDARDEBENE
 62
     7
100
AcDbVertex
100
AcDb2dVertex
 10
90.91813691303436
 20
145.7936848593849
 30
0.0
  0
VERTEX
  5
2F6
330
2F3
100
AcDbEntity
  8
STANDARDEBENE
 62
     7
100
AcDbVertex
100
AcDb2dVertex
 10
90.91813691303436
 20
145.0386921837924
 30
0.0
  0
VERTEX
  5
2F7
330
2F3
100
AcDbEntity
  8
STANDARDEBENE
 62
     7
100
AcDbVertex
100
AcDb2dVertex
 10
90.91813691303436
 20
144.7572278826475
 30
0.0
  0
VERTEX
  5
2F8
330
2F3
100
AcDbEntity
  8
STANDARDEBENE
 62
     7
100
AcDbVertex
100
AcDb2dVertex
 10
98.93125675695121
 20
145.8836018515499
 30
0.0
  0
VERTEX
  5
2F9
330
2F3
100
AcDbEntity
  8
STANDARDEBENE
 62
     7
100
AcDbVertex
100
AcDb2dVertex
 10
108.4367919650783
 20
147.2201266450526
 30
0.0
  0
VERTEX
  5
2FA
330
2F3
100
AcDbEntity
  8
STANDARDEBENE
 62
     7
100
AcDbVertex
100
AcDb2dVertex
 10
109.4517170950329
 20
147.3617200694964
 30
0.0
  0
VERTEX
  5
2FB
330
2F3
100
AcDbEntity
  8
STANDARDEBENE
 62
     7
100
AcDbVertex
100
AcDb2dVertex
 10
109.4527506236785
 20
147.3606865408508
 30
0.0
  0
SEQEND
  5
2FC
330
2F3
100
AcDbEntity
  8
STANDARDEBENE
  0
POLYLINE
  5
2FD
330
1F
100
AcDbEntity
  8
STANDARDEBENE
 62
     7
100
AcDb2dPolyline
 66
     1
 10
0.0
 20
0.0
 30
0.0
  0
VERTEX
  5
2FE
330
2FD
100
AcDbEntity
  8
STANDARDEBENE
 62
     7
100
AcDbVertex
100
AcDb2dVertex
 10
90.47458086930844
 20
157.8756347261561
 30
0.0
  0
VERTEX
  5
2FF
330
2FD
100
AcDbEntity
  8
STANDARDEBENE
 62
     7
100
AcDbVertex
100
AcDb2dVertex
 10
90.91813691303436
 20
158.1898274344109
 30
0.0
  0
SEQEND
  5
300
330
2FD
100
AcDbEntity
  8
STANDARDEBENE
  0
POLYLINE
  5
301
330
1F
100
AcDbEntity
  8
STANDARDEBENE
 62
     7
100
AcDb2dPolyline
 66
     1
 10
0.0
 20
0.0
 30
0.0
  0
VERTEX
  5
302
330
301
100
AcDbEntity
  8
STANDARDEBENE
 62
     7
100
AcDbVertex
100
AcDb2dVertex
 10
90.47458086930844
 20
157.8756347261561
 30
0.0
  0
VERTEX
  5
303
330
301
100
AcDbEntity
  8
STANDARDEBENE
 62
     7
100
AcDbVertex
100
AcDb2dVertex
 10
90.47458086930844
 20
156.3858031835598
 30
0.0
  0
VERTEX
  5
304
330
301
100
AcDbEntity
  8
STANDARDEBENE
 62
     7
100
AcDbVertex
100
AcDb2dVertex
 10
90.47458086930844
 20
154.6689398484855
 30
0.0
  0
VERTEX
  5
305
330
301
100
AcDbEntity
  8
STANDARDEBENE
 62
     7
100
AcDbVertex
100
AcDb2dVertex
 10
90.47458086930844
 20
152.8294311141364
 30
0.0
  0
SEQEND
  5
306
330
301
100
AcDbEntity
  8
STANDARDEBENE
  0
POLYLINE
  5
307
330
1F
100
AcDbEntity
  8
STANDARDEBENE
 62
     7
100
AcDb2dPolyline
 66
     1
 10
0.0
 20
0.0
 30
0.0
  0
VERTEX
  5
308
330
307
100
AcDbEntity
  8
STANDARDEBENE
 62
     7
100
AcDbVertex
100
AcDb2dVertex
 10
87.59430878886532
 20
157.215382176408
 30
0.0
  0
VERTEX
  5
309
330
307
100
AcDbEntity
  8
STANDARDEBENE
 62
     7
100
AcDbVertex
100
AcDb2dVertex
 10
90.47458086930844
 20
157.215382176408
 30
0.0
  0
SEQEND
  5
30A
330
307
100
AcDbEntity
  8
STANDARDEBENE
  0
POLYLINE
  5
30B
330
1F
100
AcDbEntity
  8
STANDARDEBENE
 62
     7
100
AcDb2dPolyline
 66
     1
 10
0.0
 20
0.0
 30
0.0
  0
VERTEX
  5
30C
330
30B
100
AcDbEntity
  8
STANDARDEBENE
 62
     7
100
AcDbVertex
100
AcDb2dVertex
 10
87.59430878886532
 20
152.8294311141364
 30
0.0
  0
VERTEX
  5
30D
330
30B
100
AcDbEntity
  8
STANDARDEBENE
 62
     7
100
AcDbVertex
100
AcDb2dVertex
 10
90.47458086930844
 20
152.8294311141364
 30
0.0
  0
VERTEX
  5
30E
330
30B
100
AcDbEntity
  8
STANDARDEBENE
 62
     7
100
AcDbVertex
100
AcDb2dVertex
 10
90.91813691303436
 20
152.8294311141364
 30
0.0
  0
SEQEND
  5
30F
330
30B
100
AcDbEntity
  8
STANDARDEBENE
  0
POLYLINE
  5
310
330
1F
100
AcDbEntity
  8
STANDARDEBENE
 62
     7
100
AcDb2dPolyline
 66
     1
 10
0.0
 20
0.0
 30
0.0
  0
VERTEX
  5
311
330
310
100
AcDbEntity
  8
STANDARDEBENE
 62
     7
100
AcDbVertex
100
AcDb2dVertex
 10
87.59430878886532
 20
158.3350382091142
 30
0.0
  0
VERTEX
  5
312
330
310
100
AcDbEntity
  8
STANDARDEBENE
 62
     7
100
AcDbVertex
100
AcDb2dVertex
 10
87.59430878886532
 20
156.7113647069159
 30
0.0
  0
VERTEX
  5
313
330
310
100
AcDbEntity
  8
STANDARDEBENE
 62
     7
100
AcDbVertex
100
AcDb2dVertex
 10
87.59430878886532
 20
154.8375772724885
 30
0.0
  0
VERTEX
  5
314
330
310
100
AcDbEntity
  8
STANDARDEBENE
 62
     7
100
AcDbVertex
100
AcDb2dVertex
 10
87.59430878886532
 20
152.8294311141364
 30
0.0
  0
SEQEND
  5
315
330
310
100
AcDbEntity
  8
STANDARDEBENE
  0
POLYLINE
  5
316
330
1F
100
AcDbEntity
  8
STANDARDEBENE
 62
     7
100
AcDb2dPolyline
 66
     1
 10
0.0
 20
0.0
 30
0.0
  0
VERTEX
  5
317
330
316
100
AcDbEntity
  8
STANDARDEBENE
 62
     7
100
AcDbVertex
100
AcDb2dVertex
 10
83.99418400677924
 20
156.8653604751066
 30
0.0
  0
VERTEX
  5
318
330
316
100
AcDbEntity
  8
STANDARDEBENE
 62
     7
100
AcDbVertex
100
AcDb2dVertex
 10
87.59430878886532
 20
158.3350382091142
 30
0.0
  0
SEQEND
  5
319
330
316
100
AcDbEntity
  8
STANDARDEBENE
  0
POLYLINE
  5
31A
330
1F
100
AcDbEntity
  8
STANDARDEBENE
 62
     7
100
AcDb2dPolyline
 66
     1
 10
0.0
 20
0.0
 30
0.0
  0
VERTEX
  5
31B
330
31A
100
AcDbEntity
  8
STANDARDEBENE
 62
     7
100
AcDbVertex
100
AcDb2dVertex
 10
83.99418400677924
 20
152.8294311141364
 30
0.0
  0
VERTEX
  5
31C
330
31A
100
AcDbEntity
  8
STANDARDEBENE
 62
     7
100
AcDbVertex
100
AcDb2dVertex
 10
86.50514185120358
 20
152.8294311141364
 30
0.0
  0
VERTEX
  5
31D
330
31A
100
AcDbEntity
  8
STANDARDEBENE
 62
     7
100
AcDbVertex
100
AcDb2dVertex
 10
87.59430878886532
 20
152.8294311141364
 30
0.0
  0
SEQEND
  5
31E
330
31A
100
AcDbEntity
  8
STANDARDEBENE
  0
POLYLINE
  5
31F
330
1F
100
AcDbEntity
  8
STANDARDEBENE
 62
     7
100
AcDb2dPolyline
 66
     1
 10
0.0
 20
0.0
 30
0.0
  0
VERTEX
  5
320
330
31F
100
AcDbEntity
  8
STANDARDEBENE
 62
     7
100
AcDbVertex
100
AcDb2dVertex
 10
90.47458086930844
 20
147.4953897743241
 30
0.0
  0
VERTEX
  5
321
330
31F
100
AcDbEntity
  8
STANDARDEBENE
 62
     7
100
AcDbVertex
100
AcDb2dVertex
 10
90.47458086930844
 20
147.2909233572745
 30
0.0
  0
VERTEX
  5
322
330
31F
100
AcDbEntity
  8
STANDARDEBENE
 62
     7
100
AcDbVertex
100
AcDb2dVertex
 10
90.91813691303436
 20
146.9772474133425
 30
0.0
  0
SEQEND
  5
323
330
31F
100
AcDbEntity
  8
STANDARDEBENE
  0
POLYLINE
  5
324
330
1F
100
AcDbEntity
  8
STANDARDEBENE
 62
     7
100
AcDb2dPolyline
 66
     1
 10
0.0
 20
0.0
 30
0.0
  0
VERTEX
  5
325
330
324
100
AcDbEntity
  8
STANDARDEBENE
 62
     7
100
AcDbVertex
100
AcDb2dVertex
 10
87.59430878886532
 20
147.9510036522484
 30
0.0
  0
VERTEX
  5
326
330
324
100
AcDbEntity
  8
STANDARDEBENE
 62
     7
100
AcDbVertex
100
AcDb2dVertex
 10
90.47458086930844
 20
147.9510036522484
 30
0.0
  0
SEQEND
  5
327
330
324
100
AcDbEntity
  8
STANDARDEBENE
  0
POLYLINE
  5
328
330
1F
100
AcDbEntity
  8
STANDARDEBENE
 62
     7
100
AcDb2dPolyline
 66
     1
 10
0.0
 20
0.0
 30
0.0
  0
VERTEX
  5
329
330
328
100
AcDbEntity
  8
STANDARDEBENE
 62
     7
100
AcDbVertex
100
AcDb2dVertex
 10
90.47458086930844
 20
147.2909233572745
 30
0.0
  0
VERTEX
  5
32A
330
328
100
AcDbEntity
  8
STANDARDEBENE
 62
     7
100
AcDbVertex
100
AcDb2dVertex
 10
90.47458086930844
 20
146.1793632989586
 30
0.0
  0
VERTEX
  5
32B
330
328
100
AcDbEntity
  8
STANDARDEBENE
 62
     7
100
AcDbVertex
100
AcDb2dVertex
 10
90.47458086930844
 20
145.4667452978347
 30
0.0
  0
VERTEX
  5
32C
330
328
100
AcDbEntity
  8
STANDARDEBENE
 62
     7
100
AcDbVertex
100
AcDb2dVertex
 10
90.47458086930844
 20
145.2007839263734
 30
0.0
  0
SEQEND
  5
32D
330
328
100
AcDbEntity
  8
STANDARDEBENE
  0
POLYLINE
  5
32E
330
1F
100
AcDbEntity
  8
STANDARDEBENE
 62
     7
100
AcDb2dPolyline
 66
     1
 10
0.0
 20
0.0
 30
0.0
  0
VERTEX
  5
32F
330
32E
100
AcDbEntity
  8
STANDARDEBENE
 62
     7
100
AcDbVertex
100
AcDb2dVertex
 10
87.59430878886532
 20
146.1349215671989
 30
0.0
  0
VERTEX
  5
330
330
32E
100
AcDbEntity
  8
STANDARDEBENE
 62
     7
100
AcDbVertex
100
AcDb2dVertex
 10
90.47458086930844
 20
146.1349215671989
 30
0.0
  0
SEQEND
  5
331
330
32E
100
AcDbEntity
  8
STANDARDEBENE
  0
POLYLINE
  5
332
330
1F
100
AcDbEntity
  8
STANDARDEBENE
 62
     7
100
AcDb2dPolyline
 66
     1
 10
0.0
 20
0.0
 30
0.0
  0
VERTEX
  5
333
330
332
100
AcDbEntity
  8
STANDARDEBENE
 62
     7
100
AcDbVertex
100
AcDb2dVertex
 10
87.59430878886532
 20
146.8313476195422
 30
0.0
  0
VERTEX
  5
334
330
332
100
AcDbEntity
  8
STANDARDEBENE
 62
     7
100
AcDbVertex
100
AcDb2dVertex
 10
87.59430878886532
 20
147.0344359983976
 30
0.0
  0
SEQEND
  5
335
330
332
100
AcDbEntity
  8
STANDARDEBENE
  0
POLYLINE
  5
336
330
1F
100
AcDbEntity
  8
STANDARDEBENE
 62
     7
100
AcDb2dPolyline
 66
     1
 10
0.0
 20
0.0
 30
0.0
  0
VERTEX
  5
337
330
336
100
AcDbEntity
  8
STANDARDEBENE
 62
     7
100
AcDbVertex
100
AcDb2dVertex
 10
90.47458086930844
 20
145.2007839263734
 30
0.0
  0
VERTEX
  5
338
330
336
100
AcDbEntity
  8
STANDARDEBENE
 62
     7
100
AcDbVertex
100
AcDb2dVertex
 10
90.91813691303436
 20
144.7572278826475
 30
0.0
  0
SEQEND
  5
339
330
336
100
AcDbEntity
  8
STANDARDEBENE
  0
POLYLINE
  5
33A
330
1F
100
AcDbEntity
  8
STANDARDEBENE
 62
     7
100
AcDb2dPolyline
 66
     1
 10
0.0
 20
0.0
 30
0.0
  0
VERTEX
  5
33B
330
33A
100
AcDbEntity
  8
STANDARDEBENE
 62
     7
100
AcDbVertex
100
AcDb2dVertex
 10
87.59430878886532
 20
146.8313476195422
 30
0.0
  0
VERTEX
  5
33C
330
33A
100
AcDbEntity
  8
STANDARDEBENE
 62
     7
100
AcDbVertex
100
AcDb2dVertex
 10
87.59430878886532
 20
145.615228913249
 30
0.0
  0
VERTEX
  5
33D
330
33A
100
AcDbEntity
  8
STANDARDEBENE
 62
     7
100
AcDbVertex
100
AcDb2dVertex
 10
87.59430878886532
 20
144.8381876265509
 30
0.0
  0
VERTEX
  5
33E
330
33A
100
AcDbEntity
  8
STANDARDEBENE
 62
     7
100
AcDbVertex
100
AcDb2dVertex
 10
87.59430878886532
 20
144.5505221535325
 30
0.0
  0
SEQEND
  5
33F
330
33A
100
AcDbEntity
  8
STANDARDEBENE
  0
POLYLINE
  5
340
330
1F
100
AcDbEntity
  8
STANDARDEBENE
 62
     7
100
AcDb2dPolyline
 66
     1
 10
0.0
 20
0.0
 30
0.0
  0
VERTEX
  5
341
330
340
100
AcDbEntity
  8
STANDARDEBENE
 62
     7
100
AcDbVertex
100
AcDb2dVertex
 10
83.99418400677924
 20
148.3015421178725
 30
0.0
  0
VERTEX
  5
342
330
340
100
AcDbEntity
  8
STANDARDEBENE
 62
     7
100
AcDbVertex
100
AcDb2dVertex
 10
87.59430878886532
 20
146.8313476195422
 30
0.0
  0
SEQEND
  5
343
330
340
100
AcDbEntity
  8
STANDARDEBENE
  0
POLYLINE
  5
344
330
1F
100
AcDbEntity
  8
STANDARDEBENE
 62
     7
100
AcDb2dPolyline
 66
     1
 10
0.0
 20
0.0
 30
0.0
  0
VERTEX
  5
345
330
344
100
AcDbEntity
  8
STANDARDEBENE
 62
     7
100
AcDbVertex
100
AcDb2dVertex
 10
83.99418400677924
 20
146.629120514558
 30
0.0
  0
VERTEX
  5
346
330
344
100
AcDbEntity
  8
STANDARDEBENE
 62
     7
100
AcDbVertex
100
AcDb2dVertex
 10
84.32422415426618
 20
146.4387789889979
 30
0.0
  0
VERTEX
  5
347
330
344
100
AcDbEntity
  8
STANDARDEBENE
 62
     7
100
AcDbVertex
100
AcDb2dVertex
 10
87.59430878886532
 20
144.5505221535325
 30
0.0
  0
SEQEND
  5
348
330
344
100
AcDbEntity
  8
STANDARDEBENE
  0
POLYLINE
  5
349
330
1F
100
AcDbEntity
  8
STANDARDEBENE
 62
     7
100
AcDb2dPolyline
 66
     1
 10
0.0
 20
0.0
 30
0.0
  0
VERTEX
  5
34A
330
349
100
AcDbEntity
  8
STANDARDEBENE
 62
     7
100
AcDbVertex
100
AcDb2dVertex
 10
104.1276665321278
 20
152.8294311141364
 30
0.0
  0
VERTEX
  5
34B
330
349
100
AcDbEntity
  8
STANDARDEBENE
 62
     7
100
AcDbVertex
100
AcDb2dVertex
 10
104.1545382769128
 20
152.6855983776272
 30
0.0
  0
SEQEND
  5
34C
330
349
100
AcDbEntity
  8
STANDARDEBENE
  0
POLYLINE
  5
34D
330
1F
100
AcDbEntity
  8
STANDARDEBENE
 62
     7
100
AcDb2dPolyline
 66
     1
 10
0.0
 20
0.0
 30
0.0
  0
VERTEX
  5
34E
330
34D
100
AcDbEntity
  8
STANDARDEBENE
 62
     7
100
AcDbVertex
100
AcDb2dVertex
 10
104.1545382769128
 20
152.541076622021
 30
0.0
  0
VERTEX
  5
34F
330
34D
100
AcDbEntity
  8
STANDARDEBENE
 62
     7
100
AcDbVertex
100
AcDb2dVertex
 10
104.1545382769128
 20
152.6855983776272
 30
0.0
  0
SEQEND
  5
350
330
34D
100
AcDbEntity
  8
STANDARDEBENE
  0
POLYLINE
  5
351
330
1F
100
AcDbEntity
  8
STANDARDEBENE
 62
     7
100
AcDb2dPolyline
 66
     1
 10
0.0
 20
0.0
 30
0.0
  0
VERTEX
  5
352
330
351
100
AcDbEntity
  8
STANDARDEBENE
 62
     7
100
AcDbVertex
100
AcDb2dVertex
 10
104.1545382769128
 20
152.8294311141364
 30
0.0
  0
VERTEX
  5
353
330
351
100
AcDbEntity
  8
STANDARDEBENE
 62
     7
100
AcDbVertex
100
AcDb2dVertex
 10
104.1545382769128
 20
152.6855983776272
 30
0.0
  0
SEQEND
  5
354
330
351
100
AcDbEntity
  8
STANDARDEBENE
  0
POLYLINE
  5
355
330
1F
100
AcDbEntity
  8
STANDARDEBENE
 62
     7
100
AcDb2dPolyline
 66
     1
 10
0.0
 20
0.0
 30
0.0
  0
VERTEX
  5
356
330
355
100
AcDbEntity
  8
STANDARDEBENE
 62
     7
100
AcDbVertex
100
AcDb2dVertex
 10
99.8342162836352
 20
149.8085991378951
 30
0.0
  0
VERTEX
  5
357
330
355
100
AcDbEntity
  8
STANDARDEBENE
 62
     7
100
AcDbVertex
100
AcDb2dVertex
 10
99.04270559589905
 20
149.8085991378951
 30
0.0
  0
SEQEND
  5
358
330
355
100
AcDbEntity
  8
STANDARDEBENE
  0
POLYLINE
  5
359
330
1F
100
AcDbEntity
  8
STANDARDEBENE
 62
     7
100
AcDb2dPolyline
 66
     1
 10
0.0
 20
0.0
 30
0.0
  0
VERTEX
  5
35A
330
359
100
AcDbEntity
  8
STANDARDEBENE
 62
     7
100
AcDbVertex
100
AcDb2dVertex
 10
97.45847843700692
 20
149.8085991378951
 30
0.0
  0
VERTEX
  5
35B
330
359
100
AcDbEntity
  8
STANDARDEBENE
 62
     7
100
AcDbVertex
100
AcDb2dVertex
 10
95.8745957876633
 20
149.8085991378951
 30
0.0
  0
SEQEND
  5
35C
330
359
100
AcDbEntity
  8
STANDARDEBENE
  0
POLYLINE
  5
35D
330
1F
100
AcDbEntity
  8
STANDARDEBENE
 62
     7
100
AcDb2dPolyline
 66
     1
 10
0.0
 20
0.0
 30
0.0
  0
VERTEX
  5
35E
330
35D
100
AcDbEntity
  8
STANDARDEBENE
 62
     7
100
AcDbVertex
100
AcDb2dVertex
 10
94.29071313831969
 20
149.8085991378951
 30
0.0
  0
VERTEX
  5
35F
330
35D
100
AcDbEntity
  8
STANDARDEBENE
 62
     7
100
AcDbVertex
100
AcDb2dVertex
 10
92.70631372465328
 20
149.8085991378951
 30
0.0
  0
SEQEND
  5
360
330
35D
100
AcDbEntity
  8
STANDARDEBENE
  0
POLYLINE
  5
361
330
1F
100
AcDbEntity
  8
STANDARDEBENE
 62
     7
100
AcDb2dPolyline
 66
     1
 10
0.0
 20
0.0
 30
0.0
  0
VERTEX
  5
362
330
361
100
AcDbEntity
  8
STANDARDEBENE
 62
     7
100
AcDbVertex
100
AcDb2dVertex
 10
84.7865559683867
 20
149.8085991378951
 30
0.0
  0
VERTEX
  5
363
330
361
100
AcDbEntity
  8
STANDARDEBENE
 62
     7
100
AcDbVertex
100
AcDb2dVertex
 10
83.99418400677924
 20
149.8085991378951
 30
0.0
  0
SEQEND
  5
364
330
361
100
AcDbEntity
  8
STANDARDEBENE
  0
POLYLINE
  5
366
330
1F
100
AcDbEntity
  8
EBENE_2
 62
     7
100
AcDb2dPolyline
 66
     1
 10
0.0
 20
0.0
 30
0.0
  0
VERTEX
  5
367
330
366
100
AcDbEntity
  8
EBENE_2
 62
     7
100
AcDbVertex
100
AcDb2dVertex
 10
86.5225395834041
 20
155.5670762414902
 30
0.0
  0
VERTEX
  5
368
330
366
100
AcDbEntity
  8
EBENE_2
 62
     7
100
AcDbVertex
100
AcDb2dVertex
 10
74.78992239883725
 20
155.5670762414902
 30
0.0
  0
SEQEND
  5
369
330
366
100
AcDbEntity
  8
EBENE_2
  0
POLYLINE
  5
36A
330
1F
100
AcDbEntity
  8
EBENE_2
 62
     7
100
AcDb2dPolyline
 66
     1
 10
0.0
 20
0.0
 30
0.0
  0
VERTEX
  5
36B
330
36A
100
AcDbEntity
  8
EBENE_2
 62
     7
100
AcDbVertex
100
AcDb2dVertex
 10
86.5225395834041
 20
149.8096326665407
 30
0.0
  0
VERTEX
  5
36C
330
36A
100
AcDbEntity
  8
EBENE_2
 62
     7
100
AcDbVertex
100
AcDb2dVertex
 10
74.78992239883725
 20
149.8096326665407
 30
0.0
  0
SEQEND
  5
36D
330
36A
100
AcDbEntity
  8
EBENE_2
  0
POLYLINE
  5
36E
330
1F
100
AcDbEntity
  8
EBENE_2
 62
     7
100
AcDb2dPolyline
 66
     1
 10
0.0
 20
0.0
 30
0.0
  0
VERTEX
  5
36F
330
36E
100
AcDbEntity
  8
EBENE_2
 62
     7
100
AcDbVertex
100
AcDb2dVertex
 10
76.8066812959025
 20
160.4088134364603
 30
0.0
  0
VERTEX
  5
370
330
36E
100
AcDbEntity
  8
EBENE_2
 62
     7
100
AcDbVertex
100
AcDb2dVertex
 10
76.8066812959025
 20
144.7241549659891
 30
0.0
  0
SEQEND
  5
371
330
36E
100
AcDbEntity
  8
EBENE_2
  0
POLYLINE
  5
372
330
1F
100
AcDbEntity
  8
EBENE_2
 62
     7
100
AcDb2dPolyline
 66
     1
 10
0.0
 20
0.0
 30
0.0
  0
VERTEX
  5
373
330
372
100
AcDbEntity
  8
EBENE_2
 62
     7
100
AcDbVertex
100
AcDb2dVertex
 10
76.80840384364512
 20
155.5979098460832
 30
0.0
  0
VERTEX
  5
374
330
372
100
AcDbEntity
  8
EBENE_2
 62
     7
100
AcDbVertex
100
AcDb2dVertex
 10
77.06902531710428
 20
157.5779784762305
 30
0.0
  0
VERTEX
  5
375
330
372
100
AcDbEntity
  8
EBENE_2
 62
     7
100
AcDbVertex
100
AcDb2dVertex
 10
76.5481268797345
 20
157.5779784762305
 30
0.0
  0
VERTEX
  5
376
330
372
100
AcDbEntity
  8
EBENE_2
 62
     7
100
AcDbVertex
100
AcDb2dVertex
 10
76.80840384364512
 20
155.5979098460832
 30
0.0
  0
SEQEND
  5
377
330
372
100
AcDbEntity
  8
EBENE_2
  0
POLYLINE
  5
378
330
1F
100
AcDbEntity
  8
EBENE_2
 62
     7
100
AcDb2dPolyline
 66
     1
 10
0.0
 20
0.0
 30
0.0
  0
VERTEX
  5
379
330
378
100
AcDbEntity
  8
EBENE_2
 62
     7
100
AcDbVertex
100
AcDb2dVertex
 10
77.05024954670967
 20
157.5779784762305
 30
0.0
  0
VERTEX
  5
37A
330
378
100
AcDbEntity
  8
EBENE_2
 62
     7
100
AcDbVertex
100
AcDb2dVertex
 10
77.05024954670967
 20
157.4315619181074
 30
0.0
  0
SEQEND
  5
37B
330
378
100
AcDbEntity
  8
EBENE_2
  0
POLYLINE
  5
37C
330
1F
100
AcDbEntity
  8
EBENE_2
 62
     7
100
AcDb2dPolyline
 66
     1
 10
0.0
 20
0.0
 30
0.0
  0
VERTEX
  5
37D
330
37C
100
AcDbEntity
  8
EBENE_2
 62
     7
100
AcDbVertex
100
AcDb2dVertex
 10
77.05024954670967
 20
157.5779784762305
 30
0.0
  0
VERTEX
  5
37E
330
37C
100
AcDbEntity
  8
EBENE_2
 62
     7
100
AcDbVertex
100
AcDb2dVertex
 10
77.05024954670967
 20
157.4315619181074
 30
0.0
  0
SEQEND
  5
37F
330
37C
100
AcDbEntity
  8
EBENE_2
  0
POLYLINE
  5
380
330
1F
100
AcDbEntity
  8
EBENE_2
 62
     7
100
AcDb2dPolyline
 66
     1
 10
0.0
 20
0.0
 30
0.0
  0
VERTEX
  5
381
330
380
100
AcDbEntity
  8
EBENE_2
 62
     7
100
AcDbVertex
100
AcDb2dVertex
 10
77.00942516520945
 20
157.5779784762305
 30
0.0
  0
VERTEX
  5
382
330
380
100
AcDbEntity
  8
EBENE_2
 62
     7
100
AcDbVertex
100
AcDb2dVertex
 10
77.00942516520945
 20
157.1259819485657
 30
0.0
  0
SEQEND
  5
383
330
380
100
AcDbEntity
  8
EBENE_2
  0
POLYLINE
  5
384
330
1F
100
AcDbEntity
  8
EBENE_2
 62
     7
100
AcDb2dPolyline
 66
     1
 10
0.0
 20
0.0
 30
0.0
  0
VERTEX
  5
385
330
384
100
AcDbEntity
  8
EBENE_2
 62
     7
100
AcDbVertex
100
AcDb2dVertex
 10
76.96911754803203
 20
157.5779784762305
 30
0.0
  0
VERTEX
  5
386
330
384
100
AcDbEntity
  8
EBENE_2
 62
     7
100
AcDbVertex
100
AcDb2dVertex
 10
76.96911754803203
 20
156.8205742337983
 30
0.0
  0
SEQEND
  5
387
330
384
100
AcDbEntity
  8
EBENE_2
  0
POLYLINE
  5
388
330
1F
100
AcDbEntity
  8
EBENE_2
 62
     7
100
AcDb2dPolyline
 66
     1
 10
0.0
 20
0.0
 30
0.0
  0
VERTEX
  5
389
330
388
100
AcDbEntity
  8
EBENE_2
 62
     7
100
AcDbVertex
100
AcDb2dVertex
 10
76.9293266951774
 20
157.5779784762305
 30
0.0
  0
VERTEX
  5
38A
330
388
100
AcDbEntity
  8
EBENE_2
 62
     7
100
AcDbVertex
100
AcDb2dVertex
 10
76.9293266951774
 20
156.5149942642567
 30
0.0
  0
SEQEND
  5
38B
330
388
100
AcDbEntity
  8
EBENE_2
  0
POLYLINE
  5
38C
330
1F
100
AcDbEntity
  8
EBENE_2
 62
     7
100
AcDb2dPolyline
 66
     1
 10
0.0
 20
0.0
 30
0.0
  0
VERTEX
  5
38D
330
38C
100
AcDbEntity
  8
EBENE_2
 62
     7
100
AcDbVertex
100
AcDb2dVertex
 10
76.88919133277423
 20
157.5779784762305
 30
0.0
  0
VERTEX
  5
38E
330
38C
100
AcDbEntity
  8
EBENE_2
 62
     7
100
AcDbVertex
100
AcDb2dVertex
 10
76.88919133277423
 20
156.2092420399408
 30
0.0
  0
SEQEND
  5
38F
330
38C
100
AcDbEntity
  8
EBENE_2
  0
POLYLINE
  5
390
330
1F
100
AcDbEntity
  8
EBENE_2
 62
     7
100
AcDb2dPolyline
 66
     1
 10
0.0
 20
0.0
 30
0.0
  0
VERTEX
  5
391
330
390
100
AcDbEntity
  8
EBENE_2
 62
     7
100
AcDbVertex
100
AcDb2dVertex
 10
76.84871146082254
 20
157.5779784762305
 30
0.0
  0
VERTEX
  5
392
330
390
100
AcDbEntity
  8
EBENE_2
 62
     7
100
AcDbVertex
100
AcDb2dVertex
 10
76.84871146082254
 20
155.9036620703991
 30
0.0
  0
SEQEND
  5
393
330
390
100
AcDbEntity
  8
EBENE_2
  0
POLYLINE
  5
394
330
1F
100
AcDbEntity
  8
EBENE_2
 62
     7
100
AcDb2dPolyline
 66
     1
 10
0.0
 20
0.0
 30
0.0
  0
VERTEX
  5
395
330
394
100
AcDbEntity
  8
EBENE_2
 62
     7
100
AcDbVertex
100
AcDb2dVertex
 10
76.80840384364512
 20
157.5779784762305
 30
0.0
  0
VERTEX
  5
396
330
394
100
AcDbEntity
  8
EBENE_2
 62
     7
100
AcDbVertex
100
AcDb2dVertex
 10
76.80840384364512
 20
155.5979098460832
 30
0.0
  0
SEQEND
  5
397
330
394
100
AcDbEntity
  8
EBENE_2
  0
POLYLINE
  5
398
330
1F
100
AcDbEntity
  8
EBENE_2
 62
     7
100
AcDb2dPolyline
 66
     1
 10
0.0
 20
0.0
 30
0.0
  0
VERTEX
  5
399
330
398
100
AcDbEntity
  8
EBENE_2
 62
     7
100
AcDbVertex
100
AcDb2dVertex
 10
76.56690265012911
 20
157.5779784762305
 30
0.0
  0
VERTEX
  5
39A
330
398
100
AcDbEntity
  8
EBENE_2
 62
     7
100
AcDbVertex
100
AcDb2dVertex
 10
76.56690265012911
 20
157.4315619181074
 30
0.0
  0
SEQEND
  5
39B
330
398
100
AcDbEntity
  8
EBENE_2
  0
POLYLINE
  5
39C
330
1F
100
AcDbEntity
  8
EBENE_2
 62
     7
100
AcDb2dPolyline
 66
     1
 10
0.0
 20
0.0
 30
0.0
  0
VERTEX
  5
39D
330
39C
100
AcDbEntity
  8
EBENE_2
 62
     7
100
AcDbVertex
100
AcDb2dVertex
 10
76.56690265012911
 20
157.5779784762305
 30
0.0
  0
VERTEX
  5
39E
330
39C
100
AcDbEntity
  8
EBENE_2
 62
     7
100
AcDbVertex
100
AcDb2dVertex
 10
76.56690265012911
 20
157.4315619181074
 30
0.0
  0
SEQEND
  5
39F
330
39C
100
AcDbEntity
  8
EBENE_2
  0
POLYLINE
  5
3A0
330
1F
100
AcDbEntity
  8
EBENE_2
 62
     7
100
AcDb2dPolyline
 66
     1
 10
0.0
 20
0.0
 30
0.0
  0
VERTEX
  5
3A1
330
3A0
100
AcDbEntity
  8
EBENE_2
 62
     7
100
AcDbVertex
100
AcDb2dVertex
 10
76.60703801253227
 20
157.5779784762305
 30
0.0
  0
VERTEX
  5
3A2
330
3A0
100
AcDbEntity
  8
EBENE_2
 62
     7
100
AcDbVertex
100
AcDb2dVertex
 10
76.60703801253227
 20
157.1259819485657
 30
0.0
  0
SEQEND
  5
3A3
330
3A0
100
AcDbEntity
  8
EBENE_2
  0
POLYLINE
  5
3A4
330
1F
100
AcDbEntity
  8
EBENE_2
 62
     7
100
AcDb2dPolyline
 66
     1
 10
0.0
 20
0.0
 30
0.0
  0
VERTEX
  5
3A5
330
3A4
100
AcDbEntity
  8
EBENE_2
 62
     7
100
AcDbVertex
100
AcDb2dVertex
 10
76.64769013925822
 20
157.5779784762305
 30
0.0
  0
VERTEX
  5
3A6
330
3A4
100
AcDbEntity
  8
EBENE_2
 62
     7
100
AcDbVertex
100
AcDb2dVertex
 10
76.64769013925822
 20
156.8205742337983
 30
0.0
  0
SEQEND
  5
3A7
330
3A4
100
AcDbEntity
  8
EBENE_2
  0
POLYLINE
  5
3A8
330
1F
100
AcDbEntity
  8
EBENE_2
 62
     7
100
AcDb2dPolyline
 66
     1
 10
0.0
 20
0.0
 30
0.0
  0
VERTEX
  5
3A9
330
3A8
100
AcDbEntity
  8
EBENE_2
 62
     7
100
AcDbVertex
100
AcDb2dVertex
 10
76.68799775643565
 20
157.5779784762305
 30
0.0
  0
VERTEX
  5
3AA
330
3A8
100
AcDbEntity
  8
EBENE_2
 62
     7
100
AcDbVertex
100
AcDb2dVertex
 10
76.68799775643565
 20
156.5149942642567
 30
0.0
  0
SEQEND
  5
3AB
330
3A8
100
AcDbEntity
  8
EBENE_2
  0
POLYLINE
  5
3AC
330
1F
100
AcDbEntity
  8
EBENE_2
 62
     7
100
AcDb2dPolyline
 66
     1
 10
0.0
 20
0.0
 30
0.0
  0
VERTEX
  5
3AD
330
3AC
100
AcDbEntity
  8
EBENE_2
 62
     7
100
AcDbVertex
100
AcDb2dVertex
 10
76.7281331188388
 20
157.5779784762305
 30
0.0
  0
VERTEX
  5
3AE
330
3AC
100
AcDbEntity
  8
EBENE_2
 62
     7
100
AcDbVertex
100
AcDb2dVertex
 10
76.7281331188388
 20
156.2092420399408
 30
0.0
  0
SEQEND
  5
3AF
330
3AC
100
AcDbEntity
  8
EBENE_2
  0
POLYLINE
  5
3B0
330
1F
100
AcDbEntity
  8
EBENE_2
 62
     7
100
AcDb2dPolyline
 66
     1
 10
0.0
 20
0.0
 30
0.0
  0
VERTEX
  5
3B1
330
3B0
100
AcDbEntity
  8
EBENE_2
 62
     7
100
AcDbVertex
100
AcDb2dVertex
 10
76.7680962264677
 20
157.5779784762305
 30
0.0
  0
VERTEX
  5
3B2
330
3B0
100
AcDbEntity
  8
EBENE_2
 62
     7
100
AcDbVertex
100
AcDb2dVertex
 10
76.7680962264677
 20
155.9036620703991
 30
0.0
  0
SEQEND
  5
3B3
330
3B0
100
AcDbEntity
  8
EBENE_2
  0
POLYLINE
  5
3B4
330
1F
100
AcDbEntity
  8
EBENE_2
 62
     7
100
AcDb2dPolyline
 66
     1
 10
0.0
 20
0.0
 30
0.0
  0
VERTEX
  5
3B5
330
3B4
100
AcDbEntity
  8
EBENE_2
 62
     7
100
AcDbVertex
100
AcDb2dVertex
 10
76.80840384364512
 20
157.5779784762305
 30
0.0
  0
VERTEX
  5
3B6
330
3B4
100
AcDbEntity
  8
EBENE_2
 62
     7
100
AcDbVertex
100
AcDb2dVertex
 10
76.80840384364512
 20
155.5979098460832
 30
0.0
  0
SEQEND
  5
3B7
330
3B4
100
AcDbEntity
  8
EBENE_2
  0
POLYLINE
  5
3B8
330
1F
100
AcDbEntity
  8
EBENE_2
 62
     7
100
AcDb2dPolyline
 66
     1
 10
0.0
 20
0.0
 30
0.0
  0
VERTEX
  5
3B9
330
3B8
100
AcDbEntity
  8
EBENE_2
 62
     7
100
AcDbVertex
100
AcDb2dVertex
 10
76.81133217480759
 20
149.7631238774898
 30
0.0
  0
VERTEX
  5
3BA
330
3B8
100
AcDbEntity
  8
EBENE_2
 62
     7
100
AcDbVertex
100
AcDb2dVertex
 10
76.55105521089696
 20
147.7832275021167
 30
0.0
  0
VERTEX
  5
3BB
330
3B8
100
AcDbEntity
  8
EBENE_2
 62
     7
100
AcDbVertex
100
AcDb2dVertex
 10
77.07195364826674
 20
147.7832275021167
 30
0.0
  0
VERTEX
  5
3BC
330
3B8
100
AcDbEntity
  8
EBENE_2
 62
     7
100
AcDbVertex
100
AcDb2dVertex
 10
76.81133217480759
 20
149.7631238774898
 30
0.0
  0
SEQEND
  5
3BD
330
3B8
100
AcDbEntity
  8
EBENE_2
  0
POLYLINE
  5
3BE
330
1F
100
AcDbEntity
  8
EBENE_2
 62
     7
100
AcDb2dPolyline
 66
     1
 10
0.0
 20
0.0
 30
0.0
  0
VERTEX
  5
3BF
330
3BE
100
AcDbEntity
  8
EBENE_2
 62
     7
100
AcDbVertex
100
AcDb2dVertex
 10
76.56983098129157
 20
147.7832275021167
 30
0.0
  0
VERTEX
  5
3C0
330
3BE
100
AcDbEntity
  8
EBENE_2
 62
     7
100
AcDbVertex
100
AcDb2dVertex
 10
76.56983098129157
 20
147.9294718054656
 30
0.0
  0
SEQEND
  5
3C1
330
3BE
100
AcDbEntity
  8
EBENE_2
  0
POLYLINE
  5
3C2
330
1F
100
AcDbEntity
  8
EBENE_2
 62
     7
100
AcDb2dPolyline
 66
     1
 10
0.0
 20
0.0
 30
0.0
  0
VERTEX
  5
3C3
330
3C2
100
AcDbEntity
  8
EBENE_2
 62
     7
100
AcDbVertex
100
AcDb2dVertex
 10
76.56983098129157
 20
147.7832275021167
 30
0.0
  0
VERTEX
  5
3C4
330
3C2
100
AcDbEntity
  8
EBENE_2
 62
     7
100
AcDbVertex
100
AcDb2dVertex
 10
76.56983098129157
 20
147.9294718054656
 30
0.0
  0
SEQEND
  5
3C5
330
3C2
100
AcDbEntity
  8
EBENE_2
  0
POLYLINE
  5
3C6
330
1F
100
AcDbEntity
  8
EBENE_2
 62
     7
100
AcDb2dPolyline
 66
     1
 10
0.0
 20
0.0
 30
0.0
  0
VERTEX
  5
3C7
330
3C6
100
AcDbEntity
  8
EBENE_2
 62
     7
100
AcDbVertex
100
AcDb2dVertex
 10
76.61013859846899
 20
147.7832275021167
 30
0.0
  0
VERTEX
  5
3C8
330
3C6
100
AcDbEntity
  8
EBENE_2
 62
     7
100
AcDbVertex
100
AcDb2dVertex
 10
76.61013859846899
 20
148.2350517750072
 30
0.0
  0
SEQEND
  5
3C9
330
3C6
100
AcDbEntity
  8
EBENE_2
  0
POLYLINE
  5
3CA
330
1F
100
AcDbEntity
  8
EBENE_2
 62
     7
100
AcDb2dPolyline
 66
     1
 10
0.0
 20
0.0
 30
0.0
  0
VERTEX
  5
3CB
330
3CA
100
AcDbEntity
  8
EBENE_2
 62
     7
100
AcDbVertex
100
AcDb2dVertex
 10
76.65079072519494
 20
147.7832275021167
 30
0.0
  0
VERTEX
  5
3CC
330
3CA
100
AcDbEntity
  8
EBENE_2
 62
     7
100
AcDbVertex
100
AcDb2dVertex
 10
76.65079072519494
 20
148.5408039993231
 30
0.0
  0
SEQEND
  5
3CD
330
3CA
100
AcDbEntity
  8
EBENE_2
  0
POLYLINE
  5
3CE
330
1F
100
AcDbEntity
  8
EBENE_2
 62
     7
100
AcDb2dPolyline
 66
     1
 10
0.0
 20
0.0
 30
0.0
  0
VERTEX
  5
3CF
330
3CE
100
AcDbEntity
  8
EBENE_2
 62
     7
100
AcDbVertex
100
AcDb2dVertex
 10
76.6909260875981
 20
147.7832275021167
 30
0.0
  0
VERTEX
  5
3D0
330
3CE
100
AcDbEntity
  8
EBENE_2
 62
     7
100
AcDbVertex
100
AcDb2dVertex
 10
76.6909260875981
 20
148.8460394593163
 30
0.0
  0
SEQEND
  5
3D1
330
3CE
100
AcDbEntity
  8
EBENE_2
  0
POLYLINE
  5
3D2
330
1F
100
AcDbEntity
  8
EBENE_2
 62
     7
100
AcDb2dPolyline
 66
     1
 10
0.0
 20
0.0
 30
0.0
  0
VERTEX
  5
3D3
330
3D2
100
AcDbEntity
  8
EBENE_2
 62
     7
100
AcDbVertex
100
AcDb2dVertex
 10
76.73106145000126
 20
147.7832275021167
 30
0.0
  0
VERTEX
  5
3D4
330
3D2
100
AcDbEntity
  8
EBENE_2
 62
     7
100
AcDbVertex
100
AcDb2dVertex
 10
76.73106145000126
 20
149.1517916836322
 30
0.0
  0
SEQEND
  5
3D5
330
3D2
100
AcDbEntity
  8
EBENE_2
  0
POLYLINE
  5
3D6
330
1F
100
AcDbEntity
  8
EBENE_2
 62
     7
100
AcDb2dPolyline
 66
     1
 10
0.0
 20
0.0
 30
0.0
  0
VERTEX
  5
3D7
330
3D6
100
AcDbEntity
  8
EBENE_2
 62
     7
100
AcDbVertex
100
AcDb2dVertex
 10
76.77119681240443
 20
147.7832275021167
 30
0.0
  0
VERTEX
  5
3D8
330
3D6
100
AcDbEntity
  8
EBENE_2
 62
     7
100
AcDbVertex
100
AcDb2dVertex
 10
76.77119681240443
 20
149.4575439079481
 30
0.0
  0
SEQEND
  5
3D9
330
3D6
100
AcDbEntity
  8
EBENE_2
  0
POLYLINE
  5
3DA
330
1F
100
AcDbEntity
  8
EBENE_2
 62
     7
100
AcDb2dPolyline
 66
     1
 10
0.0
 20
0.0
 30
0.0
  0
VERTEX
  5
3DB
330
3DA
100
AcDbEntity
  8
EBENE_2
 62
     7
100
AcDbVertex
100
AcDb2dVertex
 10
76.81133217480759
 20
147.7832275021167
 30
0.0
  0
VERTEX
  5
3DC
330
3DA
100
AcDbEntity
  8
EBENE_2
 62
     7
100
AcDbVertex
100
AcDb2dVertex
 10
76.81133217480759
 20
149.7631238774898
 30
0.0
  0
SEQEND
  5
3DD
330
3DA
100
AcDbEntity
  8
EBENE_2
  0
POLYLINE
  5
3DE
330
1F
100
AcDbEntity
  8
EBENE_2
 62
     7
100
AcDb2dPolyline
 66
     1
 10
0.0
 20
0.0
 30
0.0
  0
VERTEX
  5
3DF
330
3DE
100
AcDbEntity
  8
EBENE_2
 62
     7
100
AcDbVertex
100
AcDb2dVertex
 10
77.05317787787213
 20
147.7832275021167
 30
0.0
  0
VERTEX
  5
3E0
330
3DE
100
AcDbEntity
  8
EBENE_2
 62
     7
100
AcDbVertex
100
AcDb2dVertex
 10
77.05317787787213
 20
147.9294718054656
 30
0.0
  0
SEQEND
  5
3E1
330
3DE
100
AcDbEntity
  8
EBENE_2
  0
POLYLINE
  5
3E2
330
1F
100
AcDbEntity
  8
EBENE_2
 62
     7
100
AcDb2dPolyline
 66
     1
 10
0.0
 20
0.0
 30
0.0
  0
VERTEX
  5
3E3
330
3E2
100
AcDbEntity
  8
EBENE_2
 62
     7
100
AcDbVertex
100
AcDb2dVertex
 10
77.05317787787213
 20
147.7832275021167
 30
0.0
  0
VERTEX
  5
3E4
330
3E2
100
AcDbEntity
  8
EBENE_2
 62
     7
100
AcDbVertex
100
AcDb2dVertex
 10
77.05317787787213
 20
147.9294718054656
 30
0.0
  0
SEQEND
  5
3E5
330
3E2
100
AcDbEntity
  8
EBENE_2
  0
POLYLINE
  5
3E6
330
1F
100
AcDbEntity
  8
EBENE_2
 62
     7
100
AcDb2dPolyline
 66
     1
 10
0.0
 20
0.0
 30
0.0
  0
VERTEX
  5
3E7
330
3E6
100
AcDbEntity
  8
EBENE_2
 62
     7
100
AcDbVertex
100
AcDb2dVertex
 10
77.01235349637192
 20
147.7832275021167
 30
0.0
  0
VERTEX
  5
3E8
330
3E6
100
AcDbEntity
  8
EBENE_2
 62
     7
100
AcDbVertex
100
AcDb2dVertex
 10
77.01235349637192
 20
148.2350517750072
 30
0.0
  0
SEQEND
  5
3E9
330
3E6
100
AcDbEntity
  8
EBENE_2
  0
POLYLINE
  5
3EA
330
1F
100
AcDbEntity
  8
EBENE_2
 62
     7
100
AcDb2dPolyline
 66
     1
 10
0.0
 20
0.0
 30
0.0
  0
VERTEX
  5
3EB
330
3EA
100
AcDbEntity
  8
EBENE_2
 62
     7
100
AcDbVertex
100
AcDb2dVertex
 10
76.97221813396875
 20
147.7832275021167
 30
0.0
  0
VERTEX
  5
3EC
330
3EA
100
AcDbEntity
  8
EBENE_2
 62
     7
100
AcDbVertex
100
AcDb2dVertex
 10
76.97221813396875
 20
148.5408039993231
 30
0.0
  0
SEQEND
  5
3ED
330
3EA
100
AcDbEntity
  8
EBENE_2
  0
POLYLINE
  5
3EE
330
1F
100
AcDbEntity
  8
EBENE_2
 62
     7
100
AcDb2dPolyline
 66
     1
 10
0.0
 20
0.0
 30
0.0
  0
VERTEX
  5
3EF
330
3EE
100
AcDbEntity
  8
EBENE_2
 62
     7
100
AcDbVertex
100
AcDb2dVertex
 10
76.93242728111412
 20
147.7832275021167
 30
0.0
  0
VERTEX
  5
3F0
330
3EE
100
AcDbEntity
  8
EBENE_2
 62
     7
100
AcDbVertex
100
AcDb2dVertex
 10
76.93242728111412
 20
148.8460394593163
 30
0.0
  0
SEQEND
  5
3F1
330
3EE
100
AcDbEntity
  8
EBENE_2
  0
POLYLINE
  5
3F2
330
1F
100
AcDbEntity
  8
EBENE_2
 62
     7
100
AcDb2dPolyline
 66
     1
 10
0.0
 20
0.0
 30
0.0
  0
VERTEX
  5
3F3
330
3F2
100
AcDbEntity
  8
EBENE_2
 62
     7
100
AcDbVertex
100
AcDb2dVertex
 10
76.8921196639367
 20
147.7832275021167
 30
0.0
  0
VERTEX
  5
3F4
330
3F2
100
AcDbEntity
  8
EBENE_2
 62
     7
100
AcDbVertex
100
AcDb2dVertex
 10
76.8921196639367
 20
149.1517916836322
 30
0.0
  0
SEQEND
  5
3F5
330
3F2
100
AcDbEntity
  8
EBENE_2
  0
POLYLINE
  5
3F6
330
1F
100
AcDbEntity
  8
EBENE_2
 62
     7
100
AcDb2dPolyline
 66
     1
 10
0.0
 20
0.0
 30
0.0
  0
VERTEX
  5
3F7
330
3F6
100
AcDbEntity
  8
EBENE_2
 62
     7
100
AcDbVertex
100
AcDb2dVertex
 10
76.85181204675928
 20
147.7832275021167
 30
0.0
  0
VERTEX
  5
3F8
330
3F6
100
AcDbEntity
  8
EBENE_2
 62
     7
100
AcDbVertex
100
AcDb2dVertex
 10
76.85181204675928
 20
149.4575439079481
 30
0.0
  0
SEQEND
  5
3F9
330
3F6
100
AcDbEntity
  8
EBENE_2
  0
POLYLINE
  5
3FA
330
1F
100
AcDbEntity
  8
EBENE_2
 62
     7
100
AcDb2dPolyline
 66
     1
 10
0.0
 20
0.0
 30
0.0
  0
VERTEX
  5
3FB
330
3FA
100
AcDbEntity
  8
EBENE_2
 62
     7
100
AcDbVertex
100
AcDb2dVertex
 10
76.81133217480759
 20
147.7832275021167
 30
0.0
  0
VERTEX
  5
3FC
330
3FA
100
AcDbEntity
  8
EBENE_2
 62
     7
100
AcDbVertex
100
AcDb2dVertex
 10
76.81133217480759
 20
149.7631238774898
 30
0.0
  0
SEQEND
  5
3FD
330
3FA
100
AcDbEntity
  8
EBENE_2
  0
MTEXT
  5
3FE
330
1F
100
AcDbEntity
  8
EBENE_2
 62
     7
100
AcDbMText
 10
76.09681937116677
 20
151.8451673340005
 30
0.0
 40
2.398888888289167
 41
0.0
 71
     7
 72
     1
  1
\fINDEX Univers 45 Light|b0|i0|c0|p34;\W1;d
 11
-4.371139000186241E-8
 21
0.999999999999999
 31
0.0
  0
POLYLINE
  5
3FF
330
1F
100
AcDbEntity
  8
EBENE_2
 62
     7
100
AcDb2dPolyline
 66
     1
 10
0.0
 20
0.0
 30
0.0
  0
VERTEX
  5
400
330
3FF
100
AcDbEntity
  8
EBENE_2
 62
     7
100
AcDbVertex
100
AcDb2dVertex
 10
107.8704182673032
 20
153.8681274029392
 30
0.0
  0
VERTEX
  5
401
330
3FF
100
AcDbEntity
  8
EBENE_2
 62
     7
100
AcDbVertex
100
AcDb2dVertex
 10
114.5328884262279
 20
159.3928547778601
 30
0.0
  0
VERTEX
  5
402
330
3FF
100
AcDbEntity
  8
EBENE_2
 62
     7
100
AcDbVertex
100
AcDb2dVertex
 10
118.8275444581403
 20
159.3928547778601
 30
0.0
  0
SEQEND
  5
403
330
3FF
100
AcDbEntity
  8
EBENE_2
  0
SPLINE
  5
404
330
1F
100
AcDbEntity
  8
EBENE_2
 62
     7
100
AcDbSpline
210
0.0
220
0.0
230
1.0
 70
    11
 71
     3
 72
    17
 73
    13
 74
     0
 42
0.0000000001
 43
0.0000000001
 40
0.0
 40
0.0
 40
0.0
 40
0.0
 40
1.0
 40
1.0
 40
1.0
 40
2.0
 40
2.0
 40
2.0
 40
3.0
 40
3.0
 40
3.0
 40
4.0
 40
4.0
 40
4.0
 40
4.0
 10
108.4099202202934
 20
153.8681274029392
 30
0.0
 10
108.4099202202934
 20
153.5701266434651
 30
0.0
 10
108.1684190267773
 20
153.3284531951748
 30
0.0
 10
107.8704182673032
 20
153.3284531951748
 30
0.0
 10
107.5717284887321
 20
153.3284531951748
 30
0.0
 10
107.3302272952161
 20
153.5701266434651
 30
0.0
 10
107.3302272952161
 20
153.8681274029392
 30
0.0
 10
107.3302272952161
 20
154.1664726719619
 30
0.0
 10
107.5717284887321
 20
154.4078016107036
 30
0.0
 10
107.8704182673032
 20
154.4078016107036
 30
0.0
 10
108.1684190267773
 20
154.4078016107036
 30
0.0
 10
108.4099202202934
 20
154.1664726719619
 30
0.0
 10
108.4099202202934
 20
153.8681274029392
 30
0.0
  0
HATCH
  5
405
330
1F
100
AcDbEntity
  8
EBENE_2
 62
     7
100
AcDbHatch
 10
0.0
 20
0.0
 30
0.0
210
0.0
220
0.0
230
1.0
  2
SOLID
 70
     1
 71
     0
 91
        1
 92
        1
 93
        1
 72
     4
 94
        3
 73
     0
 74
     1
 95
       17
 96
       13
 40
0.0
 40
0.0
 40
0.0
 40
0.0
 40
1.0
 40
1.0
 40
1.0
 40
2.0
 40
2.0
 40
2.0
 40
3.0
 40
3.0
 40
3.0
 40
4.0
 40
4.0
 40
4.0
 40
4.0
 10
108.4099202202934
 20
153.8681274029392
 10
108.4099202202934
 20
153.5701266434651
 10
108.1684190267773
 20
153.3284531951748
 10
107.8704182673032
 20
153.3284531951748
 10
107.5717284887321
 20
153.3284531951748
 10
107.3302272952161
 20
153.5701266434651
 10
107.3302272952161
 20
153.8681274029392
 10
107.3302272952161
 20
154.1664726719619
 10
107.5717284887321
 20
154.4078016107036
 10
107.8704182673032
 20
154.4078016107036
 10
108.1684190267773
 20
154.4078016107036
 10
108.4099202202934
 20
154.1664726719619
 10
108.4099202202934
 20
153.8681274029392
 97
        0
 75
     0
 76
     1
 98
        0
  0
MTEXT
  5
406
330
1F
100
AcDbEntity
  8
EBENE_2
 62
     7
100
AcDbMText
 10
115.9233289640747
 20
160.0818738749101
 30
0.0
 40
2.398888888289167
 41
0.0
 71
     7
 72
     1
  1
\fINDEX Univers 45 Light|b0|i0|c0|p34;\W1;s
  0
ENDSEC
  0
SECTION
  2
OBJECTS
  0
DICTIONARY
  5
C
330
0
100
AcDbDictionary
  3
ACAD_GROUP
350
D
  3
ACAD_LAYOUT
350
1A
  3
ACAD_MLINESTYLE
350
17
  3
ACAD_PLOTSETTINGS
350
19
  3
ACAD_TABLESTYLE
350
427
  3
ACAD_VISUALSTYLE
350
2A
  3
ACDBHEADERROUNDTRIPXREC
350
407
  0
DICTIONARY
  5
D
102
{ACAD_REACTORS
330
C
102
}
330
C
100
AcDbDictionary
  0
DICTIONARY
  5
1A
102
{ACAD_REACTORS
330
C
102
}
330
C
100
AcDbDictionary
  0
DICTIONARY
  5
17
102
{ACAD_REACTORS
330
C
102
}
330
C
100
AcDbDictionary
  3
STANDARD
350
18
  0
DICTIONARY
  5
19
102
{ACAD_REACTORS
330
C
102
}
330
C
100
AcDbDictionary
  0
DICTIONARY
  5
427
102
{ACAD_REACTORS
330
C
102
}
330
C
100
AcDbDictionary
  0
DICTIONARY
  5
2A
102
{ACAD_REACTORS
330
C
102
}
330
C
100
AcDbDictionary
  3
2DWIREFRAME
350
2F
  3
3D_HIDDEN
350
31
  3
3DWIREFRAME
350
30
  3
BASIC
350
32
  3
BRIGHTEN
350
36
  3
COLORCHANGE
350
3A
  3
CONCEPTUAL
350
34
  3
DIM
350
35
  3
FACEPATTERN
350
39
  3
FLAT
350
2B
  3
FLATWITHEDGES
350
2C
  3
GOURAUD
350
2D
  3
GOURAUDWITHEDGES
350
2E
  3
LINEPATTERN
350
38
  3
REALISTIC
350
33
  3
THICKEN
350
37
  0
DICTIONARY
  5
407
102
{ACAD_REACTORS
330
C
102
}
330
C
100
AcDbDictionary
  3
CEPSNTYPE
350
410
  3
DIMSTYLEDATA
350
426
  3
FINGERPRINTGUID
350
411
  3
HYPERLINKBASE
350
40A
  3
INSUNITS
350
40F
  3
LAYOUTDICT
350
40C
  3
LWETCUNION
350
40E
  3
PLOTSETDICT
350
40D
  3
PSVPSCALE
350
413
  3
PUCSBASE
350
416
  3
PUCSORGBACK
350
41C
  3
PUCSORGBOTTOM
350
418
  3
PUCSORGFRONT
350
41B
  3
PUCSORGLEFT
350
419
  3
PUCSORGRIGHT
350
41A
  3
PUCSORGTOP
350
417
  3
PUCSORTHOREF
350
414
  3
PUCSORTHOVIEW
350
415
  3
STYLESHEET
350
40B
  3
TSTACKALIGN
350
408
  3
TSTACKSIZE
350
409
  3
UCSBASE
350
41F
  3
UCSORGBACK
350
425
  3
UCSORGBOTTOM
350
421
  3
UCSORGFRONT
350
424
  3
UCSORGLEFT
350
422
  3
UCSORGRIGHT
350
423
  3
UCSORGTOP
350
420
  3
UCSORTHOREF
350
41D
  3
UCSORTHOVIEW
350
41E
  3
VERSIONGUID
350
412
  0
MLINESTYLE
  5
18
102
{ACAD_REACTORS
330
17
102
}
330
17
100
AcDbMlineStyle
  2
Standard
 70
     0
  3

 62
   256
 51
90.0
 52
90.0
 71
     2
 49
0.5
 62
   256
  6
BYLAYER
 49
-0.5
 62
   256
  6
BYLAYER
  0
VISUALSTYLE
  5
2F
102
{ACAD_REACTORS
330
2A
102
}
330
2A
100
AcDbVisualStyle
  2
2dWireframe
 70
     4
 71
     0
 72
     2
 73
     0
 90
        0
 40
-0.6
 41
-30.0
 62
     5
 63
     7
 74
     1
 91
        4
 64
     7
 65
   257
 75
     1
175
     1
 42
1.0
 92
        0
 66
   257
 43
1.0
 76
     1
 77
     6
 78
     2
 67
     7
 79
     5
170
     0
171
     0
290
     0
174
     0
 93
        1
 44
0.0
173
     0
291
     0
 45
0.0
1001
ACAD
1000
AcDbSavedByObjectVersion
1070
     0
  0
VISUALSTYLE
  5
31
102
{ACAD_REACTORS
330
2A
102
}
330
2A
100
AcDbVisualStyle
  2
3D Hidden
 70
     6
 71
     1
 72
     2
 73
     2
 90
        0
 40
-0.6
 41
-30.0
 62
     5
 63
     7
 74
     2
 91
        2
 64
     7
 65
   257
 75
     2
175
     1
 42
40.0
 92
        0
 66
   257
 43
1.0
 76
     1
 77
     6
 78
     2
 67
     7
 79
     3
170
     0
171
     0
290
     0
174
     0
 93
        1
 44
0.0
173
     0
291
     0
 45
0.0
1001
ACAD
1000
AcDbSavedByObjectVersion
1070
     0
  0
VISUALSTYLE
  5
30
102
{ACAD_REACTORS
330
2A
102
}
330
2A
100
AcDbVisualStyle
  2
3dWireframe
 70
     5
 71
     0
 72
     2
 73
     0
 90
        0
 40
-0.6
 41
-30.0
 62
     5
 63
     7
 74
     1
 91
        4
 64
     7
 65
   257
 75
     1
175
     1
 42
1.0
 92
        0
 66
   257
 43
1.0
 76
     1
 77
     6
 78
     2
 67
     7
 79
     5
170
     0
171
     0
290
     0
174
     0
 93
        1
 44
0.0
173
     0
291
     0
 45
0.0
1001
ACAD
1000
AcDbSavedByObjectVersion
1070
     0
  0
VISUALSTYLE
  5
32
102
{ACAD_REACTORS
330
2A
102
}
330
2A
100
AcDbVisualStyle
  2
Basic
 70
     7
 71
     1
 72
     0
 73
     1
 90
        0
 40
-0.6
 41
-30.0
 62
     5
 63
     7
 74
     0
 91
        4
 64
     7
 65
   257
 75
     1
175
     1
 42
1.0
 92
        8
 66
     7
 43
1.0
 76
     1
 77
     6
 78
     2
 67
     7
 79
     5
170
     0
171
     0
290
     0
174
     0
 93
        1
 44
0.0
173
     0
291
     1
 45
0.0
1001
ACAD
1000
AcDbSavedByObjectVersion
1070
     0
  0
VISUALSTYLE
  5
36
102
{ACAD_REACTORS
330
2A
102
}
330
2A
100
AcDbVisualStyle
  2
Brighten
 70
    12
 71
     2
 72
     2
 73
     0
 90
        0
 40
-0.6
 41
-30.0
 62
     5
 63
     7
 74
     1
 91
        4
 64
     7
 65
   257
 75
     1
175
     1
 42
1.0
 92
        8
 66
     7
 43
1.0
 76
     1
 77
     6
 78
     2
 67
     7
 79
     5
170
     0
171
     0
290
     0
174
     0
 93
        1
 44
50.0
173
     0
291
     1
 45
0.0
1001
ACAD
1000
AcDbSavedByObjectVersion
1070
     0
  0
VISUALSTYLE
  5
3A
102
{ACAD_REACTORS
330
2A
102
}
330
2A
100
AcDbVisualStyle
  2
ColorChange
 70
    16
 71
     2
 72
     2
 73
     3
 90
        0
 40
-0.6
 41
-30.0
 62
     5
 63
     8
 74
     1
 91
        4
 64
     7
 65
   257
 75
     1
175
     1
 42
1.0
 92
        8
 66
     8
 43
1.0
 76
     1
 77
     6
 78
     2
 67
     7
 79
     5
170
     0
171
     0
290
     0
174
     0
 93
        1
 44
0.0
173
     0
291
     1
 45
0.0
1001
ACAD
1000
AcDbSavedByObjectVersion
1070
     0
  0
VISUALSTYLE
  5
34
102
{ACAD_REACTORS
330
2A
102
}
330
2A
100
AcDbVisualStyle
  2
Conceptual
 70
     9
 71
     3
 72
     2
 73
     0
 90
        0
 40
-0.6
 41
-30.0
 62
     5
 63
     7
 74
     2
 91
        2
 64
     7
 65
   257
 75
     1
175
     1
 42
40.0
 92
        8
 66
     7
 43
1.0
 76
     1
 77
     6
 78
     2
 67
     7
 79
     3
170
     0
171
     0
290
     0
174
     0
 93
        1
 44
0.0
173
     0
291
     0
 45
0.0
1001
ACAD
1000
AcDbSavedByObjectVersion
1070
     0
  0
VISUALSTYLE
  5
35
102
{ACAD_REACTORS
330
2A
102
}
330
2A
100
AcDbVisualStyle
  2
Dim
 70
    11
 71
     2
 72
     2
 73
     0
 90
        0
 40
-0.6
 41
-30.0
 62
     5
 63
     7
 74
     1
 91
        4
 64
     7
 65
   257
 75
     1
175
     1
 42
1.0
 92
        8
 66
     7
 43
1.0
 76
     1
 77
     6
 78
     2
 67
     7
 79
     5
170
     0
171
     0
290
     0
174
     0
 93
        1
 44
-50.0
173
     0
291
     1
 45
0.0
1001
ACAD
1000
AcDbSavedByObjectVersion
1070
     0
  0
VISUALSTYLE
  5
39
102
{ACAD_REACTORS
330
2A
102
}
330
2A
100
AcDbVisualStyle
  2
Facepattern
 70
    15
 71
     2
 72
     2
 73
     0
 90
        0
 40
-0.6
 41
-30.0
 62
     5
 63
     7
 74
     1
 91
        4
 64
     7
 65
   257
 75
     1
175
     1
 42
1.0
 92
        8
 66
     7
 43
1.0
 76
     1
 77
     6
 78
     2
 67
     7
 79
     5
170
     0
171
     0
290
     0
174
     0
 93
        1
 44
0.0
173
     0
291
     1
 45
0.0
1001
ACAD
1000
AcDbSavedByObjectVersion
1070
     0
  0
VISUALSTYLE
  5
2B
102
{ACAD_REACTORS
330
2A
102
}
330
2A
100
AcDbVisualStyle
  2
Flat
 70
     0
 71
     2
 72
     1
 73
     1
 90
        2
 40
-0.6
 41
30.0
 62
     5
 63
     7
 74
     0
 91
        4
 64
     7
 65
   257
 75
     1
175
     1
 42
1.0
 92
        8
 66
     7
 43
1.0
 76
     1
 77
     6
 78
     2
 67
     7
 79
     5
170
     0
171
     0
290
     0
174
     0
 93
       13
 44
0.0
173
     0
291
     1
 45
0.0
1001
ACAD
1000
AcDbSavedByObjectVersion
1070
     0
  0
VISUALSTYLE
  5
2C
102
{ACAD_REACTORS
330
2A
102
}
330
2A
100
AcDbVisualStyle
  2
FlatWithEdges
 70
     1
 71
     2
 72
     1
 73
     1
 90
        2
 40
-0.6
 41
30.0
 62
     5
 63
     7
 74
     1
 91
        4
 64
     7
 65
   257
 75
     1
175
     1
 42
1.0
 92
        0
 66
   257
 43
1.0
 76
     1
 77
     6
 78
     2
 67
     7
 79
     5
170
     0
171
     0
290
     0
174
     0
 93
       13
 44
0.0
173
     0
291
     1
 45
0.0
1001
ACAD
1000
AcDbSavedByObjectVersion
1070
     0
  0
VISUALSTYLE
  5
2D
102
{ACAD_REACTORS
330
2A
102
}
330
2A
100
AcDbVisualStyle
  2
Gouraud
 70
     2
 71
     2
 72
     2
 73
     1
 90
        2
 40
-0.6
 41
30.0
 62
     5
 63
     7
 74
     0
 91
        4
 64
     7
 65
   257
 75
     1
175
     1
 42
1.0
 92
        0
 66
     7
 43
1.0
 76
     1
 77
     6
 78
     2
 67
     7
 79
     5
170
     0
171
     0
290
     0
174
     0
 93
       13
 44
0.0
173
     0
291
     1
 45
0.0
1001
ACAD
1000
AcDbSavedByObjectVersion
1070
     0
  0
VISUALSTYLE
  5
2E
102
{ACAD_REACTORS
330
2A
102
}
330
2A
100
AcDbVisualStyle
  2
GouraudWithEdges
 70
     3
 71
     2
 72
     2
 73
     1
 90
        2
 40
-0.6
 41
30.0
 62
     5
 63
     7
 74
     1
 91
        4
 64
     7
 65
   257
 75
     1
175
     1
 42
1.0
 92
        0
 66
   257
 43
1.0
 76
     1
 77
     6
 78
     2
 67
     7
 79
     5
170
     0
171
     0
290
     0
174
     0
 93
       13
 44
0.0
173
     0
291
     1
 45
0.0
1001
ACAD
1000
AcDbSavedByObjectVersion
1070
     0
  0
VISUALSTYLE
  5
38
102
{ACAD_REACTORS
330
2A
102
}
330
2A
100
AcDbVisualStyle
  2
Linepattern
 70
    14
 71
     2
 72
     2
 73
     0
 90
        0
 40
-0.6
 41
-30.0
 62
     5
 63
     7
 74
     1
 91
        4
 64
     7
 65
   257
 75
     7
175
     7
 42
1.0
 92
        8
 66
     7
 43
1.0
 76
     1
 77
     6
 78
     2
 67
     7
 79
     5
170
     0
171
     0
290
     0
174
     0
 93
        1
 44
0.0
173
     0
291
     1
 45
0.0
1001
ACAD
1000
AcDbSavedByObjectVersion
1070
     0
  0
VISUALSTYLE
  5
33
102
{ACAD_REACTORS
330
2A
102
}
330
2A
100
AcDbVisualStyle
  2
Realistic
 70
     8
 71
     2
 72
     2
 73
     0
 90
        0
 40
-0.6
 41
-30.0
 62
     5
 63
     7
 74
     1
 91
        0
 64
     7
 65
   257
 75
     1
175
     1
 42
1.0
 92
        8
 66
     8
 43
1.0
 76
     1
 77
     6
 78
     2
 67
     7
 79
     5
170
     0
171
     0
290
     0
174
     0
 93
       13
 44
0.0
173
     0
291
     0
 45
0.0
1001
ACAD
1000
AcDbSavedByObjectVersion
1070
     0
  0
VISUALSTYLE
  5
37
102
{ACAD_REACTORS
330
2A
102
}
330
2A
100
AcDbVisualStyle
  2
Thicken
 70
    13
 71
     2
 72
     2
 73
     0
 90
        0
 40
-0.6
 41
-30.0
 62
     5
 63
     7
 74
     1
 91
        4
 64
     7
 65
   257
 75
     1
175
     1
 42
1.0
 92
       12
 66
     7
 43
1.0
 76
     1
 77
     6
 78
     2
 67
     7
 79
     5
170
     0
171
     0
290
     0
174
     0
 93
        1
 44
0.0
173
     0
291
     1
 45
0.0
1001
ACAD
1000
AcDbSavedByObjectVersion
1070
     0
  0
XRECORD
  5
410
102
{ACAD_REACTORS
330
407
102
}
330
407
100
AcDbXrecord
 90
        0
  0
XRECORD
  5
426
102
{ACAD_REACTORS
330
407
102
}
330
407
100
AcDbXrecord
1000
DSTYLE
1002
{
1070
   340
340
11
1002
}
  0
XRECORD
  5
411
102
{ACAD_REACTORS
330
407
102
}
330
407
100
AcDbXrecord
  1
{78FC8679-C6D2-4EE9-ACC7-E44E0C083AF5}
  0
XRECORD
  5
40A
102
{ACAD_REACTORS
330
407
102
}
330
407
100
AcDbXrecord
  1

  0
XRECORD
  5
40F
102
{ACAD_REACTORS
330
407
102
}
330
407
100
AcDbXrecord
 90
        1
  0
XRECORD
  5
40C
102
{ACAD_REACTORS
330
407
102
}
330
407
100
AcDbXrecord
340
1A
  0
XRECORD
  5
40E
102
{ACAD_REACTORS
330
407
102
}
330
407
100
AcDbXrecord
 90
    10269
  0
XRECORD
  5
40D
102
{ACAD_REACTORS
330
407
102
}
330
407
100
AcDbXrecord
340
19
  0
XRECORD
  5
413
102
{ACAD_REACTORS
330
407
102
}
330
407
100
AcDbXrecord
 40
0.0
  0
XRECORD
  5
416
102
{ACAD_REACTORS
330
407
102
}
330
407
100
AcDbXrecord
340
0
  0
XRECORD
  5
41C
102
{ACAD_REACTORS
330
407
102
}
330
407
100
AcDbXrecord
 10
0.0
 20
0.0
 30
0.0
  0
XRECORD
  5
418
102
{ACAD_REACTORS
330
407
102
}
330
407
100
AcDbXrecord
 10
0.0
 20
0.0
 30
0.0
  0
XRECORD
  5
41B
102
{ACAD_REACTORS
330
407
102
}
330
407
100
AcDbXrecord
 10
0.0
 20
0.0
 30
0.0
  0
XRECORD
  5
419
102
{ACAD_REACTORS
330
407
102
}
330
407
100
AcDbXrecord
 10
0.0
 20
0.0
 30
0.0
  0
XRECORD
  5
41A
102
{ACAD_REACTORS
330
407
102
}
330
407
100
AcDbXrecord
 10
0.0
 20
0.0
 30
0.0
  0
XRECORD
  5
417
102
{ACAD_REACTORS
330
407
102
}
330
407
100
AcDbXrecord
 10
0.0
 20
0.0
 30
0.0
  0
XRECORD
  5
414
102
{ACAD_REACTORS
330
407
102
}
330
407
100
AcDbXrecord
340
0
  0
XRECORD
  5
415
102
{ACAD_REACTORS
330
407
102
}
330
407
100
AcDbXrecord
 70
     0
  0
XRECORD
  5
40B
102
{ACAD_REACTORS
330
407
102
}
330
407
100
AcDbXrecord
  1

  0
XRECORD
  5
408
102
{ACAD_REACTORS
330
407
102
}
330
407
100
AcDbXrecord
 90
        1
  0
XRECORD
  5
409
102
{ACAD_REACTORS
330
407
102
}
330
407
100
AcDbXrecord
 90
       70
  0
XRECORD
  5
41F
102
{ACAD_REACTORS
330
407
102
}
330
407
100
AcDbXrecord
340
0
  0
XRECORD
  5
425
102
{ACAD_REACTORS
330
407
102
}
330
407
100
AcDbXrecord
 10
0.0
 20
0.0
 30
0.0
  0
XRECORD
  5
421
102
{ACAD_REACTORS
330
407
102
}
330
407
100
AcDbXrecord
 10
0.0
 20
0.0
 30
0.0
  0
XRECORD
  5
424
102
{ACAD_REACTORS
330
407
102
}
330
407
100
AcDbXrecord
 10
0.0
 20
0.0
 30
0.0
  0
XRECORD
  5
422
102
{ACAD_REACTORS
330
407
102
}
330
407
100
AcDbXrecord
 10
0.0
 20
0.0
 30
0.0
  0
XRECORD
  5
423
102
{ACAD_REACTORS
330
407
102
}
330
407
100
AcDbXrecord
 10
0.0
 20
0.0
 30
0.0
  0
XRECORD
  5
420
102
{ACAD_REACTORS
330
407
102
}
330
407
100
AcDbXrecord
 10
0.0
 20
0.0
 30
0.0
  0
XRECORD
  5
41D
102
{ACAD_REACTORS
330
407
102
}
330
407
100
AcDbXrecord
340
0
  0
XRECORD
  5
41E
102
{ACAD_REACTORS
330
407
102
}
330
407
100
AcDbXrecord
 70
     0
  0
XRECORD
  5
412
102
{ACAD_REACTORS
330
407
102
}
330
407
100
AcDbXrecord
  1
{FAEB1C32-E019-11D5-929B-00C0DF256EC4}
  0
ENDSEC
  0
EOF
