  0
SECTION
  2
HEADER
  9
$ACADVER
  1
AC1014
  9
$ACADMAINTVER
 70
     9
  9
$DWGCODEPAGE
  3
ANSI_1252
  9
$INSBASE
 10
0.0
 20
0.0
 30
0.0
  9
$EXTMIN
 10
1.000000000000000E+20
 20
1.000000000000000E+20
 30
1.000000000000000E+20
  9
$EXTMAX
 10
-1.000000000000000E+20
 20
-1.000000000000000E+20
 30
-1.000000000000000E+20
  9
$LIMMIN
 10
0.0
 20
0.0
  9
$LIMMAX
 10
12.0
 20
9.0
  9
$ORTHOMODE
 70
     0
  9
$REGENMODE
 70
     1
  9
$FILLMODE
 70
     1
  9
$QTEXTMODE
 70
     0
  9
$MIRRTEXT
 70
     1
  9
$DRAGMODE
 70
     2
  9
$LTSCALE
 40
1.0
  9
$OSMODE
 70
    37
  9
$ATTMODE
 70
     1
  9
$TEXTSIZE
 40
0.2
  9
$TRACEWID
 40
0.05
  9
$TEXTSTYLE
  7
STANDARD
  9
$CLAYER
  8
0
  9
$CELTYPE
  6
BYLAYER
  9
$CECOLOR
 62
   256
  9
$CELTSCALE
 40
1.0
  9
$DELOBJ
 70
     1
  9
$DISPSILH
 70
     0
  9
$DIMSCALE
 40
1.0
  9
$DIMASZ
 40
0.18
  9
$DIMEXO
 40
0.0625
  9
$DIMDLI
 40
0.38
  9
$DIMRND
 40
0.0
  9
$DIMDLE
 40
0.0
  9
$DIMEXE
 40
0.18
  9
$DIMTP
 40
0.0
  9
$DIMTM
 40
0.0
  9
$DIMTXT
 40
0.18
  9
$DIMCEN
 40
0.09
  9
$DIMTSZ
 40
0.0
  9
$DIMTOL
 70
     0
  9
$DIMLIM
 70
     0
  9
$DIMTIH
 70
     1
  9
$DIMTOH
 70
     1
  9
$DIMSE1
 70
     0
  9
$DIMSE2
 70
     0
  9
$DIMTAD
 70
     0
  9
$DIMZIN
 70
     0
  9
$DIMBLK
  1

  9
$DIMASO
 70
     1
  9
$DIMSHO
 70
     1
  9
$DIMPOST
  1

  9
$DIMAPOST
  1

  9
$DIMALT
 70
     0
  9
$DIMALTD
 70
     2
  9
$DIMALTF
 40
25.4
  9
$DIMLFAC
 40
1.0
  9
$DIMTOFL
 70
     0
  9
$DIMTVP
 40
0.0
  9
$DIMTIX
 70
     0
  9
$DIMSOXD
 70
     0
  9
$DIMSAH
 70
     0
  9
$DIMBLK1
  1

  9
$DIMBLK2
  1

  9
$DIMSTYLE
  2
STANDARD
  9
$DIMCLRD
 70
     0
  9
$DIMCLRE
 70
     0
  9
$DIMCLRT
 70
     0
  9
$DIMTFAC
 40
1.0
  9
$DIMGAP
 40
0.09
  9
$DIMJUST
 70
     0
  9
$DIMSD1
 70
     0
  9
$DIMSD2
 70
     0
  9
$DIMTOLJ
 70
     1
  9
$DIMTZIN
 70
     0
  9
$DIMALTZ
 70
     0
  9
$DIMALTTZ
 70
     0
  9
$DIMFIT
 70
     3
  9
$DIMUPT
 70
     0
  9
$DIMUNIT
 70
     2
  9
$DIMDEC
 70
     4
  9
$DIMTDEC
 70
     4
  9
$DIMALTU
 70
     2
  9
$DIMALTTD
 70
     2
  9
$DIMTXSTY
  7
STANDARD
  9
$DIMAUNIT
 70
     0
  9
$LUNITS
 70
     2
  9
$LUPREC
 70
     4
  9
$SKETCHINC
 40
0.1
  9
$FILLETRAD
 40
0.5
  9
$AUNITS
 70
     0
  9
$AUPREC
 70
     0
  9
$MENU
  1
.
  9
$ELEVATION
 40
0.0
  9
$PELEVATION
 40
0.0
  9
$THICKNESS
 40
0.0
  9
$LIMCHECK
 70
     0
  9
$CHAMFERA
 40
0.5
  9
$CHAMFERB
 40
0.5
  9
$CHAMFERC
 40
1.0
  9
$CHAMFERD
 40
0.0
  9
$SKPOLY
 70
     0
  9
$TDCREATE
 40
2458340.393655995
  9
$TDUPDATE
 40
2458340.393656007
  9
$TDINDWG
 40
0.0000000116
  9
$TDUSRTIMER
 40
0.0000000116
  9
$USRTIMER
 70
     1
  9
$ANGBASE
 50
0.0
  9
$ANGDIR
 70
     0
  9
$PDMODE
 70
     0
  9
$PDSIZE
 40
0.0
  9
$PLINEWID
 40
0.0
  9
$COORDS
 70
     1
  9
$SPLFRAME
 70
     0
  9
$SPLINETYPE
 70
     6
  9
$SPLINESEGS
 70
     8
  9
$ATTDIA
 70
     0
  9
$ATTREQ
 70
     1
  9
$HANDLING
 70
     1
  9
$HANDSEED
  5
3D8
  9
$SURFTAB1
 70
     6
  9
$SURFTAB2
 70
     6
  9
$SURFTYPE
 70
     6
  9
$SURFU
 70
     6
  9
$SURFV
 70
     6
  9
$UCSNAME
  2

  9
$UCSORG
 10
0.0
 20
0.0
 30
0.0
  9
$UCSXDIR
 10
1.0
 20
0.0
 30
0.0
  9
$UCSYDIR
 10
0.0
 20
1.0
 30
0.0
  9
$PUCSNAME
  2

  9
$PUCSORG
 10
0.0
 20
0.0
 30
0.0
  9
$PUCSXDIR
 10
1.0
 20
0.0
 30
0.0
  9
$PUCSYDIR
 10
0.0
 20
1.0
 30
0.0
  9
$USERI1
 70
     0
  9
$USERI2
 70
     0
  9
$USERI3
 70
     0
  9
$USERI4
 70
     0
  9
$USERI5
 70
     0
  9
$USERR1
 40
0.0
  9
$USERR2
 40
0.0
  9
$USERR3
 40
0.0
  9
$USERR4
 40
0.0
  9
$USERR5
 40
0.0
  9
$WORLDVIEW
 70
     1
  9
$SHADEDGE
 70
     3
  9
$SHADEDIF
 70
    70
  9
$TILEMODE
 70
     1
  9
$MAXACTVP
 70
    64
  9
$PINSBASE
 10
0.0
 20
0.0
 30
0.0
  9
$PLIMCHECK
 70
     0
  9
$PEXTMIN
 10
1.000000000000000E+20
 20
1.000000000000000E+20
 30
1.000000000000000E+20
  9
$PEXTMAX
 10
-1.000000000000000E+20
 20
-1.000000000000000E+20
 30
-1.000000000000000E+20
  9
$PLIMMIN
 10
0.0
 20
0.0
  9
$PLIMMAX
 10
12.0
 20
9.0
  9
$UNITMODE
 70
     0
  9
$VISRETAIN
 70
     1
  9
$PLINEGEN
 70
     0
  9
$PSLTSCALE
 70
     1
  9
$TREEDEPTH
 70
  3020
  9
$PICKSTYLE
 70
     1
  9
$CMLSTYLE
  2
STANDARD
  9
$CMLJUST
 70
     0
  9
$CMLSCALE
 40
1.0
  9
$PROXYGRAPHICS
 70
     1
  9
$MEASUREMENT
 70
     0
  0
ENDSEC
  0
SECTION
  2
CLASSES
  0
CLASS
  1
ACDBDICTIONARYWDFLT
  2
AcDbDictionaryWithDefault
  3
ObjectDBX Classes
 90
        0
280
     0
281
     0
  0
CLASS
  1
VISUALSTYLE
  2
AcDbVisualStyle
  3
ObjectDBX Classes
 90
     4095
280
     0
281
     0
  0
CLASS
  1
XRECORD
  2
AcDbXrecord
  3
AutoCAD 2000
 90
        0
280
     0
281
     0
  0
CLASS
  1
LWPOLYLINE
  2
AcDbPolyline
  3
AutoCAD 2000
 90
        0
280
     0
281
     1
  0
CLASS
  1
HATCH
  2
AcDbHatch
  3
AutoCAD 2000
 90
        0
280
     0
281
     1
  0
CLASS
  1
ACDBPLACEHOLDER
  2
AcDbPlaceHolder
  3
ObjectDBX Classes
 90
        0
280
     0
281
     0
  0
CLASS
  1
LAYOUT
  2
AcDbLayout
  3
ObjectDBX Classes
 90
        0
280
     0
281
     0
  0
ENDSEC
  0
SECTION
  2
TABLES
  0
TABLE
  2
VPORT
  5
8
330
0
100
AcDbSymbolTable
 70
     1
  0
VPORT
  5
29
330
8
100
AcDbSymbolTableRecord
100
AcDbViewportTableRecord
  2
*ACTIVE
 70
     0
 10
0.0
 20
0.0
 11
1.0
 21
1.0
 12
0.0
 22
0.0
 13
0.0
 23
0.0
 14
0.5
 24
0.5
 15
0.5
 25
0.5
 16
0.0
 26
0.0
 36
1.0
 17
22.18055826268402
 27
-48.53950058465333
 37
0.0
 40
296.9999592356459
 41
0.7070705664688927
 42
50.0
 43
0.0
 44
0.0
 50
0.0
 51
0.0
 71
     0
 72
   100
 73
     1
 74
     3
 75
     0
 76
     0
 77
     0
 78
     0
  0
ENDTAB
  0
TABLE
  2
LTYPE
  5
5
330
0
100
AcDbSymbolTable
 70
     5
  0
LTYPE
  5
14
330
5
100
AcDbSymbolTableRecord
100
AcDbLinetypeTableRecord
  2
BYBLOCK
 70
     0
  3

 72
    65
 73
     0
 40
0.0
  0
LTYPE
  5
15
330
5
100
AcDbSymbolTableRecord
100
AcDbLinetypeTableRecord
  2
BYLAYER
 70
     0
  3

 72
    65
 73
     0
 40
0.0
  0
LTYPE
  5
16
330
5
100
AcDbSymbolTableRecord
100
AcDbLinetypeTableRecord
  2
CONTINUOUS
 70
     0
  3
Solid line
 72
    65
 73
     0
 40
0.0
  0
LTYPE
  5
51
330
5
100
AcDbSymbolTableRecord
100
AcDbLinetypeTableRecord
  2
AI-LINETYPE-1
 70
     0
  3
Adobe Illustrator Linetype No. 1
 72
    65
 73
     4
 40
4.938888887654167
 49
1.763888888447917
 74
     0
 49
-0.7055555553791667
 74
     0
 49
1.763888888447917
 74
     0
 49
-0.7055555553791667
 74
     0
  0
LTYPE
  5
5F
330
5
100
AcDbSymbolTableRecord
100
AcDbLinetypeTableRecord
  2
AI-LINETYPE-2
 70
     0
  3
Adobe Illustrator Linetype No. 2
 72
    65
 73
     4
 40
4.938888887654167
 49
1.763888888447917
 74
     0
 49
-0.7055555553791667
 74
     0
 49
1.763888888447917
 74
     0
 49
-0.7055555553791667
 74
     0
  0
LTYPE
  5
70
330
5
100
AcDbSymbolTableRecord
100
AcDbLinetypeTableRecord
  2
AI-LINETYPE-3
 70
     0
  3
Adobe Illustrator Linetype No. 3
 72
    65
 73
     4
 40
4.938888887654167
 49
1.763888888447917
 74
     0
 49
-0.7055555553791667
 74
     0
 49
1.763888888447917
 74
     0
 49
-0.7055555553791667
 74
     0
  0
LTYPE
  5
B7
330
5
100
AcDbSymbolTableRecord
100
AcDbLinetypeTableRecord
  2
AI-LINETYPE-4
 70
     0
  3
Adobe Illustrator Linetype No. 4
 72
    65
 73
     4
 40
8.819444442239584
 49
7.055555553791667
 74
     0
 49
-0.7055555553791667
 74
     0
 49
0.3527777776895833
 74
     0
 49
-0.7055555553791667
 74
     0
  0
ENDTAB
  0
TABLE
  2
LAYER
  5
2
330
0
100
AcDbSymbolTable
 70
     5
  0
LAYER
  5
10
330
2
100
AcDbSymbolTableRecord
100
AcDbLayerTableRecord
  2
0
 70
     0
 62
     7
  6
CONTINUOUS
  0
LAYER
  5
3B
330
2
100
AcDbSymbolTableRecord
100
AcDbLayerTableRecord
  2
GRAU_10_
 70
     1
 62
     7
  6
CONTINUOUS
  0
LAYER
  5
48
330
2
100
AcDbSymbolTableRecord
100
AcDbLayerTableRecord
  2
STANDARDEBENE
 70
     0
 62
     7
  6
CONTINUOUS
  0
LAYER
  5
B8
330
2
100
AcDbSymbolTableRecord
100
AcDbLayerTableRecord
  2
BEMAßUNG
 70
     1
 62
     7
  6
CONTINUOUS
  0
LAYER
  5
3B1
330
2
100
AcDbSymbolTableRecord
100
AcDbLayerTableRecord
  2
TEXT
 70
     1
 62
     7
  6
CONTINUOUS
  0
ENDTAB
  0
TABLE
  2
STYLE
  5
3
330
0
100
AcDbSymbolTable
 70
     1
  0
STYLE
  5
11
330
3
100
AcDbSymbolTableRecord
100
AcDbTextStyleTableRecord
  2
STANDARD
 70
     0
 40
0.0
 41
1.0
 50
0.0
 71
     0
 42
0.2
  3
txt
  4

  0
ENDTAB
  0
TABLE
  2
VIEW
  5
6
330
0
100
AcDbSymbolTable
 70
     0
  0
ENDTAB
  0
TABLE
  2
UCS
  5
7
330
0
100
AcDbSymbolTable
 70
     0
  0
ENDTAB
  0
TABLE
  2
APPID
  5
9
330
0
100
AcDbSymbolTable
 70
     1
  0
APPID
  5
12
330
9
100
AcDbSymbolTableRecord
100
AcDbRegAppTableRecord
  2
ACAD
 70
     0
  0
ENDTAB
  0
TABLE
  2
DIMSTYLE
  5
A
330
0
100
AcDbSymbolTable
 70
     1
  0
DIMSTYLE
105
27
330
A
100
AcDbSymbolTableRecord
100
AcDbDimStyleTableRecord
  2
STANDARD
 70
     0
  3

  4

  5

  6

  7

 40
1.0
 41
0.18
 42
0.0625
 43
0.38
 44
0.18
 45
0.0
 46
0.0
 47
0.0
 48
0.0
140
0.18
141
0.09
142
0.0
143
25.4
144
1.0
145
0.0
146
1.0
147
0.09
 71
     0
 72
     0
 73
     1
 74
     1
 75
     0
 76
     0
 77
     0
 78
     0
170
     0
171
     2
172
     0
173
     0
174
     0
175
     0
176
     0
177
     0
178
     0
270
     2
271
     4
272
     4
273
     2
274
     2
340
11
275
     0
280
     0
281
     0
282
     0
283
     1
284
     0
285
     0
286
     0
287
     3
288
     0
  0
ENDTAB
  0
TABLE
  2
BLOCK_RECORD
  5
1
330
0
100
AcDbSymbolTable
 70
     1
  0
BLOCK_RECORD
  5
1F
330
1
100
AcDbSymbolTableRecord
100
AcDbBlockTableRecord
  2
*MODEL_SPACE
  0
BLOCK_RECORD
  5
1B
330
1
100
AcDbSymbolTableRecord
100
AcDbBlockTableRecord
  2
*PAPER_SPACE
  0
ENDTAB
  0
ENDSEC
  0
SECTION
  2
BLOCKS
  0
BLOCK
  5
20
330
1F
100
AcDbEntity
  8
0
100
AcDbBlockBegin
  2
*MODEL_SPACE
 70
     0
 71
     0
 10
0.0
 20
0.0
 30
0.0
  3
*MODEL_SPACE
  1

  0
ENDBLK
  5
21
330
1F
100
AcDbEntity
  8
0
100
AcDbBlockEnd
  0
BLOCK
  5
1C
330
1B
100
AcDbEntity
 67
     1
  8
0
100
AcDbBlockBegin
  2
*PAPER_SPACE
 70
     0
 71
     0
 10
0.0
 20
0.0
 30
0.0
  3
*PAPER_SPACE
  1

  0
ENDBLK
  5
1D
330
1B
100
AcDbEntity
 67
     1
  8
0
100
AcDbBlockEnd
  0
ENDSEC
  0
SECTION
  2
ENTITIES
  0
POLYLINE
  5
3C
330
1F
100
AcDbEntity
  8
GRAU_10_
100
AcDb2dPolyline
 66
     1
 10
0.0
 20
0.0
 30
0.0
  0
VERTEX
  5
3D
330
3C
100
AcDbEntity
  8
GRAU_10_
100
AcDbVertex
100
AcDb2dVertex
 10
1.180117458472332
 20
-24.19163275219862
 30
0.0
  0
VERTEX
  5
3E
330
3C
100
AcDbEntity
  8
GRAU_10_
100
AcDbVertex
100
AcDb2dVertex
 10
8.08718939684973
 20
-24.19163275219862
 30
0.0
  0
VERTEX
  5
3F
330
3C
100
AcDbEntity
  8
GRAU_10_
100
AcDbVertex
100
AcDb2dVertex
 10
8.08718939684973
 20
-29.15153672231281
 30
0.0
  0
VERTEX
  5
40
330
3C
100
AcDbEntity
  8
GRAU_10_
100
AcDbVertex
100
AcDb2dVertex
 10
21.97454155266609
 20
-29.15153672231281
 30
0.0
  0
VERTEX
  5
41
330
3C
100
AcDbEntity
  8
GRAU_10_
100
AcDbVertex
100
AcDb2dVertex
 10
21.97454155266609
 20
-24.1182522183628
 30
0.0
  0
VERTEX
  5
42
330
3C
100
AcDbEntity
  8
GRAU_10_
100
AcDbVertex
100
AcDb2dVertex
 10
41.04211153487837
 20
-24.1182522183628
 30
0.0
  0
VERTEX
  5
43
330
3C
100
AcDbEntity
  8
GRAU_10_
100
AcDbVertex
100
AcDb2dVertex
 10
41.04211153487837
 20
-44.06759439002477
 30
0.0
  0
VERTEX
  5
44
330
3C
100
AcDbEntity
  8
GRAU_10_
100
AcDbVertex
100
AcDb2dVertex
 10
1.10673692463651
 20
-44.06759439002477
 30
0.0
  0
VERTEX
  5
45
330
3C
100
AcDbEntity
  8
GRAU_10_
100
AcDbVertex
100
AcDb2dVertex
 10
1.180117458472332
 20
-24.19163275219862
 30
0.0
  0
SEQEND
  5
46
330
3C
100
AcDbEntity
  8
GRAU_10_
  0
HATCH
  5
47
330
1F
100
AcDbEntity
  8
GRAU_10_
 62
   255
100
AcDbHatch
 10
0.0
 20
0.0
 30
0.0
210
0.0
220
0.0
230
1.0
  2
SOLID
 70
     1
 71
     0
 91
        1
 92
        1
 93
        8
 72
     1
 10
1.180117458472332
 20
-24.19163275219862
 11
8.08718939684973
 21
-24.19163275219862
 72
     1
 10
8.08718939684973
 20
-24.19163275219862
 11
8.08718939684973
 21
-29.15153672231281
 72
     1
 10
8.08718939684973
 20
-29.15153672231281
 11
21.97454155266609
 21
-29.15153672231281
 72
     1
 10
21.97454155266609
 20
-29.15153672231281
 11
21.97454155266609
 21
-24.1182522183628
 72
     1
 10
21.97454155266609
 20
-24.1182522183628
 11
41.04211153487837
 21
-24.1182522183628
 72
     1
 10
41.04211153487837
 20
-24.1182522183628
 11
41.04211153487837
 21
-44.06759439002477
 72
     1
 10
41.04211153487837
 20
-44.06759439002477
 11
1.106736924636508
 21
-44.06759439002477
 72
     1
 10
1.10673692463651
 20
-44.06759439002477
 11
1.180117458472332
 21
-24.19163275219862
 97
        0
 75
     0
 76
     1
 98
        0
  0
POLYLINE
  5
49
330
1F
100
AcDbEntity
  8
STANDARDEBENE
 62
     7
100
AcDb2dPolyline
 66
     1
 10
0.0
 20
0.0
 30
0.0
  0
VERTEX
  5
4A
330
49
100
AcDbEntity
  8
STANDARDEBENE
 62
     7
100
AcDbVertex
100
AcDb2dVertex
 10
1.05833333306875
 20
-44.09722221119792
 30
0.0
  0
VERTEX
  5
4B
330
49
100
AcDbEntity
  8
STANDARDEBENE
 62
     7
100
AcDbVertex
100
AcDb2dVertex
 10
41.05795897411051
 20
-44.09722221119792
 30
0.0
  0
SEQEND
  5
4C
330
49
100
AcDbEntity
  8
STANDARDEBENE
  0
POLYLINE
  5
4D
330
1F
100
AcDbEntity
  8
STANDARDEBENE
  6
AI-LINETYPE-1
 62
     7
100
AcDb2dPolyline
 66
     1
 10
0.0
 20
0.0
 30
0.0
  0
VERTEX
  5
4E
330
4D
100
AcDbEntity
  8
STANDARDEBENE
  6
AI-LINETYPE-1
 62
     7
100
AcDbVertex
100
AcDb2dVertex
 10
1.05833333306875
 20
-41.59711641755211
 30
0.0
  0
VERTEX
  5
4F
330
4D
100
AcDbEntity
  8
STANDARDEBENE
  6
AI-LINETYPE-1
 62
     7
100
AcDbVertex
100
AcDb2dVertex
 10
41.05795897411051
 20
-41.59711641755211
 30
0.0
  0
SEQEND
  5
50
330
4D
100
AcDbEntity
  8
STANDARDEBENE
  6
AI-LINETYPE-1
  0
POLYLINE
  5
52
330
1F
100
AcDbEntity
  8
STANDARDEBENE
 62
     7
100
AcDb2dPolyline
 66
     1
 10
0.0
 20
0.0
 30
0.0
  0
VERTEX
  5
53
330
52
100
AcDbEntity
  8
STANDARDEBENE
 62
     7
100
AcDbVertex
100
AcDb2dVertex
 10
41.05795897411051
 20
-24.09723713590278
 30
0.0
  0
VERTEX
  5
54
330
52
100
AcDbEntity
  8
STANDARDEBENE
 62
     7
100
AcDbVertex
100
AcDb2dVertex
 10
22.0580851181834
 20
-24.09723713590278
 30
0.0
  0
VERTEX
  5
55
330
52
100
AcDbEntity
  8
STANDARDEBENE
 62
     7
100
AcDbVertex
100
AcDb2dVertex
 10
22.0580851181834
 20
-26.59734292954858
 30
0.0
  0
SEQEND
  5
56
330
52
100
AcDbEntity
  8
STANDARDEBENE
  0
POLYLINE
  5
57
330
1F
100
AcDbEntity
  8
STANDARDEBENE
 62
     7
100
AcDb2dPolyline
 66
     1
 10
0.0
 20
0.0
 30
0.0
  0
VERTEX
  5
58
330
57
100
AcDbEntity
  8
STANDARDEBENE
 62
     7
100
AcDbVertex
100
AcDb2dVertex
 10
1.05833333306875
 20
-24.09723713590278
 30
0.0
  0
VERTEX
  5
59
330
57
100
AcDbEntity
  8
STANDARDEBENE
 62
     7
100
AcDbVertex
100
AcDb2dVertex
 10
1.05833333306875
 20
-26.59734292954858
 30
0.0
  0
SEQEND
  5
5A
330
57
100
AcDbEntity
  8
STANDARDEBENE
  0
POLYLINE
  5
5B
330
1F
100
AcDbEntity
  8
STANDARDEBENE
  6
AI-LINETYPE-2
 62
     7
100
AcDb2dPolyline
 66
     1
 10
0.0
 20
0.0
 30
0.0
  0
VERTEX
  5
5C
330
5B
100
AcDbEntity
  8
STANDARDEBENE
  6
AI-LINETYPE-2
 62
     7
100
AcDbVertex
100
AcDb2dVertex
 10
8.05807833999937
 20
-26.59734292954858
 30
0.0
  0
VERTEX
  5
5D
330
5B
100
AcDbEntity
  8
STANDARDEBENE
  6
AI-LINETYPE-2
 62
     7
100
AcDbVertex
100
AcDb2dVertex
 10
1.05833333306875
 20
-26.59734292954858
 30
0.0
  0
SEQEND
  5
5E
330
5B
100
AcDbEntity
  8
STANDARDEBENE
  6
AI-LINETYPE-2
  0
POLYLINE
  5
60
330
1F
100
AcDbEntity
  8
STANDARDEBENE
 62
     7
100
AcDb2dPolyline
 66
     1
 10
0.0
 20
0.0
 30
0.0
  0
VERTEX
  5
61
330
60
100
AcDbEntity
  8
STANDARDEBENE
 62
     7
100
AcDbVertex
100
AcDb2dVertex
 10
8.05807833999937
 20
-26.59734292954858
 30
0.0
  0
VERTEX
  5
62
330
60
100
AcDbEntity
  8
STANDARDEBENE
 62
     7
100
AcDbVertex
100
AcDb2dVertex
 10
8.05807833999937
 20
-24.09723713590278
 30
0.0
  0
SEQEND
  5
63
330
60
100
AcDbEntity
  8
STANDARDEBENE
  0
POLYLINE
  5
64
330
1F
100
AcDbEntity
  8
STANDARDEBENE
 62
     7
100
AcDb2dPolyline
 66
     1
 10
0.0
 20
0.0
 30
0.0
  0
VERTEX
  5
65
330
64
100
AcDbEntity
  8
STANDARDEBENE
 62
     7
100
AcDbVertex
100
AcDb2dVertex
 10
41.05795897411051
 20
-44.09722221119792
 30
0.0
  0
VERTEX
  5
66
330
64
100
AcDbEntity
  8
STANDARDEBENE
 62
     7
100
AcDbVertex
100
AcDb2dVertex
 10
41.05795897411051
 20
-41.59711641755211
 30
0.0
  0
SEQEND
  5
67
330
64
100
AcDbEntity
  8
STANDARDEBENE
  0
POLYLINE
  5
68
330
1F
100
AcDbEntity
  8
STANDARDEBENE
 62
     7
100
AcDb2dPolyline
 66
     1
 10
0.0
 20
0.0
 30
0.0
  0
VERTEX
  5
69
330
68
100
AcDbEntity
  8
STANDARDEBENE
 62
     7
100
AcDbVertex
100
AcDb2dVertex
 10
1.05833333306875
 20
-41.59711641755211
 30
0.0
  0
VERTEX
  5
6A
330
68
100
AcDbEntity
  8
STANDARDEBENE
 62
     7
100
AcDbVertex
100
AcDb2dVertex
 10
1.05833333306875
 20
-44.09722221119792
 30
0.0
  0
SEQEND
  5
6B
330
68
100
AcDbEntity
  8
STANDARDEBENE
  0
POLYLINE
  5
6C
330
1F
100
AcDbEntity
  8
STANDARDEBENE
  6
AI-LINETYPE-3
 62
     7
100
AcDb2dPolyline
 66
     1
 10
0.0
 20
0.0
 30
0.0
  0
VERTEX
  5
6D
330
6C
100
AcDbEntity
  8
STANDARDEBENE
  6
AI-LINETYPE-3
 62
     7
100
AcDbVertex
100
AcDb2dVertex
 10
41.05795897411051
 20
-26.59734292954858
 30
0.0
  0
VERTEX
  5
6E
330
6C
100
AcDbEntity
  8
STANDARDEBENE
  6
AI-LINETYPE-3
 62
     7
100
AcDbVertex
100
AcDb2dVertex
 10
22.0580851181834
 20
-26.59734292954858
 30
0.0
  0
SEQEND
  5
6F
330
6C
100
AcDbEntity
  8
STANDARDEBENE
  6
AI-LINETYPE-3
  0
POLYLINE
  5
71
330
1F
100
AcDbEntity
  8
STANDARDEBENE
 62
     7
100
AcDb2dPolyline
 66
     1
 10
0.0
 20
0.0
 30
0.0
  0
VERTEX
  5
72
330
71
100
AcDbEntity
  8
STANDARDEBENE
 62
     7
100
AcDbVertex
100
AcDb2dVertex
 10
41.05795897411051
 20
-26.59734292954858
 30
0.0
  0
VERTEX
  5
73
330
71
100
AcDbEntity
  8
STANDARDEBENE
 62
     7
100
AcDbVertex
100
AcDb2dVertex
 10
41.05795897411051
 20
-24.09723713590278
 30
0.0
  0
SEQEND
  5
74
330
71
100
AcDbEntity
  8
STANDARDEBENE
  0
POLYLINE
  5
75
330
1F
100
AcDbEntity
  8
STANDARDEBENE
 62
     7
100
AcDb2dPolyline
 66
     1
 10
0.0
 20
0.0
 30
0.0
  0
VERTEX
  5
76
330
75
100
AcDbEntity
  8
STANDARDEBENE
 62
     7
100
AcDbVertex
100
AcDb2dVertex
 10
8.05807833999937
 20
-24.09723713590278
 30
0.0
  0
VERTEX
  5
77
330
75
100
AcDbEntity
  8
STANDARDEBENE
 62
     7
100
AcDbVertex
100
AcDb2dVertex
 10
1.05833333306875
 20
-24.09723713590278
 30
0.0
  0
SEQEND
  5
78
330
75
100
AcDbEntity
  8
STANDARDEBENE
  0
POLYLINE
  5
79
330
1F
100
AcDbEntity
  8
STANDARDEBENE
 62
     7
100
AcDb2dPolyline
 66
     1
 10
0.0
 20
0.0
 30
0.0
  0
VERTEX
  5
7A
330
79
100
AcDbEntity
  8
STANDARDEBENE
 62
     7
100
AcDbVertex
100
AcDb2dVertex
 10
41.05795897411051
 20
-26.59734292954858
 30
0.0
  0
VERTEX
  5
7B
330
79
100
AcDbEntity
  8
STANDARDEBENE
 62
     7
100
AcDbVertex
100
AcDb2dVertex
 10
41.05795897411051
 20
-26.69931775591198
 30
0.0
  0
VERTEX
  5
7C
330
79
100
AcDbEntity
  8
STANDARDEBENE
 62
     7
100
AcDbVertex
100
AcDb2dVertex
 10
41.05795897411051
 20
-27.0036919420338
 30
0.0
  0
VERTEX
  5
7D
330
79
100
AcDbEntity
  8
STANDARDEBENE
 62
     7
100
AcDbVertex
100
AcDb2dVertex
 10
41.05795897411051
 20
-27.50116373010388
 30
0.0
  0
VERTEX
  5
7E
330
79
100
AcDbEntity
  8
STANDARDEBENE
 62
     7
100
AcDbVertex
100
AcDb2dVertex
 10
41.05795897411051
 20
-28.17846950250399
 30
0.0
  0
VERTEX
  5
7F
330
79
100
AcDbEntity
  8
STANDARDEBENE
 62
     7
100
AcDbVertex
100
AcDb2dVertex
 10
41.05795897411051
 20
-29.01735025316233
 30
0.0
  0
VERTEX
  5
80
330
79
100
AcDbEntity
  8
STANDARDEBENE
 62
     7
100
AcDbVertex
100
AcDb2dVertex
 10
41.05795897411051
 20
-29.99489609710197
 30
0.0
  0
VERTEX
  5
81
330
79
100
AcDbEntity
  8
STANDARDEBENE
 62
     7
100
AcDbVertex
100
AcDb2dVertex
 10
41.05795897411051
 20
-31.08457979908649
 30
0.0
  0
VERTEX
  5
82
330
79
100
AcDbEntity
  8
STANDARDEBENE
 62
     7
100
AcDbVertex
100
AcDb2dVertex
 10
41.05795897411051
 20
-32.25591226407144
 30
0.0
  0
VERTEX
  5
83
330
79
100
AcDbEntity
  8
STANDARDEBENE
 62
     7
100
AcDbVertex
100
AcDb2dVertex
 10
41.05795897411051
 20
-33.47788763268956
 30
0.0
  0
VERTEX
  5
84
330
79
100
AcDbEntity
  8
STANDARDEBENE
 62
     7
100
AcDbVertex
100
AcDb2dVertex
 10
41.05795897411051
 20
-34.71639945963688
 30
0.0
  0
VERTEX
  5
85
330
79
100
AcDbEntity
  8
STANDARDEBENE
 62
     7
100
AcDbVertex
100
AcDb2dVertex
 10
41.05795897411051
 20
-35.93854708302926
 30
0.0
  0
VERTEX
  5
86
330
79
100
AcDbEntity
  8
STANDARDEBENE
 62
     7
100
AcDbVertex
100
AcDb2dVertex
 10
41.05795897411051
 20
-37.10970729323994
 30
0.0
  0
VERTEX
  5
87
330
79
100
AcDbEntity
  8
STANDARDEBENE
 62
     7
100
AcDbVertex
100
AcDb2dVertex
 10
41.05795897411051
 20
-38.19939099522446
 30
0.0
  0
VERTEX
  5
88
330
79
100
AcDbEntity
  8
STANDARDEBENE
 62
     7
100
AcDbVertex
100
AcDb2dVertex
 10
41.05795897411051
 20
-39.17659232961557
 30
0.0
  0
VERTEX
  5
89
330
79
100
AcDbEntity
  8
STANDARDEBENE
 62
     7
100
AcDbVertex
100
AcDb2dVertex
 10
41.05795897411051
 20
-40.0159898445967
 30
0.0
  0
VERTEX
  5
8A
330
79
100
AcDbEntity
  8
STANDARDEBENE
 62
     7
100
AcDbVertex
100
AcDb2dVertex
 10
41.05795897411051
 20
-40.69329561699681
 30
0.0
  0
VERTEX
  5
8B
330
79
100
AcDbEntity
  8
STANDARDEBENE
 62
     7
100
AcDbVertex
100
AcDb2dVertex
 10
41.05795897411051
 20
-41.19093965984116
 30
0.0
  0
VERTEX
  5
8C
330
79
100
AcDbEntity
  8
STANDARDEBENE
 62
     7
100
AcDbVertex
100
AcDb2dVertex
 10
41.05795897411051
 20
-41.49514159118872
 30
0.0
  0
VERTEX
  5
8D
330
79
100
AcDbEntity
  8
STANDARDEBENE
 62
     7
100
AcDbVertex
100
AcDb2dVertex
 10
41.05795897411051
 20
-41.59711641755211
 30
0.0
  0
SEQEND
  5
8E
330
79
100
AcDbEntity
  8
STANDARDEBENE
  0
POLYLINE
  5
8F
330
1F
100
AcDbEntity
  8
STANDARDEBENE
 62
     7
100
AcDb2dPolyline
 66
     1
 10
0.0
 20
0.0
 30
0.0
  0
VERTEX
  5
90
330
8F
100
AcDbEntity
  8
STANDARDEBENE
 62
     7
100
AcDbVertex
100
AcDb2dVertex
 10
1.05833333306875
 20
-26.59734292954858
 30
0.0
  0
VERTEX
  5
91
330
8F
100
AcDbEntity
  8
STANDARDEBENE
 62
     7
100
AcDbVertex
100
AcDb2dVertex
 10
1.05833333306875
 20
-26.69931775591198
 30
0.0
  0
VERTEX
  5
92
330
8F
100
AcDbEntity
  8
STANDARDEBENE
 62
     7
100
AcDbVertex
100
AcDb2dVertex
 10
1.05833333306875
 20
-27.0036919420338
 30
0.0
  0
VERTEX
  5
93
330
8F
100
AcDbEntity
  8
STANDARDEBENE
 62
     7
100
AcDbVertex
100
AcDb2dVertex
 10
1.05833333306875
 20
-27.50116373010388
 30
0.0
  0
VERTEX
  5
94
330
8F
100
AcDbEntity
  8
STANDARDEBENE
 62
     7
100
AcDbVertex
100
AcDb2dVertex
 10
1.05833333306875
 20
-28.17846950250399
 30
0.0
  0
VERTEX
  5
95
330
8F
100
AcDbEntity
  8
STANDARDEBENE
 62
     7
100
AcDbVertex
100
AcDb2dVertex
 10
1.05833333306875
 20
-29.01735025316233
 30
0.0
  0
VERTEX
  5
96
330
8F
100
AcDbEntity
  8
STANDARDEBENE
 62
     7
100
AcDbVertex
100
AcDb2dVertex
 10
1.05833333306875
 20
-29.99489609710197
 30
0.0
  0
VERTEX
  5
97
330
8F
100
AcDbEntity
  8
STANDARDEBENE
 62
     7
100
AcDbVertex
100
AcDb2dVertex
 10
1.05833333306875
 20
-31.08457979908649
 30
0.0
  0
VERTEX
  5
98
330
8F
100
AcDbEntity
  8
STANDARDEBENE
 62
     7
100
AcDbVertex
100
AcDb2dVertex
 10
1.05833333306875
 20
-32.25591226407144
 30
0.0
  0
VERTEX
  5
99
330
8F
100
AcDbEntity
  8
STANDARDEBENE
 62
     7
100
AcDbVertex
100
AcDb2dVertex
 10
1.05833333306875
 20
-33.47788763268956
 30
0.0
  0
VERTEX
  5
9A
330
8F
100
AcDbEntity
  8
STANDARDEBENE
 62
     7
100
AcDbVertex
100
AcDb2dVertex
 10
1.05833333306875
 20
-34.71639945963688
 30
0.0
  0
VERTEX
  5
9B
330
8F
100
AcDbEntity
  8
STANDARDEBENE
 62
     7
100
AcDbVertex
100
AcDb2dVertex
 10
1.05833333306875
 20
-35.93854708302926
 30
0.0
  0
VERTEX
  5
9C
330
8F
100
AcDbEntity
  8
STANDARDEBENE
 62
     7
100
AcDbVertex
100
AcDb2dVertex
 10
1.05833333306875
 20
-37.10970729323994
 30
0.0
  0
VERTEX
  5
9D
330
8F
100
AcDbEntity
  8
STANDARDEBENE
 62
     7
100
AcDbVertex
100
AcDb2dVertex
 10
1.05833333306875
 20
-38.19939099522446
 30
0.0
  0
VERTEX
  5
9E
330
8F
100
AcDbEntity
  8
STANDARDEBENE
 62
     7
100
AcDbVertex
100
AcDb2dVertex
 10
1.05833333306875
 20
-39.17659232961557
 30
0.0
  0
VERTEX
  5
9F
330
8F
100
AcDbEntity
  8
STANDARDEBENE
 62
     7
100
AcDbVertex
100
AcDb2dVertex
 10
1.05833333306875
 20
-40.0159898445967
 30
0.0
  0
VERTEX
  5
A0
330
8F
100
AcDbEntity
  8
STANDARDEBENE
 62
     7
100
AcDbVertex
100
AcDb2dVertex
 10
1.05833333306875
 20
-40.69329561699681
 30
0.0
  0
VERTEX
  5
A1
330
8F
100
AcDbEntity
  8
STANDARDEBENE
 62
     7
100
AcDbVertex
100
AcDb2dVertex
 10
1.05833333306875
 20
-41.19093965984116
 30
0.0
  0
VERTEX
  5
A2
330
8F
100
AcDbEntity
  8
STANDARDEBENE
 62
     7
100
AcDbVertex
100
AcDb2dVertex
 10
1.05833333306875
 20
-41.49514159118872
 30
0.0
  0
VERTEX
  5
A3
330
8F
100
AcDbEntity
  8
STANDARDEBENE
 62
     7
100
AcDbVertex
100
AcDb2dVertex
 10
1.05833333306875
 20
-41.59711641755211
 30
0.0
  0
SEQEND
  5
A4
330
8F
100
AcDbEntity
  8
STANDARDEBENE
  0
POLYLINE
  5
A5
330
1F
100
AcDbEntity
  8
STANDARDEBENE
 62
     7
100
AcDb2dPolyline
 66
     1
 10
0.0
 20
0.0
 30
0.0
  0
VERTEX
  5
A6
330
A5
100
AcDbEntity
  8
STANDARDEBENE
 62
     7
100
AcDbVertex
100
AcDb2dVertex
 10
8.05807833999937
 20
-26.59734292954858
 30
0.0
  0
VERTEX
  5
A7
330
A5
100
AcDbEntity
  8
STANDARDEBENE
 62
     7
100
AcDbVertex
100
AcDb2dVertex
 10
8.05807833999937
 20
-26.70276285139723
 30
0.0
  0
VERTEX
  5
A8
330
A5
100
AcDbEntity
  8
STANDARDEBENE
 62
     7
100
AcDbVertex
100
AcDb2dVertex
 10
8.05807833999937
 20
-27.01781683352332
 30
0.0
  0
VERTEX
  5
A9
330
A5
100
AcDbEntity
  8
STANDARDEBENE
 62
     7
100
AcDbVertex
100
AcDb2dVertex
 10
8.05807833999937
 20
-27.5318250799226
 30
0.0
  0
VERTEX
  5
AA
330
A5
100
AcDbEntity
  8
STANDARDEBENE
 62
     7
100
AcDbVertex
100
AcDb2dVertex
 10
8.05807833999937
 20
-28.23204073729963
 30
0.0
  0
VERTEX
  5
AB
330
A5
100
AcDbEntity
  8
STANDARDEBENE
 62
     7
100
AcDbVertex
100
AcDb2dVertex
 10
8.05807833999937
 20
-29.09710421364586
 30
0.0
  0
VERTEX
  5
AC
330
A5
100
AcDbEntity
  8
STANDARDEBENE
 62
     7
100
AcDbVertex
100
AcDb2dVertex
 10
22.0580851181834
 20
-29.09710421364586
 30
0.0
  0
VERTEX
  5
AD
330
A5
100
AcDbEntity
  8
STANDARDEBENE
 62
     7
100
AcDbVertex
100
AcDb2dVertex
 10
22.0580851181834
 20
-28.23204073729963
 30
0.0
  0
VERTEX
  5
AE
330
A5
100
AcDbEntity
  8
STANDARDEBENE
 62
     7
100
AcDbVertex
100
AcDb2dVertex
 10
22.0580851181834
 20
-27.5318250799226
 30
0.0
  0
VERTEX
  5
AF
330
A5
100
AcDbEntity
  8
STANDARDEBENE
 62
     7
100
AcDbVertex
100
AcDb2dVertex
 10
22.0580851181834
 20
-27.01781683352332
 30
0.0
  0
VERTEX
  5
B0
330
A5
100
AcDbEntity
  8
STANDARDEBENE
 62
     7
100
AcDbVertex
100
AcDb2dVertex
 10
22.0580851181834
 20
-26.70276285139723
 30
0.0
  0
VERTEX
  5
B1
330
A5
100
AcDbEntity
  8
STANDARDEBENE
 62
     7
100
AcDbVertex
100
AcDb2dVertex
 10
22.0580851181834
 20
-26.59734292954858
 30
0.0
  0
SEQEND
  5
B2
330
A5
100
AcDbEntity
  8
STANDARDEBENE
  0
POLYLINE
  5
B3
330
1F
100
AcDbEntity
  8
STANDARDEBENE
  6
AI-LINETYPE-4
 62
     7
100
AcDb2dPolyline
 66
     1
 10
0.0
 20
0.0
 30
0.0
  0
VERTEX
  5
B4
330
B3
100
AcDbEntity
  8
STANDARDEBENE
  6
AI-LINETYPE-4
 62
     7
100
AcDbVertex
100
AcDb2dVertex
 10
-1.721341959205081
 20
-34.09697129138895
 30
0.0
  0
VERTEX
  5
B5
330
B3
100
AcDbEntity
  8
STANDARDEBENE
  6
AI-LINETYPE-4
 62
     7
100
AcDbVertex
100
AcDb2dVertex
 10
43.21321070968281
 20
-34.09697129138895
 30
0.0
  0
SEQEND
  5
B6
330
B3
100
AcDbEntity
  8
STANDARDEBENE
  6
AI-LINETYPE-4
  0
POLYLINE
  5
B9
330
1F
100
AcDbEntity
  8
BEMAßUNG
 62
     7
100
AcDb2dPolyline
 66
     1
 10
0.0
 20
0.0
 30
0.0
  0
VERTEX
  5
BA
330
B9
100
AcDbEntity
  8
BEMAßUNG
 62
     7
100
AcDbVertex
100
AcDb2dVertex
 10
1.05833333306875
 20
-44.09722221119792
 30
0.0
  0
VERTEX
  5
BB
330
B9
100
AcDbEntity
  8
BEMAßUNG
 62
     7
100
AcDbVertex
100
AcDb2dVertex
 10
-21.02817382286796
 20
-44.09722221119792
 30
0.0
  0
SEQEND
  5
BC
330
B9
100
AcDbEntity
  8
BEMAßUNG
  0
POLYLINE
  5
BD
330
1F
100
AcDbEntity
  8
BEMAßUNG
 62
     7
100
AcDb2dPolyline
 66
     1
 10
0.0
 20
0.0
 30
0.0
  0
VERTEX
  5
BE
330
BD
100
AcDbEntity
  8
BEMAßUNG
 62
     7
100
AcDbVertex
100
AcDb2dVertex
 10
22.0580851181834
 20
-24.09723713590278
 30
0.0
  0
VERTEX
  5
BF
330
BD
100
AcDbEntity
  8
BEMAßUNG
 62
     7
100
AcDbVertex
100
AcDb2dVertex
 10
-21.02817382286796
 20
-24.09723713590278
 30
0.0
  0
SEQEND
  5
C0
330
BD
100
AcDbEntity
  8
BEMAßUNG
  0
POLYLINE
  5
C1
330
1F
100
AcDbEntity
  8
BEMAßUNG
 62
     7
100
AcDb2dPolyline
 66
     1
 10
0.0
 20
0.0
 30
0.0
  0
VERTEX
  5
C2
330
C1
100
AcDbEntity
  8
BEMAßUNG
 62
     7
100
AcDbVertex
100
AcDb2dVertex
 10
-19.02691785548633
 20
-44.09722221119792
 30
0.0
  0
VERTEX
  5
C3
330
C1
100
AcDbEntity
  8
BEMAßUNG
 62
     7
100
AcDbVertex
100
AcDb2dVertex
 10
-19.02691785548633
 20
-25.67681341588982
 30
0.0
  0
SEQEND
  5
C4
330
C1
100
AcDbEntity
  8
BEMAßUNG
  0
POLYLINE
  5
C5
330
1F
100
AcDbEntity
  8
BEMAßUNG
 62
     7
100
AcDb2dPolyline
 66
     1
 10
0.0
 20
0.0
 30
0.0
  0
VERTEX
  5
C6
330
C5
100
AcDbEntity
  8
BEMAßUNG
 62
     7
100
AcDbVertex
100
AcDb2dVertex
 10
-19.02691785548633
 20
-44.09722221119792
 30
0.0
  0
VERTEX
  5
C7
330
C5
100
AcDbEntity
  8
BEMAßUNG
 62
     7
100
AcDbVertex
100
AcDb2dVertex
 10
-18.69773898187071
 20
-41.59522161503522
 30
0.0
  0
VERTEX
  5
C8
330
C5
100
AcDbEntity
  8
BEMAßUNG
 62
     7
100
AcDbVertex
100
AcDb2dVertex
 10
-19.35609672910195
 20
-41.59522161503522
 30
0.0
  0
VERTEX
  5
C9
330
C5
100
AcDbEntity
  8
BEMAßUNG
 62
     7
100
AcDbVertex
100
AcDb2dVertex
 10
-19.02691785548633
 20
-44.09722221119792
 30
0.0
  0
SEQEND
  5
CA
330
C5
100
AcDbEntity
  8
BEMAßUNG
  0
POLYLINE
  5
CB
330
1F
100
AcDbEntity
  8
BEMAßUNG
 62
     7
100
AcDb2dPolyline
 66
     1
 10
0.0
 20
0.0
 30
0.0
  0
VERTEX
  5
CC
330
CB
100
AcDbEntity
  8
BEMAßUNG
 62
     7
100
AcDbVertex
100
AcDb2dVertex
 10
-18.72237141459024
 20
-41.59522161503522
 30
0.0
  0
VERTEX
  5
CD
330
CB
100
AcDbEntity
  8
BEMAßUNG
 62
     7
100
AcDbVertex
100
AcDb2dVertex
 10
-18.72237141459024
 20
-41.78194579033577
 30
0.0
  0
SEQEND
  5
CE
330
CB
100
AcDbEntity
  8
BEMAßUNG
  0
POLYLINE
  5
CF
330
1F
100
AcDbEntity
  8
BEMAßUNG
 62
     7
100
AcDb2dPolyline
 66
     1
 10
0.0
 20
0.0
 30
0.0
  0
VERTEX
  5
D0
330
CF
100
AcDbEntity
  8
BEMAßUNG
 62
     7
100
AcDbVertex
100
AcDb2dVertex
 10
-18.72237141459024
 20
-41.59522161503522
 30
0.0
  0
VERTEX
  5
D1
330
CF
100
AcDbEntity
  8
BEMAßUNG
 62
     7
100
AcDbVertex
100
AcDb2dVertex
 10
-18.72237141459024
 20
-41.78194579033577
 30
0.0
  0
SEQEND
  5
D2
330
CF
100
AcDbEntity
  8
BEMAßUNG
  0
POLYLINE
  5
D3
330
1F
100
AcDbEntity
  8
BEMAßUNG
 62
     7
100
AcDb2dPolyline
 66
     1
 10
0.0
 20
0.0
 30
0.0
  0
VERTEX
  5
D4
330
D3
100
AcDbEntity
  8
BEMAßUNG
 62
     7
100
AcDbVertex
100
AcDb2dVertex
 10
-18.77284206344915
 20
-41.59522161503522
 30
0.0
  0
VERTEX
  5
D5
330
D3
100
AcDbEntity
  8
BEMAßUNG
 62
     7
100
AcDbVertex
100
AcDb2dVertex
 10
-18.77284206344915
 20
-42.16814099423227
 30
0.0
  0
SEQEND
  5
D6
330
D3
100
AcDbEntity
  8
BEMAßUNG
  0
POLYLINE
  5
D7
330
1F
100
AcDbEntity
  8
BEMAßUNG
 62
     7
100
AcDb2dPolyline
 66
     1
 10
0.0
 20
0.0
 30
0.0
  0
VERTEX
  5
D8
330
D7
100
AcDbEntity
  8
BEMAßUNG
 62
     7
100
AcDbVertex
100
AcDb2dVertex
 10
-18.82365722185659
 20
-41.59522161503522
 30
0.0
  0
VERTEX
  5
D9
330
D7
100
AcDbEntity
  8
BEMAßUNG
 62
     7
100
AcDbVertex
100
AcDb2dVertex
 10
-18.82365722185659
 20
-42.55347492425746
 30
0.0
  0
SEQEND
  5
DA
330
D7
100
AcDbEntity
  8
BEMAßUNG
  0
POLYLINE
  5
DB
330
1F
100
AcDbEntity
  8
BEMAßUNG
 62
     7
100
AcDb2dPolyline
 66
     1
 10
0.0
 20
0.0
 30
0.0
  0
VERTEX
  5
DC
330
DB
100
AcDbEntity
  8
BEMAßUNG
 62
     7
100
AcDbVertex
100
AcDb2dVertex
 10
-18.87447238026402
 20
-41.59522161503522
 30
0.0
  0
VERTEX
  5
DD
330
DB
100
AcDbEntity
  8
BEMAßUNG
 62
     7
100
AcDbVertex
100
AcDb2dVertex
 10
-18.87447238026402
 20
-42.93967012815397
 30
0.0
  0
SEQEND
  5
DE
330
DB
100
AcDbEntity
  8
BEMAßUNG
  0
POLYLINE
  5
DF
330
1F
100
AcDbEntity
  8
BEMAßUNG
 62
     7
100
AcDb2dPolyline
 66
     1
 10
0.0
 20
0.0
 30
0.0
  0
VERTEX
  5
E0
330
DF
100
AcDbEntity
  8
BEMAßUNG
 62
     7
100
AcDbVertex
100
AcDb2dVertex
 10
-18.92528753867146
 20
-41.59522161503522
 30
0.0
  0
VERTEX
  5
E1
330
DF
100
AcDbEntity
  8
BEMAßUNG
 62
     7
100
AcDbVertex
100
AcDb2dVertex
 10
-18.92528753867146
 20
-43.32534856772769
 30
0.0
  0
SEQEND
  5
E2
330
DF
100
AcDbEntity
  8
BEMAßUNG
  0
POLYLINE
  5
E3
330
1F
100
AcDbEntity
  8
BEMAßUNG
 62
     7
100
AcDb2dPolyline
 66
     1
 10
0.0
 20
0.0
 30
0.0
  0
VERTEX
  5
E4
330
E3
100
AcDbEntity
  8
BEMAßUNG
 62
     7
100
AcDbVertex
100
AcDb2dVertex
 10
-18.97610269707889
 20
-41.59522161503522
 30
0.0
  0
VERTEX
  5
E5
330
E3
100
AcDbEntity
  8
BEMAßUNG
 62
     7
100
AcDbVertex
100
AcDb2dVertex
 10
-18.97610269707889
 20
-43.71119926207567
 30
0.0
  0
SEQEND
  5
E6
330
E3
100
AcDbEntity
  8
BEMAßUNG
  0
POLYLINE
  5
E7
330
1F
100
AcDbEntity
  8
BEMAßUNG
 62
     7
100
AcDb2dPolyline
 66
     1
 10
0.0
 20
0.0
 30
0.0
  0
VERTEX
  5
E8
330
E7
100
AcDbEntity
  8
BEMAßUNG
 62
     7
100
AcDbVertex
100
AcDb2dVertex
 10
-19.02691785548633
 20
-41.59522161503522
 30
0.0
  0
VERTEX
  5
E9
330
E7
100
AcDbEntity
  8
BEMAßUNG
 62
     7
100
AcDbVertex
100
AcDb2dVertex
 10
-19.02691785548633
 20
-44.09722221119792
 30
0.0
  0
SEQEND
  5
EA
330
E7
100
AcDbEntity
  8
BEMAßUNG
  0
POLYLINE
  5
EB
330
1F
100
AcDbEntity
  8
BEMAßUNG
 62
     7
100
AcDb2dPolyline
 66
     1
 10
0.0
 20
0.0
 30
0.0
  0
VERTEX
  5
EC
330
EB
100
AcDbEntity
  8
BEMAßUNG
 62
     7
100
AcDbVertex
100
AcDb2dVertex
 10
-19.3319810607052
 20
-41.59522161503522
 30
0.0
  0
VERTEX
  5
ED
330
EB
100
AcDbEntity
  8
BEMAßUNG
 62
     7
100
AcDbVertex
100
AcDb2dVertex
 10
-19.3319810607052
 20
-41.78194579033577
 30
0.0
  0
SEQEND
  5
EE
330
EB
100
AcDbEntity
  8
BEMAßUNG
  0
POLYLINE
  5
EF
330
1F
100
AcDbEntity
  8
BEMAßUNG
 62
     7
100
AcDb2dPolyline
 66
     1
 10
0.0
 20
0.0
 30
0.0
  0
VERTEX
  5
F0
330
EF
100
AcDbEntity
  8
BEMAßUNG
 62
     7
100
AcDbVertex
100
AcDb2dVertex
 10
-19.3319810607052
 20
-41.59522161503522
 30
0.0
  0
VERTEX
  5
F1
330
EF
100
AcDbEntity
  8
BEMAßUNG
 62
     7
100
AcDbVertex
100
AcDb2dVertex
 10
-19.3319810607052
 20
-41.78194579033577
 30
0.0
  0
SEQEND
  5
F2
330
EF
100
AcDbEntity
  8
BEMAßUNG
  0
POLYLINE
  5
F3
330
1F
100
AcDbEntity
  8
BEMAßUNG
 62
     7
100
AcDb2dPolyline
 66
     1
 10
0.0
 20
0.0
 30
0.0
  0
VERTEX
  5
F4
330
F3
100
AcDbEntity
  8
BEMAßUNG
 62
     7
100
AcDbVertex
100
AcDb2dVertex
 10
-19.28116590229777
 20
-41.59522161503522
 30
0.0
  0
VERTEX
  5
F5
330
F3
100
AcDbEntity
  8
BEMAßUNG
 62
     7
100
AcDbVertex
100
AcDb2dVertex
 10
-19.28116590229777
 20
-42.16814099423227
 30
0.0
  0
SEQEND
  5
F6
330
F3
100
AcDbEntity
  8
BEMAßUNG
  0
POLYLINE
  5
F7
330
1F
100
AcDbEntity
  8
BEMAßUNG
 62
     7
100
AcDb2dPolyline
 66
     1
 10
0.0
 20
0.0
 30
0.0
  0
VERTEX
  5
F8
330
F7
100
AcDbEntity
  8
BEMAßUNG
 62
     7
100
AcDbVertex
100
AcDb2dVertex
 10
-19.2300062343418
 20
-41.59522161503522
 30
0.0
  0
VERTEX
  5
F9
330
F7
100
AcDbEntity
  8
BEMAßUNG
 62
     7
100
AcDbVertex
100
AcDb2dVertex
 10
-19.2300062343418
 20
-42.55347492425746
 30
0.0
  0
SEQEND
  5
FA
330
F7
100
AcDbEntity
  8
BEMAßUNG
  0
POLYLINE
  5
FB
330
1F
100
AcDbEntity
  8
BEMAßUNG
 62
     7
100
AcDb2dPolyline
 66
     1
 10
0.0
 20
0.0
 30
0.0
  0
VERTEX
  5
FC
330
FB
100
AcDbEntity
  8
BEMAßUNG
 62
     7
100
AcDbVertex
100
AcDb2dVertex
 10
-19.17936333070863
 20
-41.59522161503522
 30
0.0
  0
VERTEX
  5
FD
330
FB
100
AcDbEntity
  8
BEMAßUNG
 62
     7
100
AcDbVertex
100
AcDb2dVertex
 10
-19.17936333070863
 20
-42.93967012815397
 30
0.0
  0
SEQEND
  5
FE
330
FB
100
AcDbEntity
  8
BEMAßUNG
  0
POLYLINE
  5
FF
330
1F
100
AcDbEntity
  8
BEMAßUNG
 62
     7
100
AcDb2dPolyline
 66
     1
 10
0.0
 20
0.0
 30
0.0
  0
VERTEX
  5
100
330
FF
100
AcDbEntity
  8
BEMAßUNG
 62
     7
100
AcDbVertex
100
AcDb2dVertex
 10
-19.1285481723012
 20
-41.59522161503522
 30
0.0
  0
VERTEX
  5
101
330
FF
100
AcDbEntity
  8
BEMAßUNG
 62
     7
100
AcDbVertex
100
AcDb2dVertex
 10
-19.1285481723012
 20
-43.32534856772769
 30
0.0
  0
SEQEND
  5
102
330
FF
100
AcDbEntity
  8
BEMAßUNG
  0
POLYLINE
  5
103
330
1F
100
AcDbEntity
  8
BEMAßUNG
 62
     7
100
AcDb2dPolyline
 66
     1
 10
0.0
 20
0.0
 30
0.0
  0
VERTEX
  5
104
330
103
100
AcDbEntity
  8
BEMAßUNG
 62
     7
100
AcDbVertex
100
AcDb2dVertex
 10
-19.07773301389376
 20
-41.59522161503522
 30
0.0
  0
VERTEX
  5
105
330
103
100
AcDbEntity
  8
BEMAßUNG
 62
     7
100
AcDbVertex
100
AcDb2dVertex
 10
-19.07773301389376
 20
-43.71119926207567
 30
0.0
  0
SEQEND
  5
106
330
103
100
AcDbEntity
  8
BEMAßUNG
  0
POLYLINE
  5
107
330
1F
100
AcDbEntity
  8
BEMAßUNG
 62
     7
100
AcDb2dPolyline
 66
     1
 10
0.0
 20
0.0
 30
0.0
  0
VERTEX
  5
108
330
107
100
AcDbEntity
  8
BEMAßUNG
 62
     7
100
AcDbVertex
100
AcDb2dVertex
 10
-19.02691785548633
 20
-41.59522161503522
 30
0.0
  0
VERTEX
  5
109
330
107
100
AcDbEntity
  8
BEMAßUNG
 62
     7
100
AcDbVertex
100
AcDb2dVertex
 10
-19.02691785548633
 20
-44.09722221119792
 30
0.0
  0
SEQEND
  5
10A
330
107
100
AcDbEntity
  8
BEMAßUNG
  0
POLYLINE
  5
10B
330
1F
100
AcDbEntity
  8
BEMAßUNG
 62
     7
100
AcDb2dPolyline
 66
     1
 10
0.0
 20
0.0
 30
0.0
  0
VERTEX
  5
10C
330
10B
100
AcDbEntity
  8
BEMAßUNG
 62
     7
100
AcDbVertex
100
AcDb2dVertex
 10
-19.02691785548633
 20
-24.09723713590278
 30
0.0
  0
VERTEX
  5
10D
330
10B
100
AcDbEntity
  8
BEMAßUNG
 62
     7
100
AcDbVertex
100
AcDb2dVertex
 10
-19.35609672910195
 20
-26.59906547729121
 30
0.0
  0
VERTEX
  5
10E
330
10B
100
AcDbEntity
  8
BEMAßUNG
 62
     7
100
AcDbVertex
100
AcDb2dVertex
 10
-18.69773898187071
 20
-26.59906547729121
 30
0.0
  0
VERTEX
  5
10F
330
10B
100
AcDbEntity
  8
BEMAßUNG
 62
     7
100
AcDbVertex
100
AcDb2dVertex
 10
-19.02691785548633
 20
-24.09723713590278
 30
0.0
  0
SEQEND
  5
110
330
10B
100
AcDbEntity
  8
BEMAßUNG
  0
POLYLINE
  5
111
330
1F
100
AcDbEntity
  8
BEMAßUNG
 62
     7
100
AcDb2dPolyline
 66
     1
 10
0.0
 20
0.0
 30
0.0
  0
VERTEX
  5
112
330
111
100
AcDbEntity
  8
BEMAßUNG
 62
     7
100
AcDbVertex
100
AcDb2dVertex
 10
-19.3319810607052
 20
-26.59906547729121
 30
0.0
  0
VERTEX
  5
113
330
111
100
AcDbEntity
  8
BEMAßUNG
 62
     7
100
AcDbVertex
100
AcDb2dVertex
 10
-19.3319810607052
 20
-26.41251355676493
 30
0.0
  0
SEQEND
  5
114
330
111
100
AcDbEntity
  8
BEMAßUNG
  0
POLYLINE
  5
115
330
1F
100
AcDbEntity
  8
BEMAßUNG
 62
     7
100
AcDb2dPolyline
 66
     1
 10
0.0
 20
0.0
 30
0.0
  0
VERTEX
  5
116
330
115
100
AcDbEntity
  8
BEMAßUNG
 62
     7
100
AcDbVertex
100
AcDb2dVertex
 10
-19.3319810607052
 20
-26.59906547729121
 30
0.0
  0
VERTEX
  5
117
330
115
100
AcDbEntity
  8
BEMAßUNG
 62
     7
100
AcDbVertex
100
AcDb2dVertex
 10
-19.3319810607052
 20
-26.41251355676493
 30
0.0
  0
SEQEND
  5
118
330
115
100
AcDbEntity
  8
BEMAßUNG
  0
POLYLINE
  5
119
330
1F
100
AcDbEntity
  8
BEMAßUNG
 62
     7
100
AcDb2dPolyline
 66
     1
 10
0.0
 20
0.0
 30
0.0
  0
VERTEX
  5
11A
330
119
100
AcDbEntity
  8
BEMAßUNG
 62
     7
100
AcDbVertex
100
AcDb2dVertex
 10
-19.28116590229777
 20
-26.59906547729121
 30
0.0
  0
VERTEX
  5
11B
330
119
100
AcDbEntity
  8
BEMAßUNG
 62
     7
100
AcDbVertex
100
AcDb2dVertex
 10
-19.28116590229777
 20
-26.02683511719121
 30
0.0
  0
SEQEND
  5
11C
330
119
100
AcDbEntity
  8
BEMAßUNG
  0
POLYLINE
  5
11D
330
1F
100
AcDbEntity
  8
BEMAßUNG
 62
     7
100
AcDb2dPolyline
 66
     1
 10
0.0
 20
0.0
 30
0.0
  0
VERTEX
  5
11E
330
11D
100
AcDbEntity
  8
BEMAßUNG
 62
     7
100
AcDbVertex
100
AcDb2dVertex
 10
-19.2300062343418
 20
-26.59906547729121
 30
0.0
  0
VERTEX
  5
11F
330
11D
100
AcDbEntity
  8
BEMAßUNG
 62
     7
100
AcDbVertex
100
AcDb2dVertex
 10
-19.2300062343418
 20
-25.6406399132947
 30
0.0
  0
SEQEND
  5
120
330
11D
100
AcDbEntity
  8
BEMAßUNG
  0
POLYLINE
  5
121
330
1F
100
AcDbEntity
  8
BEMAßUNG
 62
     7
100
AcDb2dPolyline
 66
     1
 10
0.0
 20
0.0
 30
0.0
  0
VERTEX
  5
122
330
121
100
AcDbEntity
  8
BEMAßUNG
 62
     7
100
AcDbVertex
100
AcDb2dVertex
 10
-19.17936333070863
 20
-26.59906547729121
 30
0.0
  0
VERTEX
  5
123
330
121
100
AcDbEntity
  8
BEMAßUNG
 62
     7
100
AcDbVertex
100
AcDb2dVertex
 10
-19.17936333070863
 20
-25.25496147372098
 30
0.0
  0
SEQEND
  5
124
330
121
100
AcDbEntity
  8
BEMAßUNG
  0
POLYLINE
  5
125
330
1F
100
AcDbEntity
  8
BEMAßUNG
 62
     7
100
AcDb2dPolyline
 66
     1
 10
0.0
 20
0.0
 30
0.0
  0
VERTEX
  5
126
330
125
100
AcDbEntity
  8
BEMAßUNG
 62
     7
100
AcDbVertex
100
AcDb2dVertex
 10
-19.1285481723012
 20
-26.59906547729121
 30
0.0
  0
VERTEX
  5
127
330
125
100
AcDbEntity
  8
BEMAßUNG
 62
     7
100
AcDbVertex
100
AcDb2dVertex
 10
-19.1285481723012
 20
-24.869110779373
 30
0.0
  0
SEQEND
  5
128
330
125
100
AcDbEntity
  8
BEMAßUNG
  0
POLYLINE
  5
129
330
1F
100
AcDbEntity
  8
BEMAßUNG
 62
     7
100
AcDb2dPolyline
 66
     1
 10
0.0
 20
0.0
 30
0.0
  0
VERTEX
  5
12A
330
129
100
AcDbEntity
  8
BEMAßUNG
 62
     7
100
AcDbVertex
100
AcDb2dVertex
 10
-19.07773301389376
 20
-26.59906547729121
 30
0.0
  0
VERTEX
  5
12B
330
129
100
AcDbEntity
  8
BEMAßUNG
 62
     7
100
AcDbVertex
100
AcDb2dVertex
 10
-19.07773301389376
 20
-24.48274332070223
 30
0.0
  0
SEQEND
  5
12C
330
129
100
AcDbEntity
  8
BEMAßUNG
  0
POLYLINE
  5
12D
330
1F
100
AcDbEntity
  8
BEMAßUNG
 62
     7
100
AcDb2dPolyline
 66
     1
 10
0.0
 20
0.0
 30
0.0
  0
VERTEX
  5
12E
330
12D
100
AcDbEntity
  8
BEMAßUNG
 62
     7
100
AcDbVertex
100
AcDb2dVertex
 10
-19.02691785548633
 20
-26.59906547729121
 30
0.0
  0
VERTEX
  5
12F
330
12D
100
AcDbEntity
  8
BEMAßUNG
 62
     7
100
AcDbVertex
100
AcDb2dVertex
 10
-19.02691785548633
 20
-24.09723713590278
 30
0.0
  0
SEQEND
  5
130
330
12D
100
AcDbEntity
  8
BEMAßUNG
  0
POLYLINE
  5
131
330
1F
100
AcDbEntity
  8
BEMAßUNG
 62
     7
100
AcDb2dPolyline
 66
     1
 10
0.0
 20
0.0
 30
0.0
  0
VERTEX
  5
132
330
131
100
AcDbEntity
  8
BEMAßUNG
 62
     7
100
AcDbVertex
100
AcDb2dVertex
 10
-18.72237141459024
 20
-26.59906547729121
 30
0.0
  0
VERTEX
  5
133
330
131
100
AcDbEntity
  8
BEMAßUNG
 62
     7
100
AcDbVertex
100
AcDb2dVertex
 10
-18.72237141459024
 20
-26.41251355676493
 30
0.0
  0
SEQEND
  5
134
330
131
100
AcDbEntity
  8
BEMAßUNG
  0
POLYLINE
  5
135
330
1F
100
AcDbEntity
  8
BEMAßUNG
 62
     7
100
AcDb2dPolyline
 66
     1
 10
0.0
 20
0.0
 30
0.0
  0
VERTEX
  5
136
330
135
100
AcDbEntity
  8
BEMAßUNG
 62
     7
100
AcDbVertex
100
AcDb2dVertex
 10
-18.72237141459024
 20
-26.59906547729121
 30
0.0
  0
VERTEX
  5
137
330
135
100
AcDbEntity
  8
BEMAßUNG
 62
     7
100
AcDbVertex
100
AcDb2dVertex
 10
-18.72237141459024
 20
-26.41251355676493
 30
0.0
  0
SEQEND
  5
138
330
135
100
AcDbEntity
  8
BEMAßUNG
  0
POLYLINE
  5
139
330
1F
100
AcDbEntity
  8
BEMAßUNG
 62
     7
100
AcDb2dPolyline
 66
     1
 10
0.0
 20
0.0
 30
0.0
  0
VERTEX
  5
13A
330
139
100
AcDbEntity
  8
BEMAßUNG
 62
     7
100
AcDbVertex
100
AcDb2dVertex
 10
-18.77284206344915
 20
-26.59906547729121
 30
0.0
  0
VERTEX
  5
13B
330
139
100
AcDbEntity
  8
BEMAßUNG
 62
     7
100
AcDbVertex
100
AcDb2dVertex
 10
-18.77284206344915
 20
-26.02683511719121
 30
0.0
  0
SEQEND
  5
13C
330
139
100
AcDbEntity
  8
BEMAßUNG
  0
POLYLINE
  5
13D
330
1F
100
AcDbEntity
  8
BEMAßUNG
 62
     7
100
AcDb2dPolyline
 66
     1
 10
0.0
 20
0.0
 30
0.0
  0
VERTEX
  5
13E
330
13D
100
AcDbEntity
  8
BEMAßUNG
 62
     7
100
AcDbVertex
100
AcDb2dVertex
 10
-18.82365722185659
 20
-26.59906547729121
 30
0.0
  0
VERTEX
  5
13F
330
13D
100
AcDbEntity
  8
BEMAßUNG
 62
     7
100
AcDbVertex
100
AcDb2dVertex
 10
-18.82365722185659
 20
-25.6406399132947
 30
0.0
  0
SEQEND
  5
140
330
13D
100
AcDbEntity
  8
BEMAßUNG
  0
POLYLINE
  5
141
330
1F
100
AcDbEntity
  8
BEMAßUNG
 62
     7
100
AcDb2dPolyline
 66
     1
 10
0.0
 20
0.0
 30
0.0
  0
VERTEX
  5
142
330
141
100
AcDbEntity
  8
BEMAßUNG
 62
     7
100
AcDbVertex
100
AcDb2dVertex
 10
-18.87447238026402
 20
-26.59906547729121
 30
0.0
  0
VERTEX
  5
143
330
141
100
AcDbEntity
  8
BEMAßUNG
 62
     7
100
AcDbVertex
100
AcDb2dVertex
 10
-18.87447238026402
 20
-25.25496147372098
 30
0.0
  0
SEQEND
  5
144
330
141
100
AcDbEntity
  8
BEMAßUNG
  0
POLYLINE
  5
145
330
1F
100
AcDbEntity
  8
BEMAßUNG
 62
     7
100
AcDb2dPolyline
 66
     1
 10
0.0
 20
0.0
 30
0.0
  0
VERTEX
  5
146
330
145
100
AcDbEntity
  8
BEMAßUNG
 62
     7
100
AcDbVertex
100
AcDb2dVertex
 10
-18.92528753867146
 20
-26.59906547729121
 30
0.0
  0
VERTEX
  5
147
330
145
100
AcDbEntity
  8
BEMAßUNG
 62
     7
100
AcDbVertex
100
AcDb2dVertex
 10
-18.92528753867146
 20
-24.869110779373
 30
0.0
  0
SEQEND
  5
148
330
145
100
AcDbEntity
  8
BEMAßUNG
  0
POLYLINE
  5
149
330
1F
100
AcDbEntity
  8
BEMAßUNG
 62
     7
100
AcDb2dPolyline
 66
     1
 10
0.0
 20
0.0
 30
0.0
  0
VERTEX
  5
14A
330
149
100
AcDbEntity
  8
BEMAßUNG
 62
     7
100
AcDbVertex
100
AcDb2dVertex
 10
-18.97610269707889
 20
-26.59906547729121
 30
0.0
  0
VERTEX
  5
14B
330
149
100
AcDbEntity
  8
BEMAßUNG
 62
     7
100
AcDbVertex
100
AcDb2dVertex
 10
-18.97610269707889
 20
-24.48274332070223
 30
0.0
  0
SEQEND
  5
14C
330
149
100
AcDbEntity
  8
BEMAßUNG
  0
POLYLINE
  5
14D
330
1F
100
AcDbEntity
  8
BEMAßUNG
 62
     7
100
AcDb2dPolyline
 66
     1
 10
0.0
 20
0.0
 30
0.0
  0
VERTEX
  5
14E
330
14D
100
AcDbEntity
  8
BEMAßUNG
 62
     7
100
AcDbVertex
100
AcDb2dVertex
 10
-19.02691785548633
 20
-26.59906547729121
 30
0.0
  0
VERTEX
  5
14F
330
14D
100
AcDbEntity
  8
BEMAßUNG
 62
     7
100
AcDbVertex
100
AcDb2dVertex
 10
-19.02691785548633
 20
-24.09723713590278
 30
0.0
  0
SEQEND
  5
150
330
14D
100
AcDbEntity
  8
BEMAßUNG
  0
POLYLINE
  5
151
330
1F
100
AcDbEntity
  8
BEMAßUNG
 62
     7
100
AcDb2dPolyline
 66
     1
 10
0.0
 20
0.0
 30
0.0
  0
VERTEX
  5
152
330
151
100
AcDbEntity
  8
BEMAßUNG
 62
     7
100
AcDbVertex
100
AcDb2dVertex
 10
1.05833333306875
 20
-26.59734292954858
 30
0.0
  0
VERTEX
  5
153
330
151
100
AcDbEntity
  8
BEMAßUNG
 62
     7
100
AcDbVertex
100
AcDb2dVertex
 10
-11.05927327197477
 20
-26.59734292954858
 30
0.0
  0
SEQEND
  5
154
330
151
100
AcDbEntity
  8
BEMAßUNG
  0
POLYLINE
  5
155
330
1F
100
AcDbEntity
  8
BEMAßUNG
 62
     7
100
AcDb2dPolyline
 66
     1
 10
0.0
 20
0.0
 30
0.0
  0
VERTEX
  5
156
330
155
100
AcDbEntity
  8
BEMAßUNG
 62
     7
100
AcDbVertex
100
AcDb2dVertex
 10
1.05833333306875
 20
-41.59711641755211
 30
0.0
  0
VERTEX
  5
157
330
155
100
AcDbEntity
  8
BEMAßUNG
 62
     7
100
AcDbVertex
100
AcDb2dVertex
 10
-11.05927327197477
 20
-41.59711641755211
 30
0.0
  0
SEQEND
  5
158
330
155
100
AcDbEntity
  8
BEMAßUNG
  0
POLYLINE
  5
159
330
1F
100
AcDbEntity
  8
BEMAßUNG
 62
     7
100
AcDb2dPolyline
 66
     1
 10
0.0
 20
0.0
 30
0.0
  0
VERTEX
  5
15A
330
159
100
AcDbEntity
  8
BEMAßUNG
 62
     7
100
AcDbVertex
100
AcDb2dVertex
 10
-9.05905083323871
 20
-26.59734292954858
 30
0.0
  0
VERTEX
  5
15B
330
159
100
AcDbEntity
  8
BEMAßUNG
 62
     7
100
AcDbVertex
100
AcDb2dVertex
 10
-9.05905083323871
 20
-41.59711641755211
 30
0.0
  0
SEQEND
  5
15C
330
159
100
AcDbEntity
  8
BEMAßUNG
  0
POLYLINE
  5
15D
330
1F
100
AcDbEntity
  8
BEMAßUNG
 62
     7
100
AcDb2dPolyline
 66
     1
 10
0.0
 20
0.0
 30
0.0
  0
VERTEX
  5
15E
330
15D
100
AcDbEntity
  8
BEMAßUNG
 62
     7
100
AcDbVertex
100
AcDb2dVertex
 10
-9.05905083323871
 20
-26.59734292954858
 30
0.0
  0
VERTEX
  5
15F
330
15D
100
AcDbEntity
  8
BEMAßUNG
 62
     7
100
AcDbVertex
100
AcDb2dVertex
 10
-9.388229706854332
 20
-29.09710421364586
 30
0.0
  0
VERTEX
  5
160
330
15D
100
AcDbEntity
  8
BEMAßUNG
 62
     7
100
AcDbVertex
100
AcDb2dVertex
 10
-8.730216469171612
 20
-29.09710421364586
 30
0.0
  0
VERTEX
  5
161
330
15D
100
AcDbEntity
  8
BEMAßUNG
 62
     7
100
AcDbVertex
100
AcDb2dVertex
 10
-9.05905083323871
 20
-26.59734292954858
 30
0.0
  0
SEQEND
  5
162
330
15D
100
AcDbEntity
  8
BEMAßUNG
  0
POLYLINE
  5
163
330
1F
100
AcDbEntity
  8
BEMAßUNG
 62
     7
100
AcDb2dPolyline
 66
     1
 10
0.0
 20
0.0
 30
0.0
  0
VERTEX
  5
164
330
163
100
AcDbEntity
  8
BEMAßUNG
 62
     7
100
AcDbVertex
100
AcDb2dVertex
 10
-9.364286293231846
 20
-29.09710421364586
 30
0.0
  0
VERTEX
  5
165
330
163
100
AcDbEntity
  8
BEMAßUNG
 62
     7
100
AcDbVertex
100
AcDb2dVertex
 10
-9.364286293231846
 20
-28.91227484086221
 30
0.0
  0
SEQEND
  5
166
330
163
100
AcDbEntity
  8
BEMAßUNG
  0
POLYLINE
  5
167
330
1F
100
AcDbEntity
  8
BEMAßUNG
 62
     7
100
AcDb2dPolyline
 66
     1
 10
0.0
 20
0.0
 30
0.0
  0
VERTEX
  5
168
330
167
100
AcDbEntity
  8
BEMAßUNG
 62
     7
100
AcDbVertex
100
AcDb2dVertex
 10
-9.364286293231846
 20
-29.09710421364586
 30
0.0
  0
VERTEX
  5
169
330
167
100
AcDbEntity
  8
BEMAßUNG
 62
     7
100
AcDbVertex
100
AcDb2dVertex
 10
-9.364286293231846
 20
-28.91227484086221
 30
0.0
  0
SEQEND
  5
16A
330
167
100
AcDbEntity
  8
BEMAßUNG
  0
POLYLINE
  5
16B
330
1F
100
AcDbEntity
  8
BEMAßUNG
 62
     7
100
AcDb2dPolyline
 66
     1
 10
0.0
 20
0.0
 30
0.0
  0
VERTEX
  5
16C
330
16B
100
AcDbEntity
  8
BEMAßUNG
 62
     7
100
AcDbVertex
100
AcDb2dVertex
 10
-9.313471134824411
 20
-29.09710421364586
 30
0.0
  0
VERTEX
  5
16D
330
16B
100
AcDbEntity
  8
BEMAßUNG
 62
     7
100
AcDbVertex
100
AcDb2dVertex
 10
-9.313471134824411
 20
-28.52659640128849
 30
0.0
  0
SEQEND
  5
16E
330
16B
100
AcDbEntity
  8
BEMAßUNG
  0
POLYLINE
  5
16F
330
1F
100
AcDbEntity
  8
BEMAßUNG
 62
     7
100
AcDb2dPolyline
 66
     1
 10
0.0
 20
0.0
 30
0.0
  0
VERTEX
  5
170
330
16F
100
AcDbEntity
  8
BEMAßUNG
 62
     7
100
AcDbVertex
100
AcDb2dVertex
 10
-9.262655976416974
 20
-29.09710421364586
 30
0.0
  0
VERTEX
  5
171
330
16F
100
AcDbEntity
  8
BEMAßUNG
 62
     7
100
AcDbVertex
100
AcDb2dVertex
 10
-9.262655976416974
 20
-28.14074570694051
 30
0.0
  0
SEQEND
  5
172
330
16F
100
AcDbEntity
  8
BEMAßUNG
  0
POLYLINE
  5
173
330
1F
100
AcDbEntity
  8
BEMAßUNG
 62
     7
100
AcDb2dPolyline
 66
     1
 10
0.0
 20
0.0
 30
0.0
  0
VERTEX
  5
174
330
173
100
AcDbEntity
  8
BEMAßUNG
 62
     7
100
AcDbVertex
100
AcDb2dVertex
 10
-9.21184081800954
 20
-29.09710421364586
 30
0.0
  0
VERTEX
  5
175
330
173
100
AcDbEntity
  8
BEMAßUNG
 62
     7
100
AcDbVertex
100
AcDb2dVertex
 10
-9.21184081800954
 20
-27.75506726736679
 30
0.0
  0
SEQEND
  5
176
330
173
100
AcDbEntity
  8
BEMAßUNG
  0
POLYLINE
  5
177
330
1F
100
AcDbEntity
  8
BEMAßUNG
 62
     7
100
AcDb2dPolyline
 66
     1
 10
0.0
 20
0.0
 30
0.0
  0
VERTEX
  5
178
330
177
100
AcDbEntity
  8
BEMAßUNG
 62
     7
100
AcDbVertex
100
AcDb2dVertex
 10
-9.161025659602105
 20
-29.09710421364586
 30
0.0
  0
VERTEX
  5
179
330
177
100
AcDbEntity
  8
BEMAßUNG
 62
     7
100
AcDbVertex
100
AcDb2dVertex
 10
-9.161025659602105
 20
-27.36887206347028
 30
0.0
  0
SEQEND
  5
17A
330
177
100
AcDbEntity
  8
BEMAßUNG
  0
POLYLINE
  5
17B
330
1F
100
AcDbEntity
  8
BEMAßUNG
 62
     7
100
AcDb2dPolyline
 66
     1
 10
0.0
 20
0.0
 30
0.0
  0
VERTEX
  5
17C
330
17B
100
AcDbEntity
  8
BEMAßUNG
 62
     7
100
AcDbVertex
100
AcDb2dVertex
 10
-9.11021050119467
 20
-29.09710421364586
 30
0.0
  0
VERTEX
  5
17D
330
17B
100
AcDbEntity
  8
BEMAßUNG
 62
     7
100
AcDbVertex
100
AcDb2dVertex
 10
-9.11021050119467
 20
-26.98319362389656
 30
0.0
  0
SEQEND
  5
17E
330
17B
100
AcDbEntity
  8
BEMAßUNG
  0
POLYLINE
  5
17F
330
1F
100
AcDbEntity
  8
BEMAßUNG
 62
     7
100
AcDb2dPolyline
 66
     1
 10
0.0
 20
0.0
 30
0.0
  0
VERTEX
  5
180
330
17F
100
AcDbEntity
  8
BEMAßUNG
 62
     7
100
AcDbVertex
100
AcDb2dVertex
 10
-9.05905083323871
 20
-29.09710421364586
 30
0.0
  0
VERTEX
  5
181
330
17F
100
AcDbEntity
  8
BEMAßUNG
 62
     7
100
AcDbVertex
100
AcDb2dVertex
 10
-9.05905083323871
 20
-26.59734292954858
 30
0.0
  0
SEQEND
  5
182
330
17F
100
AcDbEntity
  8
BEMAßUNG
  0
POLYLINE
  5
183
330
1F
100
AcDbEntity
  8
BEMAßUNG
 62
     7
100
AcDb2dPolyline
 66
     1
 10
0.0
 20
0.0
 30
0.0
  0
VERTEX
  5
184
330
183
100
AcDbEntity
  8
BEMAßUNG
 62
     7
100
AcDbVertex
100
AcDb2dVertex
 10
-8.754332137568362
 20
-29.09710421364586
 30
0.0
  0
VERTEX
  5
185
330
183
100
AcDbEntity
  8
BEMAßUNG
 62
     7
100
AcDbVertex
100
AcDb2dVertex
 10
-8.754332137568362
 20
-28.91227484086221
 30
0.0
  0
SEQEND
  5
186
330
183
100
AcDbEntity
  8
BEMAßUNG
  0
POLYLINE
  5
187
330
1F
100
AcDbEntity
  8
BEMAßUNG
 62
     7
100
AcDb2dPolyline
 66
     1
 10
0.0
 20
0.0
 30
0.0
  0
VERTEX
  5
188
330
187
100
AcDbEntity
  8
BEMAßUNG
 62
     7
100
AcDbVertex
100
AcDb2dVertex
 10
-8.754332137568362
 20
-29.09710421364586
 30
0.0
  0
VERTEX
  5
189
330
187
100
AcDbEntity
  8
BEMAßUNG
 62
     7
100
AcDbVertex
100
AcDb2dVertex
 10
-8.754332137568362
 20
-28.91227484086221
 30
0.0
  0
SEQEND
  5
18A
330
187
100
AcDbEntity
  8
BEMAßUNG
  0
POLYLINE
  5
18B
330
1F
100
AcDbEntity
  8
BEMAßUNG
 62
     7
100
AcDb2dPolyline
 66
     1
 10
0.0
 20
0.0
 30
0.0
  0
VERTEX
  5
18C
330
18B
100
AcDbEntity
  8
BEMAßUNG
 62
     7
100
AcDbVertex
100
AcDb2dVertex
 10
-8.805147295975797
 20
-29.09710421364586
 30
0.0
  0
VERTEX
  5
18D
330
18B
100
AcDbEntity
  8
BEMAßUNG
 62
     7
100
AcDbVertex
100
AcDb2dVertex
 10
-8.805147295975797
 20
-28.52659640128849
 30
0.0
  0
SEQEND
  5
18E
330
18B
100
AcDbEntity
  8
BEMAßUNG
  0
POLYLINE
  5
18F
330
1F
100
AcDbEntity
  8
BEMAßUNG
 62
     7
100
AcDb2dPolyline
 66
     1
 10
0.0
 20
0.0
 30
0.0
  0
VERTEX
  5
190
330
18F
100
AcDbEntity
  8
BEMAßUNG
 62
     7
100
AcDbVertex
100
AcDb2dVertex
 10
-8.85579019960897
 20
-29.09710421364586
 30
0.0
  0
VERTEX
  5
191
330
18F
100
AcDbEntity
  8
BEMAßUNG
 62
     7
100
AcDbVertex
100
AcDb2dVertex
 10
-8.85579019960897
 20
-28.14074570694051
 30
0.0
  0
SEQEND
  5
192
330
18F
100
AcDbEntity
  8
BEMAßUNG
  0
POLYLINE
  5
193
330
1F
100
AcDbEntity
  8
BEMAßUNG
 62
     7
100
AcDb2dPolyline
 66
     1
 10
0.0
 20
0.0
 30
0.0
  0
VERTEX
  5
194
330
193
100
AcDbEntity
  8
BEMAßUNG
 62
     7
100
AcDbVertex
100
AcDb2dVertex
 10
-8.906605358016405
 20
-29.09710421364586
 30
0.0
  0
VERTEX
  5
195
330
193
100
AcDbEntity
  8
BEMAßUNG
 62
     7
100
AcDbVertex
100
AcDb2dVertex
 10
-8.906605358016405
 20
-27.75506726736679
 30
0.0
  0
SEQEND
  5
196
330
193
100
AcDbEntity
  8
BEMAßUNG
  0
POLYLINE
  5
197
330
1F
100
AcDbEntity
  8
BEMAßUNG
 62
     7
100
AcDb2dPolyline
 66
     1
 10
0.0
 20
0.0
 30
0.0
  0
VERTEX
  5
198
330
197
100
AcDbEntity
  8
BEMAßUNG
 62
     7
100
AcDbVertex
100
AcDb2dVertex
 10
-8.95742051642384
 20
-29.09710421364586
 30
0.0
  0
VERTEX
  5
199
330
197
100
AcDbEntity
  8
BEMAßUNG
 62
     7
100
AcDbVertex
100
AcDb2dVertex
 10
-8.95742051642384
 20
-27.36887206347028
 30
0.0
  0
SEQEND
  5
19A
330
197
100
AcDbEntity
  8
BEMAßUNG
  0
POLYLINE
  5
19B
330
1F
100
AcDbEntity
  8
BEMAßUNG
 62
     7
100
AcDb2dPolyline
 66
     1
 10
0.0
 20
0.0
 30
0.0
  0
VERTEX
  5
19C
330
19B
100
AcDbEntity
  8
BEMAßUNG
 62
     7
100
AcDbVertex
100
AcDb2dVertex
 10
-9.008235674831274
 20
-29.09710421364586
 30
0.0
  0
VERTEX
  5
19D
330
19B
100
AcDbEntity
  8
BEMAßUNG
 62
     7
100
AcDbVertex
100
AcDb2dVertex
 10
-9.008235674831274
 20
-26.98319362389656
 30
0.0
  0
SEQEND
  5
19E
330
19B
100
AcDbEntity
  8
BEMAßUNG
  0
POLYLINE
  5
19F
330
1F
100
AcDbEntity
  8
BEMAßUNG
 62
     7
100
AcDb2dPolyline
 66
     1
 10
0.0
 20
0.0
 30
0.0
  0
VERTEX
  5
1A0
330
19F
100
AcDbEntity
  8
BEMAßUNG
 62
     7
100
AcDbVertex
100
AcDb2dVertex
 10
-9.05905083323871
 20
-29.09710421364586
 30
0.0
  0
VERTEX
  5
1A1
330
19F
100
AcDbEntity
  8
BEMAßUNG
 62
     7
100
AcDbVertex
100
AcDb2dVertex
 10
-9.05905083323871
 20
-26.59734292954858
 30
0.0
  0
SEQEND
  5
1A2
330
19F
100
AcDbEntity
  8
BEMAßUNG
  0
POLYLINE
  5
1A3
330
1F
100
AcDbEntity
  8
BEMAßUNG
 62
     7
100
AcDb2dPolyline
 66
     1
 10
0.0
 20
0.0
 30
0.0
  0
VERTEX
  5
1A4
330
1A3
100
AcDbEntity
  8
BEMAßUNG
 62
     7
100
AcDbVertex
100
AcDb2dVertex
 10
-9.05905083323871
 20
-41.59711641755211
 30
0.0
  0
VERTEX
  5
1A5
330
1A3
100
AcDbEntity
  8
BEMAßUNG
 62
     7
100
AcDbVertex
100
AcDb2dVertex
 10
-8.730216469171612
 20
-39.09683836913204
 30
0.0
  0
VERTEX
  5
1A6
330
1A3
100
AcDbEntity
  8
BEMAßUNG
 62
     7
100
AcDbVertex
100
AcDb2dVertex
 10
-9.388229706854332
 20
-39.09683836913204
 30
0.0
  0
VERTEX
  5
1A7
330
1A3
100
AcDbEntity
  8
BEMAßUNG
 62
     7
100
AcDbVertex
100
AcDb2dVertex
 10
-9.05905083323871
 20
-41.59711641755211
 30
0.0
  0
SEQEND
  5
1A8
330
1A3
100
AcDbEntity
  8
BEMAßUNG
  0
POLYLINE
  5
1A9
330
1F
100
AcDbEntity
  8
BEMAßUNG
 62
     7
100
AcDb2dPolyline
 66
     1
 10
0.0
 20
0.0
 30
0.0
  0
VERTEX
  5
1AA
330
1A9
100
AcDbEntity
  8
BEMAßUNG
 62
     7
100
AcDbVertex
100
AcDb2dVertex
 10
-8.754332137568362
 20
-39.09683836913204
 30
0.0
  0
VERTEX
  5
1AB
330
1A9
100
AcDbEntity
  8
BEMAßUNG
 62
     7
100
AcDbVertex
100
AcDb2dVertex
 10
-8.754332137568362
 20
-39.28183999668996
 30
0.0
  0
SEQEND
  5
1AC
330
1A9
100
AcDbEntity
  8
BEMAßUNG
  0
POLYLINE
  5
1AD
330
1F
100
AcDbEntity
  8
BEMAßUNG
 62
     7
100
AcDb2dPolyline
 66
     1
 10
0.0
 20
0.0
 30
0.0
  0
VERTEX
  5
1AE
330
1AD
100
AcDbEntity
  8
BEMAßUNG
 62
     7
100
AcDbVertex
100
AcDb2dVertex
 10
-8.754332137568362
 20
-39.09683836913204
 30
0.0
  0
VERTEX
  5
1AF
330
1AD
100
AcDbEntity
  8
BEMAßUNG
 62
     7
100
AcDbVertex
100
AcDb2dVertex
 10
-8.754332137568362
 20
-39.28183999668996
 30
0.0
  0
SEQEND
  5
1B0
330
1AD
100
AcDbEntity
  8
BEMAßUNG
  0
POLYLINE
  5
1B1
330
1F
100
AcDbEntity
  8
BEMAßUNG
 62
     7
100
AcDb2dPolyline
 66
     1
 10
0.0
 20
0.0
 30
0.0
  0
VERTEX
  5
1B2
330
1B1
100
AcDbEntity
  8
BEMAßUNG
 62
     7
100
AcDbVertex
100
AcDb2dVertex
 10
-8.805147295975797
 20
-39.09683836913204
 30
0.0
  0
VERTEX
  5
1B3
330
1B1
100
AcDbEntity
  8
BEMAßUNG
 62
     7
100
AcDbVertex
100
AcDb2dVertex
 10
-8.805147295975797
 20
-39.66803520058647
 30
0.0
  0
SEQEND
  5
1B4
330
1B1
100
AcDbEntity
  8
BEMAßUNG
  0
POLYLINE
  5
1B5
330
1F
100
AcDbEntity
  8
BEMAßUNG
 62
     7
100
AcDb2dPolyline
 66
     1
 10
0.0
 20
0.0
 30
0.0
  0
VERTEX
  5
1B6
330
1B5
100
AcDbEntity
  8
BEMAßUNG
 62
     7
100
AcDbVertex
100
AcDb2dVertex
 10
-8.85579019960897
 20
-39.09683836913204
 30
0.0
  0
VERTEX
  5
1B7
330
1B5
100
AcDbEntity
  8
BEMAßUNG
 62
     7
100
AcDbVertex
100
AcDb2dVertex
 10
-8.85579019960897
 20
-40.05371364016018
 30
0.0
  0
SEQEND
  5
1B8
330
1B5
100
AcDbEntity
  8
BEMAßUNG
  0
POLYLINE
  5
1B9
330
1F
100
AcDbEntity
  8
BEMAßUNG
 62
     7
100
AcDb2dPolyline
 66
     1
 10
0.0
 20
0.0
 30
0.0
  0
VERTEX
  5
1BA
330
1B9
100
AcDbEntity
  8
BEMAßUNG
 62
     7
100
AcDbVertex
100
AcDb2dVertex
 10
-8.906605358016405
 20
-39.09683836913204
 30
0.0
  0
VERTEX
  5
1BB
330
1B9
100
AcDbEntity
  8
BEMAßUNG
 62
     7
100
AcDbVertex
100
AcDb2dVertex
 10
-8.906605358016405
 20
-40.43990884405669
 30
0.0
  0
SEQEND
  5
1BC
330
1B9
100
AcDbEntity
  8
BEMAßUNG
  0
POLYLINE
  5
1BD
330
1F
100
AcDbEntity
  8
BEMAßUNG
 62
     7
100
AcDb2dPolyline
 66
     1
 10
0.0
 20
0.0
 30
0.0
  0
VERTEX
  5
1BE
330
1BD
100
AcDbEntity
  8
BEMAßUNG
 62
     7
100
AcDbVertex
100
AcDb2dVertex
 10
-8.95742051642384
 20
-39.09683836913204
 30
0.0
  0
VERTEX
  5
1BF
330
1BD
100
AcDbEntity
  8
BEMAßUNG
 62
     7
100
AcDbVertex
100
AcDb2dVertex
 10
-8.95742051642384
 20
-40.82524277408189
 30
0.0
  0
SEQEND
  5
1C0
330
1BD
100
AcDbEntity
  8
BEMAßUNG
  0
POLYLINE
  5
1C1
330
1F
100
AcDbEntity
  8
BEMAßUNG
 62
     7
100
AcDb2dPolyline
 66
     1
 10
0.0
 20
0.0
 30
0.0
  0
VERTEX
  5
1C2
330
1C1
100
AcDbEntity
  8
BEMAßUNG
 62
     7
100
AcDbVertex
100
AcDb2dVertex
 10
-9.008235674831274
 20
-39.09683836913204
 30
0.0
  0
VERTEX
  5
1C3
330
1C1
100
AcDbEntity
  8
BEMAßUNG
 62
     7
100
AcDbVertex
100
AcDb2dVertex
 10
-9.008235674831274
 20
-41.21143797797839
 30
0.0
  0
SEQEND
  5
1C4
330
1C1
100
AcDbEntity
  8
BEMAßUNG
  0
POLYLINE
  5
1C5
330
1F
100
AcDbEntity
  8
BEMAßUNG
 62
     7
100
AcDb2dPolyline
 66
     1
 10
0.0
 20
0.0
 30
0.0
  0
VERTEX
  5
1C6
330
1C5
100
AcDbEntity
  8
BEMAßUNG
 62
     7
100
AcDbVertex
100
AcDb2dVertex
 10
-9.05905083323871
 20
-39.09683836913204
 30
0.0
  0
VERTEX
  5
1C7
330
1C5
100
AcDbEntity
  8
BEMAßUNG
 62
     7
100
AcDbVertex
100
AcDb2dVertex
 10
-9.05905083323871
 20
-41.59711641755211
 30
0.0
  0
SEQEND
  5
1C8
330
1C5
100
AcDbEntity
  8
BEMAßUNG
  0
POLYLINE
  5
1C9
330
1F
100
AcDbEntity
  8
BEMAßUNG
 62
     7
100
AcDb2dPolyline
 66
     1
 10
0.0
 20
0.0
 30
0.0
  0
VERTEX
  5
1CA
330
1C9
100
AcDbEntity
  8
BEMAßUNG
 62
     7
100
AcDbVertex
100
AcDb2dVertex
 10
-9.364286293231846
 20
-39.09683836913204
 30
0.0
  0
VERTEX
  5
1CB
330
1C9
100
AcDbEntity
  8
BEMAßUNG
 62
     7
100
AcDbVertex
100
AcDb2dVertex
 10
-9.364286293231846
 20
-39.28183999668996
 30
0.0
  0
SEQEND
  5
1CC
330
1C9
100
AcDbEntity
  8
BEMAßUNG
  0
POLYLINE
  5
1CD
330
1F
100
AcDbEntity
  8
BEMAßUNG
 62
     7
100
AcDb2dPolyline
 66
     1
 10
0.0
 20
0.0
 30
0.0
  0
VERTEX
  5
1CE
330
1CD
100
AcDbEntity
  8
BEMAßUNG
 62
     7
100
AcDbVertex
100
AcDb2dVertex
 10
-9.364286293231846
 20
-39.09683836913204
 30
0.0
  0
VERTEX
  5
1CF
330
1CD
100
AcDbEntity
  8
BEMAßUNG
 62
     7
100
AcDbVertex
100
AcDb2dVertex
 10
-9.364286293231846
 20
-39.28183999668996
 30
0.0
  0
SEQEND
  5
1D0
330
1CD
100
AcDbEntity
  8
BEMAßUNG
  0
POLYLINE
  5
1D1
330
1F
100
AcDbEntity
  8
BEMAßUNG
 62
     7
100
AcDb2dPolyline
 66
     1
 10
0.0
 20
0.0
 30
0.0
  0
VERTEX
  5
1D2
330
1D1
100
AcDbEntity
  8
BEMAßUNG
 62
     7
100
AcDbVertex
100
AcDb2dVertex
 10
-9.313471134824411
 20
-39.09683836913204
 30
0.0
  0
VERTEX
  5
1D3
330
1D1
100
AcDbEntity
  8
BEMAßUNG
 62
     7
100
AcDbVertex
100
AcDb2dVertex
 10
-9.313471134824411
 20
-39.66803520058647
 30
0.0
  0
SEQEND
  5
1D4
330
1D1
100
AcDbEntity
  8
BEMAßUNG
  0
POLYLINE
  5
1D5
330
1F
100
AcDbEntity
  8
BEMAßUNG
 62
     7
100
AcDb2dPolyline
 66
     1
 10
0.0
 20
0.0
 30
0.0
  0
VERTEX
  5
1D6
330
1D5
100
AcDbEntity
  8
BEMAßUNG
 62
     7
100
AcDbVertex
100
AcDb2dVertex
 10
-9.262655976416974
 20
-39.09683836913204
 30
0.0
  0
VERTEX
  5
1D7
330
1D5
100
AcDbEntity
  8
BEMAßUNG
 62
     7
100
AcDbVertex
100
AcDb2dVertex
 10
-9.262655976416974
 20
-40.05371364016018
 30
0.0
  0
SEQEND
  5
1D8
330
1D5
100
AcDbEntity
  8
BEMAßUNG
  0
POLYLINE
  5
1D9
330
1F
100
AcDbEntity
  8
BEMAßUNG
 62
     7
100
AcDb2dPolyline
 66
     1
 10
0.0
 20
0.0
 30
0.0
  0
VERTEX
  5
1DA
330
1D9
100
AcDbEntity
  8
BEMAßUNG
 62
     7
100
AcDbVertex
100
AcDb2dVertex
 10
-9.21184081800954
 20
-39.09683836913204
 30
0.0
  0
VERTEX
  5
1DB
330
1D9
100
AcDbEntity
  8
BEMAßUNG
 62
     7
100
AcDbVertex
100
AcDb2dVertex
 10
-9.21184081800954
 20
-40.43990884405669
 30
0.0
  0
SEQEND
  5
1DC
330
1D9
100
AcDbEntity
  8
BEMAßUNG
  0
POLYLINE
  5
1DD
330
1F
100
AcDbEntity
  8
BEMAßUNG
 62
     7
100
AcDb2dPolyline
 66
     1
 10
0.0
 20
0.0
 30
0.0
  0
VERTEX
  5
1DE
330
1DD
100
AcDbEntity
  8
BEMAßUNG
 62
     7
100
AcDbVertex
100
AcDb2dVertex
 10
-9.161025659602105
 20
-39.09683836913204
 30
0.0
  0
VERTEX
  5
1DF
330
1DD
100
AcDbEntity
  8
BEMAßUNG
 62
     7
100
AcDbVertex
100
AcDb2dVertex
 10
-9.161025659602105
 20
-40.82524277408189
 30
0.0
  0
SEQEND
  5
1E0
330
1DD
100
AcDbEntity
  8
BEMAßUNG
  0
POLYLINE
  5
1E1
330
1F
100
AcDbEntity
  8
BEMAßUNG
 62
     7
100
AcDb2dPolyline
 66
     1
 10
0.0
 20
0.0
 30
0.0
  0
VERTEX
  5
1E2
330
1E1
100
AcDbEntity
  8
BEMAßUNG
 62
     7
100
AcDbVertex
100
AcDb2dVertex
 10
-9.11021050119467
 20
-39.09683836913204
 30
0.0
  0
VERTEX
  5
1E3
330
1E1
100
AcDbEntity
  8
BEMAßUNG
 62
     7
100
AcDbVertex
100
AcDb2dVertex
 10
-9.11021050119467
 20
-41.21143797797839
 30
0.0
  0
SEQEND
  5
1E4
330
1E1
100
AcDbEntity
  8
BEMAßUNG
  0
POLYLINE
  5
1E5
330
1F
100
AcDbEntity
  8
BEMAßUNG
 62
     7
100
AcDb2dPolyline
 66
     1
 10
0.0
 20
0.0
 30
0.0
  0
VERTEX
  5
1E6
330
1E5
100
AcDbEntity
  8
BEMAßUNG
 62
     7
100
AcDbVertex
100
AcDb2dVertex
 10
-9.05905083323871
 20
-39.09683836913204
 30
0.0
  0
VERTEX
  5
1E7
330
1E5
100
AcDbEntity
  8
BEMAßUNG
 62
     7
100
AcDbVertex
100
AcDb2dVertex
 10
-9.05905083323871
 20
-41.59711641755211
 30
0.0
  0
SEQEND
  5
1E8
330
1E5
100
AcDbEntity
  8
BEMAßUNG
  0
POLYLINE
  5
1E9
330
1F
100
AcDbEntity
  8
BEMAßUNG
 62
     7
100
AcDb2dPolyline
 66
     1
 10
0.0
 20
0.0
 30
0.0
  0
VERTEX
  5
1EA
330
1E9
100
AcDbEntity
  8
BEMAßUNG
 62
     7
100
AcDbVertex
100
AcDb2dVertex
 10
8.05807833999937
 20
-24.09723713590278
 30
0.0
  0
VERTEX
  5
1EB
330
1E9
100
AcDbEntity
  8
BEMAßUNG
 62
     7
100
AcDbVertex
100
AcDb2dVertex
 10
8.05807833999937
 20
-11.97429063285712
 30
0.0
  0
SEQEND
  5
1EC
330
1E9
100
AcDbEntity
  8
BEMAßUNG
  0
POLYLINE
  5
1ED
330
1F
100
AcDbEntity
  8
BEMAßUNG
 62
     7
100
AcDb2dPolyline
 66
     1
 10
0.0
 20
0.0
 30
0.0
  0
VERTEX
  5
1EE
330
1ED
100
AcDbEntity
  8
BEMAßUNG
 62
     7
100
AcDbVertex
100
AcDb2dVertex
 10
1.05833333306875
 20
-24.09723713590278
 30
0.0
  0
VERTEX
  5
1EF
330
1ED
100
AcDbEntity
  8
BEMAßUNG
 62
     7
100
AcDbVertex
100
AcDb2dVertex
 10
1.05833333306875
 20
-11.97429063285712
 30
0.0
  0
SEQEND
  5
1F0
330
1ED
100
AcDbEntity
  8
BEMAßUNG
  0
POLYLINE
  5
1F1
330
1F
100
AcDbEntity
  8
BEMAßUNG
 62
     7
100
AcDb2dPolyline
 66
     1
 10
0.0
 20
0.0
 30
0.0
  0
VERTEX
  5
1F2
330
1F1
100
AcDbEntity
  8
BEMAßUNG
 62
     7
100
AcDbVertex
100
AcDb2dVertex
 10
8.05807833999937
 20
-13.9748575811417
 30
0.0
  0
VERTEX
  5
1F3
330
1F1
100
AcDbEntity
  8
BEMAßUNG
 62
     7
100
AcDbVertex
100
AcDb2dVertex
 10
1.05833333306875
 20
-13.9748575811417
 30
0.0
  0
SEQEND
  5
1F4
330
1F1
100
AcDbEntity
  8
BEMAßUNG
  0
POLYLINE
  5
1F5
330
1F
100
AcDbEntity
  8
BEMAßUNG
 62
     7
100
AcDb2dPolyline
 66
     1
 10
0.0
 20
0.0
 30
0.0
  0
VERTEX
  5
1F6
330
1F5
100
AcDbEntity
  8
BEMAßUNG
 62
     7
100
AcDbVertex
100
AcDb2dVertex
 10
8.05807833999937
 20
-13.9748575811417
 30
0.0
  0
VERTEX
  5
1F7
330
1F5
100
AcDbEntity
  8
BEMAßUNG
 62
     7
100
AcDbVertex
100
AcDb2dVertex
 10
5.558317055902088
 20
-13.64533419797756
 30
0.0
  0
VERTEX
  5
1F8
330
1F5
100
AcDbEntity
  8
BEMAßUNG
 62
     7
100
AcDbVertex
100
AcDb2dVertex
 10
5.558317055902088
 20
-14.30403645475733
 30
0.0
  0
VERTEX
  5
1F9
330
1F5
100
AcDbEntity
  8
BEMAßUNG
 62
     7
100
AcDbVertex
100
AcDb2dVertex
 10
8.05807833999937
 20
-13.9748575811417
 30
0.0
  0
SEQEND
  5
1FA
330
1F5
100
AcDbEntity
  8
BEMAßUNG
  0
POLYLINE
  5
1FB
330
1F
100
AcDbEntity
  8
BEMAßUNG
 62
     7
100
AcDb2dPolyline
 66
     1
 10
0.0
 20
0.0
 30
0.0
  0
VERTEX
  5
1FC
330
1FB
100
AcDbEntity
  8
BEMAßUNG
 62
     7
100
AcDbVertex
100
AcDb2dVertex
 10
5.558317055902088
 20
-13.66996663069709
 30
0.0
  0
VERTEX
  5
1FD
330
1FB
100
AcDbEntity
  8
BEMAßUNG
 62
     7
100
AcDbVertex
100
AcDb2dVertex
 10
5.743146428685741
 20
-13.66996663069709
 30
0.0
  0
SEQEND
  5
1FE
330
1FB
100
AcDbEntity
  8
BEMAßUNG
  0
POLYLINE
  5
1FF
330
1F
100
AcDbEntity
  8
BEMAßUNG
 62
     7
100
AcDb2dPolyline
 66
     1
 10
0.0
 20
0.0
 30
0.0
  0
VERTEX
  5
200
330
1FF
100
AcDbEntity
  8
BEMAßUNG
 62
     7
100
AcDbVertex
100
AcDb2dVertex
 10
5.558317055902088
 20
-13.66996663069709
 30
0.0
  0
VERTEX
  5
201
330
1FF
100
AcDbEntity
  8
BEMAßUNG
 62
     7
100
AcDbVertex
100
AcDb2dVertex
 10
5.743146428685741
 20
-13.66996663069709
 30
0.0
  0
SEQEND
  5
202
330
1FF
100
AcDbEntity
  8
BEMAßUNG
  0
POLYLINE
  5
203
330
1F
100
AcDbEntity
  8
BEMAßUNG
 62
     7
100
AcDb2dPolyline
 66
     1
 10
0.0
 20
0.0
 30
0.0
  0
VERTEX
  5
204
330
203
100
AcDbEntity
  8
BEMAßUNG
 62
     7
100
AcDbVertex
100
AcDb2dVertex
 10
5.558317055902088
 20
-13.72095404387879
 30
0.0
  0
VERTEX
  5
205
330
203
100
AcDbEntity
  8
BEMAßUNG
 62
     7
100
AcDbVertex
100
AcDb2dVertex
 10
6.128824868259461
 20
-13.72095404387879
 30
0.0
  0
SEQEND
  5
206
330
203
100
AcDbEntity
  8
BEMAßUNG
  0
POLYLINE
  5
207
330
1F
100
AcDbEntity
  8
BEMAßUNG
 62
     7
100
AcDb2dPolyline
 66
     1
 10
0.0
 20
0.0
 30
0.0
  0
VERTEX
  5
208
330
207
100
AcDbEntity
  8
BEMAßUNG
 62
     7
100
AcDbVertex
100
AcDb2dVertex
 10
5.558317055902088
 20
-13.77159694751196
 30
0.0
  0
VERTEX
  5
209
330
207
100
AcDbEntity
  8
BEMAßUNG
 62
     7
100
AcDbVertex
100
AcDb2dVertex
 10
6.514675562607443
 20
-13.77159694751196
 30
0.0
  0
SEQEND
  5
20A
330
207
100
AcDbEntity
  8
BEMAßUNG
  0
POLYLINE
  5
20B
330
1F
100
AcDbEntity
  8
BEMAßUNG
 62
     7
100
AcDb2dPolyline
 66
     1
 10
0.0
 20
0.0
 30
0.0
  0
VERTEX
  5
20C
330
20B
100
AcDbEntity
  8
BEMAßUNG
 62
     7
100
AcDbVertex
100
AcDb2dVertex
 10
5.558317055902088
 20
-13.8224121059194
 30
0.0
  0
VERTEX
  5
20D
330
20B
100
AcDbEntity
  8
BEMAßUNG
 62
     7
100
AcDbVertex
100
AcDb2dVertex
 10
6.901043021278212
 20
-13.8224121059194
 30
0.0
  0
SEQEND
  5
20E
330
20B
100
AcDbEntity
  8
BEMAßUNG
  0
POLYLINE
  5
20F
330
1F
100
AcDbEntity
  8
BEMAßUNG
 62
     7
100
AcDb2dPolyline
 66
     1
 10
0.0
 20
0.0
 30
0.0
  0
VERTEX
  5
210
330
20F
100
AcDbEntity
  8
BEMAßUNG
 62
     7
100
AcDbVertex
100
AcDb2dVertex
 10
5.558317055902088
 20
-13.87322726432683
 30
0.0
  0
VERTEX
  5
211
330
20F
100
AcDbEntity
  8
BEMAßUNG
 62
     7
100
AcDbVertex
100
AcDb2dVertex
 10
7.286549206077669
 20
-13.87322726432683
 30
0.0
  0
SEQEND
  5
212
330
20F
100
AcDbEntity
  8
BEMAßUNG
  0
POLYLINE
  5
213
330
1F
100
AcDbEntity
  8
BEMAßUNG
 62
     7
100
AcDb2dPolyline
 66
     1
 10
0.0
 20
0.0
 30
0.0
  0
VERTEX
  5
214
330
213
100
AcDbEntity
  8
BEMAßUNG
 62
     7
100
AcDbVertex
100
AcDb2dVertex
 10
5.558317055902088
 20
-13.92404242273427
 30
0.0
  0
VERTEX
  5
215
330
213
100
AcDbEntity
  8
BEMAßUNG
 62
     7
100
AcDbVertex
100
AcDb2dVertex
 10
7.672227645651388
 20
-13.92404242273427
 30
0.0
  0
SEQEND
  5
216
330
213
100
AcDbEntity
  8
BEMAßUNG
  0
POLYLINE
  5
217
330
1F
100
AcDbEntity
  8
BEMAßUNG
 62
     7
100
AcDb2dPolyline
 66
     1
 10
0.0
 20
0.0
 30
0.0
  0
VERTEX
  5
218
330
217
100
AcDbEntity
  8
BEMAßUNG
 62
     7
100
AcDbVertex
100
AcDb2dVertex
 10
5.558317055902088
 20
-13.9748575811417
 30
0.0
  0
VERTEX
  5
219
330
217
100
AcDbEntity
  8
BEMAßUNG
 62
     7
100
AcDbVertex
100
AcDb2dVertex
 10
8.05807833999937
 20
-13.9748575811417
 30
0.0
  0
SEQEND
  5
21A
330
217
100
AcDbEntity
  8
BEMAßUNG
  0
POLYLINE
  5
21B
330
1F
100
AcDbEntity
  8
BEMAßUNG
 62
     7
100
AcDb2dPolyline
 66
     1
 10
0.0
 20
0.0
 30
0.0
  0
VERTEX
  5
21C
330
21B
100
AcDbEntity
  8
BEMAßUNG
 62
     7
100
AcDbVertex
100
AcDb2dVertex
 10
5.558317055902088
 20
-14.27940402203779
 30
0.0
  0
VERTEX
  5
21D
330
21B
100
AcDbEntity
  8
BEMAßUNG
 62
     7
100
AcDbVertex
100
AcDb2dVertex
 10
5.743146428685741
 20
-14.27940402203779
 30
0.0
  0
SEQEND
  5
21E
330
21B
100
AcDbEntity
  8
BEMAßUNG
  0
POLYLINE
  5
21F
330
1F
100
AcDbEntity
  8
BEMAßUNG
 62
     7
100
AcDb2dPolyline
 66
     1
 10
0.0
 20
0.0
 30
0.0
  0
VERTEX
  5
220
330
21F
100
AcDbEntity
  8
BEMAßUNG
 62
     7
100
AcDbVertex
100
AcDb2dVertex
 10
5.558317055902088
 20
-14.27940402203779
 30
0.0
  0
VERTEX
  5
221
330
21F
100
AcDbEntity
  8
BEMAßUNG
 62
     7
100
AcDbVertex
100
AcDb2dVertex
 10
5.743146428685741
 20
-14.27940402203779
 30
0.0
  0
SEQEND
  5
222
330
21F
100
AcDbEntity
  8
BEMAßUNG
  0
POLYLINE
  5
223
330
1F
100
AcDbEntity
  8
BEMAßUNG
 62
     7
100
AcDb2dPolyline
 66
     1
 10
0.0
 20
0.0
 30
0.0
  0
VERTEX
  5
224
330
223
100
AcDbEntity
  8
BEMAßUNG
 62
     7
100
AcDbVertex
100
AcDb2dVertex
 10
5.558317055902088
 20
-14.22841660885609
 30
0.0
  0
VERTEX
  5
225
330
223
100
AcDbEntity
  8
BEMAßUNG
 62
     7
100
AcDbVertex
100
AcDb2dVertex
 10
6.128824868259461
 20
-14.22841660885609
 30
0.0
  0
SEQEND
  5
226
330
223
100
AcDbEntity
  8
BEMAßUNG
  0
POLYLINE
  5
227
330
1F
100
AcDbEntity
  8
BEMAßUNG
 62
     7
100
AcDb2dPolyline
 66
     1
 10
0.0
 20
0.0
 30
0.0
  0
VERTEX
  5
228
330
227
100
AcDbEntity
  8
BEMAßUNG
 62
     7
100
AcDbVertex
100
AcDb2dVertex
 10
5.558317055902088
 20
-14.17777370522292
 30
0.0
  0
VERTEX
  5
229
330
227
100
AcDbEntity
  8
BEMAßUNG
 62
     7
100
AcDbVertex
100
AcDb2dVertex
 10
6.514675562607443
 20
-14.17777370522292
 30
0.0
  0
SEQEND
  5
22A
330
227
100
AcDbEntity
  8
BEMAßUNG
  0
POLYLINE
  5
22B
330
1F
100
AcDbEntity
  8
BEMAßUNG
 62
     7
100
AcDb2dPolyline
 66
     1
 10
0.0
 20
0.0
 30
0.0
  0
VERTEX
  5
22C
330
22B
100
AcDbEntity
  8
BEMAßUNG
 62
     7
100
AcDbVertex
100
AcDb2dVertex
 10
5.558317055902088
 20
-14.12678629204122
 30
0.0
  0
VERTEX
  5
22D
330
22B
100
AcDbEntity
  8
BEMAßUNG
 62
     7
100
AcDbVertex
100
AcDb2dVertex
 10
6.901043021278212
 20
-14.12678629204122
 30
0.0
  0
SEQEND
  5
22E
330
22B
100
AcDbEntity
  8
BEMAßUNG
  0
POLYLINE
  5
22F
330
1F
100
AcDbEntity
  8
BEMAßUNG
 62
     7
100
AcDb2dPolyline
 66
     1
 10
0.0
 20
0.0
 30
0.0
  0
VERTEX
  5
230
330
22F
100
AcDbEntity
  8
BEMAßUNG
 62
     7
100
AcDbVertex
100
AcDb2dVertex
 10
5.558317055902088
 20
-14.07614338840805
 30
0.0
  0
VERTEX
  5
231
330
22F
100
AcDbEntity
  8
BEMAßUNG
 62
     7
100
AcDbVertex
100
AcDb2dVertex
 10
7.286549206077669
 20
-14.07614338840805
 30
0.0
  0
SEQEND
  5
232
330
22F
100
AcDbEntity
  8
BEMAßUNG
  0
POLYLINE
  5
233
330
1F
100
AcDbEntity
  8
BEMAßUNG
 62
     7
100
AcDb2dPolyline
 66
     1
 10
0.0
 20
0.0
 30
0.0
  0
VERTEX
  5
234
330
233
100
AcDbEntity
  8
BEMAßUNG
 62
     7
100
AcDbVertex
100
AcDb2dVertex
 10
5.558317055902088
 20
-14.02532823000061
 30
0.0
  0
VERTEX
  5
235
330
233
100
AcDbEntity
  8
BEMAßUNG
 62
     7
100
AcDbVertex
100
AcDb2dVertex
 10
7.672227645651388
 20
-14.02532823000061
 30
0.0
  0
SEQEND
  5
236
330
233
100
AcDbEntity
  8
BEMAßUNG
  0
POLYLINE
  5
237
330
1F
100
AcDbEntity
  8
BEMAßUNG
 62
     7
100
AcDb2dPolyline
 66
     1
 10
0.0
 20
0.0
 30
0.0
  0
VERTEX
  5
238
330
237
100
AcDbEntity
  8
BEMAßUNG
 62
     7
100
AcDbVertex
100
AcDb2dVertex
 10
5.558317055902088
 20
-13.9748575811417
 30
0.0
  0
VERTEX
  5
239
330
237
100
AcDbEntity
  8
BEMAßUNG
 62
     7
100
AcDbVertex
100
AcDb2dVertex
 10
8.05807833999937
 20
-13.9748575811417
 30
0.0
  0
SEQEND
  5
23A
330
237
100
AcDbEntity
  8
BEMAßUNG
  0
POLYLINE
  5
23B
330
1F
100
AcDbEntity
  8
BEMAßUNG
 62
     7
100
AcDb2dPolyline
 66
     1
 10
0.0
 20
0.0
 30
0.0
  0
VERTEX
  5
23C
330
23B
100
AcDbEntity
  8
BEMAßUNG
 62
     7
100
AcDbVertex
100
AcDb2dVertex
 10
1.05833333306875
 20
-13.9748575811417
 30
0.0
  0
VERTEX
  5
23D
330
23B
100
AcDbEntity
  8
BEMAßUNG
 62
     7
100
AcDbVertex
100
AcDb2dVertex
 10
3.558439126714557
 20
-14.30403645475733
 30
0.0
  0
VERTEX
  5
23E
330
23B
100
AcDbEntity
  8
BEMAßUNG
 62
     7
100
AcDbVertex
100
AcDb2dVertex
 10
3.558439126714557
 20
-13.64533419797756
 30
0.0
  0
VERTEX
  5
23F
330
23B
100
AcDbEntity
  8
BEMAßUNG
 62
     7
100
AcDbVertex
100
AcDb2dVertex
 10
1.05833333306875
 20
-13.9748575811417
 30
0.0
  0
SEQEND
  5
240
330
23B
100
AcDbEntity
  8
BEMAßUNG
  0
POLYLINE
  5
241
330
1F
100
AcDbEntity
  8
BEMAßUNG
 62
     7
100
AcDb2dPolyline
 66
     1
 10
0.0
 20
0.0
 30
0.0
  0
VERTEX
  5
242
330
241
100
AcDbEntity
  8
BEMAßUNG
 62
     7
100
AcDbVertex
100
AcDb2dVertex
 10
3.558439126714557
 20
-14.27940402203779
 30
0.0
  0
VERTEX
  5
243
330
241
100
AcDbEntity
  8
BEMAßUNG
 62
     7
100
AcDbVertex
100
AcDb2dVertex
 10
3.373609753930903
 20
-14.27940402203779
 30
0.0
  0
SEQEND
  5
244
330
241
100
AcDbEntity
  8
BEMAßUNG
  0
POLYLINE
  5
245
330
1F
100
AcDbEntity
  8
BEMAßUNG
 62
     7
100
AcDb2dPolyline
 66
     1
 10
0.0
 20
0.0
 30
0.0
  0
VERTEX
  5
246
330
245
100
AcDbEntity
  8
BEMAßUNG
 62
     7
100
AcDbVertex
100
AcDb2dVertex
 10
3.558439126714557
 20
-14.27940402203779
 30
0.0
  0
VERTEX
  5
247
330
245
100
AcDbEntity
  8
BEMAßUNG
 62
     7
100
AcDbVertex
100
AcDb2dVertex
 10
3.373609753930903
 20
-14.27940402203779
 30
0.0
  0
SEQEND
  5
248
330
245
100
AcDbEntity
  8
BEMAßUNG
  0
POLYLINE
  5
249
330
1F
100
AcDbEntity
  8
BEMAßUNG
 62
     7
100
AcDb2dPolyline
 66
     1
 10
0.0
 20
0.0
 30
0.0
  0
VERTEX
  5
24A
330
249
100
AcDbEntity
  8
BEMAßUNG
 62
     7
100
AcDbVertex
100
AcDb2dVertex
 10
3.558439126714557
 20
-14.22841660885609
 30
0.0
  0
VERTEX
  5
24B
330
249
100
AcDbEntity
  8
BEMAßUNG
 62
     7
100
AcDbVertex
100
AcDb2dVertex
 10
2.987242295260134
 20
-14.22841660885609
 30
0.0
  0
SEQEND
  5
24C
330
249
100
AcDbEntity
  8
BEMAßUNG
  0
POLYLINE
  5
24D
330
1F
100
AcDbEntity
  8
BEMAßUNG
 62
     7
100
AcDb2dPolyline
 66
     1
 10
0.0
 20
0.0
 30
0.0
  0
VERTEX
  5
24E
330
24D
100
AcDbEntity
  8
BEMAßUNG
 62
     7
100
AcDbVertex
100
AcDb2dVertex
 10
3.558439126714557
 20
-14.17777370522292
 30
0.0
  0
VERTEX
  5
24F
330
24D
100
AcDbEntity
  8
BEMAßUNG
 62
     7
100
AcDbVertex
100
AcDb2dVertex
 10
2.602080620009202
 20
-14.17777370522292
 30
0.0
  0
SEQEND
  5
250
330
24D
100
AcDbEntity
  8
BEMAßUNG
  0
POLYLINE
  5
251
330
1F
100
AcDbEntity
  8
BEMAßUNG
 62
     7
100
AcDb2dPolyline
 66
     1
 10
0.0
 20
0.0
 30
0.0
  0
VERTEX
  5
252
330
251
100
AcDbEntity
  8
BEMAßUNG
 62
     7
100
AcDbVertex
100
AcDb2dVertex
 10
3.558439126714557
 20
-14.12678629204122
 30
0.0
  0
VERTEX
  5
253
330
251
100
AcDbEntity
  8
BEMAßUNG
 62
     7
100
AcDbVertex
100
AcDb2dVertex
 10
2.215713161338433
 20
-14.12678629204122
 30
0.0
  0
SEQEND
  5
254
330
251
100
AcDbEntity
  8
BEMAßUNG
  0
POLYLINE
  5
255
330
1F
100
AcDbEntity
  8
BEMAßUNG
 62
     7
100
AcDb2dPolyline
 66
     1
 10
0.0
 20
0.0
 30
0.0
  0
VERTEX
  5
256
330
255
100
AcDbEntity
  8
BEMAßUNG
 62
     7
100
AcDbVertex
100
AcDb2dVertex
 10
3.558439126714557
 20
-14.07614338840805
 30
0.0
  0
VERTEX
  5
257
330
255
100
AcDbEntity
  8
BEMAßUNG
 62
     7
100
AcDbVertex
100
AcDb2dVertex
 10
1.830206976538976
 20
-14.07614338840805
 30
0.0
  0
SEQEND
  5
258
330
255
100
AcDbEntity
  8
BEMAßUNG
  0
POLYLINE
  5
259
330
1F
100
AcDbEntity
  8
BEMAßUNG
 62
     7
100
AcDb2dPolyline
 66
     1
 10
0.0
 20
0.0
 30
0.0
  0
VERTEX
  5
25A
330
259
100
AcDbEntity
  8
BEMAßUNG
 62
     7
100
AcDbVertex
100
AcDb2dVertex
 10
3.558439126714557
 20
-14.02532823000061
 30
0.0
  0
VERTEX
  5
25B
330
259
100
AcDbEntity
  8
BEMAßUNG
 62
     7
100
AcDbVertex
100
AcDb2dVertex
 10
1.443839517868207
 20
-14.02532823000061
 30
0.0
  0
SEQEND
  5
25C
330
259
100
AcDbEntity
  8
BEMAßUNG
  0
POLYLINE
  5
25D
330
1F
100
AcDbEntity
  8
BEMAßUNG
 62
     7
100
AcDb2dPolyline
 66
     1
 10
0.0
 20
0.0
 30
0.0
  0
VERTEX
  5
25E
330
25D
100
AcDbEntity
  8
BEMAßUNG
 62
     7
100
AcDbVertex
100
AcDb2dVertex
 10
3.558439126714557
 20
-13.9748575811417
 30
0.0
  0
VERTEX
  5
25F
330
25D
100
AcDbEntity
  8
BEMAßUNG
 62
     7
100
AcDbVertex
100
AcDb2dVertex
 10
1.05833333306875
 20
-13.9748575811417
 30
0.0
  0
SEQEND
  5
260
330
25D
100
AcDbEntity
  8
BEMAßUNG
  0
POLYLINE
  5
261
330
1F
100
AcDbEntity
  8
BEMAßUNG
 62
     7
100
AcDb2dPolyline
 66
     1
 10
0.0
 20
0.0
 30
0.0
  0
VERTEX
  5
262
330
261
100
AcDbEntity
  8
BEMAßUNG
 62
     7
100
AcDbVertex
100
AcDb2dVertex
 10
3.558439126714557
 20
-13.66996663069709
 30
0.0
  0
VERTEX
  5
263
330
261
100
AcDbEntity
  8
BEMAßUNG
 62
     7
100
AcDbVertex
100
AcDb2dVertex
 10
3.373609753930903
 20
-13.66996663069709
 30
0.0
  0
SEQEND
  5
264
330
261
100
AcDbEntity
  8
BEMAßUNG
  0
POLYLINE
  5
265
330
1F
100
AcDbEntity
  8
BEMAßUNG
 62
     7
100
AcDb2dPolyline
 66
     1
 10
0.0
 20
0.0
 30
0.0
  0
VERTEX
  5
266
330
265
100
AcDbEntity
  8
BEMAßUNG
 62
     7
100
AcDbVertex
100
AcDb2dVertex
 10
3.558439126714557
 20
-13.66996663069709
 30
0.0
  0
VERTEX
  5
267
330
265
100
AcDbEntity
  8
BEMAßUNG
 62
     7
100
AcDbVertex
100
AcDb2dVertex
 10
3.373609753930903
 20
-13.66996663069709
 30
0.0
  0
SEQEND
  5
268
330
265
100
AcDbEntity
  8
BEMAßUNG
  0
POLYLINE
  5
269
330
1F
100
AcDbEntity
  8
BEMAßUNG
 62
     7
100
AcDb2dPolyline
 66
     1
 10
0.0
 20
0.0
 30
0.0
  0
VERTEX
  5
26A
330
269
100
AcDbEntity
  8
BEMAßUNG
 62
     7
100
AcDbVertex
100
AcDb2dVertex
 10
3.558439126714557
 20
-13.72095404387879
 30
0.0
  0
VERTEX
  5
26B
330
269
100
AcDbEntity
  8
BEMAßUNG
 62
     7
100
AcDbVertex
100
AcDb2dVertex
 10
2.987242295260134
 20
-13.72095404387879
 30
0.0
  0
SEQEND
  5
26C
330
269
100
AcDbEntity
  8
BEMAßUNG
  0
POLYLINE
  5
26D
330
1F
100
AcDbEntity
  8
BEMAßUNG
 62
     7
100
AcDb2dPolyline
 66
     1
 10
0.0
 20
0.0
 30
0.0
  0
VERTEX
  5
26E
330
26D
100
AcDbEntity
  8
BEMAßUNG
 62
     7
100
AcDbVertex
100
AcDb2dVertex
 10
3.558439126714557
 20
-13.77159694751196
 30
0.0
  0
VERTEX
  5
26F
330
26D
100
AcDbEntity
  8
BEMAßUNG
 62
     7
100
AcDbVertex
100
AcDb2dVertex
 10
2.602080620009202
 20
-13.77159694751196
 30
0.0
  0
SEQEND
  5
270
330
26D
100
AcDbEntity
  8
BEMAßUNG
  0
POLYLINE
  5
271
330
1F
100
AcDbEntity
  8
BEMAßUNG
 62
     7
100
AcDb2dPolyline
 66
     1
 10
0.0
 20
0.0
 30
0.0
  0
VERTEX
  5
272
330
271
100
AcDbEntity
  8
BEMAßUNG
 62
     7
100
AcDbVertex
100
AcDb2dVertex
 10
3.558439126714557
 20
-13.8224121059194
 30
0.0
  0
VERTEX
  5
273
330
271
100
AcDbEntity
  8
BEMAßUNG
 62
     7
100
AcDbVertex
100
AcDb2dVertex
 10
2.215713161338433
 20
-13.8224121059194
 30
0.0
  0
SEQEND
  5
274
330
271
100
AcDbEntity
  8
BEMAßUNG
  0
POLYLINE
  5
275
330
1F
100
AcDbEntity
  8
BEMAßUNG
 62
     7
100
AcDb2dPolyline
 66
     1
 10
0.0
 20
0.0
 30
0.0
  0
VERTEX
  5
276
330
275
100
AcDbEntity
  8
BEMAßUNG
 62
     7
100
AcDbVertex
100
AcDb2dVertex
 10
3.558439126714557
 20
-13.87322726432683
 30
0.0
  0
VERTEX
  5
277
330
275
100
AcDbEntity
  8
BEMAßUNG
 62
     7
100
AcDbVertex
100
AcDb2dVertex
 10
1.830206976538976
 20
-13.87322726432683
 30
0.0
  0
SEQEND
  5
278
330
275
100
AcDbEntity
  8
BEMAßUNG
  0
POLYLINE
  5
279
330
1F
100
AcDbEntity
  8
BEMAßUNG
 62
     7
100
AcDb2dPolyline
 66
     1
 10
0.0
 20
0.0
 30
0.0
  0
VERTEX
  5
27A
330
279
100
AcDbEntity
  8
BEMAßUNG
 62
     7
100
AcDbVertex
100
AcDb2dVertex
 10
3.558439126714557
 20
-13.92404242273427
 30
0.0
  0
VERTEX
  5
27B
330
279
100
AcDbEntity
  8
BEMAßUNG
 62
     7
100
AcDbVertex
100
AcDb2dVertex
 10
1.443839517868207
 20
-13.92404242273427
 30
0.0
  0
SEQEND
  5
27C
330
279
100
AcDbEntity
  8
BEMAßUNG
  0
POLYLINE
  5
27D
330
1F
100
AcDbEntity
  8
BEMAßUNG
 62
     7
100
AcDb2dPolyline
 66
     1
 10
0.0
 20
0.0
 30
0.0
  0
VERTEX
  5
27E
330
27D
100
AcDbEntity
  8
BEMAßUNG
 62
     7
100
AcDbVertex
100
AcDb2dVertex
 10
3.558439126714557
 20
-13.9748575811417
 30
0.0
  0
VERTEX
  5
27F
330
27D
100
AcDbEntity
  8
BEMAßUNG
 62
     7
100
AcDbVertex
100
AcDb2dVertex
 10
1.05833333306875
 20
-13.9748575811417
 30
0.0
  0
SEQEND
  5
280
330
27D
100
AcDbEntity
  8
BEMAßUNG
  0
POLYLINE
  5
281
330
1F
100
AcDbEntity
  8
BEMAßUNG
 62
     7
100
AcDb2dPolyline
 66
     1
 10
0.0
 20
0.0
 30
0.0
  0
VERTEX
  5
282
330
281
100
AcDbEntity
  8
BEMAßUNG
 62
     7
100
AcDbVertex
100
AcDb2dVertex
 10
22.0580851181834
 20
-24.09723713590278
 30
0.0
  0
VERTEX
  5
283
330
281
100
AcDbEntity
  8
BEMAßUNG
 62
     7
100
AcDbVertex
100
AcDb2dVertex
 10
22.0580851181834
 20
-11.97429063285712
 30
0.0
  0
SEQEND
  5
284
330
281
100
AcDbEntity
  8
BEMAßUNG
  0
POLYLINE
  5
285
330
1F
100
AcDbEntity
  8
BEMAßUNG
 62
     7
100
AcDb2dPolyline
 66
     1
 10
0.0
 20
0.0
 30
0.0
  0
VERTEX
  5
286
330
285
100
AcDbEntity
  8
BEMAßUNG
 62
     7
100
AcDbVertex
100
AcDb2dVertex
 10
8.05807833999937
 20
-24.09723713590278
 30
0.0
  0
VERTEX
  5
287
330
285
100
AcDbEntity
  8
BEMAßUNG
 62
     7
100
AcDbVertex
100
AcDb2dVertex
 10
8.05807833999937
 20
-11.97429063285712
 30
0.0
  0
SEQEND
  5
288
330
285
100
AcDbEntity
  8
BEMAßUNG
  0
POLYLINE
  5
289
330
1F
100
AcDbEntity
  8
BEMAßUNG
 62
     7
100
AcDb2dPolyline
 66
     1
 10
0.0
 20
0.0
 30
0.0
  0
VERTEX
  5
28A
330
289
100
AcDbEntity
  8
BEMAßUNG
 62
     7
100
AcDbVertex
100
AcDb2dVertex
 10
22.0580851181834
 20
-13.9748575811417
 30
0.0
  0
VERTEX
  5
28B
330
289
100
AcDbEntity
  8
BEMAßUNG
 62
     7
100
AcDbVertex
100
AcDb2dVertex
 10
8.05807833999937
 20
-13.9748575811417
 30
0.0
  0
SEQEND
  5
28C
330
289
100
AcDbEntity
  8
BEMAßUNG
  0
POLYLINE
  5
28D
330
1F
100
AcDbEntity
  8
BEMAßUNG
 62
     7
100
AcDb2dPolyline
 66
     1
 10
0.0
 20
0.0
 30
0.0
  0
VERTEX
  5
28E
330
28D
100
AcDbEntity
  8
BEMAßUNG
 62
     7
100
AcDbVertex
100
AcDb2dVertex
 10
22.0580851181834
 20
-13.9748575811417
 30
0.0
  0
VERTEX
  5
28F
330
28D
100
AcDbEntity
  8
BEMAßUNG
 62
     7
100
AcDbVertex
100
AcDb2dVertex
 10
19.55797932453759
 20
-13.64533419797756
 30
0.0
  0
VERTEX
  5
290
330
28D
100
AcDbEntity
  8
BEMAßUNG
 62
     7
100
AcDbVertex
100
AcDb2dVertex
 10
19.55797932453759
 20
-14.30403645475733
 30
0.0
  0
VERTEX
  5
291
330
28D
100
AcDbEntity
  8
BEMAßUNG
 62
     7
100
AcDbVertex
100
AcDb2dVertex
 10
22.0580851181834
 20
-13.9748575811417
 30
0.0
  0
SEQEND
  5
292
330
28D
100
AcDbEntity
  8
BEMAßUNG
  0
POLYLINE
  5
293
330
1F
100
AcDbEntity
  8
BEMAßUNG
 62
     7
100
AcDb2dPolyline
 66
     1
 10
0.0
 20
0.0
 30
0.0
  0
VERTEX
  5
294
330
293
100
AcDbEntity
  8
BEMAßUNG
 62
     7
100
AcDbVertex
100
AcDb2dVertex
 10
19.55797932453759
 20
-13.66996663069709
 30
0.0
  0
VERTEX
  5
295
330
293
100
AcDbEntity
  8
BEMAßUNG
 62
     7
100
AcDbVertex
100
AcDb2dVertex
 10
19.74280869732124
 20
-13.66996663069709
 30
0.0
  0
SEQEND
  5
296
330
293
100
AcDbEntity
  8
BEMAßUNG
  0
POLYLINE
  5
297
330
1F
100
AcDbEntity
  8
BEMAßUNG
 62
     7
100
AcDb2dPolyline
 66
     1
 10
0.0
 20
0.0
 30
0.0
  0
VERTEX
  5
298
330
297
100
AcDbEntity
  8
BEMAßUNG
 62
     7
100
AcDbVertex
100
AcDb2dVertex
 10
19.55797932453759
 20
-13.66996663069709
 30
0.0
  0
VERTEX
  5
299
330
297
100
AcDbEntity
  8
BEMAßUNG
 62
     7
100
AcDbVertex
100
AcDb2dVertex
 10
19.74280869732124
 20
-13.66996663069709
 30
0.0
  0
SEQEND
  5
29A
330
297
100
AcDbEntity
  8
BEMAßUNG
  0
POLYLINE
  5
29B
330
1F
100
AcDbEntity
  8
BEMAßUNG
 62
     7
100
AcDb2dPolyline
 66
     1
 10
0.0
 20
0.0
 30
0.0
  0
VERTEX
  5
29C
330
29B
100
AcDbEntity
  8
BEMAßUNG
 62
     7
100
AcDbVertex
100
AcDb2dVertex
 10
19.55797932453759
 20
-13.72095404387879
 30
0.0
  0
VERTEX
  5
29D
330
29B
100
AcDbEntity
  8
BEMAßUNG
 62
     7
100
AcDbVertex
100
AcDb2dVertex
 10
20.12883164644349
 20
-13.72095404387879
 30
0.0
  0
SEQEND
  5
29E
330
29B
100
AcDbEntity
  8
BEMAßUNG
  0
POLYLINE
  5
29F
330
1F
100
AcDbEntity
  8
BEMAßUNG
 62
     7
100
AcDb2dPolyline
 66
     1
 10
0.0
 20
0.0
 30
0.0
  0
VERTEX
  5
2A0
330
29F
100
AcDbEntity
  8
BEMAßUNG
 62
     7
100
AcDbVertex
100
AcDb2dVertex
 10
19.55797932453759
 20
-13.77159694751196
 30
0.0
  0
VERTEX
  5
2A1
330
29F
100
AcDbEntity
  8
BEMAßUNG
 62
     7
100
AcDbVertex
100
AcDb2dVertex
 10
20.51468234079147
 20
-13.77159694751196
 30
0.0
  0
SEQEND
  5
2A2
330
29F
100
AcDbEntity
  8
BEMAßUNG
  0
POLYLINE
  5
2A3
330
1F
100
AcDbEntity
  8
BEMAßUNG
 62
     7
100
AcDb2dPolyline
 66
     1
 10
0.0
 20
0.0
 30
0.0
  0
VERTEX
  5
2A4
330
2A3
100
AcDbEntity
  8
BEMAßUNG
 62
     7
100
AcDbVertex
100
AcDb2dVertex
 10
19.55797932453759
 20
-13.8224121059194
 30
0.0
  0
VERTEX
  5
2A5
330
2A3
100
AcDbEntity
  8
BEMAßUNG
 62
     7
100
AcDbVertex
100
AcDb2dVertex
 10
20.90053303513945
 20
-13.8224121059194
 30
0.0
  0
SEQEND
  5
2A6
330
2A3
100
AcDbEntity
  8
BEMAßUNG
  0
POLYLINE
  5
2A7
330
1F
100
AcDbEntity
  8
BEMAßUNG
 62
     7
100
AcDb2dPolyline
 66
     1
 10
0.0
 20
0.0
 30
0.0
  0
VERTEX
  5
2A8
330
2A7
100
AcDbEntity
  8
BEMAßUNG
 62
     7
100
AcDbVertex
100
AcDb2dVertex
 10
19.55797932453759
 20
-13.87322726432683
 30
0.0
  0
VERTEX
  5
2A9
330
2A7
100
AcDbEntity
  8
BEMAßUNG
 62
     7
100
AcDbVertex
100
AcDb2dVertex
 10
21.2865559842617
 20
-13.87322726432683
 30
0.0
  0
SEQEND
  5
2AA
330
2A7
100
AcDbEntity
  8
BEMAßUNG
  0
POLYLINE
  5
2AB
330
1F
100
AcDbEntity
  8
BEMAßUNG
 62
     7
100
AcDb2dPolyline
 66
     1
 10
0.0
 20
0.0
 30
0.0
  0
VERTEX
  5
2AC
330
2AB
100
AcDbEntity
  8
BEMAßUNG
 62
     7
100
AcDbVertex
100
AcDb2dVertex
 10
19.55797932453759
 20
-13.92404242273427
 30
0.0
  0
VERTEX
  5
2AD
330
2AB
100
AcDbEntity
  8
BEMAßUNG
 62
     7
100
AcDbVertex
100
AcDb2dVertex
 10
21.67223442383542
 20
-13.92404242273427
 30
0.0
  0
SEQEND
  5
2AE
330
2AB
100
AcDbEntity
  8
BEMAßUNG
  0
POLYLINE
  5
2AF
330
1F
100
AcDbEntity
  8
BEMAßUNG
 62
     7
100
AcDb2dPolyline
 66
     1
 10
0.0
 20
0.0
 30
0.0
  0
VERTEX
  5
2B0
330
2AF
100
AcDbEntity
  8
BEMAßUNG
 62
     7
100
AcDbVertex
100
AcDb2dVertex
 10
19.55797932453759
 20
-13.9748575811417
 30
0.0
  0
VERTEX
  5
2B1
330
2AF
100
AcDbEntity
  8
BEMAßUNG
 62
     7
100
AcDbVertex
100
AcDb2dVertex
 10
22.0580851181834
 20
-13.9748575811417
 30
0.0
  0
SEQEND
  5
2B2
330
2AF
100
AcDbEntity
  8
BEMAßUNG
  0
POLYLINE
  5
2B3
330
1F
100
AcDbEntity
  8
BEMAßUNG
 62
     7
100
AcDb2dPolyline
 66
     1
 10
0.0
 20
0.0
 30
0.0
  0
VERTEX
  5
2B4
330
2B3
100
AcDbEntity
  8
BEMAßUNG
 62
     7
100
AcDbVertex
100
AcDb2dVertex
 10
19.55797932453759
 20
-14.27940402203779
 30
0.0
  0
VERTEX
  5
2B5
330
2B3
100
AcDbEntity
  8
BEMAßUNG
 62
     7
100
AcDbVertex
100
AcDb2dVertex
 10
19.74280869732124
 20
-14.27940402203779
 30
0.0
  0
SEQEND
  5
2B6
330
2B3
100
AcDbEntity
  8
BEMAßUNG
  0
POLYLINE
  5
2B7
330
1F
100
AcDbEntity
  8
BEMAßUNG
 62
     7
100
AcDb2dPolyline
 66
     1
 10
0.0
 20
0.0
 30
0.0
  0
VERTEX
  5
2B8
330
2B7
100
AcDbEntity
  8
BEMAßUNG
 62
     7
100
AcDbVertex
100
AcDb2dVertex
 10
19.55797932453759
 20
-14.27940402203779
 30
0.0
  0
VERTEX
  5
2B9
330
2B7
100
AcDbEntity
  8
BEMAßUNG
 62
     7
100
AcDbVertex
100
AcDb2dVertex
 10
19.74280869732124
 20
-14.27940402203779
 30
0.0
  0
SEQEND
  5
2BA
330
2B7
100
AcDbEntity
  8
BEMAßUNG
  0
POLYLINE
  5
2BB
330
1F
100
AcDbEntity
  8
BEMAßUNG
 62
     7
100
AcDb2dPolyline
 66
     1
 10
0.0
 20
0.0
 30
0.0
  0
VERTEX
  5
2BC
330
2BB
100
AcDbEntity
  8
BEMAßUNG
 62
     7
100
AcDbVertex
100
AcDb2dVertex
 10
19.55797932453759
 20
-14.22841660885609
 30
0.0
  0
VERTEX
  5
2BD
330
2BB
100
AcDbEntity
  8
BEMAßUNG
 62
     7
100
AcDbVertex
100
AcDb2dVertex
 10
20.12883164644349
 20
-14.22841660885609
 30
0.0
  0
SEQEND
  5
2BE
330
2BB
100
AcDbEntity
  8
BEMAßUNG
  0
POLYLINE
  5
2BF
330
1F
100
AcDbEntity
  8
BEMAßUNG
 62
     7
100
AcDb2dPolyline
 66
     1
 10
0.0
 20
0.0
 30
0.0
  0
VERTEX
  5
2C0
330
2BF
100
AcDbEntity
  8
BEMAßUNG
 62
     7
100
AcDbVertex
100
AcDb2dVertex
 10
19.55797932453759
 20
-14.17777370522292
 30
0.0
  0
VERTEX
  5
2C1
330
2BF
100
AcDbEntity
  8
BEMAßUNG
 62
     7
100
AcDbVertex
100
AcDb2dVertex
 10
20.51468234079147
 20
-14.17777370522292
 30
0.0
  0
SEQEND
  5
2C2
330
2BF
100
AcDbEntity
  8
BEMAßUNG
  0
POLYLINE
  5
2C3
330
1F
100
AcDbEntity
  8
BEMAßUNG
 62
     7
100
AcDb2dPolyline
 66
     1
 10
0.0
 20
0.0
 30
0.0
  0
VERTEX
  5
2C4
330
2C3
100
AcDbEntity
  8
BEMAßUNG
 62
     7
100
AcDbVertex
100
AcDb2dVertex
 10
19.55797932453759
 20
-14.12678629204122
 30
0.0
  0
VERTEX
  5
2C5
330
2C3
100
AcDbEntity
  8
BEMAßUNG
 62
     7
100
AcDbVertex
100
AcDb2dVertex
 10
20.90053303513945
 20
-14.12678629204122
 30
0.0
  0
SEQEND
  5
2C6
330
2C3
100
AcDbEntity
  8
BEMAßUNG
  0
POLYLINE
  5
2C7
330
1F
100
AcDbEntity
  8
BEMAßUNG
 62
     7
100
AcDb2dPolyline
 66
     1
 10
0.0
 20
0.0
 30
0.0
  0
VERTEX
  5
2C8
330
2C7
100
AcDbEntity
  8
BEMAßUNG
 62
     7
100
AcDbVertex
100
AcDb2dVertex
 10
19.55797932453759
 20
-14.07614338840805
 30
0.0
  0
VERTEX
  5
2C9
330
2C7
100
AcDbEntity
  8
BEMAßUNG
 62
     7
100
AcDbVertex
100
AcDb2dVertex
 10
21.2865559842617
 20
-14.07614338840805
 30
0.0
  0
SEQEND
  5
2CA
330
2C7
100
AcDbEntity
  8
BEMAßUNG
  0
POLYLINE
  5
2CB
330
1F
100
AcDbEntity
  8
BEMAßUNG
 62
     7
100
AcDb2dPolyline
 66
     1
 10
0.0
 20
0.0
 30
0.0
  0
VERTEX
  5
2CC
330
2CB
100
AcDbEntity
  8
BEMAßUNG
 62
     7
100
AcDbVertex
100
AcDb2dVertex
 10
19.55797932453759
 20
-14.02532823000061
 30
0.0
  0
VERTEX
  5
2CD
330
2CB
100
AcDbEntity
  8
BEMAßUNG
 62
     7
100
AcDbVertex
100
AcDb2dVertex
 10
21.67223442383542
 20
-14.02532823000061
 30
0.0
  0
SEQEND
  5
2CE
330
2CB
100
AcDbEntity
  8
BEMAßUNG
  0
POLYLINE
  5
2CF
330
1F
100
AcDbEntity
  8
BEMAßUNG
 62
     7
100
AcDb2dPolyline
 66
     1
 10
0.0
 20
0.0
 30
0.0
  0
VERTEX
  5
2D0
330
2CF
100
AcDbEntity
  8
BEMAßUNG
 62
     7
100
AcDbVertex
100
AcDb2dVertex
 10
19.55797932453759
 20
-13.9748575811417
 30
0.0
  0
VERTEX
  5
2D1
330
2CF
100
AcDbEntity
  8
BEMAßUNG
 62
     7
100
AcDbVertex
100
AcDb2dVertex
 10
22.0580851181834
 20
-13.9748575811417
 30
0.0
  0
SEQEND
  5
2D2
330
2CF
100
AcDbEntity
  8
BEMAßUNG
  0
POLYLINE
  5
2D3
330
1F
100
AcDbEntity
  8
BEMAßUNG
 62
     7
100
AcDb2dPolyline
 66
     1
 10
0.0
 20
0.0
 30
0.0
  0
VERTEX
  5
2D4
330
2D3
100
AcDbEntity
  8
BEMAßUNG
 62
     7
100
AcDbVertex
100
AcDb2dVertex
 10
8.05807833999937
 20
-13.9748575811417
 30
0.0
  0
VERTEX
  5
2D5
330
2D3
100
AcDbEntity
  8
BEMAßUNG
 62
     7
100
AcDbVertex
100
AcDb2dVertex
 10
10.55818413364518
 20
-14.30403645475733
 30
0.0
  0
VERTEX
  5
2D6
330
2D3
100
AcDbEntity
  8
BEMAßUNG
 62
     7
100
AcDbVertex
100
AcDb2dVertex
 10
10.55818413364518
 20
-13.64533419797756
 30
0.0
  0
VERTEX
  5
2D7
330
2D3
100
AcDbEntity
  8
BEMAßUNG
 62
     7
100
AcDbVertex
100
AcDb2dVertex
 10
8.05807833999937
 20
-13.9748575811417
 30
0.0
  0
SEQEND
  5
2D8
330
2D3
100
AcDbEntity
  8
BEMAßUNG
  0
POLYLINE
  5
2D9
330
1F
100
AcDbEntity
  8
BEMAßUNG
 62
     7
100
AcDb2dPolyline
 66
     1
 10
0.0
 20
0.0
 30
0.0
  0
VERTEX
  5
2DA
330
2D9
100
AcDbEntity
  8
BEMAßUNG
 62
     7
100
AcDbVertex
100
AcDb2dVertex
 10
10.55818413364518
 20
-14.27940402203779
 30
0.0
  0
VERTEX
  5
2DB
330
2D9
100
AcDbEntity
  8
BEMAßUNG
 62
     7
100
AcDbVertex
100
AcDb2dVertex
 10
10.37335476086152
 20
-14.27940402203779
 30
0.0
  0
SEQEND
  5
2DC
330
2D9
100
AcDbEntity
  8
BEMAßUNG
  0
POLYLINE
  5
2DD
330
1F
100
AcDbEntity
  8
BEMAßUNG
 62
     7
100
AcDb2dPolyline
 66
     1
 10
0.0
 20
0.0
 30
0.0
  0
VERTEX
  5
2DE
330
2DD
100
AcDbEntity
  8
BEMAßUNG
 62
     7
100
AcDbVertex
100
AcDb2dVertex
 10
10.55818413364518
 20
-14.27940402203779
 30
0.0
  0
VERTEX
  5
2DF
330
2DD
100
AcDbEntity
  8
BEMAßUNG
 62
     7
100
AcDbVertex
100
AcDb2dVertex
 10
10.37335476086152
 20
-14.27940402203779
 30
0.0
  0
SEQEND
  5
2E0
330
2DD
100
AcDbEntity
  8
BEMAßUNG
  0
POLYLINE
  5
2E1
330
1F
100
AcDbEntity
  8
BEMAßUNG
 62
     7
100
AcDb2dPolyline
 66
     1
 10
0.0
 20
0.0
 30
0.0
  0
VERTEX
  5
2E2
330
2E1
100
AcDbEntity
  8
BEMAßUNG
 62
     7
100
AcDbVertex
100
AcDb2dVertex
 10
10.55818413364518
 20
-14.22841660885609
 30
0.0
  0
VERTEX
  5
2E3
330
2E1
100
AcDbEntity
  8
BEMAßUNG
 62
     7
100
AcDbVertex
100
AcDb2dVertex
 10
9.987848576062065
 20
-14.22841660885609
 30
0.0
  0
SEQEND
  5
2E4
330
2E1
100
AcDbEntity
  8
BEMAßUNG
  0
POLYLINE
  5
2E5
330
1F
100
AcDbEntity
  8
BEMAßUNG
 62
     7
100
AcDb2dPolyline
 66
     1
 10
0.0
 20
0.0
 30
0.0
  0
VERTEX
  5
2E6
330
2E5
100
AcDbEntity
  8
BEMAßUNG
 62
     7
100
AcDbVertex
100
AcDb2dVertex
 10
10.55818413364518
 20
-14.17777370522292
 30
0.0
  0
VERTEX
  5
2E7
330
2E5
100
AcDbEntity
  8
BEMAßUNG
 62
     7
100
AcDbVertex
100
AcDb2dVertex
 10
9.601481117391296
 20
-14.17777370522292
 30
0.0
  0
SEQEND
  5
2E8
330
2E5
100
AcDbEntity
  8
BEMAßUNG
  0
POLYLINE
  5
2E9
330
1F
100
AcDbEntity
  8
BEMAßUNG
 62
     7
100
AcDb2dPolyline
 66
     1
 10
0.0
 20
0.0
 30
0.0
  0
VERTEX
  5
2EA
330
2E9
100
AcDbEntity
  8
BEMAßUNG
 62
     7
100
AcDbVertex
100
AcDb2dVertex
 10
10.55818413364518
 20
-14.12678629204122
 30
0.0
  0
VERTEX
  5
2EB
330
2E9
100
AcDbEntity
  8
BEMAßUNG
 62
     7
100
AcDbVertex
100
AcDb2dVertex
 10
9.215630423043315
 20
-14.12678629204122
 30
0.0
  0
SEQEND
  5
2EC
330
2E9
100
AcDbEntity
  8
BEMAßUNG
  0
POLYLINE
  5
2ED
330
1F
100
AcDbEntity
  8
BEMAßUNG
 62
     7
100
AcDb2dPolyline
 66
     1
 10
0.0
 20
0.0
 30
0.0
  0
VERTEX
  5
2EE
330
2ED
100
AcDbEntity
  8
BEMAßUNG
 62
     7
100
AcDbVertex
100
AcDb2dVertex
 10
10.55818413364518
 20
-14.07614338840805
 30
0.0
  0
VERTEX
  5
2EF
330
2ED
100
AcDbEntity
  8
BEMAßUNG
 62
     7
100
AcDbVertex
100
AcDb2dVertex
 10
8.829951983469595
 20
-14.07614338840805
 30
0.0
  0
SEQEND
  5
2F0
330
2ED
100
AcDbEntity
  8
BEMAßUNG
  0
POLYLINE
  5
2F1
330
1F
100
AcDbEntity
  8
BEMAßUNG
 62
     7
100
AcDb2dPolyline
 66
     1
 10
0.0
 20
0.0
 30
0.0
  0
VERTEX
  5
2F2
330
2F1
100
AcDbEntity
  8
BEMAßUNG
 62
     7
100
AcDbVertex
100
AcDb2dVertex
 10
10.55818413364518
 20
-14.02532823000061
 30
0.0
  0
VERTEX
  5
2F3
330
2F1
100
AcDbEntity
  8
BEMAßUNG
 62
     7
100
AcDbVertex
100
AcDb2dVertex
 10
8.44444579867014
 20
-14.02532823000061
 30
0.0
  0
SEQEND
  5
2F4
330
2F1
100
AcDbEntity
  8
BEMAßUNG
  0
POLYLINE
  5
2F5
330
1F
100
AcDbEntity
  8
BEMAßUNG
 62
     7
100
AcDb2dPolyline
 66
     1
 10
0.0
 20
0.0
 30
0.0
  0
VERTEX
  5
2F6
330
2F5
100
AcDbEntity
  8
BEMAßUNG
 62
     7
100
AcDbVertex
100
AcDb2dVertex
 10
10.55818413364518
 20
-13.9748575811417
 30
0.0
  0
VERTEX
  5
2F7
330
2F5
100
AcDbEntity
  8
BEMAßUNG
 62
     7
100
AcDbVertex
100
AcDb2dVertex
 10
8.05807833999937
 20
-13.9748575811417
 30
0.0
  0
SEQEND
  5
2F8
330
2F5
100
AcDbEntity
  8
BEMAßUNG
  0
POLYLINE
  5
2F9
330
1F
100
AcDbEntity
  8
BEMAßUNG
 62
     7
100
AcDb2dPolyline
 66
     1
 10
0.0
 20
0.0
 30
0.0
  0
VERTEX
  5
2FA
330
2F9
100
AcDbEntity
  8
BEMAßUNG
 62
     7
100
AcDbVertex
100
AcDb2dVertex
 10
10.55818413364518
 20
-13.66996663069709
 30
0.0
  0
VERTEX
  5
2FB
330
2F9
100
AcDbEntity
  8
BEMAßUNG
 62
     7
100
AcDbVertex
100
AcDb2dVertex
 10
10.37335476086152
 20
-13.66996663069709
 30
0.0
  0
SEQEND
  5
2FC
330
2F9
100
AcDbEntity
  8
BEMAßUNG
  0
POLYLINE
  5
2FD
330
1F
100
AcDbEntity
  8
BEMAßUNG
 62
     7
100
AcDb2dPolyline
 66
     1
 10
0.0
 20
0.0
 30
0.0
  0
VERTEX
  5
2FE
330
2FD
100
AcDbEntity
  8
BEMAßUNG
 62
     7
100
AcDbVertex
100
AcDb2dVertex
 10
10.55818413364518
 20
-13.66996663069709
 30
0.0
  0
VERTEX
  5
2FF
330
2FD
100
AcDbEntity
  8
BEMAßUNG
 62
     7
100
AcDbVertex
100
AcDb2dVertex
 10
10.37335476086152
 20
-13.66996663069709
 30
0.0
  0
SEQEND
  5
300
330
2FD
100
AcDbEntity
  8
BEMAßUNG
  0
POLYLINE
  5
301
330
1F
100
AcDbEntity
  8
BEMAßUNG
 62
     7
100
AcDb2dPolyline
 66
     1
 10
0.0
 20
0.0
 30
0.0
  0
VERTEX
  5
302
330
301
100
AcDbEntity
  8
BEMAßUNG
 62
     7
100
AcDbVertex
100
AcDb2dVertex
 10
10.55818413364518
 20
-13.72095404387879
 30
0.0
  0
VERTEX
  5
303
330
301
100
AcDbEntity
  8
BEMAßUNG
 62
     7
100
AcDbVertex
100
AcDb2dVertex
 10
9.987848576062065
 20
-13.72095404387879
 30
0.0
  0
SEQEND
  5
304
330
301
100
AcDbEntity
  8
BEMAßUNG
  0
POLYLINE
  5
305
330
1F
100
AcDbEntity
  8
BEMAßUNG
 62
     7
100
AcDb2dPolyline
 66
     1
 10
0.0
 20
0.0
 30
0.0
  0
VERTEX
  5
306
330
305
100
AcDbEntity
  8
BEMAßUNG
 62
     7
100
AcDbVertex
100
AcDb2dVertex
 10
10.55818413364518
 20
-13.77159694751196
 30
0.0
  0
VERTEX
  5
307
330
305
100
AcDbEntity
  8
BEMAßUNG
 62
     7
100
AcDbVertex
100
AcDb2dVertex
 10
9.601481117391296
 20
-13.77159694751196
 30
0.0
  0
SEQEND
  5
308
330
305
100
AcDbEntity
  8
BEMAßUNG
  0
POLYLINE
  5
309
330
1F
100
AcDbEntity
  8
BEMAßUNG
 62
     7
100
AcDb2dPolyline
 66
     1
 10
0.0
 20
0.0
 30
0.0
  0
VERTEX
  5
30A
330
309
100
AcDbEntity
  8
BEMAßUNG
 62
     7
100
AcDbVertex
100
AcDb2dVertex
 10
10.55818413364518
 20
-13.8224121059194
 30
0.0
  0
VERTEX
  5
30B
330
309
100
AcDbEntity
  8
BEMAßUNG
 62
     7
100
AcDbVertex
100
AcDb2dVertex
 10
9.215630423043315
 20
-13.8224121059194
 30
0.0
  0
SEQEND
  5
30C
330
309
100
AcDbEntity
  8
BEMAßUNG
  0
POLYLINE
  5
30D
330
1F
100
AcDbEntity
  8
BEMAßUNG
 62
     7
100
AcDb2dPolyline
 66
     1
 10
0.0
 20
0.0
 30
0.0
  0
VERTEX
  5
30E
330
30D
100
AcDbEntity
  8
BEMAßUNG
 62
     7
100
AcDbVertex
100
AcDb2dVertex
 10
10.55818413364518
 20
-13.87322726432683
 30
0.0
  0
VERTEX
  5
30F
330
30D
100
AcDbEntity
  8
BEMAßUNG
 62
     7
100
AcDbVertex
100
AcDb2dVertex
 10
8.829951983469595
 20
-13.87322726432683
 30
0.0
  0
SEQEND
  5
310
330
30D
100
AcDbEntity
  8
BEMAßUNG
  0
POLYLINE
  5
311
330
1F
100
AcDbEntity
  8
BEMAßUNG
 62
     7
100
AcDb2dPolyline
 66
     1
 10
0.0
 20
0.0
 30
0.0
  0
VERTEX
  5
312
330
311
100
AcDbEntity
  8
BEMAßUNG
 62
     7
100
AcDbVertex
100
AcDb2dVertex
 10
10.55818413364518
 20
-13.92404242273427
 30
0.0
  0
VERTEX
  5
313
330
311
100
AcDbEntity
  8
BEMAßUNG
 62
     7
100
AcDbVertex
100
AcDb2dVertex
 10
8.44444579867014
 20
-13.92404242273427
 30
0.0
  0
SEQEND
  5
314
330
311
100
AcDbEntity
  8
BEMAßUNG
  0
POLYLINE
  5
315
330
1F
100
AcDbEntity
  8
BEMAßUNG
 62
     7
100
AcDb2dPolyline
 66
     1
 10
0.0
 20
0.0
 30
0.0
  0
VERTEX
  5
316
330
315
100
AcDbEntity
  8
BEMAßUNG
 62
     7
100
AcDbVertex
100
AcDb2dVertex
 10
10.55818413364518
 20
-13.9748575811417
 30
0.0
  0
VERTEX
  5
317
330
315
100
AcDbEntity
  8
BEMAßUNG
 62
     7
100
AcDbVertex
100
AcDb2dVertex
 10
8.05807833999937
 20
-13.9748575811417
 30
0.0
  0
SEQEND
  5
318
330
315
100
AcDbEntity
  8
BEMAßUNG
  0
POLYLINE
  5
319
330
1F
100
AcDbEntity
  8
BEMAßUNG
 62
     7
100
AcDb2dPolyline
 66
     1
 10
0.0
 20
0.0
 30
0.0
  0
VERTEX
  5
31A
330
319
100
AcDbEntity
  8
BEMAßUNG
 62
     7
100
AcDbVertex
100
AcDb2dVertex
 10
1.05833333306875
 20
-44.09722221119792
 30
0.0
  0
VERTEX
  5
31B
330
319
100
AcDbEntity
  8
BEMAßUNG
 62
     7
100
AcDbVertex
100
AcDb2dVertex
 10
1.05833333306875
 20
-55.98176810666428
 30
0.0
  0
SEQEND
  5
31C
330
319
100
AcDbEntity
  8
BEMAßUNG
  0
POLYLINE
  5
31D
330
1F
100
AcDbEntity
  8
BEMAßUNG
 62
     7
100
AcDb2dPolyline
 66
     1
 10
0.0
 20
0.0
 30
0.0
  0
VERTEX
  5
31E
330
31D
100
AcDbEntity
  8
BEMAßUNG
 62
     7
100
AcDbVertex
100
AcDb2dVertex
 10
41.05795897411051
 20
-44.09722221119792
 30
0.0
  0
VERTEX
  5
31F
330
31D
100
AcDbEntity
  8
BEMAßUNG
 62
     7
100
AcDbVertex
100
AcDb2dVertex
 10
41.05795897411051
 20
-55.98176810666428
 30
0.0
  0
SEQEND
  5
320
330
31D
100
AcDbEntity
  8
BEMAßUNG
  0
POLYLINE
  5
321
330
1F
100
AcDbEntity
  8
BEMAßUNG
 62
     7
100
AcDb2dPolyline
 66
     1
 10
0.0
 20
0.0
 30
0.0
  0
VERTEX
  5
322
330
321
100
AcDbEntity
  8
BEMAßUNG
 62
     7
100
AcDbVertex
100
AcDb2dVertex
 10
1.05833333306875
 20
-53.98189017747675
 30
0.0
  0
VERTEX
  5
323
330
321
100
AcDbEntity
  8
BEMAßUNG
 62
     7
100
AcDbVertex
100
AcDb2dVertex
 10
41.05795897411051
 20
-53.98189017747675
 30
0.0
  0
SEQEND
  5
324
330
321
100
AcDbEntity
  8
BEMAßUNG
  0
POLYLINE
  5
325
330
1F
100
AcDbEntity
  8
BEMAßUNG
 62
     7
100
AcDb2dPolyline
 66
     1
 10
0.0
 20
0.0
 30
0.0
  0
VERTEX
  5
326
330
325
100
AcDbEntity
  8
BEMAßUNG
 62
     7
100
AcDbVertex
100
AcDb2dVertex
 10
1.05833333306875
 20
-53.98189017747675
 30
0.0
  0
VERTEX
  5
327
330
325
100
AcDbEntity
  8
BEMAßUNG
 62
     7
100
AcDbVertex
100
AcDb2dVertex
 10
3.558439126714557
 20
-54.31089679631811
 30
0.0
  0
VERTEX
  5
328
330
325
100
AcDbEntity
  8
BEMAßUNG
 62
     7
100
AcDbVertex
100
AcDb2dVertex
 10
3.558439126714557
 20
-53.65288355863539
 30
0.0
  0
VERTEX
  5
329
330
325
100
AcDbEntity
  8
BEMAßUNG
 62
     7
100
AcDbVertex
100
AcDb2dVertex
 10
1.05833333306875
 20
-53.98189017747675
 30
0.0
  0
SEQEND
  5
32A
330
325
100
AcDbEntity
  8
BEMAßUNG
  0
POLYLINE
  5
32B
330
1F
100
AcDbEntity
  8
BEMAßUNG
 62
     7
100
AcDb2dPolyline
 66
     1
 10
0.0
 20
0.0
 30
0.0
  0
VERTEX
  5
32C
330
32B
100
AcDbEntity
  8
BEMAßUNG
 62
     7
100
AcDbVertex
100
AcDb2dVertex
 10
3.558439126714557
 20
-54.28678112792137
 30
0.0
  0
VERTEX
  5
32D
330
32B
100
AcDbEntity
  8
BEMAßUNG
 62
     7
100
AcDbVertex
100
AcDb2dVertex
 10
3.373609753930903
 20
-54.28678112792137
 30
0.0
  0
SEQEND
  5
32E
330
32B
100
AcDbEntity
  8
BEMAßUNG
  0
POLYLINE
  5
32F
330
1F
100
AcDbEntity
  8
BEMAßUNG
 62
     7
100
AcDb2dPolyline
 66
     1
 10
0.0
 20
0.0
 30
0.0
  0
VERTEX
  5
330
330
32F
100
AcDbEntity
  8
BEMAßUNG
 62
     7
100
AcDbVertex
100
AcDb2dVertex
 10
3.558439126714557
 20
-54.28678112792137
 30
0.0
  0
VERTEX
  5
331
330
32F
100
AcDbEntity
  8
BEMAßUNG
 62
     7
100
AcDbVertex
100
AcDb2dVertex
 10
3.373609753930903
 20
-54.28678112792137
 30
0.0
  0
SEQEND
  5
332
330
32F
100
AcDbEntity
  8
BEMAßUNG
  0
POLYLINE
  5
333
330
1F
100
AcDbEntity
  8
BEMAßUNG
 62
     7
100
AcDb2dPolyline
 66
     1
 10
0.0
 20
0.0
 30
0.0
  0
VERTEX
  5
334
330
333
100
AcDbEntity
  8
BEMAßUNG
 62
     7
100
AcDbVertex
100
AcDb2dVertex
 10
3.558439126714557
 20
-54.23648273383672
 30
0.0
  0
VERTEX
  5
335
330
333
100
AcDbEntity
  8
BEMAßUNG
 62
     7
100
AcDbVertex
100
AcDb2dVertex
 10
2.987242295260134
 20
-54.23648273383672
 30
0.0
  0
SEQEND
  5
336
330
333
100
AcDbEntity
  8
BEMAßUNG
  0
POLYLINE
  5
337
330
1F
100
AcDbEntity
  8
BEMAßUNG
 62
     7
100
AcDb2dPolyline
 66
     1
 10
0.0
 20
0.0
 30
0.0
  0
VERTEX
  5
338
330
337
100
AcDbEntity
  8
BEMAßUNG
 62
     7
100
AcDbVertex
100
AcDb2dVertex
 10
3.558439126714557
 20
-54.18549532065501
 30
0.0
  0
VERTEX
  5
339
330
337
100
AcDbEntity
  8
BEMAßUNG
 62
     7
100
AcDbVertex
100
AcDb2dVertex
 10
2.602080620009202
 20
-54.18549532065501
 30
0.0
  0
SEQEND
  5
33A
330
337
100
AcDbEntity
  8
BEMAßUNG
  0
POLYLINE
  5
33B
330
1F
100
AcDbEntity
  8
BEMAßUNG
 62
     7
100
AcDb2dPolyline
 66
     1
 10
0.0
 20
0.0
 30
0.0
  0
VERTEX
  5
33C
330
33B
100
AcDbEntity
  8
BEMAßUNG
 62
     7
100
AcDbVertex
100
AcDb2dVertex
 10
3.558439126714557
 20
-54.13450790747332
 30
0.0
  0
VERTEX
  5
33D
330
33B
100
AcDbEntity
  8
BEMAßUNG
 62
     7
100
AcDbVertex
100
AcDb2dVertex
 10
2.215713161338433
 20
-54.13450790747332
 30
0.0
  0
SEQEND
  5
33E
330
33B
100
AcDbEntity
  8
BEMAßUNG
  0
POLYLINE
  5
33F
330
1F
100
AcDbEntity
  8
BEMAßUNG
 62
     7
100
AcDb2dPolyline
 66
     1
 10
0.0
 20
0.0
 30
0.0
  0
VERTEX
  5
340
330
33F
100
AcDbEntity
  8
BEMAßUNG
 62
     7
100
AcDbVertex
100
AcDb2dVertex
 10
3.558439126714557
 20
-54.08386500384015
 30
0.0
  0
VERTEX
  5
341
330
33F
100
AcDbEntity
  8
BEMAßUNG
 62
     7
100
AcDbVertex
100
AcDb2dVertex
 10
1.830206976538976
 20
-54.08386500384015
 30
0.0
  0
SEQEND
  5
342
330
33F
100
AcDbEntity
  8
BEMAßUNG
  0
POLYLINE
  5
343
330
1F
100
AcDbEntity
  8
BEMAßUNG
 62
     7
100
AcDb2dPolyline
 66
     1
 10
0.0
 20
0.0
 30
0.0
  0
VERTEX
  5
344
330
343
100
AcDbEntity
  8
BEMAßUNG
 62
     7
100
AcDbVertex
100
AcDb2dVertex
 10
3.558439126714557
 20
-54.03322210020698
 30
0.0
  0
VERTEX
  5
345
330
343
100
AcDbEntity
  8
BEMAßUNG
 62
     7
100
AcDbVertex
100
AcDb2dVertex
 10
1.443839517868207
 20
-54.03322210020698
 30
0.0
  0
SEQEND
  5
346
330
343
100
AcDbEntity
  8
BEMAßUNG
  0
POLYLINE
  5
347
330
1F
100
AcDbEntity
  8
BEMAßUNG
 62
     7
100
AcDb2dPolyline
 66
     1
 10
0.0
 20
0.0
 30
0.0
  0
VERTEX
  5
348
330
347
100
AcDbEntity
  8
BEMAßUNG
 62
     7
100
AcDbVertex
100
AcDb2dVertex
 10
3.558439126714557
 20
-53.98189017747675
 30
0.0
  0
VERTEX
  5
349
330
347
100
AcDbEntity
  8
BEMAßUNG
 62
     7
100
AcDbVertex
100
AcDb2dVertex
 10
1.05833333306875
 20
-53.98189017747675
 30
0.0
  0
SEQEND
  5
34A
330
347
100
AcDbEntity
  8
BEMAßUNG
  0
POLYLINE
  5
34B
330
1F
100
AcDbEntity
  8
BEMAßUNG
 62
     7
100
AcDb2dPolyline
 66
     1
 10
0.0
 20
0.0
 30
0.0
  0
VERTEX
  5
34C
330
34B
100
AcDbEntity
  8
BEMAßUNG
 62
     7
100
AcDbVertex
100
AcDb2dVertex
 10
3.558439126714557
 20
-53.67768824612919
 30
0.0
  0
VERTEX
  5
34D
330
34B
100
AcDbEntity
  8
BEMAßUNG
 62
     7
100
AcDbVertex
100
AcDb2dVertex
 10
3.373609753930903
 20
-53.67768824612919
 30
0.0
  0
SEQEND
  5
34E
330
34B
100
AcDbEntity
  8
BEMAßUNG
  0
POLYLINE
  5
34F
330
1F
100
AcDbEntity
  8
BEMAßUNG
 62
     7
100
AcDb2dPolyline
 66
     1
 10
0.0
 20
0.0
 30
0.0
  0
VERTEX
  5
350
330
34F
100
AcDbEntity
  8
BEMAßUNG
 62
     7
100
AcDbVertex
100
AcDb2dVertex
 10
3.558439126714557
 20
-53.67768824612919
 30
0.0
  0
VERTEX
  5
351
330
34F
100
AcDbEntity
  8
BEMAßUNG
 62
     7
100
AcDbVertex
100
AcDb2dVertex
 10
3.373609753930903
 20
-53.67768824612919
 30
0.0
  0
SEQEND
  5
352
330
34F
100
AcDbEntity
  8
BEMAßUNG
  0
POLYLINE
  5
353
330
1F
100
AcDbEntity
  8
BEMAßUNG
 62
     7
100
AcDb2dPolyline
 66
     1
 10
0.0
 20
0.0
 30
0.0
  0
VERTEX
  5
354
330
353
100
AcDbEntity
  8
BEMAßUNG
 62
     7
100
AcDbVertex
100
AcDb2dVertex
 10
3.558439126714557
 20
-53.72833114976236
 30
0.0
  0
VERTEX
  5
355
330
353
100
AcDbEntity
  8
BEMAßUNG
 62
     7
100
AcDbVertex
100
AcDb2dVertex
 10
2.987242295260134
 20
-53.72833114976236
 30
0.0
  0
SEQEND
  5
356
330
353
100
AcDbEntity
  8
BEMAßUNG
  0
POLYLINE
  5
357
330
1F
100
AcDbEntity
  8
BEMAßUNG
 62
     7
100
AcDb2dPolyline
 66
     1
 10
0.0
 20
0.0
 30
0.0
  0
VERTEX
  5
358
330
357
100
AcDbEntity
  8
BEMAßUNG
 62
     7
100
AcDbVertex
100
AcDb2dVertex
 10
3.558439126714557
 20
-53.77862954384701
 30
0.0
  0
VERTEX
  5
359
330
357
100
AcDbEntity
  8
BEMAßUNG
 62
     7
100
AcDbVertex
100
AcDb2dVertex
 10
2.602080620009202
 20
-53.77862954384701
 30
0.0
  0
SEQEND
  5
35A
330
357
100
AcDbEntity
  8
BEMAßUNG
  0
POLYLINE
  5
35B
330
1F
100
AcDbEntity
  8
BEMAßUNG
 62
     7
100
AcDb2dPolyline
 66
     1
 10
0.0
 20
0.0
 30
0.0
  0
VERTEX
  5
35C
330
35B
100
AcDbEntity
  8
BEMAßUNG
 62
     7
100
AcDbVertex
100
AcDb2dVertex
 10
3.558439126714557
 20
-53.82927244748019
 30
0.0
  0
VERTEX
  5
35D
330
35B
100
AcDbEntity
  8
BEMAßUNG
 62
     7
100
AcDbVertex
100
AcDb2dVertex
 10
2.215713161338433
 20
-53.82927244748019
 30
0.0
  0
SEQEND
  5
35E
330
35B
100
AcDbEntity
  8
BEMAßUNG
  0
POLYLINE
  5
35F
330
1F
100
AcDbEntity
  8
BEMAßUNG
 62
     7
100
AcDb2dPolyline
 66
     1
 10
0.0
 20
0.0
 30
0.0
  0
VERTEX
  5
360
330
35F
100
AcDbEntity
  8
BEMAßUNG
 62
     7
100
AcDbVertex
100
AcDb2dVertex
 10
3.558439126714557
 20
-53.88025986066188
 30
0.0
  0
VERTEX
  5
361
330
35F
100
AcDbEntity
  8
BEMAßUNG
 62
     7
100
AcDbVertex
100
AcDb2dVertex
 10
1.830206976538976
 20
-53.88025986066188
 30
0.0
  0
SEQEND
  5
362
330
35F
100
AcDbEntity
  8
BEMAßUNG
  0
POLYLINE
  5
363
330
1F
100
AcDbEntity
  8
BEMAßUNG
 62
     7
100
AcDb2dPolyline
 66
     1
 10
0.0
 20
0.0
 30
0.0
  0
VERTEX
  5
364
330
363
100
AcDbEntity
  8
BEMAßUNG
 62
     7
100
AcDbVertex
100
AcDb2dVertex
 10
3.558439126714557
 20
-53.93124727384358
 30
0.0
  0
VERTEX
  5
365
330
363
100
AcDbEntity
  8
BEMAßUNG
 62
     7
100
AcDbVertex
100
AcDb2dVertex
 10
1.443839517868207
 20
-53.93124727384358
 30
0.0
  0
SEQEND
  5
366
330
363
100
AcDbEntity
  8
BEMAßUNG
  0
POLYLINE
  5
367
330
1F
100
AcDbEntity
  8
BEMAßUNG
 62
     7
100
AcDb2dPolyline
 66
     1
 10
0.0
 20
0.0
 30
0.0
  0
VERTEX
  5
368
330
367
100
AcDbEntity
  8
BEMAßUNG
 62
     7
100
AcDbVertex
100
AcDb2dVertex
 10
3.558439126714557
 20
-53.98189017747675
 30
0.0
  0
VERTEX
  5
369
330
367
100
AcDbEntity
  8
BEMAßUNG
 62
     7
100
AcDbVertex
100
AcDb2dVertex
 10
1.05833333306875
 20
-53.98189017747675
 30
0.0
  0
SEQEND
  5
36A
330
367
100
AcDbEntity
  8
BEMAßUNG
  0
POLYLINE
  5
36B
330
1F
100
AcDbEntity
  8
BEMAßUNG
 62
     7
100
AcDb2dPolyline
 66
     1
 10
0.0
 20
0.0
 30
0.0
  0
VERTEX
  5
36C
330
36B
100
AcDbEntity
  8
BEMAßUNG
 62
     7
100
AcDbVertex
100
AcDb2dVertex
 10
41.05795897411051
 20
-53.98189017747675
 30
0.0
  0
VERTEX
  5
36D
330
36B
100
AcDbEntity
  8
BEMAßUNG
 62
     7
100
AcDbVertex
100
AcDb2dVertex
 10
38.55888670911028
 20
-53.65288355863539
 30
0.0
  0
VERTEX
  5
36E
330
36B
100
AcDbEntity
  8
BEMAßUNG
 62
     7
100
AcDbVertex
100
AcDb2dVertex
 10
38.55888670911028
 20
-54.31089679631811
 30
0.0
  0
VERTEX
  5
36F
330
36B
100
AcDbEntity
  8
BEMAßUNG
 62
     7
100
AcDbVertex
100
AcDb2dVertex
 10
41.05795897411051
 20
-53.98189017747675
 30
0.0
  0
SEQEND
  5
370
330
36B
100
AcDbEntity
  8
BEMAßUNG
  0
POLYLINE
  5
371
330
1F
100
AcDbEntity
  8
BEMAßUNG
 62
     7
100
AcDb2dPolyline
 66
     1
 10
0.0
 20
0.0
 30
0.0
  0
VERTEX
  5
372
330
371
100
AcDbEntity
  8
BEMAßUNG
 62
     7
100
AcDbVertex
100
AcDb2dVertex
 10
38.55888670911028
 20
-53.67768824612919
 30
0.0
  0
VERTEX
  5
373
330
371
100
AcDbEntity
  8
BEMAßUNG
 62
     7
100
AcDbVertex
100
AcDb2dVertex
 10
38.74319931757115
 20
-53.67768824612919
 30
0.0
  0
SEQEND
  5
374
330
371
100
AcDbEntity
  8
BEMAßUNG
  0
POLYLINE
  5
375
330
1F
100
AcDbEntity
  8
BEMAßUNG
 62
     7
100
AcDb2dPolyline
 66
     1
 10
0.0
 20
0.0
 30
0.0
  0
VERTEX
  5
376
330
375
100
AcDbEntity
  8
BEMAßUNG
 62
     7
100
AcDbVertex
100
AcDb2dVertex
 10
38.55888670911028
 20
-53.67768824612919
 30
0.0
  0
VERTEX
  5
377
330
375
100
AcDbEntity
  8
BEMAßUNG
 62
     7
100
AcDbVertex
100
AcDb2dVertex
 10
38.74319931757115
 20
-53.67768824612919
 30
0.0
  0
SEQEND
  5
378
330
375
100
AcDbEntity
  8
BEMAßUNG
  0
POLYLINE
  5
379
330
1F
100
AcDbEntity
  8
BEMAßUNG
 62
     7
100
AcDb2dPolyline
 66
     1
 10
0.0
 20
0.0
 30
0.0
  0
VERTEX
  5
37A
330
379
100
AcDbEntity
  8
BEMAßUNG
 62
     7
100
AcDbVertex
100
AcDb2dVertex
 10
38.55888670911028
 20
-53.72833114976236
 30
0.0
  0
VERTEX
  5
37B
330
379
100
AcDbEntity
  8
BEMAßUNG
 62
     7
100
AcDbVertex
100
AcDb2dVertex
 10
39.1287055023706
 20
-53.72833114976236
 30
0.0
  0
SEQEND
  5
37C
330
379
100
AcDbEntity
  8
BEMAßUNG
  0
POLYLINE
  5
37D
330
1F
100
AcDbEntity
  8
BEMAßUNG
 62
     7
100
AcDb2dPolyline
 66
     1
 10
0.0
 20
0.0
 30
0.0
  0
VERTEX
  5
37E
330
37D
100
AcDbEntity
  8
BEMAßUNG
 62
     7
100
AcDbVertex
100
AcDb2dVertex
 10
38.55888670911028
 20
-53.77862954384701
 30
0.0
  0
VERTEX
  5
37F
330
37D
100
AcDbEntity
  8
BEMAßUNG
 62
     7
100
AcDbVertex
100
AcDb2dVertex
 10
39.51455619671859
 20
-53.77862954384701
 30
0.0
  0
SEQEND
  5
380
330
37D
100
AcDbEntity
  8
BEMAßUNG
  0
POLYLINE
  5
381
330
1F
100
AcDbEntity
  8
BEMAßUNG
 62
     7
100
AcDb2dPolyline
 66
     1
 10
0.0
 20
0.0
 30
0.0
  0
VERTEX
  5
382
330
381
100
AcDbEntity
  8
BEMAßUNG
 62
     7
100
AcDbVertex
100
AcDb2dVertex
 10
38.55888670911028
 20
-53.82927244748019
 30
0.0
  0
VERTEX
  5
383
330
381
100
AcDbEntity
  8
BEMAßUNG
 62
     7
100
AcDbVertex
100
AcDb2dVertex
 10
39.90040689106657
 20
-53.82927244748019
 30
0.0
  0
SEQEND
  5
384
330
381
100
AcDbEntity
  8
BEMAßUNG
  0
POLYLINE
  5
385
330
1F
100
AcDbEntity
  8
BEMAßUNG
 62
     7
100
AcDb2dPolyline
 66
     1
 10
0.0
 20
0.0
 30
0.0
  0
VERTEX
  5
386
330
385
100
AcDbEntity
  8
BEMAßUNG
 62
     7
100
AcDbVertex
100
AcDb2dVertex
 10
38.55888670911028
 20
-53.88025986066188
 30
0.0
  0
VERTEX
  5
387
330
385
100
AcDbEntity
  8
BEMAßUNG
 62
     7
100
AcDbVertex
100
AcDb2dVertex
 10
40.28660209496307
 20
-53.88025986066188
 30
0.0
  0
SEQEND
  5
388
330
385
100
AcDbEntity
  8
BEMAßUNG
  0
POLYLINE
  5
389
330
1F
100
AcDbEntity
  8
BEMAßUNG
 62
     7
100
AcDb2dPolyline
 66
     1
 10
0.0
 20
0.0
 30
0.0
  0
VERTEX
  5
38A
330
389
100
AcDbEntity
  8
BEMAßUNG
 62
     7
100
AcDbVertex
100
AcDb2dVertex
 10
38.55888670911028
 20
-53.93124727384358
 30
0.0
  0
VERTEX
  5
38B
330
389
100
AcDbEntity
  8
BEMAßUNG
 62
     7
100
AcDbVertex
100
AcDb2dVertex
 10
40.6731418084081
 20
-53.93124727384358
 30
0.0
  0
SEQEND
  5
38C
330
389
100
AcDbEntity
  8
BEMAßUNG
  0
POLYLINE
  5
38D
330
1F
100
AcDbEntity
  8
BEMAßUNG
 62
     7
100
AcDb2dPolyline
 66
     1
 10
0.0
 20
0.0
 30
0.0
  0
VERTEX
  5
38E
330
38D
100
AcDbEntity
  8
BEMAßUNG
 62
     7
100
AcDbVertex
100
AcDb2dVertex
 10
38.55888670911028
 20
-53.98189017747675
 30
0.0
  0
VERTEX
  5
38F
330
38D
100
AcDbEntity
  8
BEMAßUNG
 62
     7
100
AcDbVertex
100
AcDb2dVertex
 10
41.05795897411051
 20
-53.98189017747675
 30
0.0
  0
SEQEND
  5
390
330
38D
100
AcDbEntity
  8
BEMAßUNG
  0
POLYLINE
  5
391
330
1F
100
AcDbEntity
  8
BEMAßUNG
 62
     7
100
AcDb2dPolyline
 66
     1
 10
0.0
 20
0.0
 30
0.0
  0
VERTEX
  5
392
330
391
100
AcDbEntity
  8
BEMAßUNG
 62
     7
100
AcDbVertex
100
AcDb2dVertex
 10
38.55888670911028
 20
-54.28678112792137
 30
0.0
  0
VERTEX
  5
393
330
391
100
AcDbEntity
  8
BEMAßUNG
 62
     7
100
AcDbVertex
100
AcDb2dVertex
 10
38.74319931757115
 20
-54.28678112792137
 30
0.0
  0
SEQEND
  5
394
330
391
100
AcDbEntity
  8
BEMAßUNG
  0
POLYLINE
  5
395
330
1F
100
AcDbEntity
  8
BEMAßUNG
 62
     7
100
AcDb2dPolyline
 66
     1
 10
0.0
 20
0.0
 30
0.0
  0
VERTEX
  5
396
330
395
100
AcDbEntity
  8
BEMAßUNG
 62
     7
100
AcDbVertex
100
AcDb2dVertex
 10
38.55888670911028
 20
-54.28678112792137
 30
0.0
  0
VERTEX
  5
397
330
395
100
AcDbEntity
  8
BEMAßUNG
 62
     7
100
AcDbVertex
100
AcDb2dVertex
 10
38.74319931757115
 20
-54.28678112792137
 30
0.0
  0
SEQEND
  5
398
330
395
100
AcDbEntity
  8
BEMAßUNG
  0
POLYLINE
  5
399
330
1F
100
AcDbEntity
  8
BEMAßUNG
 62
     7
100
AcDb2dPolyline
 66
     1
 10
0.0
 20
0.0
 30
0.0
  0
VERTEX
  5
39A
330
399
100
AcDbEntity
  8
BEMAßUNG
 62
     7
100
AcDbVertex
100
AcDb2dVertex
 10
38.55888670911028
 20
-54.23648273383672
 30
0.0
  0
VERTEX
  5
39B
330
399
100
AcDbEntity
  8
BEMAßUNG
 62
     7
100
AcDbVertex
100
AcDb2dVertex
 10
39.1287055023706
 20
-54.23648273383672
 30
0.0
  0
SEQEND
  5
39C
330
399
100
AcDbEntity
  8
BEMAßUNG
  0
POLYLINE
  5
39D
330
1F
100
AcDbEntity
  8
BEMAßUNG
 62
     7
100
AcDb2dPolyline
 66
     1
 10
0.0
 20
0.0
 30
0.0
  0
VERTEX
  5
39E
330
39D
100
AcDbEntity
  8
BEMAßUNG
 62
     7
100
AcDbVertex
100
AcDb2dVertex
 10
38.55888670911028
 20
-54.18549532065501
 30
0.0
  0
VERTEX
  5
39F
330
39D
100
AcDbEntity
  8
BEMAßUNG
 62
     7
100
AcDbVertex
100
AcDb2dVertex
 10
39.51455619671859
 20
-54.18549532065501
 30
0.0
  0
SEQEND
  5
3A0
330
39D
100
AcDbEntity
  8
BEMAßUNG
  0
POLYLINE
  5
3A1
330
1F
100
AcDbEntity
  8
BEMAßUNG
 62
     7
100
AcDb2dPolyline
 66
     1
 10
0.0
 20
0.0
 30
0.0
  0
VERTEX
  5
3A2
330
3A1
100
AcDbEntity
  8
BEMAßUNG
 62
     7
100
AcDbVertex
100
AcDb2dVertex
 10
38.55888670911028
 20
-54.13450790747332
 30
0.0
  0
VERTEX
  5
3A3
330
3A1
100
AcDbEntity
  8
BEMAßUNG
 62
     7
100
AcDbVertex
100
AcDb2dVertex
 10
39.90040689106657
 20
-54.13450790747332
 30
0.0
  0
SEQEND
  5
3A4
330
3A1
100
AcDbEntity
  8
BEMAßUNG
  0
POLYLINE
  5
3A5
330
1F
100
AcDbEntity
  8
BEMAßUNG
 62
     7
100
AcDb2dPolyline
 66
     1
 10
0.0
 20
0.0
 30
0.0
  0
VERTEX
  5
3A6
330
3A5
100
AcDbEntity
  8
BEMAßUNG
 62
     7
100
AcDbVertex
100
AcDb2dVertex
 10
38.55888670911028
 20
-54.08386500384015
 30
0.0
  0
VERTEX
  5
3A7
330
3A5
100
AcDbEntity
  8
BEMAßUNG
 62
     7
100
AcDbVertex
100
AcDb2dVertex
 10
40.28660209496307
 20
-54.08386500384015
 30
0.0
  0
SEQEND
  5
3A8
330
3A5
100
AcDbEntity
  8
BEMAßUNG
  0
POLYLINE
  5
3A9
330
1F
100
AcDbEntity
  8
BEMAßUNG
 62
     7
100
AcDb2dPolyline
 66
     1
 10
0.0
 20
0.0
 30
0.0
  0
VERTEX
  5
3AA
330
3A9
100
AcDbEntity
  8
BEMAßUNG
 62
     7
100
AcDbVertex
100
AcDb2dVertex
 10
38.55888670911028
 20
-54.03322210020698
 30
0.0
  0
VERTEX
  5
3AB
330
3A9
100
AcDbEntity
  8
BEMAßUNG
 62
     7
100
AcDbVertex
100
AcDb2dVertex
 10
40.6731418084081
 20
-54.03322210020698
 30
0.0
  0
SEQEND
  5
3AC
330
3A9
100
AcDbEntity
  8
BEMAßUNG
  0
POLYLINE
  5
3AD
330
1F
100
AcDbEntity
  8
BEMAßUNG
 62
     7
100
AcDb2dPolyline
 66
     1
 10
0.0
 20
0.0
 30
0.0
  0
VERTEX
  5
3AE
330
3AD
100
AcDbEntity
  8
BEMAßUNG
 62
     7
100
AcDbVertex
100
AcDb2dVertex
 10
38.55888670911028
 20
-53.98189017747675
 30
0.0
  0
VERTEX
  5
3AF
330
3AD
100
AcDbEntity
  8
BEMAßUNG
 62
     7
100
AcDbVertex
100
AcDb2dVertex
 10
41.05795897411051
 20
-53.98189017747675
 30
0.0
  0
SEQEND
  5
3B0
330
3AD
100
AcDbEntity
  8
BEMAßUNG
  0
MTEXT
  5
3B2
330
1F
100
AcDbEntity
  8
TEXT
 62
     7
100
AcDbMText
 10
-19.84512803323316
 20
-40.22441812145431
 30
0.0
 40
2.398888888289167
 41
0.0
 71
     7
 72
     1
  1
\fINDEX Univers 45 Light|b0|i0|c0|p34;\W1;ø20h6
 11
-4.371139000186241E-8
 21
0.999999999999999
 31
0.0
  0
MTEXT
  5
3B3
330
1F
100
AcDbEntity
  8
TEXT
 62
     7
100
AcDbMText
 10
-9.850389266200597
 20
-35.57750107617507
 30
0.0
 40
2.398888888289167
 41
0.0
 71
     7
 72
     1
  1
\fINDEX Univers 45 Light|b0|i0|c0|p34;\W1;D
 11
-4.371139000186241E-8
 21
0.999999999999999
 31
0.0
  0
MTEXT
  5
3B4
330
1F
100
AcDbEntity
  8
TEXT
 62
     7
100
AcDbMText
 10
3.912422687823978
 20
-13.18386365772834
 30
0.0
 40
2.398888888289167
 41
0.0
 71
     7
 72
     1
  1
\fINDEX Univers 45 Light|b0|i0|c0|p34;\W1;7
  0
MTEXT
  5
3B5
330
1F
100
AcDbEntity
  8
TEXT
 62
     7
100
AcDbMText
 10
12.98559841255221
 20
-13.18386365772834
 30
0.0
 40
2.398888888289167
 41
0.0
 71
     7
 72
     1
  1
\fINDEX Univers 45 Light|b0|i0|c0|p34;\W1;14
  0
MTEXT
  5
3B6
330
1F
100
AcDbEntity
  8
TEXT
 62
     7
100
AcDbMText
 10
18.70135633213022
 20
-53.19055174451486
 30
0.0
 40
2.398888888289167
 41
0.0
 71
     7
 72
     1
  1
\fINDEX Univers 45 Light|b0|i0|c0|p34;\W1;40
  0
ENDSEC
  0
SECTION
  2
OBJECTS
  0
DICTIONARY
  5
C
330
0
100
AcDbDictionary
  3
ACAD_GROUP
350
D
  3
ACAD_LAYOUT
350
1A
  3
ACAD_MLINESTYLE
350
17
  3
ACAD_PLOTSETTINGS
350
19
  3
ACAD_TABLESTYLE
350
3D7
  3
ACAD_VISUALSTYLE
350
2A
  3
ACDBHEADERROUNDTRIPXREC
350
3B7
  0
DICTIONARY
  5
D
102
{ACAD_REACTORS
330
C
102
}
330
C
100
AcDbDictionary
  0
DICTIONARY
  5
1A
102
{ACAD_REACTORS
330
C
102
}
330
C
100
AcDbDictionary
  0
DICTIONARY
  5
17
102
{ACAD_REACTORS
330
C
102
}
330
C
100
AcDbDictionary
  3
STANDARD
350
18
  0
DICTIONARY
  5
19
102
{ACAD_REACTORS
330
C
102
}
330
C
100
AcDbDictionary
  0
DICTIONARY
  5
3D7
102
{ACAD_REACTORS
330
C
102
}
330
C
100
AcDbDictionary
  0
DICTIONARY
  5
2A
102
{ACAD_REACTORS
330
C
102
}
330
C
100
AcDbDictionary
  3
2DWIREFRAME
350
2F
  3
3D_HIDDEN
350
31
  3
3DWIREFRAME
350
30
  3
BASIC
350
32
  3
BRIGHTEN
350
36
  3
COLORCHANGE
350
3A
  3
CONCEPTUAL
350
34
  3
DIM
350
35
  3
FACEPATTERN
350
39
  3
FLAT
350
2B
  3
FLATWITHEDGES
350
2C
  3
GOURAUD
350
2D
  3
GOURAUDWITHEDGES
350
2E
  3
LINEPATTERN
350
38
  3
REALISTIC
350
33
  3
THICKEN
350
37
  0
DICTIONARY
  5
3B7
102
{ACAD_REACTORS
330
C
102
}
330
C
100
AcDbDictionary
  3
CEPSNTYPE
350
3C0
  3
DIMSTYLEDATA
350
3D6
  3
FINGERPRINTGUID
350
3C1
  3
HYPERLINKBASE
350
3BA
  3
INSUNITS
350
3BF
  3
LAYOUTDICT
350
3BC
  3
LWETCUNION
350
3BE
  3
PLOTSETDICT
350
3BD
  3
PSVPSCALE
350
3C3
  3
PUCSBASE
350
3C6
  3
PUCSORGBACK
350
3CC
  3
PUCSORGBOTTOM
350
3C8
  3
PUCSORGFRONT
350
3CB
  3
PUCSORGLEFT
350
3C9
  3
PUCSORGRIGHT
350
3CA
  3
PUCSORGTOP
350
3C7
  3
PUCSORTHOREF
350
3C4
  3
PUCSORTHOVIEW
350
3C5
  3
STYLESHEET
350
3BB
  3
TSTACKALIGN
350
3B8
  3
TSTACKSIZE
350
3B9
  3
UCSBASE
350
3CF
  3
UCSORGBACK
350
3D5
  3
UCSORGBOTTOM
350
3D1
  3
UCSORGFRONT
350
3D4
  3
UCSORGLEFT
350
3D2
  3
UCSORGRIGHT
350
3D3
  3
UCSORGTOP
350
3D0
  3
UCSORTHOREF
350
3CD
  3
UCSORTHOVIEW
350
3CE
  3
VERSIONGUID
350
3C2
  0
MLINESTYLE
  5
18
102
{ACAD_REACTORS
330
17
102
}
330
17
100
AcDbMlineStyle
  2
Standard
 70
     0
  3

 62
   256
 51
90.0
 52
90.0
 71
     2
 49
0.5
 62
   256
  6
BYLAYER
 49
-0.5
 62
   256
  6
BYLAYER
  0
VISUALSTYLE
  5
2F
102
{ACAD_REACTORS
330
2A
102
}
330
2A
100
AcDbVisualStyle
  2
2dWireframe
 70
     4
 71
     0
 72
     2
 73
     0
 90
        0
 40
-0.6
 41
-30.0
 62
     5
 63
     7
 74
     1
 91
        4
 64
     7
 65
   257
 75
     1
175
     1
 42
1.0
 92
        0
 66
   257
 43
1.0
 76
     1
 77
     6
 78
     2
 67
     7
 79
     5
170
     0
171
     0
290
     0
174
     0
 93
        1
 44
0.0
173
     0
291
     0
 45
0.0
1001
ACAD
1000
AcDbSavedByObjectVersion
1070
     0
  0
VISUALSTYLE
  5
31
102
{ACAD_REACTORS
330
2A
102
}
330
2A
100
AcDbVisualStyle
  2
3D Hidden
 70
     6
 71
     1
 72
     2
 73
     2
 90
        0
 40
-0.6
 41
-30.0
 62
     5
 63
     7
 74
     2
 91
        2
 64
     7
 65
   257
 75
     2
175
     1
 42
40.0
 92
        0
 66
   257
 43
1.0
 76
     1
 77
     6
 78
     2
 67
     7
 79
     3
170
     0
171
     0
290
     0
174
     0
 93
        1
 44
0.0
173
     0
291
     0
 45
0.0
1001
ACAD
1000
AcDbSavedByObjectVersion
1070
     0
  0
VISUALSTYLE
  5
30
102
{ACAD_REACTORS
330
2A
102
}
330
2A
100
AcDbVisualStyle
  2
3dWireframe
 70
     5
 71
     0
 72
     2
 73
     0
 90
        0
 40
-0.6
 41
-30.0
 62
     5
 63
     7
 74
     1
 91
        4
 64
     7
 65
   257
 75
     1
175
     1
 42
1.0
 92
        0
 66
   257
 43
1.0
 76
     1
 77
     6
 78
     2
 67
     7
 79
     5
170
     0
171
     0
290
     0
174
     0
 93
        1
 44
0.0
173
     0
291
     0
 45
0.0
1001
ACAD
1000
AcDbSavedByObjectVersion
1070
     0
  0
VISUALSTYLE
  5
32
102
{ACAD_REACTORS
330
2A
102
}
330
2A
100
AcDbVisualStyle
  2
Basic
 70
     7
 71
     1
 72
     0
 73
     1
 90
        0
 40
-0.6
 41
-30.0
 62
     5
 63
     7
 74
     0
 91
        4
 64
     7
 65
   257
 75
     1
175
     1
 42
1.0
 92
        8
 66
     7
 43
1.0
 76
     1
 77
     6
 78
     2
 67
     7
 79
     5
170
     0
171
     0
290
     0
174
     0
 93
        1
 44
0.0
173
     0
291
     1
 45
0.0
1001
ACAD
1000
AcDbSavedByObjectVersion
1070
     0
  0
VISUALSTYLE
  5
36
102
{ACAD_REACTORS
330
2A
102
}
330
2A
100
AcDbVisualStyle
  2
Brighten
 70
    12
 71
     2
 72
     2
 73
     0
 90
        0
 40
-0.6
 41
-30.0
 62
     5
 63
     7
 74
     1
 91
        4
 64
     7
 65
   257
 75
     1
175
     1
 42
1.0
 92
        8
 66
     7
 43
1.0
 76
     1
 77
     6
 78
     2
 67
     7
 79
     5
170
     0
171
     0
290
     0
174
     0
 93
        1
 44
50.0
173
     0
291
     1
 45
0.0
1001
ACAD
1000
AcDbSavedByObjectVersion
1070
     0
  0
VISUALSTYLE
  5
3A
102
{ACAD_REACTORS
330
2A
102
}
330
2A
100
AcDbVisualStyle
  2
ColorChange
 70
    16
 71
     2
 72
     2
 73
     3
 90
        0
 40
-0.6
 41
-30.0
 62
     5
 63
     8
 74
     1
 91
        4
 64
     7
 65
   257
 75
     1
175
     1
 42
1.0
 92
        8
 66
     8
 43
1.0
 76
     1
 77
     6
 78
     2
 67
     7
 79
     5
170
     0
171
     0
290
     0
174
     0
 93
        1
 44
0.0
173
     0
291
     1
 45
0.0
1001
ACAD
1000
AcDbSavedByObjectVersion
1070
     0
  0
VISUALSTYLE
  5
34
102
{ACAD_REACTORS
330
2A
102
}
330
2A
100
AcDbVisualStyle
  2
Conceptual
 70
     9
 71
     3
 72
     2
 73
     0
 90
        0
 40
-0.6
 41
-30.0
 62
     5
 63
     7
 74
     2
 91
        2
 64
     7
 65
   257
 75
     1
175
     1
 42
40.0
 92
        8
 66
     7
 43
1.0
 76
     1
 77
     6
 78
     2
 67
     7
 79
     3
170
     0
171
     0
290
     0
174
     0
 93
        1
 44
0.0
173
     0
291
     0
 45
0.0
1001
ACAD
1000
AcDbSavedByObjectVersion
1070
     0
  0
VISUALSTYLE
  5
35
102
{ACAD_REACTORS
330
2A
102
}
330
2A
100
AcDbVisualStyle
  2
Dim
 70
    11
 71
     2
 72
     2
 73
     0
 90
        0
 40
-0.6
 41
-30.0
 62
     5
 63
     7
 74
     1
 91
        4
 64
     7
 65
   257
 75
     1
175
     1
 42
1.0
 92
        8
 66
     7
 43
1.0
 76
     1
 77
     6
 78
     2
 67
     7
 79
     5
170
     0
171
     0
290
     0
174
     0
 93
        1
 44
-50.0
173
     0
291
     1
 45
0.0
1001
ACAD
1000
AcDbSavedByObjectVersion
1070
     0
  0
VISUALSTYLE
  5
39
102
{ACAD_REACTORS
330
2A
102
}
330
2A
100
AcDbVisualStyle
  2
Facepattern
 70
    15
 71
     2
 72
     2
 73
     0
 90
        0
 40
-0.6
 41
-30.0
 62
     5
 63
     7
 74
     1
 91
        4
 64
     7
 65
   257
 75
     1
175
     1
 42
1.0
 92
        8
 66
     7
 43
1.0
 76
     1
 77
     6
 78
     2
 67
     7
 79
     5
170
     0
171
     0
290
     0
174
     0
 93
        1
 44
0.0
173
     0
291
     1
 45
0.0
1001
ACAD
1000
AcDbSavedByObjectVersion
1070
     0
  0
VISUALSTYLE
  5
2B
102
{ACAD_REACTORS
330
2A
102
}
330
2A
100
AcDbVisualStyle
  2
Flat
 70
     0
 71
     2
 72
     1
 73
     1
 90
        2
 40
-0.6
 41
30.0
 62
     5
 63
     7
 74
     0
 91
        4
 64
     7
 65
   257
 75
     1
175
     1
 42
1.0
 92
        8
 66
     7
 43
1.0
 76
     1
 77
     6
 78
     2
 67
     7
 79
     5
170
     0
171
     0
290
     0
174
     0
 93
       13
 44
0.0
173
     0
291
     1
 45
0.0
1001
ACAD
1000
AcDbSavedByObjectVersion
1070
     0
  0
VISUALSTYLE
  5
2C
102
{ACAD_REACTORS
330
2A
102
}
330
2A
100
AcDbVisualStyle
  2
FlatWithEdges
 70
     1
 71
     2
 72
     1
 73
     1
 90
        2
 40
-0.6
 41
30.0
 62
     5
 63
     7
 74
     1
 91
        4
 64
     7
 65
   257
 75
     1
175
     1
 42
1.0
 92
        0
 66
   257
 43
1.0
 76
     1
 77
     6
 78
     2
 67
     7
 79
     5
170
     0
171
     0
290
     0
174
     0
 93
       13
 44
0.0
173
     0
291
     1
 45
0.0
1001
ACAD
1000
AcDbSavedByObjectVersion
1070
     0
  0
VISUALSTYLE
  5
2D
102
{ACAD_REACTORS
330
2A
102
}
330
2A
100
AcDbVisualStyle
  2
Gouraud
 70
     2
 71
     2
 72
     2
 73
     1
 90
        2
 40
-0.6
 41
30.0
 62
     5
 63
     7
 74
     0
 91
        4
 64
     7
 65
   257
 75
     1
175
     1
 42
1.0
 92
        0
 66
     7
 43
1.0
 76
     1
 77
     6
 78
     2
 67
     7
 79
     5
170
     0
171
     0
290
     0
174
     0
 93
       13
 44
0.0
173
     0
291
     1
 45
0.0
1001
ACAD
1000
AcDbSavedByObjectVersion
1070
     0
  0
VISUALSTYLE
  5
2E
102
{ACAD_REACTORS
330
2A
102
}
330
2A
100
AcDbVisualStyle
  2
GouraudWithEdges
 70
     3
 71
     2
 72
     2
 73
     1
 90
        2
 40
-0.6
 41
30.0
 62
     5
 63
     7
 74
     1
 91
        4
 64
     7
 65
   257
 75
     1
175
     1
 42
1.0
 92
        0
 66
   257
 43
1.0
 76
     1
 77
     6
 78
     2
 67
     7
 79
     5
170
     0
171
     0
290
     0
174
     0
 93
       13
 44
0.0
173
     0
291
     1
 45
0.0
1001
ACAD
1000
AcDbSavedByObjectVersion
1070
     0
  0
VISUALSTYLE
  5
38
102
{ACAD_REACTORS
330
2A
102
}
330
2A
100
AcDbVisualStyle
  2
Linepattern
 70
    14
 71
     2
 72
     2
 73
     0
 90
        0
 40
-0.6
 41
-30.0
 62
     5
 63
     7
 74
     1
 91
        4
 64
     7
 65
   257
 75
     7
175
     7
 42
1.0
 92
        8
 66
     7
 43
1.0
 76
     1
 77
     6
 78
     2
 67
     7
 79
     5
170
     0
171
     0
290
     0
174
     0
 93
        1
 44
0.0
173
     0
291
     1
 45
0.0
1001
ACAD
1000
AcDbSavedByObjectVersion
1070
     0
  0
VISUALSTYLE
  5
33
102
{ACAD_REACTORS
330
2A
102
}
330
2A
100
AcDbVisualStyle
  2
Realistic
 70
     8
 71
     2
 72
     2
 73
     0
 90
        0
 40
-0.6
 41
-30.0
 62
     5
 63
     7
 74
     1
 91
        0
 64
     7
 65
   257
 75
     1
175
     1
 42
1.0
 92
        8
 66
     8
 43
1.0
 76
     1
 77
     6
 78
     2
 67
     7
 79
     5
170
     0
171
     0
290
     0
174
     0
 93
       13
 44
0.0
173
     0
291
     0
 45
0.0
1001
ACAD
1000
AcDbSavedByObjectVersion
1070
     0
  0
VISUALSTYLE
  5
37
102
{ACAD_REACTORS
330
2A
102
}
330
2A
100
AcDbVisualStyle
  2
Thicken
 70
    13
 71
     2
 72
     2
 73
     0
 90
        0
 40
-0.6
 41
-30.0
 62
     5
 63
     7
 74
     1
 91
        4
 64
     7
 65
   257
 75
     1
175
     1
 42
1.0
 92
       12
 66
     7
 43
1.0
 76
     1
 77
     6
 78
     2
 67
     7
 79
     5
170
     0
171
     0
290
     0
174
     0
 93
        1
 44
0.0
173
     0
291
     1
 45
0.0
1001
ACAD
1000
AcDbSavedByObjectVersion
1070
     0
  0
XRECORD
  5
3C0
102
{ACAD_REACTORS
330
3B7
102
}
330
3B7
100
AcDbXrecord
 90
        0
  0
XRECORD
  5
3D6
102
{ACAD_REACTORS
330
3B7
102
}
330
3B7
100
AcDbXrecord
1000
DSTYLE
1002
{
1070
   340
340
11
1002
}
  0
XRECORD
  5
3C1
102
{ACAD_REACTORS
330
3B7
102
}
330
3B7
100
AcDbXrecord
  1
{B66AC0D6-8EB6-498B-8562-52C818B93D12}
  0
XRECORD
  5
3BA
102
{ACAD_REACTORS
330
3B7
102
}
330
3B7
100
AcDbXrecord
  1

  0
XRECORD
  5
3BF
102
{ACAD_REACTORS
330
3B7
102
}
330
3B7
100
AcDbXrecord
 90
        1
  0
XRECORD
  5
3BC
102
{ACAD_REACTORS
330
3B7
102
}
330
3B7
100
AcDbXrecord
340
1A
  0
XRECORD
  5
3BE
102
{ACAD_REACTORS
330
3B7
102
}
330
3B7
100
AcDbXrecord
 90
    10269
  0
XRECORD
  5
3BD
102
{ACAD_REACTORS
330
3B7
102
}
330
3B7
100
AcDbXrecord
340
19
  0
XRECORD
  5
3C3
102
{ACAD_REACTORS
330
3B7
102
}
330
3B7
100
AcDbXrecord
 40
0.0
  0
XRECORD
  5
3C6
102
{ACAD_REACTORS
330
3B7
102
}
330
3B7
100
AcDbXrecord
340
0
  0
XRECORD
  5
3CC
102
{ACAD_REACTORS
330
3B7
102
}
330
3B7
100
AcDbXrecord
 10
0.0
 20
0.0
 30
0.0
  0
XRECORD
  5
3C8
102
{ACAD_REACTORS
330
3B7
102
}
330
3B7
100
AcDbXrecord
 10
0.0
 20
0.0
 30
0.0
  0
XRECORD
  5
3CB
102
{ACAD_REACTORS
330
3B7
102
}
330
3B7
100
AcDbXrecord
 10
0.0
 20
0.0
 30
0.0
  0
XRECORD
  5
3C9
102
{ACAD_REACTORS
330
3B7
102
}
330
3B7
100
AcDbXrecord
 10
0.0
 20
0.0
 30
0.0
  0
XRECORD
  5
3CA
102
{ACAD_REACTORS
330
3B7
102
}
330
3B7
100
AcDbXrecord
 10
0.0
 20
0.0
 30
0.0
  0
XRECORD
  5
3C7
102
{ACAD_REACTORS
330
3B7
102
}
330
3B7
100
AcDbXrecord
 10
0.0
 20
0.0
 30
0.0
  0
XRECORD
  5
3C4
102
{ACAD_REACTORS
330
3B7
102
}
330
3B7
100
AcDbXrecord
340
0
  0
XRECORD
  5
3C5
102
{ACAD_REACTORS
330
3B7
102
}
330
3B7
100
AcDbXrecord
 70
     0
  0
XRECORD
  5
3BB
102
{ACAD_REACTORS
330
3B7
102
}
330
3B7
100
AcDbXrecord
  1

  0
XRECORD
  5
3B8
102
{ACAD_REACTORS
330
3B7
102
}
330
3B7
100
AcDbXrecord
 90
        1
  0
XRECORD
  5
3B9
102
{ACAD_REACTORS
330
3B7
102
}
330
3B7
100
AcDbXrecord
 90
       70
  0
XRECORD
  5
3CF
102
{ACAD_REACTORS
330
3B7
102
}
330
3B7
100
AcDbXrecord
340
0
  0
XRECORD
  5
3D5
102
{ACAD_REACTORS
330
3B7
102
}
330
3B7
100
AcDbXrecord
 10
0.0
 20
0.0
 30
0.0
  0
XRECORD
  5
3D1
102
{ACAD_REACTORS
330
3B7
102
}
330
3B7
100
AcDbXrecord
 10
0.0
 20
0.0
 30
0.0
  0
XRECORD
  5
3D4
102
{ACAD_REACTORS
330
3B7
102
}
330
3B7
100
AcDbXrecord
 10
0.0
 20
0.0
 30
0.0
  0
XRECORD
  5
3D2
102
{ACAD_REACTORS
330
3B7
102
}
330
3B7
100
AcDbXrecord
 10
0.0
 20
0.0
 30
0.0
  0
XRECORD
  5
3D3
102
{ACAD_REACTORS
330
3B7
102
}
330
3B7
100
AcDbXrecord
 10
0.0
 20
0.0
 30
0.0
  0
XRECORD
  5
3D0
102
{ACAD_REACTORS
330
3B7
102
}
330
3B7
100
AcDbXrecord
 10
0.0
 20
0.0
 30
0.0
  0
XRECORD
  5
3CD
102
{ACAD_REACTORS
330
3B7
102
}
330
3B7
100
AcDbXrecord
340
0
  0
XRECORD
  5
3CE
102
{ACAD_REACTORS
330
3B7
102
}
330
3B7
100
AcDbXrecord
 70
     0
  0
XRECORD
  5
3C2
102
{ACAD_REACTORS
330
3B7
102
}
330
3B7
100
AcDbXrecord
  1
{FAEB1C32-E019-11D5-929B-00C0DF256EC4}
  0
ENDSEC
  0
EOF
