  0
SECTION
  2
HEADER
  9
$ACADVER
  1
AC1014
  9
$ACADMAINTVER
 70
     9
  9
$DWGCODEPAGE
  3
ASCII
  9
$INSBASE
 10
0.0
 20
0.0
 30
0.0
  9
$EXTMIN
 10
1.000000000000000E+20
 20
1.000000000000000E+20
 30
1.000000000000000E+20
  9
$EXTMAX
 10
-1.000000000000000E+20
 20
-1.000000000000000E+20
 30
-1.000000000000000E+20
  9
$LIMMIN
 10
0.0
 20
0.0
  9
$LIMMAX
 10
12.0
 20
9.0
  9
$ORTHOMODE
 70
     0
  9
$REGENMODE
 70
     1
  9
$FILLMODE
 70
     1
  9
$QTEXTMODE
 70
     0
  9
$MIRRTEXT
 70
     1
  9
$DRAGMODE
 70
     2
  9
$LTSCALE
 40
1.0
  9
$OSMODE
 70
    37
  9
$ATTMODE
 70
     1
  9
$TEXTSIZE
 40
0.2
  9
$TRACEWID
 40
0.05
  9
$TEXTSTYLE
  7
STANDARD
  9
$CLAYER
  8
0
  9
$CELTYPE
  6
BYLAYER
  9
$CECOLOR
 62
   256
  9
$CELTSCALE
 40
1.0
  9
$DELOBJ
 70
     1
  9
$DISPSILH
 70
     0
  9
$DIMSCALE
 40
1.0
  9
$DIMASZ
 40
0.18
  9
$DIMEXO
 40
0.0625
  9
$DIMDLI
 40
0.38
  9
$DIMRND
 40
0.0
  9
$DIMDLE
 40
0.0
  9
$DIMEXE
 40
0.18
  9
$DIMTP
 40
0.0
  9
$DIMTM
 40
0.0
  9
$DIMTXT
 40
0.18
  9
$DIMCEN
 40
0.09
  9
$DIMTSZ
 40
0.0
  9
$DIMTOL
 70
     0
  9
$DIMLIM
 70
     0
  9
$DIMTIH
 70
     1
  9
$DIMTOH
 70
     1
  9
$DIMSE1
 70
     0
  9
$DIMSE2
 70
     0
  9
$DIMTAD
 70
     0
  9
$DIMZIN
 70
     0
  9
$DIMBLK
  1

  9
$DIMASO
 70
     1
  9
$DIMSHO
 70
     1
  9
$DIMPOST
  1

  9
$DIMAPOST
  1

  9
$DIMALT
 70
     0
  9
$DIMALTD
 70
     2
  9
$DIMALTF
 40
25.4
  9
$DIMLFAC
 40
1.0
  9
$DIMTOFL
 70
     0
  9
$DIMTVP
 40
0.0
  9
$DIMTIX
 70
     0
  9
$DIMSOXD
 70
     0
  9
$DIMSAH
 70
     0
  9
$DIMBLK1
  1

  9
$DIMBLK2
  1

  9
$DIMSTYLE
  2
STANDARD
  9
$DIMCLRD
 70
     0
  9
$DIMCLRE
 70
     0
  9
$DIMCLRT
 70
     0
  9
$DIMTFAC
 40
1.0
  9
$DIMGAP
 40
0.09
  9
$DIMJUST
 70
     0
  9
$DIMSD1
 70
     0
  9
$DIMSD2
 70
     0
  9
$DIMTOLJ
 70
     1
  9
$DIMTZIN
 70
     0
  9
$DIMALTZ
 70
     0
  9
$DIMALTTZ
 70
     0
  9
$DIMFIT
 70
     3
  9
$DIMUPT
 70
     0
  9
$DIMUNIT
 70
     2
  9
$DIMDEC
 70
     4
  9
$DIMTDEC
 70
     4
  9
$DIMALTU
 70
     2
  9
$DIMALTTD
 70
     2
  9
$DIMTXSTY
  7
STANDARD
  9
$DIMAUNIT
 70
     0
  9
$LUNITS
 70
     2
  9
$LUPREC
 70
     4
  9
$SKETCHINC
 40
0.1
  9
$FILLETRAD
 40
0.5
  9
$AUNITS
 70
     0
  9
$AUPREC
 70
     0
  9
$MENU
  1
.
  9
$ELEVATION
 40
0.0
  9
$PELEVATION
 40
0.0
  9
$THICKNESS
 40
0.0
  9
$LIMCHECK
 70
     0
  9
$CHAMFERA
 40
0.5
  9
$CHAMFERB
 40
0.5
  9
$CHAMFERC
 40
1.0
  9
$CHAMFERD
 40
0.0
  9
$SKPOLY
 70
     0
  9
$TDCREATE
 40
2454882.535275625
  9
$TDUPDATE
 40
2454882.535275637
  9
$TDINDWG
 40
0.0000000116
  9
$TDUSRTIMER
 40
0.0000000116
  9
$USRTIMER
 70
     1
  9
$ANGBASE
 50
0.0
  9
$ANGDIR
 70
     0
  9
$PDMODE
 70
     0
  9
$PDSIZE
 40
0.0
  9
$PLINEWID
 40
0.0
  9
$COORDS
 70
     1
  9
$SPLFRAME
 70
     0
  9
$SPLINETYPE
 70
     6
  9
$SPLINESEGS
 70
     8
  9
$ATTDIA
 70
     0
  9
$ATTREQ
 70
     1
  9
$HANDLING
 70
     1
  9
$HANDSEED
  5
53D
  9
$SURFTAB1
 70
     6
  9
$SURFTAB2
 70
     6
  9
$SURFTYPE
 70
     6
  9
$SURFU
 70
     6
  9
$SURFV
 70
     6
  9
$UCSNAME
  2

  9
$UCSORG
 10
0.0
 20
0.0
 30
0.0
  9
$UCSXDIR
 10
1.0
 20
0.0
 30
0.0
  9
$UCSYDIR
 10
0.0
 20
1.0
 30
0.0
  9
$PUCSNAME
  2

  9
$PUCSORG
 10
0.0
 20
0.0
 30
0.0
  9
$PUCSXDIR
 10
1.0
 20
0.0
 30
0.0
  9
$PUCSYDIR
 10
0.0
 20
1.0
 30
0.0
  9
$USERI1
 70
     0
  9
$USERI2
 70
     0
  9
$USERI3
 70
     0
  9
$USERI4
 70
     0
  9
$USERI5
 70
     0
  9
$USERR1
 40
0.0
  9
$USERR2
 40
0.0
  9
$USERR3
 40
0.0
  9
$USERR4
 40
0.0
  9
$USERR5
 40
0.0
  9
$WORLDVIEW
 70
     1
  9
$SHADEDGE
 70
     3
  9
$SHADEDIF
 70
    70
  9
$TILEMODE
 70
     1
  9
$MAXACTVP
 70
    64
  9
$PINSBASE
 10
0.0
 20
0.0
 30
0.0
  9
$PLIMCHECK
 70
     0
  9
$PEXTMIN
 10
1.000000000000000E+20
 20
1.000000000000000E+20
 30
1.000000000000000E+20
  9
$PEXTMAX
 10
-1.000000000000000E+20
 20
-1.000000000000000E+20
 30
-1.000000000000000E+20
  9
$PLIMMIN
 10
0.0
 20
0.0
  9
$PLIMMAX
 10
12.0
 20
9.0
  9
$UNITMODE
 70
     0
  9
$VISRETAIN
 70
     1
  9
$PLINEGEN
 70
     0
  9
$PSLTSCALE
 70
     1
  9
$TREEDEPTH
 70
  3020
  9
$PICKSTYLE
 70
     1
  9
$CMLSTYLE
  2
STANDARD
  9
$CMLJUST
 70
     0
  9
$CMLSCALE
 40
1.0
  9
$PROXYGRAPHICS
 70
     1
  9
$MEASUREMENT
 70
     0
  0
ENDSEC
  0
SECTION
  2
CLASSES
  0
CLASS
  1
ACDBDICTIONARYWDFLT
  2
AcDbDictionaryWithDefault
  3
ObjectDBX Classes
 90
        0
280
     0
281
     0
  0
CLASS
  1
VISUALSTYLE
  2
AcDbVisualStyle
  3
ObjectDBX Classes
 90
     4095
280
     0
281
     0
  0
CLASS
  1
XRECORD
  2
AcDbXrecord
  3
AutoCAD 2000
 90
        0
280
     0
281
     0
  0
CLASS
  1
LWPOLYLINE
  2
AcDbPolyline
  3
AutoCAD 2000
 90
        0
280
     0
281
     1
  0
CLASS
  1
HATCH
  2
AcDbHatch
  3
AutoCAD 2000
 90
        0
280
     0
281
     1
  0
CLASS
  1
ACDBPLACEHOLDER
  2
AcDbPlaceHolder
  3
ObjectDBX Classes
 90
        0
280
     0
281
     0
  0
CLASS
  1
LAYOUT
  2
AcDbLayout
  3
ObjectDBX Classes
 90
        0
280
     0
281
     0
  0
ENDSEC
  0
SECTION
  2
TABLES
  0
TABLE
  2
VPORT
  5
8
330
0
100
AcDbSymbolTable
 70
     1
  0
VPORT
  5
29
330
8
100
AcDbSymbolTableRecord
100
AcDbViewportTableRecord
  2
*ACTIVE
 70
     0
 10
0.0
 20
0.0
 11
1.0
 21
1.0
 12
0.0
 22
0.0
 13
0.0
 23
0.0
 14
0.5
 24
0.5
 15
0.5
 25
0.5
 16
0.0
 26
0.0
 36
1.0
 17
-188.2651184537719
 27
-114.5727548620924
 37
0.0
 40
85.37648842995723
 41
1.155267717864184
 42
50.0
 43
0.0
 44
0.0
 50
0.0
 51
0.0
 71
     0
 72
   100
 73
     1
 74
     3
 75
     0
 76
     0
 77
     0
 78
     0
  0
ENDTAB
  0
TABLE
  2
LTYPE
  5
5
330
0
100
AcDbSymbolTable
 70
     5
  0
LTYPE
  5
14
330
5
100
AcDbSymbolTableRecord
100
AcDbLinetypeTableRecord
  2
BYBLOCK
 70
     0
  3

 72
    65
 73
     0
 40
0.0
  0
LTYPE
  5
15
330
5
100
AcDbSymbolTableRecord
100
AcDbLinetypeTableRecord
  2
BYLAYER
 70
     0
  3

 72
    65
 73
     0
 40
0.0
  0
LTYPE
  5
16
330
5
100
AcDbSymbolTableRecord
100
AcDbLinetypeTableRecord
  2
CONTINUOUS
 70
     0
  3
Solid line
 72
    65
 73
     0
 40
0.0
  0
LTYPE
  5
90
330
5
100
AcDbSymbolTableRecord
100
AcDbLinetypeTableRecord
  2
AI-LINETYPE-1
 70
     0
  3
Adobe Illustrator Linetype No. 1
 72
    65
 73
     4
 40
8.819450260381924
 49
7.055560208305538
 74
     0
 49
-0.7055560208305538
 74
     0
 49
0.3527780104152769
 74
     0
 49
-0.7055560208305538
 74
     0
  0
LTYPE
  5
95
330
5
100
AcDbSymbolTableRecord
100
AcDbLinetypeTableRecord
  2
AI-LINETYPE-2
 70
     0
  3
Adobe Illustrator Linetype No. 2
 72
    65
 73
     4
 40
8.819450260381924
 49
7.055560208305538
 74
     0
 49
-0.7055560208305538
 74
     0
 49
0.3527780104152769
 74
     0
 49
-0.7055560208305538
 74
     0
  0
LTYPE
  5
9A
330
5
100
AcDbSymbolTableRecord
100
AcDbLinetypeTableRecord
  2
AI-LINETYPE-3
 70
     0
  3
Adobe Illustrator Linetype No. 3
 72
    65
 73
     4
 40
8.819450260381924
 49
7.055560208305538
 74
     0
 49
-0.7055560208305538
 74
     0
 49
0.3527780104152769
 74
     0
 49
-0.7055560208305538
 74
     0
  0
LTYPE
  5
9F
330
5
100
AcDbSymbolTableRecord
100
AcDbLinetypeTableRecord
  2
AI-LINETYPE-4
 70
     0
  3
Adobe Illustrator Linetype No. 4
 72
    65
 73
     4
 40
8.819450260381924
 49
7.055560208305538
 74
     0
 49
-0.7055560208305538
 74
     0
 49
0.3527780104152769
 74
     0
 49
-0.7055560208305538
 74
     0
  0
ENDTAB
  0
TABLE
  2
LAYER
  5
2
330
0
100
AcDbSymbolTable
 70
     5
  0
LAYER
  5
10
330
2
100
AcDbSymbolTableRecord
100
AcDbLayerTableRecord
  2
0
 70
     0
 62
     7
  6
CONTINUOUS
  0
LAYER
  5
3B
330
2
100
AcDbSymbolTableRecord
100
AcDbLayerTableRecord
  2
GRAU_10_
 70
     1
 62
     7
  6
CONTINUOUS
  0
LAYER
  5
83
330
2
100
AcDbSymbolTableRecord
100
AcDbLayerTableRecord
  2
STANDARDEBENE
 70
     0
 62
     7
  6
CONTINUOUS
  0
LAYER
  5
336
330
2
100
AcDbSymbolTableRecord
100
AcDbLayerTableRecord
  2
TEXT
 70
     1
 62
     7
  6
CONTINUOUS
  0
LAYER
  5
33C
330
2
100
AcDbSymbolTableRecord
100
AcDbLayerTableRecord
  2
BEMA_UNG
 70
     1
 62
     7
  6
CONTINUOUS
  0
ENDTAB
  0
TABLE
  2
STYLE
  5
3
330
0
100
AcDbSymbolTable
 70
     1
  0
STYLE
  5
11
330
3
100
AcDbSymbolTableRecord
100
AcDbTextStyleTableRecord
  2
STANDARD
 70
     0
 40
0.0
 41
1.0
 50
0.0
 71
     0
 42
0.2
  3
txt
  4

  0
ENDTAB
  0
TABLE
  2
VIEW
  5
6
330
0
100
AcDbSymbolTable
 70
     0
  0
ENDTAB
  0
TABLE
  2
UCS
  5
7
330
0
100
AcDbSymbolTable
 70
     0
  0
ENDTAB
  0
TABLE
  2
APPID
  5
9
330
0
100
AcDbSymbolTable
 70
     1
  0
APPID
  5
12
330
9
100
AcDbSymbolTableRecord
100
AcDbRegAppTableRecord
  2
ACAD
 70
     0
  0
ENDTAB
  0
TABLE
  2
DIMSTYLE
  5
A
330
0
100
AcDbSymbolTable
 70
     1
  0
DIMSTYLE
105
27
330
A
100
AcDbSymbolTableRecord
100
AcDbDimStyleTableRecord
  2
STANDARD
 70
     0
  3

  4

  5

  6

  7

 40
1.0
 41
0.18
 42
0.0625
 43
0.38
 44
0.18
 45
0.0
 46
0.0
 47
0.0
 48
0.0
140
0.18
141
0.09
142
0.0
143
25.4
144
1.0
145
0.0
146
1.0
147
0.09
 71
     0
 72
     0
 73
     1
 74
     1
 75
     0
 76
     0
 77
     0
 78
     0
170
     0
171
     2
172
     0
173
     0
174
     0
175
     0
176
     0
177
     0
178
     0
270
     2
271
     4
272
     4
273
     2
274
     2
340
11
275
     0
280
     0
281
     0
282
     0
283
     1
284
     0
285
     0
286
     0
287
     3
288
     0
  0
ENDTAB
  0
TABLE
  2
BLOCK_RECORD
  5
1
330
0
100
AcDbSymbolTable
 70
     1
  0
BLOCK_RECORD
  5
1F
330
1
100
AcDbSymbolTableRecord
100
AcDbBlockTableRecord
  2
*MODEL_SPACE
  0
BLOCK_RECORD
  5
1B
330
1
100
AcDbSymbolTableRecord
100
AcDbBlockTableRecord
  2
*PAPER_SPACE
  0
ENDTAB
  0
ENDSEC
  0
SECTION
  2
BLOCKS
  0
BLOCK
  5
20
330
1F
100
AcDbEntity
  8
0
100
AcDbBlockBegin
  2
*MODEL_SPACE
 70
     0
 71
     0
 10
0.0
 20
0.0
 30
0.0
  3
*MODEL_SPACE
  1

  0
ENDBLK
  5
21
330
1F
100
AcDbEntity
  8
0
100
AcDbBlockEnd
  0
BLOCK
  5
1C
330
1B
100
AcDbEntity
 67
     1
  8
0
100
AcDbBlockBegin
  2
*PAPER_SPACE
 70
     0
 71
     0
 10
0.0
 20
0.0
 30
0.0
  3
*PAPER_SPACE
  1

  0
ENDBLK
  5
1D
330
1B
100
AcDbEntity
 67
     1
  8
0
100
AcDbBlockEnd
  0
ENDSEC
  0
SECTION
  2
ENTITIES
  0
SPLINE
  5
3C
330
1F
100
AcDbEntity
  8
GRAU_10_
100
AcDbSpline
210
0.0
220
0.0
230
1.0
 70
    11
 71
     3
 72
    17
 73
    13
 74
     0
 42
0.0000000001
 43
0.0000000001
 40
0.0
 40
0.0
 40
0.0
 40
0.0
 40
1.0
 40
1.0
 40
1.0
 40
2.0
 40
2.0
 40
2.0
 40
3.0
 40
3.0
 40
3.0
 40
4.0
 40
4.0
 40
4.0
 40
4.0
 10
-196.1819531015678
 20
-129.3654878701162
 30
0.0
 10
-196.1819531015678
 20
-133.1716318731123
 30
0.0
 10
-199.2677271633741
 20
-136.2570614251428
 30
0.0
 10
-203.0738711663702
 20
-136.2570614251428
 30
0.0
 10
-206.8801874242542
 20
-136.2570614251428
 30
0.0
 10
-209.9659614860605
 20
-133.1716318731123
 30
0.0
 10
-209.9659614860605
 20
-129.3654878701162
 30
0.0
 10
-209.9659614860605
 20
-125.5589993573443
 30
0.0
 10
-206.8801874242542
 20
-122.4733975504259
 30
0.0
 10
-203.0738711663702
 20
-122.4733975504259
 30
0.0
 10
-199.2677271633741
 20
-122.4733975504259
 30
0.0
 10
-196.1819531015678
 20
-125.5589993573443
 30
0.0
 10
-196.1819531015678
 20
-129.3654878701162
 30
0.0
  0
HATCH
  5
3D
330
1F
100
AcDbEntity
  8
GRAU_10_
 62
   255
100
AcDbHatch
 10
0.0
 20
0.0
 30
0.0
210
0.0
220
0.0
230
1.0
  2
SOLID
 70
     1
 71
     0
 91
        1
 92
        1
 93
        1
 72
     4
 94
        3
 73
     0
 74
     1
 95
       17
 96
       13
 40
0.0
 40
0.0
 40
0.0
 40
0.0
 40
1.0
 40
1.0
 40
1.0
 40
2.0
 40
2.0
 40
2.0
 40
3.0
 40
3.0
 40
3.0
 40
4.0
 40
4.0
 40
4.0
 40
4.0
 10
-196.1819531015678
 20
-129.3654878701162
 10
-196.1819531015678
 20
-133.1716318731123
 10
-199.2677271633741
 20
-136.2570614251428
 10
-203.0738711663702
 20
-136.2570614251428
 10
-206.8801874242542
 20
-136.2570614251428
 10
-209.9659614860605
 20
-133.1716318731123
 10
-209.9659614860605
 20
-129.3654878701162
 10
-209.9659614860605
 20
-125.5589993573443
 10
-206.8801874242542
 20
-122.4733975504259
 10
-203.0738711663702
 20
-122.4733975504259
 10
-199.2677271633741
 20
-122.4733975504259
 10
-196.1819531015678
 20
-125.5589993573443
 10
-196.1819531015678
 20
-129.3654878701162
 97
        0
 75
     0
 76
     1
 98
        0
  0
POLYLINE
  5
3E
330
1F
100
AcDbEntity
  8
GRAU_10_
100
AcDb2dPolyline
 66
     1
 10
0.0
 20
0.0
 30
0.0
  0
VERTEX
  5
3F
330
3E
100
AcDbEntity
  8
GRAU_10_
100
AcDbVertex
100
AcDb2dVertex
 10
-209.9821534455229
 20
-93.3845423761885
 30
0.0
  0
VERTEX
  5
40
330
3E
100
AcDbEntity
  8
GRAU_10_
100
AcDbVertex
100
AcDb2dVertex
 10
-209.6443616103547
 20
-93.02418515070572
 30
0.0
  0
VERTEX
  5
41
330
3E
100
AcDbEntity
  8
GRAU_10_
100
AcDbVertex
100
AcDb2dVertex
 10
-196.4887390569143
 20
-93.02418515070572
 30
0.0
  0
VERTEX
  5
42
330
3E
100
AcDbEntity
  8
GRAU_10_
100
AcDbVertex
100
AcDb2dVertex
 10
-196.1957334925997
 20
-93.36214924076175
 30
0.0
  0
VERTEX
  5
43
330
3E
100
AcDbEntity
  8
GRAU_10_
100
AcDbVertex
100
AcDb2dVertex
 10
-196.1733403571729
 20
-98.2054399237922
 30
0.0
  0
VERTEX
  5
44
330
3E
100
AcDbEntity
  8
GRAU_10_
100
AcDbVertex
100
AcDb2dVertex
 10
-196.443608276285
 20
-98.56579714927499
 30
0.0
  0
VERTEX
  5
45
330
3E
100
AcDbEntity
  8
GRAU_10_
100
AcDbVertex
100
AcDb2dVertex
 10
-198.0429949104187
 20
-98.54323175896035
 30
0.0
  0
VERTEX
  5
46
330
3E
100
AcDbEntity
  8
GRAU_10_
100
AcDbVertex
100
AcDb2dVertex
 10
-198.0204295201041
 20
-99.08393985207243
 30
0.0
  0
VERTEX
  5
47
330
3E
100
AcDbEntity
  8
GRAU_10_
100
AcDbVertex
100
AcDb2dVertex
 10
-197.8176855170481
 20
-99.60208255486987
 30
0.0
  0
VERTEX
  5
48
330
3E
100
AcDbEntity
  8
GRAU_10_
100
AcDbVertex
100
AcDb2dVertex
 10
-197.885381687992
 20
-99.9850051706673
 30
0.0
  0
VERTEX
  5
49
330
3E
100
AcDbEntity
  8
GRAU_10_
100
AcDbVertex
100
AcDb2dVertex
 10
-197.9754709943627
 20
-100.6158025701501
 30
0.0
  0
VERTEX
  5
4A
330
3E
100
AcDbEntity
  8
GRAU_10_
100
AcDbVertex
100
AcDb2dVertex
 10
-197.9079470783066
 20
-101.6069571951157
 30
0.0
  0
VERTEX
  5
4B
330
3E
100
AcDbEntity
  8
GRAU_10_
100
AcDbVertex
100
AcDb2dVertex
 10
-198.0204295201041
 20
-103.4766117483615
 30
0.0
  0
VERTEX
  5
4C
330
3E
100
AcDbEntity
  8
GRAU_10_
100
AcDbVertex
100
AcDb2dVertex
 10
-198.3134350844187
 20
-103.4766117483615
 30
0.0
  0
VERTEX
  5
4D
330
3E
100
AcDbEntity
  8
GRAU_10_
100
AcDbVertex
100
AcDb2dVertex
 10
-198.6062683938455
 20
-103.7920104481029
 30
0.0
  0
VERTEX
  5
4E
330
3E
100
AcDbEntity
  8
GRAU_10_
100
AcDbVertex
100
AcDb2dVertex
 10
-198.7413162259576
 20
-105.3913970822366
 30
0.0
  0
VERTEX
  5
4F
330
3E
100
AcDbEntity
  8
GRAU_10_
100
AcDbVertex
100
AcDb2dVertex
 10
-198.9666256193283
 20
-105.6616650013487
 30
0.0
  0
VERTEX
  5
50
330
3E
100
AcDbEntity
  8
GRAU_10_
100
AcDbVertex
100
AcDb2dVertex
 10
-207.1437374027382
 20
-105.6842303916633
 30
0.0
  0
VERTEX
  5
51
330
3E
100
AcDbEntity
  8
GRAU_10_
100
AcDbVertex
100
AcDb2dVertex
 10
-207.4141775767382
 20
-105.5040517789219
 30
0.0
  0
VERTEX
  5
52
330
3E
100
AcDbEntity
  8
GRAU_10_
100
AcDbVertex
100
AcDb2dVertex
 10
-207.4591361024796
 20
-104.9407782954952
 30
0.0
  0
VERTEX
  5
53
330
3E
100
AcDbEntity
  8
GRAU_10_
100
AcDbVertex
100
AcDb2dVertex
 10
-207.639314715221
 20
-104.6930757666977
 30
0.0
  0
VERTEX
  5
54
330
3E
100
AcDbEntity
  8
GRAU_10_
100
AcDbVertex
100
AcDb2dVertex
 10
-208.0673681116478
 20
-104.6029864603271
 30
0.0
  0
VERTEX
  5
55
330
3E
100
AcDbEntity
  8
GRAU_10_
100
AcDbVertex
100
AcDb2dVertex
 10
-208.2475467243892
 20
-101.4717371081157
 30
0.0
  0
VERTEX
  5
56
330
3E
100
AcDbEntity
  8
GRAU_10_
100
AcDbVertex
100
AcDb2dVertex
 10
-208.1348920277038
 20
-100.9086358795768
 30
0.0
  0
VERTEX
  5
57
330
3E
100
AcDbEntity
  8
GRAU_10_
100
AcDbVertex
100
AcDb2dVertex
 10
-208.3152428953331
 20
-99.9850051706673
 30
0.0
  0
VERTEX
  5
58
330
3E
100
AcDbEntity
  8
GRAU_10_
100
AcDbVertex
100
AcDb2dVertex
 10
-208.3152428953331
 20
-99.7147372515552
 30
0.0
  0
VERTEX
  5
59
330
3E
100
AcDbEntity
  8
GRAU_10_
100
AcDbVertex
100
AcDb2dVertex
 10
-208.1124988922771
 20
-99.03880907144313
 30
0.0
  0
VERTEX
  5
5A
330
3E
100
AcDbEntity
  8
GRAU_10_
100
AcDbVertex
100
AcDb2dVertex
 10
-208.0673681116478
 20
-98.56579714927499
 30
0.0
  0
VERTEX
  5
5B
330
3E
100
AcDbEntity
  8
GRAU_10_
100
AcDbVertex
100
AcDb2dVertex
 10
-209.7118855264108
 20
-98.52083862353359
 30
0.0
  0
VERTEX
  5
5C
330
3E
100
AcDbEntity
  8
GRAU_10_
100
AcDbVertex
100
AcDb2dVertex
 10
-209.9371949197815
 20
-98.22783305921895
 30
0.0
  0
VERTEX
  5
5D
330
3E
100
AcDbEntity
  8
GRAU_10_
100
AcDbVertex
100
AcDb2dVertex
 10
-209.9821534455229
 20
-93.3845423761885
 30
0.0
  0
SEQEND
  5
5E
330
3E
100
AcDbEntity
  8
GRAU_10_
  0
HATCH
  5
5F
330
1F
100
AcDbEntity
  8
GRAU_10_
 62
   255
100
AcDbHatch
 10
0.0
 20
0.0
 30
0.0
210
0.0
220
0.0
230
1.0
  2
SOLID
 70
     1
 71
     0
 91
        1
 92
        1
 93
       30
 72
     1
 10
-209.9821534455229
 20
-93.3845423761885
 11
-209.6443616103547
 21
-93.02418515070572
 72
     1
 10
-209.6443616103547
 20
-93.02418515070572
 11
-196.4887390569143
 21
-93.02418515070572
 72
     1
 10
-196.4887390569143
 20
-93.02418515070572
 11
-196.1957334925997
 21
-93.36214924076175
 72
     1
 10
-196.1957334925997
 20
-93.36214924076175
 11
-196.1733403571729
 21
-98.2054399237922
 72
     1
 10
-196.1733403571729
 20
-98.2054399237922
 11
-196.443608276285
 21
-98.56579714927499
 72
     1
 10
-196.443608276285
 20
-98.56579714927499
 11
-198.0429949104187
 21
-98.54323175896035
 72
     1
 10
-198.0429949104187
 20
-98.54323175896035
 11
-198.0204295201041
 21
-99.08393985207243
 72
     1
 10
-198.0204295201041
 20
-99.08393985207243
 11
-197.8176855170481
 21
-99.60208255486987
 72
     1
 10
-197.8176855170481
 20
-99.60208255486987
 11
-197.885381687992
 21
-99.9850051706673
 72
     1
 10
-197.885381687992
 20
-99.9850051706673
 11
-197.9754709943627
 21
-100.6158025701501
 72
     1
 10
-197.9754709943627
 20
-100.6158025701501
 11
-197.9079470783066
 21
-101.6069571951157
 72
     1
 10
-197.9079470783066
 20
-101.6069571951157
 11
-198.0204295201041
 21
-103.4766117483615
 72
     1
 10
-198.0204295201041
 20
-103.4766117483615
 11
-198.3134350844187
 21
-103.4766117483615
 72
     1
 10
-198.3134350844187
 20
-103.4766117483615
 11
-198.6062683938455
 21
-103.7920104481029
 72
     1
 10
-198.6062683938455
 20
-103.7920104481029
 11
-198.7413162259576
 21
-105.3913970822366
 72
     1
 10
-198.7413162259576
 20
-105.3913970822366
 11
-198.9666256193283
 21
-105.6616650013487
 72
     1
 10
-198.9666256193283
 20
-105.6616650013487
 11
-207.1437374027382
 21
-105.6842303916633
 72
     1
 10
-207.1437374027382
 20
-105.6842303916633
 11
-207.4141775767382
 21
-105.5040517789219
 72
     1
 10
-207.4141775767382
 20
-105.5040517789219
 11
-207.4591361024796
 21
-104.9407782954952
 72
     1
 10
-207.4591361024796
 20
-104.9407782954952
 11
-207.639314715221
 21
-104.6930757666977
 72
     1
 10
-207.639314715221
 20
-104.6930757666977
 11
-208.0673681116478
 21
-104.6029864603271
 72
     1
 10
-208.0673681116478
 20
-104.6029864603271
 11
-208.2475467243892
 21
-101.4717371081157
 72
     1
 10
-208.2475467243892
 20
-101.4717371081157
 11
-208.1348920277038
 21
-100.9086358795768
 72
     1
 10
-208.1348920277038
 20
-100.9086358795768
 11
-208.3152428953331
 21
-99.9850051706673
 72
     1
 10
-208.3152428953331
 20
-99.9850051706673
 11
-208.3152428953331
 21
-99.7147372515552
 72
     1
 10
-208.3152428953331
 20
-99.7147372515552
 11
-208.1124988922771
 21
-99.03880907144313
 72
     1
 10
-208.1124988922771
 20
-99.03880907144313
 11
-208.0673681116478
 21
-98.56579714927499
 72
     1
 10
-208.0673681116478
 20
-98.56579714927499
 11
-209.7118855264108
 21
-98.52083862353359
 72
     1
 10
-209.7118855264108
 20
-98.52083862353359
 11
-209.9371949197815
 21
-98.22783305921895
 72
     1
 10
-209.9371949197815
 20
-98.22783305921895
 11
-209.9821534455229
 21
-93.3845423761885
 97
        0
 75
     0
 76
     1
 98
        0
  0
POLYLINE
  5
60
330
1F
100
AcDbEntity
  8
GRAU_10_
100
AcDb2dPolyline
 66
     1
 10
0.0
 20
0.0
 30
0.0
  0
VERTEX
  5
61
330
60
100
AcDbEntity
  8
GRAU_10_
100
AcDbVertex
100
AcDb2dVertex
 10
-162.5686510417993
 20
-105.5011234458277
 30
0.0
  0
VERTEX
  5
62
330
60
100
AcDbEntity
  8
GRAU_10_
100
AcDbVertex
100
AcDb2dVertex
 10
-162.3037230242121
 20
-101.6069571951157
 30
0.0
  0
VERTEX
  5
63
330
60
100
AcDbEntity
  8
GRAU_10_
100
AcDbVertex
100
AcDb2dVertex
 10
-162.2933877309382
 20
-100.6158025701501
 30
0.0
  0
VERTEX
  5
64
330
60
100
AcDbEntity
  8
GRAU_10_
100
AcDbVertex
100
AcDb2dVertex
 10
-162.2813298887853
 20
-99.9850051706673
 30
0.0
  0
VERTEX
  5
65
330
60
100
AcDbEntity
  8
GRAU_10_
100
AcDbVertex
100
AcDb2dVertex
 10
-162.2138059727293
 20
-99.60208255486987
 30
0.0
  0
VERTEX
  5
66
330
60
100
AcDbEntity
  8
GRAU_10_
100
AcDbVertex
100
AcDb2dVertex
 10
-162.4163777208974
 20
-99.08393985207243
 30
0.0
  0
VERTEX
  5
67
330
60
100
AcDbEntity
  8
GRAU_10_
100
AcDbVertex
100
AcDb2dVertex
 10
-162.4387708563242
 20
-98.54323175896035
 30
0.0
  0
VERTEX
  5
68
330
60
100
AcDbEntity
  8
GRAU_10_
100
AcDbVertex
100
AcDb2dVertex
 10
-160.8395564770784
 20
-98.56579714927499
 30
0.0
  0
VERTEX
  5
69
330
60
100
AcDbEntity
  8
GRAU_10_
100
AcDbVertex
100
AcDb2dVertex
 10
-160.5691163030784
 20
-98.2054399237922
 30
0.0
  0
VERTEX
  5
6A
330
60
100
AcDbEntity
  8
GRAU_10_
100
AcDbVertex
100
AcDb2dVertex
 10
-160.5915094385051
 20
-93.36214924076175
 30
0.0
  0
VERTEX
  5
6B
330
60
100
AcDbEntity
  8
GRAU_10_
100
AcDbVertex
100
AcDb2dVertex
 10
-160.8846872577077
 20
-93.02418515070572
 30
0.0
  0
VERTEX
  5
6C
330
60
100
AcDbEntity
  8
GRAU_10_
100
AcDbVertex
100
AcDb2dVertex
 10
-174.0401375562602
 20
-93.02418515070572
 30
0.0
  0
VERTEX
  5
6D
330
60
100
AcDbEntity
  8
GRAU_10_
100
AcDbVertex
100
AcDb2dVertex
 10
-174.3781016463162
 20
-93.3845423761885
 30
0.0
  0
VERTEX
  5
6E
330
60
100
AcDbEntity
  8
GRAU_10_
100
AcDbVertex
100
AcDb2dVertex
 10
-174.3329708656869
 20
-98.22783305921895
 30
0.0
  0
VERTEX
  5
6F
330
60
100
AcDbEntity
  8
GRAU_10_
100
AcDbVertex
100
AcDb2dVertex
 10
-174.1076614723162
 20
-98.52083862353359
 30
0.0
  0
VERTEX
  5
70
330
60
100
AcDbEntity
  8
GRAU_10_
100
AcDbVertex
100
AcDb2dVertex
 10
-172.4633163124411
 20
-98.56579714927499
 30
0.0
  0
VERTEX
  5
71
330
60
100
AcDbEntity
  8
GRAU_10_
100
AcDbVertex
100
AcDb2dVertex
 10
-172.5081025832946
 20
-99.03880907144313
 30
0.0
  0
VERTEX
  5
72
330
60
100
AcDbEntity
  8
GRAU_10_
100
AcDbVertex
100
AcDb2dVertex
 10
-172.7110188412385
 20
-99.7147372515552
 30
0.0
  0
VERTEX
  5
73
330
60
100
AcDbEntity
  8
GRAU_10_
100
AcDbVertex
100
AcDb2dVertex
 10
-172.7110188412385
 20
-99.9850051706673
 30
0.0
  0
VERTEX
  5
74
330
60
100
AcDbEntity
  8
GRAU_10_
100
AcDbVertex
100
AcDb2dVertex
 10
-172.6083549280513
 20
-100.9086358795768
 30
0.0
  0
VERTEX
  5
75
330
60
100
AcDbEntity
  8
GRAU_10_
100
AcDbVertex
100
AcDb2dVertex
 10
-172.3964814159366
 20
-105.4677059975754
 30
0.0
  0
VERTEX
  5
76
330
60
100
AcDbEntity
  8
GRAU_10_
100
AcDbVertex
100
AcDb2dVertex
 10
-172.2128577054373
 20
-105.6513297080748
 30
0.0
  0
VERTEX
  5
77
330
60
100
AcDbEntity
  8
GRAU_10_
100
AcDbVertex
100
AcDb2dVertex
 10
-169.4595355772743
 20
-105.6845749014391
 30
0.0
  0
VERTEX
  5
78
330
60
100
AcDbEntity
  8
GRAU_10_
100
AcDbVertex
100
AcDb2dVertex
 10
-169.1091691352896
 20
-105.3509171835805
 30
0.0
  0
VERTEX
  5
79
330
60
100
AcDbEntity
  8
GRAU_10_
100
AcDbVertex
100
AcDb2dVertex
 10
-169.1091691352896
 20
-104.9338880999793
 30
0.0
  0
VERTEX
  5
7A
330
60
100
AcDbEntity
  8
GRAU_10_
100
AcDbVertex
100
AcDb2dVertex
 10
-168.8755915072998
 20
-104.5833494031067
 30
0.0
  0
VERTEX
  5
7B
330
60
100
AcDbEntity
  8
GRAU_10_
100
AcDbVertex
100
AcDb2dVertex
 10
-166.1226138889126
 20
-104.6167668513589
 30
0.0
  0
VERTEX
  5
7C
330
60
100
AcDbEntity
  8
GRAU_10_
100
AcDbVertex
100
AcDb2dVertex
 10
-165.8390823434324
 20
-104.900470651727
 30
0.0
  0
VERTEX
  5
7D
330
60
100
AcDbEntity
  8
GRAU_10_
100
AcDbVertex
100
AcDb2dVertex
 10
-165.8225458741942
 20
-105.3509171835805
 30
0.0
  0
VERTEX
  5
7E
330
60
100
AcDbEntity
  8
GRAU_10_
100
AcDbVertex
100
AcDb2dVertex
 10
-165.5386698189381
 20
-105.6680384322009
 30
0.0
  0
VERTEX
  5
7F
330
60
100
AcDbEntity
  8
GRAU_10_
100
AcDbVertex
100
AcDb2dVertex
 10
-162.8187651390274
 20
-105.7514097979436
 30
0.0
  0
VERTEX
  5
80
330
60
100
AcDbEntity
  8
GRAU_10_
100
AcDbVertex
100
AcDb2dVertex
 10
-162.5686510417993
 20
-105.5011234458277
 30
0.0
  0
SEQEND
  5
81
330
60
100
AcDbEntity
  8
GRAU_10_
  0
HATCH
  5
82
330
1F
100
AcDbEntity
  8
GRAU_10_
 62
   255
100
AcDbHatch
 10
0.0
 20
0.0
 30
0.0
210
0.0
220
0.0
230
1.0
  2
SOLID
 70
     1
 71
     0
 91
        1
 92
        1
 93
       31
 72
     1
 10
-162.5686510417993
 20
-105.5011234458277
 11
-162.3037230242121
 21
-101.6069571951157
 72
     1
 10
-162.3037230242121
 20
-101.6069571951157
 11
-162.2933877309382
 21
-100.6158025701501
 72
     1
 10
-162.2933877309382
 20
-100.6158025701501
 11
-162.2813298887853
 21
-99.9850051706673
 72
     1
 10
-162.2813298887853
 20
-99.9850051706673
 11
-162.2138059727293
 21
-99.60208255486987
 72
     1
 10
-162.2138059727293
 20
-99.60208255486987
 11
-162.4163777208974
 21
-99.08393985207243
 72
     1
 10
-162.4163777208974
 20
-99.08393985207243
 11
-162.4387708563242
 21
-98.54323175896035
 72
     1
 10
-162.4387708563242
 20
-98.54323175896035
 11
-160.8395564770784
 21
-98.56579714927499
 72
     1
 10
-160.8395564770784
 20
-98.56579714927499
 11
-160.5691163030784
 21
-98.2054399237922
 72
     1
 10
-160.5691163030784
 20
-98.2054399237922
 11
-160.5915094385051
 21
-93.36214924076175
 72
     1
 10
-160.5915094385051
 20
-93.36214924076175
 11
-160.8846872577077
 21
-93.02418515070572
 72
     1
 10
-160.8846872577077
 20
-93.02418515070572
 11
-174.0401375562602
 21
-93.02418515070572
 72
     1
 10
-174.0401375562602
 20
-93.02418515070572
 11
-174.3781016463162
 21
-93.3845423761885
 72
     1
 10
-174.3781016463162
 20
-93.3845423761885
 11
-174.3329708656869
 21
-98.22783305921895
 72
     1
 10
-174.3329708656869
 20
-98.22783305921895
 11
-174.1076614723162
 21
-98.52083862353359
 72
     1
 10
-174.1076614723162
 20
-98.52083862353359
 11
-172.4633163124411
 21
-98.56579714927499
 72
     1
 10
-172.4633163124411
 20
-98.56579714927499
 11
-172.5081025832946
 21
-99.03880907144313
 72
     1
 10
-172.5081025832946
 20
-99.03880907144313
 11
-172.7110188412385
 21
-99.7147372515552
 72
     1
 10
-172.7110188412385
 20
-99.7147372515552
 11
-172.7110188412385
 21
-99.9850051706673
 72
     1
 10
-172.7110188412385
 20
-99.9850051706673
 11
-172.6083549280513
 21
-100.9086358795768
 72
     1
 10
-172.6083549280513
 20
-100.9086358795768
 11
-172.3964814159366
 21
-105.4677059975754
 72
     1
 10
-172.3964814159366
 20
-105.4677059975754
 11
-172.2128577054373
 21
-105.6513297080748
 72
     1
 10
-172.2128577054373
 20
-105.6513297080748
 11
-169.4595355772743
 21
-105.6845749014391
 72
     1
 10
-169.4595355772743
 20
-105.6845749014391
 11
-169.1091691352896
 21
-105.3509171835805
 72
     1
 10
-169.1091691352896
 20
-105.3509171835805
 11
-169.1091691352896
 21
-104.9338880999793
 72
     1
 10
-169.1091691352896
 20
-104.9338880999793
 11
-168.8755915072998
 21
-104.5833494031067
 72
     1
 10
-168.8755915072998
 20
-104.5833494031067
 11
-166.1226138889126
 21
-104.6167668513589
 72
     1
 10
-166.1226138889126
 20
-104.6167668513589
 11
-165.8390823434324
 21
-104.900470651727
 72
     1
 10
-165.8390823434324
 20
-104.900470651727
 11
-165.8225458741942
 21
-105.3509171835805
 72
     1
 10
-165.8225458741942
 20
-105.3509171835805
 11
-165.5386698189381
 21
-105.6680384322009
 72
     1
 10
-165.5386698189381
 20
-105.6680384322009
 11
-162.8187651390274
 21
-105.7514097979436
 72
     1
 10
-162.8187651390274
 20
-105.7514097979436
 11
-162.5686510417993
 21
-105.5011234458277
 97
        0
 75
     0
 76
     1
 98
        0
  0
POLYLINE
  5
84
330
1F
100
AcDbEntity
  8
STANDARDEBENE
 62
     7
100
AcDb2dPolyline
 66
     1
 10
0.0
 20
0.0
 30
0.0
  0
VERTEX
  5
85
330
84
100
AcDbEntity
  8
STANDARDEBENE
 62
     7
100
AcDbVertex
100
AcDb2dVertex
 10
-211.0677037490566
 20
-86.29556471963075
 30
0.0
  0
VERTEX
  5
86
330
84
100
AcDbEntity
  8
STANDARDEBENE
 62
     7
100
AcDbVertex
100
AcDb2dVertex
 10
-223.4845250883021
 20
-86.29556471963075
 30
0.0
  0
SEQEND
  5
87
330
84
100
AcDbEntity
  8
STANDARDEBENE
  0
POLYLINE
  5
88
330
1F
100
AcDbEntity
  8
STANDARDEBENE
 62
     7
100
AcDb2dPolyline
 66
     1
 10
0.0
 20
0.0
 30
0.0
  0
VERTEX
  5
89
330
88
100
AcDbEntity
  8
STANDARDEBENE
 62
     7
100
AcDbVertex
100
AcDb2dVertex
 10
-146.3849598139985
 20
-86.29556471963075
 30
0.0
  0
VERTEX
  5
8A
330
88
100
AcDbEntity
  8
STANDARDEBENE
 62
     7
100
AcDbVertex
100
AcDb2dVertex
 10
-158.8004031141408
 20
-86.29556471963075
 30
0.0
  0
SEQEND
  5
8B
330
88
100
AcDbEntity
  8
STANDARDEBENE
  0
POLYLINE
  5
8C
330
1F
100
AcDbEntity
  8
STANDARDEBENE
  6
AI-LINETYPE-1
 62
     7
100
AcDb2dPolyline
 66
     1
 10
0.0
 20
0.0
 30
0.0
  0
VERTEX
  5
8D
330
8C
100
AcDbEntity
  8
STANDARDEBENE
  6
AI-LINETYPE-1
 62
     7
100
AcDbVertex
100
AcDb2dVertex
 10
-217.2761144186794
 20
-156.379877429397
 30
0.0
  0
VERTEX
  5
8E
330
8C
100
AcDbEntity
  8
STANDARDEBENE
  6
AI-LINETYPE-1
 62
     7
100
AcDbVertex
100
AcDb2dVertex
 10
-217.2761144186794
 20
-127.4956610619825
 30
0.0
  0
SEQEND
  5
8F
330
8C
100
AcDbEntity
  8
STANDARDEBENE
  6
AI-LINETYPE-1
  0
POLYLINE
  5
91
330
1F
100
AcDbEntity
  8
STANDARDEBENE
  6
AI-LINETYPE-2
 62
     7
100
AcDb2dPolyline
 66
     1
 10
0.0
 20
0.0
 30
0.0
  0
VERTEX
  5
92
330
91
100
AcDbEntity
  8
STANDARDEBENE
  6
AI-LINETYPE-2
 62
     7
100
AcDbVertex
100
AcDb2dVertex
 10
-202.3293855408747
 20
-141.4949880563477
 30
0.0
  0
VERTEX
  5
93
330
91
100
AcDbEntity
  8
STANDARDEBENE
  6
AI-LINETYPE-2
 62
     7
100
AcDbVertex
100
AcDb2dVertex
 10
-231.2763026874841
 20
-141.4949880563477
 30
0.0
  0
SEQEND
  5
94
330
91
100
AcDbEntity
  8
STANDARDEBENE
  6
AI-LINETYPE-2
  0
POLYLINE
  5
96
330
1F
100
AcDbEntity
  8
STANDARDEBENE
  6
AI-LINETYPE-3
 62
     7
100
AcDb2dPolyline
 66
     1
 10
0.0
 20
0.0
 30
0.0
  0
VERTEX
  5
97
330
96
100
AcDbEntity
  8
STANDARDEBENE
  6
AI-LINETYPE-3
 62
     7
100
AcDbVertex
100
AcDb2dVertex
 10
-152.5923369542939
 20
-72.7656322947878
 30
0.0
  0
VERTEX
  5
98
330
96
100
AcDbEntity
  8
STANDARDEBENE
  6
AI-LINETYPE-3
 62
     7
100
AcDbVertex
100
AcDb2dVertex
 10
-152.5923369542939
 20
-99.38659169010936
 30
0.0
  0
SEQEND
  5
99
330
96
100
AcDbEntity
  8
STANDARDEBENE
  6
AI-LINETYPE-3
  0
POLYLINE
  5
9B
330
1F
100
AcDbEntity
  8
STANDARDEBENE
  6
AI-LINETYPE-4
 62
     7
100
AcDb2dPolyline
 66
     1
 10
0.0
 20
0.0
 30
0.0
  0
VERTEX
  5
9C
330
9B
100
AcDbEntity
  8
STANDARDEBENE
  6
AI-LINETYPE-4
 62
     7
100
AcDbVertex
100
AcDb2dVertex
 10
-217.2761144186794
 20
-72.92824090896359
 30
0.0
  0
VERTEX
  5
9D
330
9B
100
AcDbEntity
  8
STANDARDEBENE
  6
AI-LINETYPE-4
 62
     7
100
AcDbVertex
100
AcDb2dVertex
 10
-217.2761144186794
 20
-101.4131704462303
 30
0.0
  0
SEQEND
  5
9E
330
9B
100
AcDbEntity
  8
STANDARDEBENE
  6
AI-LINETYPE-4
  0
POLYLINE
  5
A0
330
1F
100
AcDbEntity
  8
STANDARDEBENE
 62
     7
100
AcDb2dPolyline
 66
     1
 10
0.0
 20
0.0
 30
0.0
  0
VERTEX
  5
A1
330
A0
100
AcDbEntity
  8
STANDARDEBENE
 62
     7
100
AcDbVertex
100
AcDb2dVertex
 10
-229.7757903590038
 20
-84.9149417931276
 30
0.0
  0
VERTEX
  5
A2
330
A0
100
AcDbEntity
  8
STANDARDEBENE
 62
     7
100
AcDbVertex
100
AcDb2dVertex
 10
-229.2762511840994
 20
-85.41482547780784
 30
0.0
  0
SEQEND
  5
A3
330
A0
100
AcDbEntity
  8
STANDARDEBENE
  0
POLYLINE
  5
A4
330
1F
100
AcDbEntity
  8
STANDARDEBENE
 62
     7
100
AcDb2dPolyline
 66
     1
 10
0.0
 20
0.0
 30
0.0
  0
VERTEX
  5
A5
330
A4
100
AcDbEntity
  8
STANDARDEBENE
 62
     7
100
AcDbVertex
100
AcDb2dVertex
 10
-205.2758053983714
 20
-85.41482547780784
 30
0.0
  0
VERTEX
  5
A6
330
A4
100
AcDbEntity
  8
STANDARDEBENE
 62
     7
100
AcDbVertex
100
AcDb2dVertex
 10
-204.7760939685791
 20
-84.9149417931276
 30
0.0
  0
VERTEX
  5
A7
330
A4
100
AcDbEntity
  8
STANDARDEBENE
 62
     7
100
AcDbVertex
100
AcDb2dVertex
 10
-204.7760939685791
 20
-75.91514066511638
 30
0.0
  0
SEQEND
  5
A8
330
A4
100
AcDbEntity
  8
STANDARDEBENE
  0
POLYLINE
  5
A9
330
1F
100
AcDbEntity
  8
STANDARDEBENE
 62
     7
100
AcDb2dPolyline
 66
     1
 10
0.0
 20
0.0
 30
0.0
  0
VERTEX
  5
AA
330
A9
100
AcDbEntity
  8
STANDARDEBENE
 62
     7
100
AcDbVertex
100
AcDb2dVertex
 10
-229.7757903590038
 20
-75.91514066511638
 30
0.0
  0
VERTEX
  5
AB
330
A9
100
AcDbEntity
  8
STANDARDEBENE
 62
     7
100
AcDbVertex
100
AcDb2dVertex
 10
-229.7757903590038
 20
-84.9149417931276
 30
0.0
  0
SEQEND
  5
AC
330
A9
100
AcDbEntity
  8
STANDARDEBENE
  0
POLYLINE
  5
AD
330
1F
100
AcDbEntity
  8
STANDARDEBENE
 62
     7
100
AcDb2dPolyline
 66
     1
 10
0.0
 20
0.0
 30
0.0
  0
VERTEX
  5
AE
330
AD
100
AcDbEntity
  8
STANDARDEBENE
 62
     7
100
AcDbVertex
100
AcDb2dVertex
 10
-204.7760939685791
 20
-75.91514066511638
 30
0.0
  0
VERTEX
  5
AF
330
AD
100
AcDbEntity
  8
STANDARDEBENE
 62
     7
100
AcDbVertex
100
AcDb2dVertex
 10
-205.2758053983714
 20
-75.41491247066034
 30
0.0
  0
SEQEND
  5
B0
330
AD
100
AcDbEntity
  8
STANDARDEBENE
  0
POLYLINE
  5
B1
330
1F
100
AcDbEntity
  8
STANDARDEBENE
 62
     7
100
AcDb2dPolyline
 66
     1
 10
0.0
 20
0.0
 30
0.0
  0
VERTEX
  5
B2
330
B1
100
AcDbEntity
  8
STANDARDEBENE
 62
     7
100
AcDbVertex
100
AcDb2dVertex
 10
-229.2762511840994
 20
-75.41491247066034
 30
0.0
  0
VERTEX
  5
B3
330
B1
100
AcDbEntity
  8
STANDARDEBENE
 62
     7
100
AcDbVertex
100
AcDb2dVertex
 10
-229.7757903590038
 20
-75.91514066511638
 30
0.0
  0
SEQEND
  5
B4
330
B1
100
AcDbEntity
  8
STANDARDEBENE
  0
POLYLINE
  5
B5
330
1F
100
AcDbEntity
  8
STANDARDEBENE
 62
     7
100
AcDb2dPolyline
 66
     1
 10
0.0
 20
0.0
 30
0.0
  0
VERTEX
  5
B6
330
B5
100
AcDbEntity
  8
STANDARDEBENE
 62
     7
100
AcDbVertex
100
AcDb2dVertex
 10
-226.6292103217696
 20
-90.90097140247393
 30
0.0
  0
VERTEX
  5
B7
330
B5
100
AcDbEntity
  8
STANDARDEBENE
 62
     7
100
AcDbVertex
100
AcDb2dVertex
 10
-226.352913481581
 20
-96.4153671287553
 30
0.0
  0
SEQEND
  5
B8
330
B5
100
AcDbEntity
  8
STANDARDEBENE
  0
POLYLINE
  5
B9
330
1F
100
AcDbEntity
  8
STANDARDEBENE
 62
     7
100
AcDb2dPolyline
 66
     1
 10
0.0
 20
0.0
 30
0.0
  0
VERTEX
  5
BA
330
B9
100
AcDbEntity
  8
STANDARDEBENE
 62
     7
100
AcDbVertex
100
AcDb2dVertex
 10
-208.0983739914694
 20
-94.41531562537065
 30
0.0
  0
VERTEX
  5
BB
330
B9
100
AcDbEntity
  8
STANDARDEBENE
 62
     7
100
AcDbVertex
100
AcDb2dVertex
 10
-207.9230185155892
 20
-90.90786159798985
 30
0.0
  0
SEQEND
  5
BC
330
B9
100
AcDbEntity
  8
STANDARDEBENE
  0
POLYLINE
  5
BD
330
1F
100
AcDbEntity
  8
STANDARDEBENE
 62
     7
100
AcDb2dPolyline
 66
     1
 10
0.0
 20
0.0
 30
0.0
  0
VERTEX
  5
BE
330
BD
100
AcDbEntity
  8
STANDARDEBENE
 62
     7
100
AcDbVertex
100
AcDb2dVertex
 10
-207.7729845082299
 20
-87.41453247141669
 30
0.0
  0
VERTEX
  5
BF
330
BD
100
AcDbEntity
  8
STANDARDEBENE
 62
     7
100
AcDbVertex
100
AcDb2dVertex
 10
-208.0525541912885
 20
-86.37170138008169
 30
0.0
  0
SEQEND
  5
C0
330
BD
100
AcDbEntity
  8
STANDARDEBENE
  0
POLYLINE
  5
C1
330
1F
100
AcDbEntity
  8
STANDARDEBENE
 62
     7
100
AcDb2dPolyline
 66
     1
 10
0.0
 20
0.0
 30
0.0
  0
VERTEX
  5
C2
330
C1
100
AcDbEntity
  8
STANDARDEBENE
 62
     7
100
AcDbVertex
100
AcDb2dVertex
 10
-226.4995023911823
 20
-86.37170138008169
 30
0.0
  0
VERTEX
  5
C3
330
C1
100
AcDbEntity
  8
STANDARDEBENE
 62
     7
100
AcDbVertex
100
AcDb2dVertex
 10
-226.7785553095772
 20
-87.41453247141669
 30
0.0
  0
SEQEND
  5
C4
330
C1
100
AcDbEntity
  8
STANDARDEBENE
  0
POLYLINE
  5
C5
330
1F
100
AcDbEntity
  8
STANDARDEBENE
 62
     7
100
AcDb2dPolyline
 66
     1
 10
0.0
 20
0.0
 30
0.0
  0
VERTEX
  5
C6
330
C5
100
AcDbEntity
  8
STANDARDEBENE
 62
     7
100
AcDbVertex
100
AcDb2dVertex
 10
-207.7729845082299
 20
-87.91510517564853
 30
0.0
  0
VERTEX
  5
C7
330
C5
100
AcDbEntity
  8
STANDARDEBENE
 62
     7
100
AcDbVertex
100
AcDb2dVertex
 10
-207.7729845082299
 20
-87.41453247141669
 30
0.0
  0
SEQEND
  5
C8
330
C5
100
AcDbEntity
  8
STANDARDEBENE
  0
POLYLINE
  5
C9
330
1F
100
AcDbEntity
  8
STANDARDEBENE
 62
     7
100
AcDb2dPolyline
 66
     1
 10
0.0
 20
0.0
 30
0.0
  0
VERTEX
  5
CA
330
C9
100
AcDbEntity
  8
STANDARDEBENE
 62
     7
100
AcDbVertex
100
AcDb2dVertex
 10
-226.7785553095772
 20
-87.41453247141669
 30
0.0
  0
VERTEX
  5
CB
330
C9
100
AcDbEntity
  8
STANDARDEBENE
 62
     7
100
AcDbVertex
100
AcDb2dVertex
 10
-226.7785553095772
 20
-87.91510517564853
 30
0.0
  0
SEQEND
  5
CC
330
C9
100
AcDbEntity
  8
STANDARDEBENE
  0
POLYLINE
  5
CD
330
1F
100
AcDbEntity
  8
STANDARDEBENE
 62
     7
100
AcDb2dPolyline
 66
     1
 10
0.0
 20
0.0
 30
0.0
  0
VERTEX
  5
CE
330
CD
100
AcDbEntity
  8
STANDARDEBENE
 62
     7
100
AcDbVertex
100
AcDb2dVertex
 10
-226.4791763144103
 20
-85.6609777126142
 30
0.0
  0
VERTEX
  5
CF
330
CD
100
AcDbEntity
  8
STANDARDEBENE
 62
     7
100
AcDbVertex
100
AcDb2dVertex
 10
-226.4791763144103
 20
-86.21667198097342
 30
0.0
  0
SEQEND
  5
D0
330
CD
100
AcDbEntity
  8
STANDARDEBENE
  0
POLYLINE
  5
D1
330
1F
100
AcDbEntity
  8
STANDARDEBENE
 62
     7
100
AcDb2dPolyline
 66
     1
 10
0.0
 20
0.0
 30
0.0
  0
VERTEX
  5
D2
330
D1
100
AcDbEntity
  8
STANDARDEBENE
 62
     7
100
AcDbVertex
100
AcDb2dVertex
 10
-208.0730525229484
 20
-86.21667198097342
 30
0.0
  0
VERTEX
  5
D3
330
D1
100
AcDbEntity
  8
STANDARDEBENE
 62
     7
100
AcDbVertex
100
AcDb2dVertex
 10
-208.0730525229484
 20
-85.6609777126142
 30
0.0
  0
SEQEND
  5
D4
330
D1
100
AcDbEntity
  8
STANDARDEBENE
  0
SPLINE
  5
D5
330
1F
100
AcDbEntity
  8
STANDARDEBENE
 62
     7
100
AcDbSpline
210
0.0
220
0.0
230
1.0
 70
     8
 71
     3
 72
     8
 73
     4
 74
     0
 42
0.0000000001
 43
0.0000000001
 40
0.0
 40
0.0
 40
0.0
 40
0.0
 40
1.0
 40
1.0
 40
1.0
 40
1.0
 10
-208.0199980174758
 20
-85.41482547780784
 30
0.0
 10
-208.0570328183739
 20
-85.49630203978363
 30
0.0
 10
-208.0742583071637
 20
-85.58139595440528
 30
0.0
 10
-208.0730525229484
 20
-85.6609777126142
 30
0.0
  0
SPLINE
  5
D6
330
1F
100
AcDbEntity
  8
STANDARDEBENE
 62
     7
100
AcDbSpline
210
0.0
220
0.0
230
1.0
 70
     8
 71
     3
 72
     8
 73
     4
 74
     0
 42
0.0000000001
 43
0.0000000001
 40
0.0
 40
0.0
 40
0.0
 40
0.0
 40
1.0
 40
1.0
 40
1.0
 40
1.0
 10
-226.4791763144103
 20
-85.6609777126142
 30
0.0
 10
-226.4791763144103
 20
-85.57209419045878
 30
0.0
 10
-226.4986411167428
 20
-85.48751704050083
 30
0.0
 10
-226.532058564995
 20
-85.41482547780784
 30
0.0
  0
SPLINE
  5
D7
330
1F
100
AcDbEntity
  8
STANDARDEBENE
 62
     7
100
AcDbSpline
210
0.0
220
0.0
230
1.0
 70
     8
 71
     3
 72
     8
 73
     4
 74
     0
 42
0.0000000001
 43
0.0000000001
 40
0.0
 40
0.0
 40
0.0
 40
0.0
 40
1.0
 40
1.0
 40
1.0
 40
1.0
 10
-208.0730525229484
 20
-86.21667198097342
 30
0.0
 10
-208.0730525229484
 20
-86.271449035325
 30
0.0
 10
-208.0661623274325
 20
-86.32536481523711
 30
0.0
 10
-208.0525541912885
 20
-86.37170138008169
 30
0.0
  0
SPLINE
  5
D8
330
1F
100
AcDbEntity
  8
STANDARDEBENE
 62
     7
100
AcDbSpline
210
0.0
220
0.0
230
1.0
 70
     8
 71
     3
 72
     8
 73
     4
 74
     0
 42
0.0000000001
 43
0.0000000001
 40
0.0
 40
0.0
 40
0.0
 40
0.0
 40
1.0
 40
1.0
 40
1.0
 40
1.0
 10
-226.4995023911823
 20
-86.37170138008169
 30
0.0
 10
-226.4848607257109
 20
-86.31864687460909
 30
0.0
 10
-226.4784872948587
 20
-86.26455883980908
 30
0.0
 10
-226.4791763144103
 20
-86.21667198097342
 30
0.0
  0
POLYLINE
  5
D9
330
1F
100
AcDbEntity
  8
STANDARDEBENE
 62
     7
100
AcDb2dPolyline
 66
     1
 10
0.0
 20
0.0
 30
0.0
  0
VERTEX
  5
DA
330
D9
100
AcDbEntity
  8
STANDARDEBENE
 62
     7
100
AcDbVertex
100
AcDb2dVertex
 10
-225.2499654343696
 20
-97.17294412573108
 30
0.0
  0
VERTEX
  5
DB
330
D9
100
AcDbEntity
  8
STANDARDEBENE
 62
     7
100
AcDbVertex
100
AcDb2dVertex
 10
-225.2947517052231
 20
-96.94746247747248
 30
0.0
  0
VERTEX
  5
DC
330
D9
100
AcDbEntity
  8
STANDARDEBENE
 62
     7
100
AcDbVertex
100
AcDb2dVertex
 10
-225.4017219906078
 20
-96.74420170975274
 30
0.0
  0
SEQEND
  5
DD
330
D9
100
AcDbEntity
  8
STANDARDEBENE
  0
POLYLINE
  5
DE
330
1F
100
AcDbEntity
  8
STANDARDEBENE
 62
     7
100
AcDb2dPolyline
 66
     1
 10
0.0
 20
0.0
 30
0.0
  0
VERTEX
  5
DF
330
DE
100
AcDbEntity
  8
STANDARDEBENE
 62
     7
100
AcDbVertex
100
AcDb2dVertex
 10
-209.0378521500656
 20
-94.74828432367764
 30
0.0
  0
VERTEX
  5
E0
330
DE
100
AcDbEntity
  8
STANDARDEBENE
 62
     7
100
AcDbVertex
100
AcDb2dVertex
 10
-209.1425831219076
 20
-94.94844450341522
 30
0.0
  0
VERTEX
  5
E1
330
DE
100
AcDbEntity
  8
STANDARDEBENE
 62
     7
100
AcDbVertex
100
AcDb2dVertex
 10
-209.1870248829853
 20
-95.17013654414005
 30
0.0
  0
SEQEND
  5
E2
330
DE
100
AcDbEntity
  8
STANDARDEBENE
  0
POLYLINE
  5
E3
330
1F
100
AcDbEntity
  8
STANDARDEBENE
 62
     7
100
AcDb2dPolyline
 66
     1
 10
0.0
 20
0.0
 30
0.0
  0
VERTEX
  5
E4
330
E3
100
AcDbEntity
  8
STANDARDEBENE
 62
     7
100
AcDbVertex
100
AcDb2dVertex
 10
-209.3467051640668
 20
-97.94688533705717
 30
0.0
  0
VERTEX
  5
E5
330
E3
100
AcDbEntity
  8
STANDARDEBENE
 62
     7
100
AcDbVertex
100
AcDb2dVertex
 10
-209.5043183864936
 20
-98.27950952558837
 30
0.0
  0
VERTEX
  5
E6
330
E3
100
AcDbEntity
  8
STANDARDEBENE
 62
     7
100
AcDbVertex
100
AcDb2dVertex
 10
-209.8462443389713
 20
-98.41507412236416
 30
0.0
  0
SEQEND
  5
E7
330
E3
100
AcDbEntity
  8
STANDARDEBENE
  0
POLYLINE
  5
E8
330
1F
100
AcDbEntity
  8
STANDARDEBENE
 62
     7
100
AcDb2dPolyline
 66
     1
 10
0.0
 20
0.0
 30
0.0
  0
VERTEX
  5
E9
330
E8
100
AcDbEntity
  8
STANDARDEBENE
 62
     7
100
AcDbVertex
100
AcDb2dVertex
 10
-224.7058122434995
 20
-98.41507412236416
 30
0.0
  0
VERTEX
  5
EA
330
E8
100
AcDbEntity
  8
STANDARDEBENE
 62
     7
100
AcDbVertex
100
AcDb2dVertex
 10
-225.0487717253046
 20
-98.27882050603678
 30
0.0
  0
VERTEX
  5
EB
330
E8
100
AcDbEntity
  8
STANDARDEBENE
 62
     7
100
AcDbVertex
100
AcDb2dVertex
 10
-225.2051791635161
 20
-97.94395700396291
 30
0.0
  0
SEQEND
  5
EC
330
E8
100
AcDbEntity
  8
STANDARDEBENE
  0
POLYLINE
  5
ED
330
1F
100
AcDbEntity
  8
STANDARDEBENE
 62
     7
100
AcDb2dPolyline
 66
     1
 10
0.0
 20
0.0
 30
0.0
  0
VERTEX
  5
EE
330
ED
100
AcDbEntity
  8
STANDARDEBENE
 62
     7
100
AcDbVertex
100
AcDb2dVertex
 10
-209.0381966598414
 20
-94.74914559811714
 30
0.0
  0
VERTEX
  5
EF
330
ED
100
AcDbEntity
  8
STANDARDEBENE
 62
     7
100
AcDbVertex
100
AcDb2dVertex
 10
-209.1427553767955
 20
-94.9499947974063
 30
0.0
  0
VERTEX
  5
F0
330
ED
100
AcDbEntity
  8
STANDARDEBENE
 62
     7
100
AcDbVertex
100
AcDb2dVertex
 10
-209.1870248829853
 20
-95.17203134790694
 30
0.0
  0
SEQEND
  5
F1
330
ED
100
AcDbEntity
  8
STANDARDEBENE
  0
POLYLINE
  5
F2
330
1F
100
AcDbEntity
  8
STANDARDEBENE
 62
     7
100
AcDb2dPolyline
 66
     1
 10
0.0
 20
0.0
 30
0.0
  0
VERTEX
  5
F3
330
F2
100
AcDbEntity
  8
STANDARDEBENE
 62
     7
100
AcDbVertex
100
AcDb2dVertex
 10
-225.2501376892575
 20
-97.16984353774892
 30
0.0
  0
VERTEX
  5
F4
330
F2
100
AcDbEntity
  8
STANDARDEBENE
 62
     7
100
AcDbVertex
100
AcDb2dVertex
 10
-225.2956129796626
 20
-96.9459121834814
 30
0.0
  0
VERTEX
  5
F5
330
F2
100
AcDbEntity
  8
STANDARDEBENE
 62
     7
100
AcDbVertex
100
AcDb2dVertex
 10
-225.4024110101594
 20
-96.74334043531326
 30
0.0
  0
SEQEND
  5
F6
330
F2
100
AcDbEntity
  8
STANDARDEBENE
  0
POLYLINE
  5
F7
330
1F
100
AcDbEntity
  8
STANDARDEBENE
 62
     7
100
AcDb2dPolyline
 66
     1
 10
0.0
 20
0.0
 30
0.0
  0
VERTEX
  5
F8
330
F7
100
AcDbEntity
  8
STANDARDEBENE
 62
     7
100
AcDbVertex
100
AcDb2dVertex
 10
-224.7058122434995
 20
-98.41507412236416
 30
0.0
  0
VERTEX
  5
F9
330
F7
100
AcDbEntity
  8
STANDARDEBENE
 62
     7
100
AcDbVertex
100
AcDb2dVertex
 10
-225.0482549606409
 20
-98.27916501581258
 30
0.0
  0
VERTEX
  5
FA
330
F7
100
AcDbEntity
  8
STANDARDEBENE
 62
     7
100
AcDbVertex
100
AcDb2dVertex
 10
-225.2051791635161
 20
-97.94567955284188
 30
0.0
  0
SEQEND
  5
FB
330
F7
100
AcDbEntity
  8
STANDARDEBENE
  0
POLYLINE
  5
FC
330
1F
100
AcDbEntity
  8
STANDARDEBENE
 62
     7
100
AcDb2dPolyline
 66
     1
 10
0.0
 20
0.0
 30
0.0
  0
VERTEX
  5
FD
330
FC
100
AcDbEntity
  8
STANDARDEBENE
 62
     7
100
AcDbVertex
100
AcDb2dVertex
 10
-209.3467051640668
 20
-97.9449905332903
 30
0.0
  0
VERTEX
  5
FE
330
FC
100
AcDbEntity
  8
STANDARDEBENE
 62
     7
100
AcDbVertex
100
AcDb2dVertex
 10
-209.5027680925025
 20
-98.27916501581258
 30
0.0
  0
VERTEX
  5
FF
330
FC
100
AcDbEntity
  8
STANDARDEBENE
 62
     7
100
AcDbVertex
100
AcDb2dVertex
 10
-209.8462443389713
 20
-98.41507412236416
 30
0.0
  0
SEQEND
  5
100
330
FC
100
AcDbEntity
  8
STANDARDEBENE
  0
POLYLINE
  5
101
330
1F
100
AcDbEntity
  8
STANDARDEBENE
 62
     7
100
AcDb2dPolyline
 66
     1
 10
0.0
 20
0.0
 30
0.0
  0
VERTEX
  5
102
330
101
100
AcDbEntity
  8
STANDARDEBENE
 62
     7
100
AcDbVertex
100
AcDb2dVertex
 10
-225.2499654343696
 20
-97.1701880475247
 30
0.0
  0
VERTEX
  5
103
330
101
100
AcDbEntity
  8
STANDARDEBENE
 62
     7
100
AcDbVertex
100
AcDb2dVertex
 10
-225.2277445538307
 20
-97.5569002708559
 30
0.0
  0
VERTEX
  5
104
330
101
100
AcDbEntity
  8
STANDARDEBENE
 62
     7
100
AcDbVertex
100
AcDb2dVertex
 10
-225.2044901439645
 20
-97.94378474907501
 30
0.0
  0
SEQEND
  5
105
330
101
100
AcDbEntity
  8
STANDARDEBENE
  0
POLYLINE
  5
106
330
1F
100
AcDbEntity
  8
STANDARDEBENE
 62
     7
100
AcDb2dPolyline
 66
     1
 10
0.0
 20
0.0
 30
0.0
  0
VERTEX
  5
107
330
106
100
AcDbEntity
  8
STANDARDEBENE
 62
     7
100
AcDbVertex
100
AcDb2dVertex
 10
-209.3529063400312
 20
-97.94378474907501
 30
0.0
  0
VERTEX
  5
108
330
106
100
AcDbEntity
  8
STANDARDEBENE
 62
     7
100
AcDbVertex
100
AcDb2dVertex
 10
-209.2731523269344
 20
-96.55627162705593
 30
0.0
  0
VERTEX
  5
109
330
106
100
AcDbEntity
  8
STANDARDEBENE
 62
     7
100
AcDbVertex
100
AcDb2dVertex
 10
-209.1939150785012
 20
-95.16893075992476
 30
0.0
  0
SEQEND
  5
10A
330
106
100
AcDbEntity
  8
STANDARDEBENE
  0
POLYLINE
  5
10B
330
1F
100
AcDbEntity
  8
STANDARDEBENE
 62
     7
100
AcDb2dPolyline
 66
     1
 10
0.0
 20
0.0
 30
0.0
  0
VERTEX
  5
10C
330
10B
100
AcDbEntity
  8
STANDARDEBENE
 62
     7
100
AcDbVertex
100
AcDb2dVertex
 10
-207.9235352802529
 20
-90.90786159798985
 30
0.0
  0
VERTEX
  5
10D
330
10B
100
AcDbEntity
  8
STANDARDEBENE
 62
     7
100
AcDbVertex
100
AcDb2dVertex
 10
-207.9231907704771
 20
-90.91440728372997
 30
0.0
  0
VERTEX
  5
10E
330
10B
100
AcDbEntity
  8
STANDARDEBENE
 62
     7
100
AcDbVertex
100
AcDb2dVertex
 10
-207.9335260637509
 20
-90.81484395852489
 30
0.0
  0
VERTEX
  5
10F
330
10B
100
AcDbEntity
  8
STANDARDEBENE
 62
     7
100
AcDbVertex
100
AcDb2dVertex
 10
-207.9555746894019
 20
-90.55938995977202
 30
0.0
  0
VERTEX
  5
110
330
10B
100
AcDbEntity
  8
STANDARDEBENE
 62
     7
100
AcDbVertex
100
AcDb2dVertex
 10
-207.9762452759497
 20
-90.17371126576822
 30
0.0
  0
VERTEX
  5
111
330
10B
100
AcDbEntity
  8
STANDARDEBENE
 62
     7
100
AcDbVertex
100
AcDb2dVertex
 10
-207.9781400797166
 20
-89.70242189247905
 30
0.0
  0
VERTEX
  5
112
330
10B
100
AcDbEntity
  8
STANDARDEBENE
 62
     7
100
AcDbVertex
100
AcDb2dVertex
 10
-207.9555746894019
 20
-89.2037439920141
 30
0.0
  0
VERTEX
  5
113
330
10B
100
AcDbEntity
  8
STANDARDEBENE
 62
     7
100
AcDbVertex
100
AcDb2dVertex
 10
-207.9082045952299
 20
-88.73159334428546
 30
0.0
  0
VERTEX
  5
114
330
10B
100
AcDbEntity
  8
STANDARDEBENE
 62
     7
100
AcDbVertex
100
AcDb2dVertex
 10
-207.8503269528962
 20
-88.33006720059501
 30
0.0
  0
VERTEX
  5
115
330
10B
100
AcDbEntity
  8
STANDARDEBENE
 62
     7
100
AcDbVertex
100
AcDb2dVertex
 10
-207.7995117609663
 20
-88.04653565511477
 30
0.0
  0
VERTEX
  5
116
330
10B
100
AcDbEntity
  8
STANDARDEBENE
 62
     7
100
AcDbVertex
100
AcDb2dVertex
 10
-207.7729845082299
 20
-87.91510517564853
 30
0.0
  0
SEQEND
  5
117
330
10B
100
AcDbEntity
  8
STANDARDEBENE
  0
POLYLINE
  5
118
330
1F
100
AcDbEntity
  8
STANDARDEBENE
 62
     7
100
AcDb2dPolyline
 66
     1
 10
0.0
 20
0.0
 30
0.0
  0
VERTEX
  5
119
330
118
100
AcDbEntity
  8
STANDARDEBENE
 62
     7
100
AcDbVertex
100
AcDb2dVertex
 10
-226.7785553095772
 20
-87.91510517564853
 30
0.0
  0
VERTEX
  5
11A
330
118
100
AcDbEntity
  8
STANDARDEBENE
 62
     7
100
AcDbVertex
100
AcDb2dVertex
 10
-226.7766605058103
 20
-87.9266462531377
 30
0.0
  0
VERTEX
  5
11B
330
118
100
AcDbEntity
  8
STANDARDEBENE
 62
     7
100
AcDbVertex
100
AcDb2dVertex
 10
-226.7732154080524
 20
-87.94266595771222
 30
0.0
  0
VERTEX
  5
11C
330
118
100
AcDbEntity
  8
STANDARDEBENE
 62
     7
100
AcDbVertex
100
AcDb2dVertex
 10
-226.7391089402485
 20
-88.11492084561031
 30
0.0
  0
VERTEX
  5
11D
330
118
100
AcDbEntity
  8
STANDARDEBENE
 62
     7
100
AcDbVertex
100
AcDb2dVertex
 10
-226.6851931603364
 20
-88.42997503557591
 30
0.0
  0
VERTEX
  5
11E
330
118
100
AcDbEntity
  8
STANDARDEBENE
 62
     7
100
AcDbVertex
100
AcDb2dVertex
 10
-226.6281767924422
 20
-88.86112901998482
 30
0.0
  0
VERTEX
  5
11F
330
118
100
AcDbEntity
  8
STANDARDEBENE
 62
     7
100
AcDbVertex
100
AcDb2dVertex
 10
-226.5868356193466
 20
-89.3575676069071
 30
0.0
  0
VERTEX
  5
120
330
118
100
AcDbEntity
  8
STANDARDEBENE
 62
     7
100
AcDbVertex
100
AcDb2dVertex
 10
-226.5715049343237
 20
-89.85624550737205
 30
0.0
  0
VERTEX
  5
121
330
118
100
AcDbEntity
  8
STANDARDEBENE
 62
     7
100
AcDbVertex
100
AcDb2dVertex
 10
-226.5813234629339
 20
-90.3011798828128
 30
0.0
  0
VERTEX
  5
122
330
118
100
AcDbEntity
  8
STANDARDEBENE
 62
     7
100
AcDbVertex
100
AcDb2dVertex
 10
-226.6031998336969
 20
-90.64913475636693
 30
0.0
  0
VERTEX
  5
123
330
118
100
AcDbEntity
  8
STANDARDEBENE
 62
     7
100
AcDbVertex
100
AcDb2dVertex
 10
-226.6273155180027
 20
-90.90097140247393
 30
0.0
  0
SEQEND
  5
124
330
118
100
AcDbEntity
  8
STANDARDEBENE
  0
POLYLINE
  5
125
330
1F
100
AcDbEntity
  8
STANDARDEBENE
 62
     7
100
AcDb2dPolyline
 66
     1
 10
0.0
 20
0.0
 30
0.0
  0
VERTEX
  5
126
330
125
100
AcDbEntity
  8
STANDARDEBENE
 62
     7
100
AcDbVertex
100
AcDb2dVertex
 10
-209.9127347256999
 20
-98.41507412236416
 30
0.0
  0
VERTEX
  5
127
330
125
100
AcDbEntity
  8
STANDARDEBENE
 62
     7
100
AcDbVertex
100
AcDb2dVertex
 10
-210.6899487798961
 20
-98.41507412236416
 30
0.0
  0
VERTEX
  5
128
330
125
100
AcDbEntity
  8
STANDARDEBENE
 62
     7
100
AcDbVertex
100
AcDb2dVertex
 10
-211.6376951731114
 20
-98.41507412236416
 30
0.0
  0
VERTEX
  5
129
330
125
100
AcDbEntity
  8
STANDARDEBENE
 62
     7
100
AcDbVertex
100
AcDb2dVertex
 10
-212.7320304759279
 20
-98.41507412236416
 30
0.0
  0
VERTEX
  5
12A
330
125
100
AcDbEntity
  8
STANDARDEBENE
 62
     7
100
AcDbVertex
100
AcDb2dVertex
 10
-213.9431545927393
 20
-98.41507412236416
 30
0.0
  0
VERTEX
  5
12B
330
125
100
AcDbEntity
  8
STANDARDEBENE
 62
     7
100
AcDbVertex
100
AcDb2dVertex
 10
-215.2412674279393
 20
-98.41507412236416
 30
0.0
  0
VERTEX
  5
12C
330
125
100
AcDbEntity
  8
STANDARDEBENE
 62
     7
100
AcDbVertex
100
AcDb2dVertex
 10
-216.5917457490603
 20
-98.41507412236416
 30
0.0
  0
VERTEX
  5
12D
330
125
100
AcDbEntity
  8
STANDARDEBENE
 62
     7
100
AcDbVertex
100
AcDb2dVertex
 10
-217.9603108334105
 20
-98.41507412236416
 30
0.0
  0
VERTEX
  5
12E
330
125
100
AcDbEntity
  8
STANDARDEBENE
 62
     7
100
AcDbVertex
100
AcDb2dVertex
 10
-219.3107891545315
 20
-98.41507412236416
 30
0.0
  0
VERTEX
  5
12F
330
125
100
AcDbEntity
  8
STANDARDEBENE
 62
     7
100
AcDbVertex
100
AcDb2dVertex
 10
-220.6083852250678
 20
-98.41507412236416
 30
0.0
  0
VERTEX
  5
130
330
125
100
AcDbEntity
  8
STANDARDEBENE
 62
     7
100
AcDbVertex
100
AcDb2dVertex
 10
-221.8205428712066
 20
-98.41507412236416
 30
0.0
  0
VERTEX
  5
131
330
125
100
AcDbEntity
  8
STANDARDEBENE
 62
     7
100
AcDbVertex
100
AcDb2dVertex
 10
-222.9143614093595
 20
-98.41507412236416
 30
0.0
  0
VERTEX
  5
132
330
125
100
AcDbEntity
  8
STANDARDEBENE
 62
     7
100
AcDbVertex
100
AcDb2dVertex
 10
-223.861591037911
 20
-98.41507412236416
 30
0.0
  0
VERTEX
  5
133
330
125
100
AcDbEntity
  8
STANDARDEBENE
 62
     7
100
AcDbVertex
100
AcDb2dVertex
 10
-224.639149601883
 20
-98.41507412236416
 30
0.0
  0
SEQEND
  5
134
330
125
100
AcDbEntity
  8
STANDARDEBENE
  0
POLYLINE
  5
135
330
1F
100
AcDbEntity
  8
STANDARDEBENE
 62
     7
100
AcDb2dPolyline
 66
     1
 10
0.0
 20
0.0
 30
0.0
  0
VERTEX
  5
136
330
135
100
AcDbEntity
  8
STANDARDEBENE
 62
     7
100
AcDbVertex
100
AcDb2dVertex
 10
-224.5821332339887
 20
-98.41507412236416
 30
0.0
  0
VERTEX
  5
137
330
135
100
AcDbEntity
  8
STANDARDEBENE
 62
     7
100
AcDbVertex
100
AcDb2dVertex
 10
-224.5058243186499
 20
-98.41507412236416
 30
0.0
  0
SEQEND
  5
138
330
135
100
AcDbEntity
  8
STANDARDEBENE
  0
POLYLINE
  5
139
330
1F
100
AcDbEntity
  8
STANDARDEBENE
 62
     7
100
AcDb2dPolyline
 66
     1
 10
0.0
 20
0.0
 30
0.0
  0
VERTEX
  5
13A
330
139
100
AcDbEntity
  8
STANDARDEBENE
 62
     7
100
AcDbVertex
100
AcDb2dVertex
 10
-207.7729845082299
 20
-87.91510517564853
 30
0.0
  0
VERTEX
  5
13B
330
139
100
AcDbEntity
  8
STANDARDEBENE
 62
     7
100
AcDbVertex
100
AcDb2dVertex
 10
-207.8790935191752
 20
-87.91510517564853
 30
0.0
  0
VERTEX
  5
13C
330
139
100
AcDbEntity
  8
STANDARDEBENE
 62
     7
100
AcDbVertex
100
AcDb2dVertex
 10
-208.1951812384681
 20
-87.91510517564853
 30
0.0
  0
VERTEX
  5
13D
330
139
100
AcDbEntity
  8
STANDARDEBENE
 62
     7
100
AcDbVertex
100
AcDb2dVertex
 10
-208.7140129608172
 20
-87.91510517564853
 30
0.0
  0
VERTEX
  5
13E
330
139
100
AcDbEntity
  8
STANDARDEBENE
 62
     7
100
AcDbVertex
100
AcDb2dVertex
 10
-209.4247366282847
 20
-87.91510517564853
 30
0.0
  0
VERTEX
  5
13F
330
139
100
AcDbEntity
  8
STANDARDEBENE
 62
     7
100
AcDbVertex
100
AcDb2dVertex
 10
-210.3094377325292
 20
-87.91510517564853
 30
0.0
  0
VERTEX
  5
140
330
139
100
AcDbEntity
  8
STANDARDEBENE
 62
     7
100
AcDbVertex
100
AcDb2dVertex
 10
-211.3510630396489
 20
-87.91510517564853
 30
0.0
  0
VERTEX
  5
141
330
139
100
AcDbEntity
  8
STANDARDEBENE
 62
     7
100
AcDbVertex
100
AcDb2dVertex
 10
-212.5246355908986
 20
-87.91510517564853
 30
0.0
  0
VERTEX
  5
142
330
139
100
AcDbEntity
  8
STANDARDEBENE
 62
     7
100
AcDbVertex
100
AcDb2dVertex
 10
-213.8038003884298
 20
-87.91510517564853
 30
0.0
  0
VERTEX
  5
143
330
139
100
AcDbEntity
  8
STANDARDEBENE
 62
     7
100
AcDbVertex
100
AcDb2dVertex
 10
-215.1616856697304
 20
-87.91510517564853
 30
0.0
  0
VERTEX
  5
144
330
139
100
AcDbEntity
  8
STANDARDEBENE
 62
     7
100
AcDbVertex
100
AcDb2dVertex
 10
-216.5660797707635
 20
-87.91510517564853
 30
0.0
  0
VERTEX
  5
145
330
139
100
AcDbEntity
  8
STANDARDEBENE
 62
     7
100
AcDbVertex
100
AcDb2dVertex
 10
-217.9861490665953
 20
-87.91510517564853
 30
0.0
  0
VERTEX
  5
146
330
139
100
AcDbEntity
  8
STANDARDEBENE
 62
     7
100
AcDbVertex
100
AcDb2dVertex
 10
-219.3903709127405
 20
-87.91510517564853
 30
0.0
  0
VERTEX
  5
147
330
139
100
AcDbEntity
  8
STANDARDEBENE
 62
     7
100
AcDbVertex
100
AcDb2dVertex
 10
-220.7473949196016
 20
-87.91510517564853
 30
0.0
  0
VERTEX
  5
148
330
139
100
AcDbEntity
  8
STANDARDEBENE
 62
     7
100
AcDbVertex
100
AcDb2dVertex
 10
-222.027765501348
 20
-87.91510517564853
 30
0.0
  0
VERTEX
  5
149
330
139
100
AcDbEntity
  8
STANDARDEBENE
 62
     7
100
AcDbVertex
100
AcDb2dVertex
 10
-223.2009935428219
 20
-87.91510517564853
 30
0.0
  0
VERTEX
  5
14A
330
139
100
AcDbEntity
  8
STANDARDEBENE
 62
     7
100
AcDbVertex
100
AcDb2dVertex
 10
-224.2426188499416
 20
-87.91510517564853
 30
0.0
  0
VERTEX
  5
14B
330
139
100
AcDbEntity
  8
STANDARDEBENE
 62
     7
100
AcDbVertex
100
AcDb2dVertex
 10
-225.1280089737377
 20
-87.91510517564853
 30
0.0
  0
VERTEX
  5
14C
330
139
100
AcDbEntity
  8
STANDARDEBENE
 62
     7
100
AcDbVertex
100
AcDb2dVertex
 10
-225.8380436216536
 20
-87.91510517564853
 30
0.0
  0
VERTEX
  5
14D
330
139
100
AcDbEntity
  8
STANDARDEBENE
 62
     7
100
AcDbVertex
100
AcDb2dVertex
 10
-226.3573921086664
 20
-87.91510517564853
 30
0.0
  0
VERTEX
  5
14E
330
139
100
AcDbEntity
  8
STANDARDEBENE
 62
     7
100
AcDbVertex
100
AcDb2dVertex
 10
-226.6733075730715
 20
-87.91510517564853
 30
0.0
  0
VERTEX
  5
14F
330
139
100
AcDbEntity
  8
STANDARDEBENE
 62
     7
100
AcDbVertex
100
AcDb2dVertex
 10
-226.7785553095772
 20
-87.91510517564853
 30
0.0
  0
SEQEND
  5
150
330
139
100
AcDbEntity
  8
STANDARDEBENE
  0
POLYLINE
  5
151
330
1F
100
AcDbEntity
  8
STANDARDEBENE
 62
     7
100
AcDb2dPolyline
 66
     1
 10
0.0
 20
0.0
 30
0.0
  0
VERTEX
  5
152
330
151
100
AcDbEntity
  8
STANDARDEBENE
 62
     7
100
AcDbVertex
100
AcDb2dVertex
 10
-226.7785553095772
 20
-87.41453247141669
 30
0.0
  0
VERTEX
  5
153
330
151
100
AcDbEntity
  8
STANDARDEBENE
 62
     7
100
AcDbVertex
100
AcDb2dVertex
 10
-226.6733075730715
 20
-87.41453247141669
 30
0.0
  0
VERTEX
  5
154
330
151
100
AcDbEntity
  8
STANDARDEBENE
 62
     7
100
AcDbVertex
100
AcDb2dVertex
 10
-226.3573921086664
 20
-87.41453247141669
 30
0.0
  0
VERTEX
  5
155
330
151
100
AcDbEntity
  8
STANDARDEBENE
 62
     7
100
AcDbVertex
100
AcDb2dVertex
 10
-225.8380436216536
 20
-87.41453247141669
 30
0.0
  0
VERTEX
  5
156
330
151
100
AcDbEntity
  8
STANDARDEBENE
 62
     7
100
AcDbVertex
100
AcDb2dVertex
 10
-225.1280089737377
 20
-87.41453247141669
 30
0.0
  0
VERTEX
  5
157
330
151
100
AcDbEntity
  8
STANDARDEBENE
 62
     7
100
AcDbVertex
100
AcDb2dVertex
 10
-224.2426188499416
 20
-87.41453247141669
 30
0.0
  0
VERTEX
  5
158
330
151
100
AcDbEntity
  8
STANDARDEBENE
 62
     7
100
AcDbVertex
100
AcDb2dVertex
 10
-223.2009935428219
 20
-87.41453247141669
 30
0.0
  0
VERTEX
  5
159
330
151
100
AcDbEntity
  8
STANDARDEBENE
 62
     7
100
AcDbVertex
100
AcDb2dVertex
 10
-222.027765501348
 20
-87.41453247141669
 30
0.0
  0
VERTEX
  5
15A
330
151
100
AcDbEntity
  8
STANDARDEBENE
 62
     7
100
AcDbVertex
100
AcDb2dVertex
 10
-220.7473949196016
 20
-87.41453247141669
 30
0.0
  0
VERTEX
  5
15B
330
151
100
AcDbEntity
  8
STANDARDEBENE
 62
     7
100
AcDbVertex
100
AcDb2dVertex
 10
-219.3903709127405
 20
-87.41453247141669
 30
0.0
  0
VERTEX
  5
15C
330
151
100
AcDbEntity
  8
STANDARDEBENE
 62
     7
100
AcDbVertex
100
AcDb2dVertex
 10
-217.9861490665953
 20
-87.41453247141669
 30
0.0
  0
VERTEX
  5
15D
330
151
100
AcDbEntity
  8
STANDARDEBENE
 62
     7
100
AcDbVertex
100
AcDb2dVertex
 10
-216.5660797707635
 20
-87.41453247141669
 30
0.0
  0
VERTEX
  5
15E
330
151
100
AcDbEntity
  8
STANDARDEBENE
 62
     7
100
AcDbVertex
100
AcDb2dVertex
 10
-215.1616856697304
 20
-87.41453247141669
 30
0.0
  0
VERTEX
  5
15F
330
151
100
AcDbEntity
  8
STANDARDEBENE
 62
     7
100
AcDbVertex
100
AcDb2dVertex
 10
-213.8038003884298
 20
-87.41453247141669
 30
0.0
  0
VERTEX
  5
160
330
151
100
AcDbEntity
  8
STANDARDEBENE
 62
     7
100
AcDbVertex
100
AcDb2dVertex
 10
-212.5246355908986
 20
-87.41453247141669
 30
0.0
  0
VERTEX
  5
161
330
151
100
AcDbEntity
  8
STANDARDEBENE
 62
     7
100
AcDbVertex
100
AcDb2dVertex
 10
-211.3510630396489
 20
-87.41453247141669
 30
0.0
  0
VERTEX
  5
162
330
151
100
AcDbEntity
  8
STANDARDEBENE
 62
     7
100
AcDbVertex
100
AcDb2dVertex
 10
-210.3094377325292
 20
-87.41453247141669
 30
0.0
  0
VERTEX
  5
163
330
151
100
AcDbEntity
  8
STANDARDEBENE
 62
     7
100
AcDbVertex
100
AcDb2dVertex
 10
-209.4247366282847
 20
-87.41453247141669
 30
0.0
  0
VERTEX
  5
164
330
151
100
AcDbEntity
  8
STANDARDEBENE
 62
     7
100
AcDbVertex
100
AcDb2dVertex
 10
-208.7140129608172
 20
-87.41453247141669
 30
0.0
  0
VERTEX
  5
165
330
151
100
AcDbEntity
  8
STANDARDEBENE
 62
     7
100
AcDbVertex
100
AcDb2dVertex
 10
-208.1951812384681
 20
-87.41453247141669
 30
0.0
  0
VERTEX
  5
166
330
151
100
AcDbEntity
  8
STANDARDEBENE
 62
     7
100
AcDbVertex
100
AcDb2dVertex
 10
-207.8790935191752
 20
-87.41453247141669
 30
0.0
  0
VERTEX
  5
167
330
151
100
AcDbEntity
  8
STANDARDEBENE
 62
     7
100
AcDbVertex
100
AcDb2dVertex
 10
-207.7729845082299
 20
-87.41453247141669
 30
0.0
  0
SEQEND
  5
168
330
151
100
AcDbEntity
  8
STANDARDEBENE
  0
POLYLINE
  5
169
330
1F
100
AcDbEntity
  8
STANDARDEBENE
 62
     7
100
AcDb2dPolyline
 66
     1
 10
0.0
 20
0.0
 30
0.0
  0
VERTEX
  5
16A
330
169
100
AcDbEntity
  8
STANDARDEBENE
 62
     7
100
AcDbVertex
100
AcDb2dVertex
 10
-226.352913481581
 20
-96.4153671287553
 30
0.0
  0
VERTEX
  5
16B
330
169
100
AcDbEntity
  8
STANDARDEBENE
 62
     7
100
AcDbVertex
100
AcDb2dVertex
 10
-226.2154540810384
 20
-96.4153671287553
 30
0.0
  0
VERTEX
  5
16C
330
169
100
AcDbEntity
  8
STANDARDEBENE
 62
     7
100
AcDbVertex
100
AcDb2dVertex
 10
-225.807037741832
 20
-96.4153671287553
 30
0.0
  0
VERTEX
  5
16D
330
169
100
AcDbEntity
  8
STANDARDEBENE
 62
     7
100
AcDbVertex
100
AcDb2dVertex
 10
-225.6228972666689
 20
-96.49839398472218
 30
0.0
  0
VERTEX
  5
16E
330
169
100
AcDbEntity
  8
STANDARDEBENE
 62
     7
100
AcDbVertex
100
AcDb2dVertex
 10
-225.3366096429823
 20
-96.83601356500243
 30
0.0
  0
VERTEX
  5
16F
330
169
100
AcDbEntity
  8
STANDARDEBENE
 62
     7
100
AcDbVertex
100
AcDb2dVertex
 10
-225.2292948478218
 20
-96.99844992429031
 30
0.0
  0
VERTEX
  5
170
330
169
100
AcDbEntity
  8
STANDARDEBENE
 62
     7
100
AcDbVertex
100
AcDb2dVertex
 10
-225.1195684842307
 20
-97.1705325573005
 30
0.0
  0
VERTEX
  5
171
330
169
100
AcDbEntity
  8
STANDARDEBENE
 62
     7
100
AcDbVertex
100
AcDb2dVertex
 10
-225.117501425576
 20
-97.17518343927375
 30
0.0
  0
SEQEND
  5
172
330
169
100
AcDbEntity
  8
STANDARDEBENE
  0
POLYLINE
  5
173
330
1F
100
AcDbEntity
  8
STANDARDEBENE
 62
     7
100
AcDb2dPolyline
 66
     1
 10
0.0
 20
0.0
 30
0.0
  0
VERTEX
  5
174
330
173
100
AcDbEntity
  8
STANDARDEBENE
 62
     7
100
AcDbVertex
100
AcDb2dVertex
 10
-209.3156992842452
 20
-95.1751319358891
 30
0.0
  0
VERTEX
  5
175
330
173
100
AcDbEntity
  8
STANDARDEBENE
 62
     7
100
AcDbVertex
100
AcDb2dVertex
 10
-209.3138044804783
 20
-95.17048105391585
 30
0.0
  0
VERTEX
  5
176
330
173
100
AcDbEntity
  8
STANDARDEBENE
 62
     7
100
AcDbVertex
100
AcDb2dVertex
 10
-209.2054561559904
 20
-94.99908744045726
 30
0.0
  0
VERTEX
  5
177
330
173
100
AcDbEntity
  8
STANDARDEBENE
 62
     7
100
AcDbVertex
100
AcDb2dVertex
 10
-209.0993471450452
 20
-94.83630657139356
 30
0.0
  0
VERTEX
  5
178
330
173
100
AcDbEntity
  8
STANDARDEBENE
 62
     7
100
AcDbVertex
100
AcDb2dVertex
 10
-208.8171936386681
 20
-94.49885924600122
 30
0.0
  0
VERTEX
  5
179
330
173
100
AcDbEntity
  8
STANDARDEBENE
 62
     7
100
AcDbVertex
100
AcDb2dVertex
 10
-208.6346034574962
 20
-94.41531562537065
 30
0.0
  0
VERTEX
  5
17A
330
173
100
AcDbEntity
  8
STANDARDEBENE
 62
     7
100
AcDbVertex
100
AcDb2dVertex
 10
-208.2339385882452
 20
-94.41531562537065
 30
0.0
  0
VERTEX
  5
17B
330
173
100
AcDbEntity
  8
STANDARDEBENE
 62
     7
100
AcDbVertex
100
AcDb2dVertex
 10
-208.0983739914694
 20
-94.41531562537065
 30
0.0
  0
SEQEND
  5
17C
330
173
100
AcDbEntity
  8
STANDARDEBENE
  0
POLYLINE
  5
17D
330
1F
100
AcDbEntity
  8
STANDARDEBENE
 62
     7
100
AcDb2dPolyline
 66
     1
 10
0.0
 20
0.0
 30
0.0
  0
VERTEX
  5
17E
330
17D
100
AcDbEntity
  8
STANDARDEBENE
 62
     7
100
AcDbVertex
100
AcDb2dVertex
 10
-229.2762511840994
 20
-75.41491247066034
 30
0.0
  0
VERTEX
  5
17F
330
17D
100
AcDbEntity
  8
STANDARDEBENE
 62
     7
100
AcDbVertex
100
AcDb2dVertex
 10
-229.1732427611364
 20
-75.41491247066034
 30
0.0
  0
VERTEX
  5
180
330
17D
100
AcDbEntity
  8
STANDARDEBENE
 62
     7
100
AcDbVertex
100
AcDb2dVertex
 10
-228.8674903351173
 20
-75.41491247066034
 30
0.0
  0
VERTEX
  5
181
330
17D
100
AcDbEntity
  8
STANDARDEBENE
 62
     7
100
AcDbVertex
100
AcDb2dVertex
 10
-228.3624390038001
 20
-75.41491247066034
 30
0.0
  0
VERTEX
  5
182
330
17D
100
AcDbEntity
  8
STANDARDEBENE
 62
     7
100
AcDbVertex
100
AcDb2dVertex
 10
-227.6684240604587
 20
-75.41491247066034
 30
0.0
  0
VERTEX
  5
183
330
17D
100
AcDbEntity
  8
STANDARDEBENE
 62
     7
100
AcDbVertex
100
AcDb2dVertex
 10
-226.7961253081428
 20
-75.41491247066034
 30
0.0
  0
VERTEX
  5
184
330
17D
100
AcDbEntity
  8
STANDARDEBENE
 62
     7
100
AcDbVertex
100
AcDb2dVertex
 10
-225.761390196539
 20
-75.41491247066034
 30
0.0
  0
VERTEX
  5
185
330
17D
100
AcDbEntity
  8
STANDARDEBENE
 62
     7
100
AcDbVertex
100
AcDb2dVertex
 10
-224.5809274497734
 20
-75.41491247066034
 30
0.0
  0
VERTEX
  5
186
330
17D
100
AcDbEntity
  8
STANDARDEBENE
 62
     7
100
AcDbVertex
100
AcDb2dVertex
 10
-223.2759244190575
 20
-75.41491247066034
 30
0.0
  0
VERTEX
  5
187
330
17D
100
AcDbEntity
  8
STANDARDEBENE
 62
     7
100
AcDbVertex
100
AcDb2dVertex
 10
-221.8684297300423
 20
-75.41491247066034
 30
0.0
  0
VERTEX
  5
188
330
17D
100
AcDbEntity
  8
STANDARDEBENE
 62
     7
100
AcDbVertex
100
AcDb2dVertex
 10
-220.3822145572576
 20
-75.41491247066034
 30
0.0
  0
VERTEX
  5
189
330
17D
100
AcDbEntity
  8
STANDARDEBENE
 62
     7
100
AcDbVertex
100
AcDb2dVertex
 10
-218.8426003692245
 20
-75.41491247066034
 30
0.0
  0
VERTEX
  5
18A
330
17D
100
AcDbEntity
  8
STANDARDEBENE
 62
     7
100
AcDbVertex
100
AcDb2dVertex
 10
-217.2761144186794
 20
-75.41491247066034
 30
0.0
  0
VERTEX
  5
18B
330
17D
100
AcDbEntity
  8
STANDARDEBENE
 62
     7
100
AcDbVertex
100
AcDb2dVertex
 10
-215.7098007230221
 20
-75.41491247066034
 30
0.0
  0
VERTEX
  5
18C
330
17D
100
AcDbEntity
  8
STANDARDEBENE
 62
     7
100
AcDbVertex
100
AcDb2dVertex
 10
-214.1698420252132
 20
-75.41491247066034
 30
0.0
  0
VERTEX
  5
18D
330
17D
100
AcDbEntity
  8
STANDARDEBENE
 62
     7
100
AcDbVertex
100
AcDb2dVertex
 10
-212.6841436170922
 20
-75.41491247066034
 30
0.0
  0
VERTEX
  5
18E
330
17D
100
AcDbEntity
  8
STANDARDEBENE
 62
     7
100
AcDbVertex
100
AcDb2dVertex
 10
-211.2759599085254
 20
-75.41491247066034
 30
0.0
  0
VERTEX
  5
18F
330
17D
100
AcDbEntity
  8
STANDARDEBENE
 62
     7
100
AcDbVertex
100
AcDb2dVertex
 10
-209.9706123680337
 20
-75.41491247066034
 30
0.0
  0
VERTEX
  5
190
330
17D
100
AcDbEntity
  8
STANDARDEBENE
 62
     7
100
AcDbVertex
100
AcDb2dVertex
 10
-208.7904941310439
 20
-75.41491247066034
 30
0.0
  0
VERTEX
  5
191
330
17D
100
AcDbEntity
  8
STANDARDEBENE
 62
     7
100
AcDbVertex
100
AcDb2dVertex
 10
-207.7557590194401
 20
-75.41491247066034
 30
0.0
  0
VERTEX
  5
192
330
17D
100
AcDbEntity
  8
STANDARDEBENE
 62
     7
100
AcDbVertex
100
AcDb2dVertex
 10
-206.8838047769
 20
-75.41491247066034
 30
0.0
  0
VERTEX
  5
193
330
17D
100
AcDbEntity
  8
STANDARDEBENE
 62
     7
100
AcDbVertex
100
AcDb2dVertex
 10
-206.1894453237828
 20
-75.41491247066034
 30
0.0
  0
VERTEX
  5
194
330
17D
100
AcDbEntity
  8
STANDARDEBENE
 62
     7
100
AcDbVertex
100
AcDb2dVertex
 10
-205.6845662473536
 20
-75.41491247066034
 30
0.0
  0
VERTEX
  5
195
330
17D
100
AcDbEntity
  8
STANDARDEBENE
 62
     7
100
AcDbVertex
100
AcDb2dVertex
 10
-205.3789860762224
 20
-75.41491247066034
 30
0.0
  0
VERTEX
  5
196
330
17D
100
AcDbEntity
  8
STANDARDEBENE
 62
     7
100
AcDbVertex
100
AcDb2dVertex
 10
-205.2758053983714
 20
-75.41491247066034
 30
0.0
  0
SEQEND
  5
197
330
17D
100
AcDbEntity
  8
STANDARDEBENE
  0
POLYLINE
  5
198
330
1F
100
AcDbEntity
  8
STANDARDEBENE
 62
     7
100
AcDb2dPolyline
 66
     1
 10
0.0
 20
0.0
 30
0.0
  0
VERTEX
  5
199
330
198
100
AcDbEntity
  8
STANDARDEBENE
 62
     7
100
AcDbVertex
100
AcDb2dVertex
 10
-229.7757903590038
 20
-84.9149417931276
 30
0.0
  0
VERTEX
  5
19A
330
198
100
AcDbEntity
  8
STANDARDEBENE
 62
     7
100
AcDbVertex
100
AcDb2dVertex
 10
-229.668992328507
 20
-84.9149417931276
 30
0.0
  0
VERTEX
  5
19B
330
198
100
AcDbEntity
  8
STANDARDEBENE
 62
     7
100
AcDbVertex
100
AcDb2dVertex
 10
-229.3501485310077
 20
-84.9149417931276
 30
0.0
  0
VERTEX
  5
19C
330
198
100
AcDbEntity
  8
STANDARDEBENE
 62
     7
100
AcDbVertex
100
AcDb2dVertex
 10
-228.8245988680306
 20
-84.9149417931276
 30
0.0
  0
VERTEX
  5
19D
330
198
100
AcDbEntity
  8
STANDARDEBENE
 62
     7
100
AcDbVertex
100
AcDb2dVertex
 10
-228.1011283388587
 20
-84.9149417931276
 30
0.0
  0
VERTEX
  5
19E
330
198
100
AcDbEntity
  8
STANDARDEBENE
 62
     7
100
AcDbVertex
100
AcDb2dVertex
 10
-227.1931728247479
 20
-84.9149417931276
 30
0.0
  0
VERTEX
  5
19F
330
198
100
AcDbEntity
  8
STANDARDEBENE
 62
     7
100
AcDbVertex
100
AcDb2dVertex
 10
-226.1152017362817
 20
-84.9149417931276
 30
0.0
  0
VERTEX
  5
1A0
330
198
100
AcDbEntity
  8
STANDARDEBENE
 62
     7
100
AcDbVertex
100
AcDb2dVertex
 10
-224.8856463464651
 20
-84.9149417931276
 30
0.0
  0
VERTEX
  5
1A1
330
198
100
AcDbEntity
  8
STANDARDEBENE
 62
     7
100
AcDbVertex
100
AcDb2dVertex
 10
-223.5258662613977
 20
-84.9149417931276
 30
0.0
  0
VERTEX
  5
1A2
330
198
100
AcDbEntity
  8
STANDARDEBENE
 62
     7
100
AcDbVertex
100
AcDb2dVertex
 10
-222.0598049104971
 20
-84.9149417931276
 30
0.0
  0
VERTEX
  5
1A3
330
198
100
AcDbEntity
  8
STANDARDEBENE
 62
     7
100
AcDbVertex
100
AcDb2dVertex
 10
-220.5115779780691
 20
-84.9149417931276
 30
0.0
  0
VERTEX
  5
1A4
330
198
100
AcDbEntity
  8
STANDARDEBENE
 62
     7
100
AcDbVertex
100
AcDb2dVertex
 10
-218.9075404619621
 20
-84.9149417931276
 30
0.0
  0
VERTEX
  5
1A5
330
198
100
AcDbEntity
  8
STANDARDEBENE
 62
     7
100
AcDbVertex
100
AcDb2dVertex
 10
-217.2761144186794
 20
-84.9149417931276
 30
0.0
  0
VERTEX
  5
1A6
330
198
100
AcDbEntity
  8
STANDARDEBENE
 62
     7
100
AcDbVertex
100
AcDb2dVertex
 10
-215.6443438656208
 20
-84.9149417931276
 30
0.0
  0
VERTEX
  5
1A7
330
198
100
AcDbEntity
  8
STANDARDEBENE
 62
     7
100
AcDbVertex
100
AcDb2dVertex
 10
-214.0411676239533
 20
-84.9149417931276
 30
0.0
  0
VERTEX
  5
1A8
330
198
100
AcDbEntity
  8
STANDARDEBENE
 62
     7
100
AcDbVertex
100
AcDb2dVertex
 10
-212.4927684366374
 20
-84.9149417931276
 30
0.0
  0
VERTEX
  5
1A9
330
198
100
AcDbEntity
  8
STANDARDEBENE
 62
     7
100
AcDbVertex
100
AcDb2dVertex
 10
-211.0256735564095
 20
-84.9149417931276
 30
0.0
  0
VERTEX
  5
1AA
330
198
100
AcDbEntity
  8
STANDARDEBENE
 62
     7
100
AcDbVertex
100
AcDb2dVertex
 10
-209.6667547457815
 20
-84.9149417931276
 30
0.0
  0
VERTEX
  5
1AB
330
198
100
AcDbEntity
  8
STANDARDEBENE
 62
     7
100
AcDbVertex
100
AcDb2dVertex
 10
-208.437199355965
 20
-84.9149417931276
 30
0.0
  0
VERTEX
  5
1AC
330
198
100
AcDbEntity
  8
STANDARDEBENE
 62
     7
100
AcDbVertex
100
AcDb2dVertex
 10
-207.3588837577229
 20
-84.9149417931276
 30
0.0
  0
VERTEX
  5
1AD
330
198
100
AcDbEntity
  8
STANDARDEBENE
 62
     7
100
AcDbVertex
100
AcDb2dVertex
 10
-206.4509282436121
 20
-84.9149417931276
 30
0.0
  0
VERTEX
  5
1AE
330
198
100
AcDbEntity
  8
STANDARDEBENE
 62
     7
100
AcDbVertex
100
AcDb2dVertex
 10
-205.7274577144402
 20
-84.9149417931276
 30
0.0
  0
VERTEX
  5
1AF
330
198
100
AcDbEntity
  8
STANDARDEBENE
 62
     7
100
AcDbVertex
100
AcDb2dVertex
 10
-205.2015635416873
 20
-84.9149417931276
 30
0.0
  0
VERTEX
  5
1B0
330
198
100
AcDbEntity
  8
STANDARDEBENE
 62
     7
100
AcDbVertex
100
AcDb2dVertex
 10
-204.8828919990759
 20
-84.9149417931276
 30
0.0
  0
VERTEX
  5
1B1
330
198
100
AcDbEntity
  8
STANDARDEBENE
 62
     7
100
AcDbVertex
100
AcDb2dVertex
 10
-204.7760939685791
 20
-84.9149417931276
 30
0.0
  0
SEQEND
  5
1B2
330
198
100
AcDbEntity
  8
STANDARDEBENE
  0
POLYLINE
  5
1B3
330
1F
100
AcDbEntity
  8
STANDARDEBENE
 62
     7
100
AcDb2dPolyline
 66
     1
 10
0.0
 20
0.0
 30
0.0
  0
VERTEX
  5
1B4
330
1B3
100
AcDbEntity
  8
STANDARDEBENE
 62
     7
100
AcDbVertex
100
AcDb2dVertex
 10
-204.7760939685791
 20
-75.91514066511638
 30
0.0
  0
VERTEX
  5
1B5
330
1B3
100
AcDbEntity
  8
STANDARDEBENE
 62
     7
100
AcDbVertex
100
AcDb2dVertex
 10
-204.8828919990759
 20
-75.91514066511638
 30
0.0
  0
VERTEX
  5
1B6
330
1B3
100
AcDbEntity
  8
STANDARDEBENE
 62
     7
100
AcDbVertex
100
AcDb2dVertex
 10
-205.2015635416873
 20
-75.91514066511638
 30
0.0
  0
VERTEX
  5
1B7
330
1B3
100
AcDbEntity
  8
STANDARDEBENE
 62
     7
100
AcDbVertex
100
AcDb2dVertex
 10
-205.7274577144402
 20
-75.91514066511638
 30
0.0
  0
VERTEX
  5
1B8
330
1B3
100
AcDbEntity
  8
STANDARDEBENE
 62
     7
100
AcDbVertex
100
AcDb2dVertex
 10
-206.4509282436121
 20
-75.91514066511638
 30
0.0
  0
VERTEX
  5
1B9
330
1B3
100
AcDbEntity
  8
STANDARDEBENE
 62
     7
100
AcDbVertex
100
AcDb2dVertex
 10
-207.3588837577229
 20
-75.91514066511638
 30
0.0
  0
VERTEX
  5
1BA
330
1B3
100
AcDbEntity
  8
STANDARDEBENE
 62
     7
100
AcDbVertex
100
AcDb2dVertex
 10
-208.437199355965
 20
-75.91514066511638
 30
0.0
  0
VERTEX
  5
1BB
330
1B3
100
AcDbEntity
  8
STANDARDEBENE
 62
     7
100
AcDbVertex
100
AcDb2dVertex
 10
-209.6667547457815
 20
-75.91514066511638
 30
0.0
  0
VERTEX
  5
1BC
330
1B3
100
AcDbEntity
  8
STANDARDEBENE
 62
     7
100
AcDbVertex
100
AcDb2dVertex
 10
-211.0256735564095
 20
-75.91514066511638
 30
0.0
  0
VERTEX
  5
1BD
330
1B3
100
AcDbEntity
  8
STANDARDEBENE
 62
     7
100
AcDbVertex
100
AcDb2dVertex
 10
-212.4927684366374
 20
-75.91514066511638
 30
0.0
  0
VERTEX
  5
1BE
330
1B3
100
AcDbEntity
  8
STANDARDEBENE
 62
     7
100
AcDbVertex
100
AcDb2dVertex
 10
-214.0411676239533
 20
-75.91514066511638
 30
0.0
  0
VERTEX
  5
1BF
330
1B3
100
AcDbEntity
  8
STANDARDEBENE
 62
     7
100
AcDbVertex
100
AcDb2dVertex
 10
-215.6443438656208
 20
-75.91514066511638
 30
0.0
  0
VERTEX
  5
1C0
330
1B3
100
AcDbEntity
  8
STANDARDEBENE
 62
     7
100
AcDbVertex
100
AcDb2dVertex
 10
-217.2761144186794
 20
-75.91514066511638
 30
0.0
  0
VERTEX
  5
1C1
330
1B3
100
AcDbEntity
  8
STANDARDEBENE
 62
     7
100
AcDbVertex
100
AcDb2dVertex
 10
-218.9075404619621
 20
-75.91514066511638
 30
0.0
  0
VERTEX
  5
1C2
330
1B3
100
AcDbEntity
  8
STANDARDEBENE
 62
     7
100
AcDbVertex
100
AcDb2dVertex
 10
-220.5115779780691
 20
-75.91514066511638
 30
0.0
  0
VERTEX
  5
1C3
330
1B3
100
AcDbEntity
  8
STANDARDEBENE
 62
     7
100
AcDbVertex
100
AcDb2dVertex
 10
-222.0598049104971
 20
-75.91514066511638
 30
0.0
  0
VERTEX
  5
1C4
330
1B3
100
AcDbEntity
  8
STANDARDEBENE
 62
     7
100
AcDbVertex
100
AcDb2dVertex
 10
-223.5258662613977
 20
-75.91514066511638
 30
0.0
  0
VERTEX
  5
1C5
330
1B3
100
AcDbEntity
  8
STANDARDEBENE
 62
     7
100
AcDbVertex
100
AcDb2dVertex
 10
-224.8856463464651
 20
-75.91514066511638
 30
0.0
  0
VERTEX
  5
1C6
330
1B3
100
AcDbEntity
  8
STANDARDEBENE
 62
     7
100
AcDbVertex
100
AcDb2dVertex
 10
-226.1152017362817
 20
-75.91514066511638
 30
0.0
  0
VERTEX
  5
1C7
330
1B3
100
AcDbEntity
  8
STANDARDEBENE
 62
     7
100
AcDbVertex
100
AcDb2dVertex
 10
-227.1931728247479
 20
-75.91514066511638
 30
0.0
  0
VERTEX
  5
1C8
330
1B3
100
AcDbEntity
  8
STANDARDEBENE
 62
     7
100
AcDbVertex
100
AcDb2dVertex
 10
-228.1011283388587
 20
-75.91514066511638
 30
0.0
  0
VERTEX
  5
1C9
330
1B3
100
AcDbEntity
  8
STANDARDEBENE
 62
     7
100
AcDbVertex
100
AcDb2dVertex
 10
-228.8245988680306
 20
-75.91514066511638
 30
0.0
  0
VERTEX
  5
1CA
330
1B3
100
AcDbEntity
  8
STANDARDEBENE
 62
     7
100
AcDbVertex
100
AcDb2dVertex
 10
-229.3501485310077
 20
-75.91514066511638
 30
0.0
  0
VERTEX
  5
1CB
330
1B3
100
AcDbEntity
  8
STANDARDEBENE
 62
     7
100
AcDbVertex
100
AcDb2dVertex
 10
-229.668992328507
 20
-75.91514066511638
 30
0.0
  0
VERTEX
  5
1CC
330
1B3
100
AcDbEntity
  8
STANDARDEBENE
 62
     7
100
AcDbVertex
100
AcDb2dVertex
 10
-229.7757903590038
 20
-75.91514066511638
 30
0.0
  0
SEQEND
  5
1CD
330
1B3
100
AcDbEntity
  8
STANDARDEBENE
  0
POLYLINE
  5
1CE
330
1F
100
AcDbEntity
  8
STANDARDEBENE
 62
     7
100
AcDb2dPolyline
 66
     1
 10
0.0
 20
0.0
 30
0.0
  0
VERTEX
  5
1CF
330
1CE
100
AcDbEntity
  8
STANDARDEBENE
 62
     7
100
AcDbVertex
100
AcDb2dVertex
 10
-205.2758053983714
 20
-85.41482547780784
 30
0.0
  0
VERTEX
  5
1D0
330
1CE
100
AcDbEntity
  8
STANDARDEBENE
 62
     7
100
AcDbVertex
100
AcDb2dVertex
 10
-205.3789860762224
 20
-85.41482547780784
 30
0.0
  0
VERTEX
  5
1D1
330
1CE
100
AcDbEntity
  8
STANDARDEBENE
 62
     7
100
AcDbVertex
100
AcDb2dVertex
 10
-205.6845662473536
 20
-85.41482547780784
 30
0.0
  0
VERTEX
  5
1D2
330
1CE
100
AcDbEntity
  8
STANDARDEBENE
 62
     7
100
AcDbVertex
100
AcDb2dVertex
 10
-206.1894453237828
 20
-85.41482547780784
 30
0.0
  0
VERTEX
  5
1D3
330
1CE
100
AcDbEntity
  8
STANDARDEBENE
 62
     7
100
AcDbVertex
100
AcDb2dVertex
 10
-206.8838047769
 20
-85.41482547780784
 30
0.0
  0
VERTEX
  5
1D4
330
1CE
100
AcDbEntity
  8
STANDARDEBENE
 62
     7
100
AcDbVertex
100
AcDb2dVertex
 10
-207.7557590194401
 20
-85.41482547780784
 30
0.0
  0
VERTEX
  5
1D5
330
1CE
100
AcDbEntity
  8
STANDARDEBENE
 62
     7
100
AcDbVertex
100
AcDb2dVertex
 10
-208.7904941310439
 20
-85.41482547780784
 30
0.0
  0
VERTEX
  5
1D6
330
1CE
100
AcDbEntity
  8
STANDARDEBENE
 62
     7
100
AcDbVertex
100
AcDb2dVertex
 10
-209.9706123680337
 20
-85.41482547780784
 30
0.0
  0
VERTEX
  5
1D7
330
1CE
100
AcDbEntity
  8
STANDARDEBENE
 62
     7
100
AcDbVertex
100
AcDb2dVertex
 10
-211.2759599085254
 20
-85.41482547780784
 30
0.0
  0
VERTEX
  5
1D8
330
1CE
100
AcDbEntity
  8
STANDARDEBENE
 62
     7
100
AcDbVertex
100
AcDb2dVertex
 10
-212.6841436170922
 20
-85.41482547780784
 30
0.0
  0
VERTEX
  5
1D9
330
1CE
100
AcDbEntity
  8
STANDARDEBENE
 62
     7
100
AcDbVertex
100
AcDb2dVertex
 10
-214.1698420252132
 20
-85.41482547780784
 30
0.0
  0
VERTEX
  5
1DA
330
1CE
100
AcDbEntity
  8
STANDARDEBENE
 62
     7
100
AcDbVertex
100
AcDb2dVertex
 10
-215.7098007230221
 20
-85.41482547780784
 30
0.0
  0
VERTEX
  5
1DB
330
1CE
100
AcDbEntity
  8
STANDARDEBENE
 62
     7
100
AcDbVertex
100
AcDb2dVertex
 10
-217.2761144186794
 20
-85.41482547780784
 30
0.0
  0
VERTEX
  5
1DC
330
1CE
100
AcDbEntity
  8
STANDARDEBENE
 62
     7
100
AcDbVertex
100
AcDb2dVertex
 10
-218.8426003692245
 20
-85.41482547780784
 30
0.0
  0
VERTEX
  5
1DD
330
1CE
100
AcDbEntity
  8
STANDARDEBENE
 62
     7
100
AcDbVertex
100
AcDb2dVertex
 10
-220.3822145572576
 20
-85.41482547780784
 30
0.0
  0
VERTEX
  5
1DE
330
1CE
100
AcDbEntity
  8
STANDARDEBENE
 62
     7
100
AcDbVertex
100
AcDb2dVertex
 10
-221.8684297300423
 20
-85.41482547780784
 30
0.0
  0
VERTEX
  5
1DF
330
1CE
100
AcDbEntity
  8
STANDARDEBENE
 62
     7
100
AcDbVertex
100
AcDb2dVertex
 10
-223.2759244190575
 20
-85.41482547780784
 30
0.0
  0
VERTEX
  5
1E0
330
1CE
100
AcDbEntity
  8
STANDARDEBENE
 62
     7
100
AcDbVertex
100
AcDb2dVertex
 10
-224.5809274497734
 20
-85.41482547780784
 30
0.0
  0
VERTEX
  5
1E1
330
1CE
100
AcDbEntity
  8
STANDARDEBENE
 62
     7
100
AcDbVertex
100
AcDb2dVertex
 10
-225.761390196539
 20
-85.41482547780784
 30
0.0
  0
VERTEX
  5
1E2
330
1CE
100
AcDbEntity
  8
STANDARDEBENE
 62
     7
100
AcDbVertex
100
AcDb2dVertex
 10
-226.7961253081428
 20
-85.41482547780784
 30
0.0
  0
VERTEX
  5
1E3
330
1CE
100
AcDbEntity
  8
STANDARDEBENE
 62
     7
100
AcDbVertex
100
AcDb2dVertex
 10
-227.6684240604587
 20
-85.41482547780784
 30
0.0
  0
VERTEX
  5
1E4
330
1CE
100
AcDbEntity
  8
STANDARDEBENE
 62
     7
100
AcDbVertex
100
AcDb2dVertex
 10
-228.3624390038001
 20
-85.41482547780784
 30
0.0
  0
VERTEX
  5
1E5
330
1CE
100
AcDbEntity
  8
STANDARDEBENE
 62
     7
100
AcDbVertex
100
AcDb2dVertex
 10
-228.8674903351173
 20
-85.41482547780784
 30
0.0
  0
VERTEX
  5
1E6
330
1CE
100
AcDbEntity
  8
STANDARDEBENE
 62
     7
100
AcDbVertex
100
AcDb2dVertex
 10
-229.1732427611364
 20
-85.41482547780784
 30
0.0
  0
VERTEX
  5
1E7
330
1CE
100
AcDbEntity
  8
STANDARDEBENE
 62
     7
100
AcDbVertex
100
AcDb2dVertex
 10
-229.2762511840994
 20
-85.41482547780784
 30
0.0
  0
SEQEND
  5
1E8
330
1CE
100
AcDbEntity
  8
STANDARDEBENE
  0
POLYLINE
  5
1E9
330
1F
100
AcDbEntity
  8
STANDARDEBENE
 62
     7
100
AcDb2dPolyline
 66
     1
 10
0.0
 20
0.0
 30
0.0
  0
VERTEX
  5
1EA
330
1E9
100
AcDbEntity
  8
STANDARDEBENE
 62
     7
100
AcDbVertex
100
AcDb2dVertex
 10
-165.0921851495063
 20
-84.9149417931276
 30
0.0
  0
VERTEX
  5
1EB
330
1E9
100
AcDbEntity
  8
STANDARDEBENE
 62
     7
100
AcDbVertex
100
AcDb2dVertex
 10
-164.592301464826
 20
-85.41482547780784
 30
0.0
  0
SEQEND
  5
1EC
330
1E9
100
AcDbEntity
  8
STANDARDEBENE
  0
POLYLINE
  5
1ED
330
1F
100
AcDbEntity
  8
STANDARDEBENE
 62
     7
100
AcDb2dPolyline
 66
     1
 10
0.0
 20
0.0
 30
0.0
  0
VERTEX
  5
1EE
330
1ED
100
AcDbEntity
  8
STANDARDEBENE
 62
     7
100
AcDbVertex
100
AcDb2dVertex
 10
-140.5920279339859
 20
-85.41482547780784
 30
0.0
  0
VERTEX
  5
1EF
330
1ED
100
AcDbEntity
  8
STANDARDEBENE
 62
     7
100
AcDbVertex
100
AcDb2dVertex
 10
-140.0921442493057
 20
-84.9149417931276
 30
0.0
  0
SEQEND
  5
1F0
330
1ED
100
AcDbEntity
  8
STANDARDEBENE
  0
POLYLINE
  5
1F1
330
1F
100
AcDbEntity
  8
STANDARDEBENE
 62
     7
100
AcDb2dPolyline
 66
     1
 10
0.0
 20
0.0
 30
0.0
  0
VERTEX
  5
1F2
330
1F1
100
AcDbEntity
  8
STANDARDEBENE
 62
     7
100
AcDbVertex
100
AcDb2dVertex
 10
-140.0921442493057
 20
-75.91514066511638
 30
0.0
  0
VERTEX
  5
1F3
330
1F1
100
AcDbEntity
  8
STANDARDEBENE
 62
     7
100
AcDbVertex
100
AcDb2dVertex
 10
-140.5920279339859
 20
-75.41491247066034
 30
0.0
  0
SEQEND
  5
1F4
330
1F1
100
AcDbEntity
  8
STANDARDEBENE
  0
POLYLINE
  5
1F5
330
1F
100
AcDbEntity
  8
STANDARDEBENE
 62
     7
100
AcDb2dPolyline
 66
     1
 10
0.0
 20
0.0
 30
0.0
  0
VERTEX
  5
1F6
330
1F5
100
AcDbEntity
  8
STANDARDEBENE
 62
     7
100
AcDbVertex
100
AcDb2dVertex
 10
-164.592301464826
 20
-75.41491247066034
 30
0.0
  0
VERTEX
  5
1F7
330
1F5
100
AcDbEntity
  8
STANDARDEBENE
 62
     7
100
AcDbVertex
100
AcDb2dVertex
 10
-165.0921851495063
 20
-75.91514066511638
 30
0.0
  0
SEQEND
  5
1F8
330
1F5
100
AcDbEntity
  8
STANDARDEBENE
  0
POLYLINE
  5
1F9
330
1F
100
AcDbEntity
  8
STANDARDEBENE
 62
     7
100
AcDb2dPolyline
 66
     1
 10
0.0
 20
0.0
 30
0.0
  0
VERTEX
  5
1FA
330
1F9
100
AcDbEntity
  8
STANDARDEBENE
 62
     7
100
AcDbVertex
100
AcDb2dVertex
 10
-140.0921442493057
 20
-84.9149417931276
 30
0.0
  0
VERTEX
  5
1FB
330
1F9
100
AcDbEntity
  8
STANDARDEBENE
 62
     7
100
AcDbVertex
100
AcDb2dVertex
 10
-140.0921442493057
 20
-75.91514066511638
 30
0.0
  0
SEQEND
  5
1FC
330
1F9
100
AcDbEntity
  8
STANDARDEBENE
  0
POLYLINE
  5
1FD
330
1F
100
AcDbEntity
  8
STANDARDEBENE
 62
     7
100
AcDb2dPolyline
 66
     1
 10
0.0
 20
0.0
 30
0.0
  0
VERTEX
  5
1FE
330
1FD
100
AcDbEntity
  8
STANDARDEBENE
 62
     7
100
AcDbVertex
100
AcDb2dVertex
 10
-165.0921851495063
 20
-75.91514066511638
 30
0.0
  0
VERTEX
  5
1FF
330
1FD
100
AcDbEntity
  8
STANDARDEBENE
 62
     7
100
AcDbVertex
100
AcDb2dVertex
 10
-165.0921851495063
 20
-84.9149417931276
 30
0.0
  0
SEQEND
  5
200
330
1FD
100
AcDbEntity
  8
STANDARDEBENE
  0
POLYLINE
  5
201
330
1F
100
AcDbEntity
  8
STANDARDEBENE
 62
     7
100
AcDb2dPolyline
 66
     1
 10
0.0
 20
0.0
 30
0.0
  0
VERTEX
  5
202
330
201
100
AcDbEntity
  8
STANDARDEBENE
 62
     7
100
AcDbVertex
100
AcDb2dVertex
 10
-143.0893792987324
 20
-87.41453247141669
 30
0.0
  0
VERTEX
  5
203
330
201
100
AcDbEntity
  8
STANDARDEBENE
 62
     7
100
AcDbVertex
100
AcDb2dVertex
 10
-143.3687767269031
 20
-86.37170138008169
 30
0.0
  0
SEQEND
  5
204
330
201
100
AcDbEntity
  8
STANDARDEBENE
  0
POLYLINE
  5
205
330
1F
100
AcDbEntity
  8
STANDARDEBENE
 62
     7
100
AcDb2dPolyline
 66
     1
 10
0.0
 20
0.0
 30
0.0
  0
VERTEX
  5
206
330
205
100
AcDbEntity
  8
STANDARDEBENE
 62
     7
100
AcDbVertex
100
AcDb2dVertex
 10
-161.8155526719089
 20
-86.37170138008169
 30
0.0
  0
VERTEX
  5
207
330
205
100
AcDbEntity
  8
STANDARDEBENE
 62
     7
100
AcDbVertex
100
AcDb2dVertex
 10
-162.0956391196312
 20
-87.41453247141669
 30
0.0
  0
SEQEND
  5
208
330
205
100
AcDbEntity
  8
STANDARDEBENE
  0
POLYLINE
  5
209
330
1F
100
AcDbEntity
  8
STANDARDEBENE
 62
     7
100
AcDb2dPolyline
 66
     1
 10
0.0
 20
0.0
 30
0.0
  0
VERTEX
  5
20A
330
209
100
AcDbEntity
  8
STANDARDEBENE
 62
     7
100
AcDbVertex
100
AcDb2dVertex
 10
-143.0893792987324
 20
-87.91510517564853
 30
0.0
  0
VERTEX
  5
20B
330
209
100
AcDbEntity
  8
STANDARDEBENE
 62
     7
100
AcDbVertex
100
AcDb2dVertex
 10
-143.0893792987324
 20
-87.41453247141669
 30
0.0
  0
SEQEND
  5
20C
330
209
100
AcDbEntity
  8
STANDARDEBENE
  0
POLYLINE
  5
20D
330
1F
100
AcDbEntity
  8
STANDARDEBENE
 62
     7
100
AcDb2dPolyline
 66
     1
 10
0.0
 20
0.0
 30
0.0
  0
VERTEX
  5
20E
330
20D
100
AcDbEntity
  8
STANDARDEBENE
 62
     7
100
AcDbVertex
100
AcDb2dVertex
 10
-162.0956391196312
 20
-87.41453247141669
 30
0.0
  0
VERTEX
  5
20F
330
20D
100
AcDbEntity
  8
STANDARDEBENE
 62
     7
100
AcDbVertex
100
AcDb2dVertex
 10
-162.0956391196312
 20
-87.91510517564853
 30
0.0
  0
VERTEX
  5
210
330
20D
100
AcDbEntity
  8
STANDARDEBENE
 62
     7
100
AcDbVertex
100
AcDb2dVertex
 10
-161.5933438665204
 20
-97.94033965131705
 30
0.0
  0
SEQEND
  5
211
330
20D
100
AcDbEntity
  8
STANDARDEBENE
  0
POLYLINE
  5
212
330
1F
100
AcDbEntity
  8
STANDARDEBENE
 62
     7
100
AcDb2dPolyline
 66
     1
 10
0.0
 20
0.0
 30
0.0
  0
VERTEX
  5
213
330
212
100
AcDbEntity
  8
STANDARDEBENE
 62
     7
100
AcDbVertex
100
AcDb2dVertex
 10
-143.5916745518432
 20
-97.94033965131705
 30
0.0
  0
VERTEX
  5
214
330
212
100
AcDbEntity
  8
STANDARDEBENE
 62
     7
100
AcDbVertex
100
AcDb2dVertex
 10
-143.0893792987324
 20
-87.91510517564853
 30
0.0
  0
SEQEND
  5
215
330
212
100
AcDbEntity
  8
STANDARDEBENE
  0
POLYLINE
  5
216
330
1F
100
AcDbEntity
  8
STANDARDEBENE
 62
     7
100
AcDb2dPolyline
 66
     1
 10
0.0
 20
0.0
 30
0.0
  0
VERTEX
  5
217
330
216
100
AcDbEntity
  8
STANDARDEBENE
 62
     7
100
AcDbVertex
100
AcDb2dVertex
 10
-161.7955711049127
 20
-85.6609777126142
 30
0.0
  0
VERTEX
  5
218
330
216
100
AcDbEntity
  8
STANDARDEBENE
 62
     7
100
AcDbVertex
100
AcDb2dVertex
 10
-161.7955711049127
 20
-86.21667198097342
 30
0.0
  0
SEQEND
  5
219
330
216
100
AcDbEntity
  8
STANDARDEBENE
  0
POLYLINE
  5
21A
330
1F
100
AcDbEntity
  8
STANDARDEBENE
 62
     7
100
AcDb2dPolyline
 66
     1
 10
0.0
 20
0.0
 30
0.0
  0
VERTEX
  5
21B
330
21A
100
AcDbEntity
  8
STANDARDEBENE
 62
     7
100
AcDbVertex
100
AcDb2dVertex
 10
-143.3901363330024
 20
-86.21667198097342
 30
0.0
  0
VERTEX
  5
21C
330
21A
100
AcDbEntity
  8
STANDARDEBENE
 62
     7
100
AcDbVertex
100
AcDb2dVertex
 10
-143.3901363330024
 20
-85.6609777126142
 30
0.0
  0
SEQEND
  5
21D
330
21A
100
AcDbEntity
  8
STANDARDEBENE
  0
SPLINE
  5
21E
330
1F
100
AcDbEntity
  8
STANDARDEBENE
 62
     7
100
AcDbSpline
210
0.0
220
0.0
230
1.0
 70
     8
 71
     3
 72
     8
 73
     4
 74
     0
 42
0.0000000001
 43
0.0000000001
 40
0.0
 40
0.0
 40
0.0
 40
0.0
 40
1.0
 40
1.0
 40
1.0
 40
1.0
 10
-143.336737317754
 20
-85.41482547780784
 30
0.0
 10
-143.3725663344368
 20
-85.49630203978363
 30
0.0
 10
-143.3901363330024
 20
-85.58139595440528
 30
0.0
 10
-143.3901363330024
 20
-85.6609777126142
 30
0.0
  0
SPLINE
  5
21F
330
1F
100
AcDbEntity
  8
STANDARDEBENE
 62
     7
100
AcDbSpline
210
0.0
220
0.0
230
1.0
 70
     8
 71
     3
 72
     8
 73
     4
 74
     0
 42
0.0000000001
 43
0.0000000001
 40
0.0
 40
0.0
 40
0.0
 40
0.0
 40
1.0
 40
1.0
 40
1.0
 40
1.0
 10
-161.7955711049127
 20
-85.6609777126142
 30
0.0
 10
-161.7955711049127
 20
-85.57209419045878
 30
0.0
 10
-161.8145191425815
 20
-85.48751704050083
 30
0.0
 10
-161.8482811006095
 20
-85.41482547780784
 30
0.0
  0
SPLINE
  5
220
330
1F
100
AcDbEntity
  8
STANDARDEBENE
 62
     7
100
AcDbSpline
210
0.0
220
0.0
230
1.0
 70
     8
 71
     3
 72
     8
 73
     4
 74
     0
 42
0.0000000001
 43
0.0000000001
 40
0.0
 40
0.0
 40
0.0
 40
0.0
 40
1.0
 40
1.0
 40
1.0
 40
1.0
 10
-143.3901363330024
 20
-86.21667198097342
 30
0.0
 10
-143.3901363330024
 20
-86.271449035325
 30
0.0
 10
-143.3818680983833
 20
-86.32536481523711
 30
0.0
 10
-143.3687767269031
 20
-86.37170138008169
 30
0.0
  0
SPLINE
  5
221
330
1F
100
AcDbEntity
  8
STANDARDEBENE
 62
     7
100
AcDbSpline
210
0.0
220
0.0
230
1.0
 70
     8
 71
     3
 72
     8
 73
     4
 74
     0
 42
0.0000000001
 43
0.0000000001
 40
0.0
 40
0.0
 40
0.0
 40
0.0
 40
1.0
 40
1.0
 40
1.0
 40
1.0
 10
-161.8155526719089
 20
-86.37170138008169
 30
0.0
 10
-161.8017722808771
 20
-86.31864687460909
 30
0.0
 10
-161.7948820853611
 20
-86.26455883980908
 30
0.0
 10
-161.7955711049127
 20
-86.21667198097342
 30
0.0
  0
SPLINE
  5
222
330
1F
100
AcDbEntity
  8
STANDARDEBENE
 62
     7
100
AcDbSpline
210
0.0
220
0.0
230
1.0
 70
     8
 71
     3
 72
     8
 73
     4
 74
     0
 42
0.0000000001
 43
0.0000000001
 40
0.0
 40
0.0
 40
0.0
 40
0.0
 40
1.0
 40
1.0
 40
1.0
 40
1.0
 10
-144.0908692169718
 20
-98.41507412236416
 30
0.0
 10
-143.823529630954
 20
-98.41507412236416
 30
0.0
 10
-143.6047659233234
 20
-98.2052676689043
 30
0.0
 10
-143.5916745518432
 20
-97.94033965131705
 30
0.0
  0
SPLINE
  5
223
330
1F
100
AcDbEntity
  8
STANDARDEBENE
 62
     7
100
AcDbSpline
210
0.0
220
0.0
230
1.0
 70
     8
 71
     3
 72
     8
 73
     4
 74
     0
 42
0.0000000001
 43
0.0000000001
 40
0.0
 40
0.0
 40
0.0
 40
0.0
 40
1.0
 40
1.0
 40
1.0
 40
1.0
 10
-161.5933438665204
 20
-97.94033965131705
 30
0.0
 10
-161.5795634754885
 20
-98.20681796289539
 30
0.0
 10
-161.3597662385306
 20
-98.41472961258837
 30
0.0
 10
-161.0934601818402
 20
-98.41507412236416
 30
0.0
  0
POLYLINE
  5
224
330
1F
100
AcDbEntity
  8
STANDARDEBENE
 62
     7
100
AcDb2dPolyline
 66
     1
 10
0.0
 20
0.0
 30
0.0
  0
VERTEX
  5
225
330
224
100
AcDbEntity
  8
STANDARDEBENE
 62
     7
100
AcDbVertex
100
AcDb2dVertex
 10
-152.5923369542939
 20
-87.91510517564853
 30
0.0
  0
VERTEX
  5
226
330
224
100
AcDbEntity
  8
STANDARDEBENE
 62
     7
100
AcDbVertex
100
AcDb2dVertex
 10
-152.3060493306073
 20
-87.94266595771222
 30
0.0
  0
VERTEX
  5
227
330
224
100
AcDbEntity
  8
STANDARDEBENE
 62
     7
100
AcDbVertex
100
AcDb2dVertex
 10
-151.8444062310404
 20
-88.11492084561031
 30
0.0
  0
VERTEX
  5
228
330
224
100
AcDbEntity
  8
STANDARDEBENE
 62
     7
100
AcDbVertex
100
AcDb2dVertex
 10
-151.4616558701309
 20
-88.42997503557591
 30
0.0
  0
VERTEX
  5
229
330
224
100
AcDbEntity
  8
STANDARDEBENE
 62
     7
100
AcDbVertex
100
AcDb2dVertex
 10
-151.1984504014226
 20
-88.86112901998482
 30
0.0
  0
VERTEX
  5
22A
330
224
100
AcDbEntity
  8
STANDARDEBENE
 62
     7
100
AcDbVertex
100
AcDb2dVertex
 10
-151.0933749198047
 20
-89.3575676069071
 30
0.0
  0
VERTEX
  5
22B
330
224
100
AcDbEntity
  8
STANDARDEBENE
 62
     7
100
AcDbVertex
100
AcDb2dVertex
 10
-151.1591762869818
 20
-89.85624550737205
 30
0.0
  0
VERTEX
  5
22C
330
224
100
AcDbEntity
  8
STANDARDEBENE
 62
     7
100
AcDbVertex
100
AcDb2dVertex
 10
-151.3813850923704
 20
-90.3011798828128
 30
0.0
  0
VERTEX
  5
22D
330
224
100
AcDbEntity
  8
STANDARDEBENE
 62
     7
100
AcDbVertex
100
AcDb2dVertex
 10
-151.7410532983016
 20
-90.64913475636693
 30
0.0
  0
VERTEX
  5
22E
330
224
100
AcDbEntity
  8
STANDARDEBENE
 62
     7
100
AcDbVertex
100
AcDb2dVertex
 10
-152.1968397316799
 20
-90.86221405269686
 30
0.0
  0
VERTEX
  5
22F
330
224
100
AcDbEntity
  8
STANDARDEBENE
 62
     7
100
AcDbVertex
100
AcDb2dVertex
 10
-152.6981014554633
 20
-90.91130669574781
 30
0.0
  0
VERTEX
  5
230
330
224
100
AcDbEntity
  8
STANDARDEBENE
 62
     7
100
AcDbVertex
100
AcDb2dVertex
 10
-153.1848937686633
 20
-90.79296758776182
 30
0.0
  0
VERTEX
  5
231
330
224
100
AcDbEntity
  8
STANDARDEBENE
 62
     7
100
AcDbVertex
100
AcDb2dVertex
 10
-153.6058847146862
 20
-90.52114937465865
 30
0.0
  0
VERTEX
  5
232
330
224
100
AcDbEntity
  8
STANDARDEBENE
 62
     7
100
AcDbVertex
100
AcDb2dVertex
 10
-153.9152544933512
 20
-90.12272381895038
 30
0.0
  0
VERTEX
  5
233
330
224
100
AcDbEntity
  8
STANDARDEBENE
 62
     7
100
AcDbVertex
100
AcDb2dVertex
 10
-154.0747625195448
 20
-89.64506101480899
 30
0.0
  0
VERTEX
  5
234
330
224
100
AcDbEntity
  8
STANDARDEBENE
 62
     7
100
AcDbVertex
100
AcDb2dVertex
 10
-154.0678723240289
 20
-89.14741664367143
 30
0.0
  0
VERTEX
  5
235
330
224
100
AcDbEntity
  8
STANDARDEBENE
 62
     7
100
AcDbVertex
100
AcDb2dVertex
 10
-153.9007850827677
 20
-88.68008913280393
 30
0.0
  0
VERTEX
  5
236
330
224
100
AcDbEntity
  8
STANDARDEBENE
 62
     7
100
AcDbVertex
100
AcDb2dVertex
 10
-153.6847774533435
 20
-88.38673905871349
 30
0.0
  0
VERTEX
  5
237
330
224
100
AcDbEntity
  8
STANDARDEBENE
 62
     7
100
AcDbVertex
100
AcDb2dVertex
 10
-153.2844570938684
 20
-88.08408722067655
 30
0.0
  0
VERTEX
  5
238
330
224
100
AcDbEntity
  8
STANDARDEBENE
 62
     7
100
AcDbVertex
100
AcDb2dVertex
 10
-152.8045549761843
 20
-87.93009135089567
 30
0.0
  0
VERTEX
  5
239
330
224
100
AcDbEntity
  8
STANDARDEBENE
 62
     7
100
AcDbVertex
100
AcDb2dVertex
 10
-152.5923369542939
 20
-87.91510517564853
 30
0.0
  0
SEQEND
  5
23A
330
224
100
AcDbEntity
  8
STANDARDEBENE
  0
POLYLINE
  5
23B
330
1F
100
AcDbEntity
  8
STANDARDEBENE
 62
     7
100
AcDb2dPolyline
 66
     1
 10
0.0
 20
0.0
 30
0.0
  0
VERTEX
  5
23C
330
23B
100
AcDbEntity
  8
STANDARDEBENE
 62
     7
100
AcDbVertex
100
AcDb2dVertex
 10
-144.0908692169718
 20
-98.41507412236416
 30
0.0
  0
VERTEX
  5
23D
330
23B
100
AcDbEntity
  8
STANDARDEBENE
 62
     7
100
AcDbVertex
100
AcDb2dVertex
 10
-144.220749402447
 20
-98.41507412236416
 30
0.0
  0
VERTEX
  5
23E
330
23B
100
AcDbEntity
  8
STANDARDEBENE
 62
     7
100
AcDbVertex
100
AcDb2dVertex
 10
-144.6038442731323
 20
-98.41507412236416
 30
0.0
  0
VERTEX
  5
23F
330
23B
100
AcDbEntity
  8
STANDARDEBENE
 62
     7
100
AcDbVertex
100
AcDb2dVertex
 10
-145.229818535754
 20
-98.41507412236416
 30
0.0
  0
VERTEX
  5
240
330
23B
100
AcDbEntity
  8
STANDARDEBENE
 62
     7
100
AcDbVertex
100
AcDb2dVertex
 10
-146.0804131721947
 20
-98.41507412236416
 30
0.0
  0
VERTEX
  5
241
330
23B
100
AcDbEntity
  8
STANDARDEBENE
 62
     7
100
AcDbVertex
100
AcDb2dVertex
 10
-147.1284119101666
 20
-98.41507412236416
 30
0.0
  0
VERTEX
  5
242
330
23B
100
AcDbEntity
  8
STANDARDEBENE
 62
     7
100
AcDbVertex
100
AcDb2dVertex
 10
-148.3421198502965
 20
-98.41507412236416
 30
0.0
  0
VERTEX
  5
243
330
23B
100
AcDbEntity
  8
STANDARDEBENE
 62
     7
100
AcDbVertex
100
AcDb2dVertex
 10
-148.4385825875195
 20
-98.41507412236416
 30
0.0
  0
VERTEX
  5
244
330
23B
100
AcDbEntity
  8
STANDARDEBENE
 62
     7
100
AcDbVertex
100
AcDb2dVertex
 10
-148.6039472799016
 20
-98.41507412236416
 30
0.0
  0
VERTEX
  5
245
330
23B
100
AcDbEntity
  8
STANDARDEBENE
 62
     7
100
AcDbVertex
100
AcDb2dVertex
 10
-148.7693119722838
 20
-98.41507412236416
 30
0.0
  0
VERTEX
  5
246
330
23B
100
AcDbEntity
  8
STANDARDEBENE
 62
     7
100
AcDbVertex
100
AcDb2dVertex
 10
-148.9140060781182
 20
-98.41507412236416
 30
0.0
  0
VERTEX
  5
247
330
23B
100
AcDbEntity
  8
STANDARDEBENE
 62
     7
100
AcDbVertex
100
AcDb2dVertex
 10
-148.9918652874481
 20
-98.41507412236416
 30
0.0
  0
SEQEND
  5
248
330
23B
100
AcDbEntity
  8
STANDARDEBENE
  0
POLYLINE
  5
249
330
1F
100
AcDbEntity
  8
STANDARDEBENE
 62
     7
100
AcDb2dPolyline
 66
     1
 10
0.0
 20
0.0
 30
0.0
  0
VERTEX
  5
24A
330
249
100
AcDbEntity
  8
STANDARDEBENE
 62
     7
100
AcDbVertex
100
AcDb2dVertex
 10
-143.0893792987324
 20
-87.91510517564853
 30
0.0
  0
VERTEX
  5
24B
330
249
100
AcDbEntity
  8
STANDARDEBENE
 62
     7
100
AcDbVertex
100
AcDb2dVertex
 10
-143.2065126225031
 20
-87.91510517564853
 30
0.0
  0
VERTEX
  5
24C
330
249
100
AcDbEntity
  8
STANDARDEBENE
 62
     7
100
AcDbVertex
100
AcDb2dVertex
 10
-143.5541229862814
 20
-87.91510517564853
 30
0.0
  0
VERTEX
  5
24D
330
249
100
AcDbEntity
  8
STANDARDEBENE
 62
     7
100
AcDbVertex
100
AcDb2dVertex
 10
-144.1253201945514
 20
-87.91510517564853
 30
0.0
  0
VERTEX
  5
24E
330
249
100
AcDbEntity
  8
STANDARDEBENE
 62
     7
100
AcDbVertex
100
AcDb2dVertex
 10
-144.9046013074024
 20
-87.91510517564853
 30
0.0
  0
VERTEX
  5
24F
330
249
100
AcDbEntity
  8
STANDARDEBENE
 62
     7
100
AcDbVertex
100
AcDb2dVertex
 10
-145.8730182871654
 20
-87.91510517564853
 30
0.0
  0
VERTEX
  5
250
330
249
100
AcDbEntity
  8
STANDARDEBENE
 62
     7
100
AcDbVertex
100
AcDb2dVertex
 10
-147.0067999593106
 20
-87.91510517564853
 30
0.0
  0
VERTEX
  5
251
330
249
100
AcDbEntity
  8
STANDARDEBENE
 62
     7
100
AcDbVertex
100
AcDb2dVertex
 10
-148.2783855417743
 20
-87.91510517564853
 30
0.0
  0
VERTEX
  5
252
330
249
100
AcDbEntity
  8
STANDARDEBENE
 62
     7
100
AcDbVertex
100
AcDb2dVertex
 10
-149.6557356254073
 20
-87.91510517564853
 30
0.0
  0
VERTEX
  5
253
330
249
100
AcDbEntity
  8
STANDARDEBENE
 62
     7
100
AcDbVertex
100
AcDb2dVertex
 10
-151.1057772717334
 20
-87.91510517564853
 30
0.0
  0
VERTEX
  5
254
330
249
100
AcDbEntity
  8
STANDARDEBENE
 62
     7
100
AcDbVertex
100
AcDb2dVertex
 10
-152.5923369542939
 20
-87.91510517564853
 30
0.0
  0
VERTEX
  5
255
330
249
100
AcDbEntity
  8
STANDARDEBENE
 62
     7
100
AcDbVertex
100
AcDb2dVertex
 10
-154.0785521270786
 20
-87.91510517564853
 30
0.0
  0
VERTEX
  5
256
330
249
100
AcDbEntity
  8
STANDARDEBENE
 62
     7
100
AcDbVertex
100
AcDb2dVertex
 10
-155.5285937734046
 20
-87.91510517564853
 30
0.0
  0
VERTEX
  5
257
330
249
100
AcDbEntity
  8
STANDARDEBENE
 62
     7
100
AcDbVertex
100
AcDb2dVertex
 10
-156.9073218961409
 20
-87.91510517564853
 30
0.0
  0
VERTEX
  5
258
330
249
100
AcDbEntity
  8
STANDARDEBENE
 62
     7
100
AcDbVertex
100
AcDb2dVertex
 10
-158.1775294395014
 20
-87.91510517564853
 30
0.0
  0
VERTEX
  5
259
330
249
100
AcDbEntity
  8
STANDARDEBENE
 62
     7
100
AcDbVertex
100
AcDb2dVertex
 10
-159.3126891507497
 20
-87.91510517564853
 30
0.0
  0
VERTEX
  5
25A
330
249
100
AcDbEntity
  8
STANDARDEBENE
 62
     7
100
AcDbVertex
100
AcDb2dVertex
 10
-160.2811061305128
 20
-87.91510517564853
 30
0.0
  0
VERTEX
  5
25B
330
249
100
AcDbEntity
  8
STANDARDEBENE
 62
     7
100
AcDbVertex
100
AcDb2dVertex
 10
-161.0596982238121
 20
-87.91510517564853
 30
0.0
  0
VERTEX
  5
25C
330
249
100
AcDbEntity
  8
STANDARDEBENE
 62
     7
100
AcDbVertex
100
AcDb2dVertex
 10
-161.6302064125306
 20
-87.91510517564853
 30
0.0
  0
VERTEX
  5
25D
330
249
100
AcDbEntity
  8
STANDARDEBENE
 62
     7
100
AcDbVertex
100
AcDb2dVertex
 10
-161.9785057958605
 20
-87.91510517564853
 30
0.0
  0
VERTEX
  5
25E
330
249
100
AcDbEntity
  8
STANDARDEBENE
 62
     7
100
AcDbVertex
100
AcDb2dVertex
 10
-162.0956391196312
 20
-87.91510517564853
 30
0.0
  0
SEQEND
  5
25F
330
249
100
AcDbEntity
  8
STANDARDEBENE
  0
POLYLINE
  5
260
330
1F
100
AcDbEntity
  8
STANDARDEBENE
 62
     7
100
AcDb2dPolyline
 66
     1
 10
0.0
 20
0.0
 30
0.0
  0
VERTEX
  5
261
330
260
100
AcDbEntity
  8
STANDARDEBENE
 62
     7
100
AcDbVertex
100
AcDb2dVertex
 10
-152.5923369542939
 20
-87.41453247141669
 30
0.0
  0
VERTEX
  5
262
330
260
100
AcDbEntity
  8
STANDARDEBENE
 62
     7
100
AcDbVertex
100
AcDb2dVertex
 10
-151.1057772717334
 20
-87.41453247141669
 30
0.0
  0
VERTEX
  5
263
330
260
100
AcDbEntity
  8
STANDARDEBENE
 62
     7
100
AcDbVertex
100
AcDb2dVertex
 10
-149.6557356254073
 20
-87.41453247141669
 30
0.0
  0
VERTEX
  5
264
330
260
100
AcDbEntity
  8
STANDARDEBENE
 62
     7
100
AcDbVertex
100
AcDb2dVertex
 10
-148.2783855417743
 20
-87.41453247141669
 30
0.0
  0
VERTEX
  5
265
330
260
100
AcDbEntity
  8
STANDARDEBENE
 62
     7
100
AcDbVertex
100
AcDb2dVertex
 10
-147.0067999593106
 20
-87.41453247141669
 30
0.0
  0
VERTEX
  5
266
330
260
100
AcDbEntity
  8
STANDARDEBENE
 62
     7
100
AcDbVertex
100
AcDb2dVertex
 10
-145.8730182871654
 20
-87.41453247141669
 30
0.0
  0
VERTEX
  5
267
330
260
100
AcDbEntity
  8
STANDARDEBENE
 62
     7
100
AcDbVertex
100
AcDb2dVertex
 10
-144.9046013074024
 20
-87.41453247141669
 30
0.0
  0
VERTEX
  5
268
330
260
100
AcDbEntity
  8
STANDARDEBENE
 62
     7
100
AcDbVertex
100
AcDb2dVertex
 10
-144.1253201945514
 20
-87.41453247141669
 30
0.0
  0
VERTEX
  5
269
330
260
100
AcDbEntity
  8
STANDARDEBENE
 62
     7
100
AcDbVertex
100
AcDb2dVertex
 10
-143.5541229862814
 20
-87.41453247141669
 30
0.0
  0
VERTEX
  5
26A
330
260
100
AcDbEntity
  8
STANDARDEBENE
 62
     7
100
AcDbVertex
100
AcDb2dVertex
 10
-143.2065126225031
 20
-87.41453247141669
 30
0.0
  0
VERTEX
  5
26B
330
260
100
AcDbEntity
  8
STANDARDEBENE
 62
     7
100
AcDbVertex
100
AcDb2dVertex
 10
-143.0893792987324
 20
-87.41453247141669
 30
0.0
  0
SEQEND
  5
26C
330
260
100
AcDbEntity
  8
STANDARDEBENE
  0
POLYLINE
  5
26D
330
1F
100
AcDbEntity
  8
STANDARDEBENE
 62
     7
100
AcDb2dPolyline
 66
     1
 10
0.0
 20
0.0
 30
0.0
  0
VERTEX
  5
26E
330
26D
100
AcDbEntity
  8
STANDARDEBENE
 62
     7
100
AcDbVertex
100
AcDb2dVertex
 10
-162.0956391196312
 20
-87.41453247141669
 30
0.0
  0
VERTEX
  5
26F
330
26D
100
AcDbEntity
  8
STANDARDEBENE
 62
     7
100
AcDbVertex
100
AcDb2dVertex
 10
-161.9785057958605
 20
-87.41453247141669
 30
0.0
  0
VERTEX
  5
270
330
26D
100
AcDbEntity
  8
STANDARDEBENE
 62
     7
100
AcDbVertex
100
AcDb2dVertex
 10
-161.6302064125306
 20
-87.41453247141669
 30
0.0
  0
VERTEX
  5
271
330
26D
100
AcDbEntity
  8
STANDARDEBENE
 62
     7
100
AcDbVertex
100
AcDb2dVertex
 10
-161.0596982238121
 20
-87.41453247141669
 30
0.0
  0
VERTEX
  5
272
330
26D
100
AcDbEntity
  8
STANDARDEBENE
 62
     7
100
AcDbVertex
100
AcDb2dVertex
 10
-160.2811061305128
 20
-87.41453247141669
 30
0.0
  0
VERTEX
  5
273
330
26D
100
AcDbEntity
  8
STANDARDEBENE
 62
     7
100
AcDbVertex
100
AcDb2dVertex
 10
-159.3126891507497
 20
-87.41453247141669
 30
0.0
  0
VERTEX
  5
274
330
26D
100
AcDbEntity
  8
STANDARDEBENE
 62
     7
100
AcDbVertex
100
AcDb2dVertex
 10
-158.1775294395014
 20
-87.41453247141669
 30
0.0
  0
VERTEX
  5
275
330
26D
100
AcDbEntity
  8
STANDARDEBENE
 62
     7
100
AcDbVertex
100
AcDb2dVertex
 10
-156.9073218961409
 20
-87.41453247141669
 30
0.0
  0
VERTEX
  5
276
330
26D
100
AcDbEntity
  8
STANDARDEBENE
 62
     7
100
AcDbVertex
100
AcDb2dVertex
 10
-155.5285937734046
 20
-87.41453247141669
 30
0.0
  0
VERTEX
  5
277
330
26D
100
AcDbEntity
  8
STANDARDEBENE
 62
     7
100
AcDbVertex
100
AcDb2dVertex
 10
-154.0785521270786
 20
-87.41453247141669
 30
0.0
  0
VERTEX
  5
278
330
26D
100
AcDbEntity
  8
STANDARDEBENE
 62
     7
100
AcDbVertex
100
AcDb2dVertex
 10
-152.5923369542939
 20
-87.41453247141669
 30
0.0
  0
SEQEND
  5
279
330
26D
100
AcDbEntity
  8
STANDARDEBENE
  0
POLYLINE
  5
27A
330
1F
100
AcDbEntity
  8
STANDARDEBENE
 62
     7
100
AcDb2dPolyline
 66
     1
 10
0.0
 20
0.0
 30
0.0
  0
VERTEX
  5
27B
330
27A
100
AcDbEntity
  8
STANDARDEBENE
 62
     7
100
AcDbVertex
100
AcDb2dVertex
 10
-157.0888785479855
 20
-97.17518343927375
 30
0.0
  0
VERTEX
  5
27C
330
27A
100
AcDbEntity
  8
STANDARDEBENE
 62
     7
100
AcDbVertex
100
AcDb2dVertex
 10
-157.0854334502275
 20
-97.1705325573005
 30
0.0
  0
VERTEX
  5
27D
330
27A
100
AcDbEntity
  8
STANDARDEBENE
 62
     7
100
AcDbVertex
100
AcDb2dVertex
 10
-156.9073218961409
 20
-96.99844992429031
 30
0.0
  0
VERTEX
  5
27E
330
27A
100
AcDbEntity
  8
STANDARDEBENE
 62
     7
100
AcDbVertex
100
AcDb2dVertex
 10
-156.7205975976594
 20
-96.83601356500243
 30
0.0
  0
VERTEX
  5
27F
330
27A
100
AcDbEntity
  8
STANDARDEBENE
 62
     7
100
AcDbVertex
100
AcDb2dVertex
 10
-156.1487113698377
 20
-96.49839398472218
 30
0.0
  0
VERTEX
  5
280
330
27A
100
AcDbEntity
  8
STANDARDEBENE
 62
     7
100
AcDbVertex
100
AcDb2dVertex
 10
-155.6929249364594
 20
-96.4153671287553
 30
0.0
  0
VERTEX
  5
281
330
27A
100
AcDbEntity
  8
STANDARDEBENE
 62
     7
100
AcDbVertex
100
AcDb2dVertex
 10
-154.1664021199066
 20
-96.4153671287553
 30
0.0
  0
VERTEX
  5
282
330
27A
100
AcDbEntity
  8
STANDARDEBENE
 62
     7
100
AcDbVertex
100
AcDb2dVertex
 10
-152.5923369542939
 20
-96.4153671287553
 30
0.0
  0
VERTEX
  5
283
330
27A
100
AcDbEntity
  8
STANDARDEBENE
 62
     7
100
AcDbVertex
100
AcDb2dVertex
 10
-151.0182717886812
 20
-96.4153671287553
 30
0.0
  0
VERTEX
  5
284
330
27A
100
AcDbEntity
  8
STANDARDEBENE
 62
     7
100
AcDbVertex
100
AcDb2dVertex
 10
-149.49243799168
 20
-96.4153671287553
 30
0.0
  0
VERTEX
  5
285
330
27A
100
AcDbEntity
  8
STANDARDEBENE
 62
     7
100
AcDbVertex
100
AcDb2dVertex
 10
-149.0356180289742
 20
-96.49839398472218
 30
0.0
  0
VERTEX
  5
286
330
27A
100
AcDbEntity
  8
STANDARDEBENE
 62
     7
100
AcDbVertex
100
AcDb2dVertex
 10
-148.4644208207042
 20
-96.83601356500243
 30
0.0
  0
VERTEX
  5
287
330
27A
100
AcDbEntity
  8
STANDARDEBENE
 62
     7
100
AcDbVertex
100
AcDb2dVertex
 10
-148.2776965222227
 20
-96.99844992429031
 30
0.0
  0
VERTEX
  5
288
330
27A
100
AcDbEntity
  8
STANDARDEBENE
 62
     7
100
AcDbVertex
100
AcDb2dVertex
 10
-148.0999294779118
 20
-97.1705325573005
 30
0.0
  0
VERTEX
  5
289
330
27A
100
AcDbEntity
  8
STANDARDEBENE
 62
     7
100
AcDbVertex
100
AcDb2dVertex
 10
-148.0954508508265
 20
-97.17518343927375
 30
0.0
  0
SEQEND
  5
28A
330
27A
100
AcDbEntity
  8
STANDARDEBENE
  0
POLYLINE
  5
28B
330
1F
100
AcDbEntity
  8
STANDARDEBENE
 62
     7
100
AcDb2dPolyline
 66
     1
 10
0.0
 20
0.0
 30
0.0
  0
VERTEX
  5
28C
330
28B
100
AcDbEntity
  8
STANDARDEBENE
 62
     7
100
AcDbVertex
100
AcDb2dVertex
 10
-156.8415205289638
 20
-98.41507412236416
 30
0.0
  0
VERTEX
  5
28D
330
28B
100
AcDbEntity
  8
STANDARDEBENE
 62
     7
100
AcDbVertex
100
AcDb2dVertex
 10
-158.0562619984211
 20
-98.41507412236416
 30
0.0
  0
VERTEX
  5
28E
330
28B
100
AcDbEntity
  8
STANDARDEBENE
 62
     7
100
AcDbVertex
100
AcDb2dVertex
 10
-159.1042607363931
 20
-98.41507412236416
 30
0.0
  0
VERTEX
  5
28F
330
28B
100
AcDbEntity
  8
STANDARDEBENE
 62
     7
100
AcDbVertex
100
AcDb2dVertex
 10
-159.9548553728338
 20
-98.41507412236416
 30
0.0
  0
VERTEX
  5
290
330
28B
100
AcDbEntity
  8
STANDARDEBENE
 62
     7
100
AcDbVertex
100
AcDb2dVertex
 10
-160.5804851256796
 20
-98.41507412236416
 30
0.0
  0
VERTEX
  5
291
330
28B
100
AcDbEntity
  8
STANDARDEBENE
 62
     7
100
AcDbVertex
100
AcDb2dVertex
 10
-160.9642690159166
 20
-98.41507412236416
 30
0.0
  0
VERTEX
  5
292
330
28B
100
AcDbEntity
  8
STANDARDEBENE
 62
     7
100
AcDbVertex
100
AcDb2dVertex
 10
-161.0934601818402
 20
-98.41507412236416
 30
0.0
  0
SEQEND
  5
293
330
28B
100
AcDbEntity
  8
STANDARDEBENE
  0
POLYLINE
  5
294
330
1F
100
AcDbEntity
  8
STANDARDEBENE
 62
     7
100
AcDb2dPolyline
 66
     1
 10
0.0
 20
0.0
 30
0.0
  0
VERTEX
  5
295
330
294
100
AcDbEntity
  8
STANDARDEBENE
 62
     7
100
AcDbVertex
100
AcDb2dVertex
 10
-156.192119601588
 20
-98.41507412236416
 30
0.0
  0
VERTEX
  5
296
330
294
100
AcDbEntity
  8
STANDARDEBENE
 62
     7
100
AcDbVertex
100
AcDb2dVertex
 10
-156.2258815596161
 20
-98.41507412236416
 30
0.0
  0
VERTEX
  5
297
330
294
100
AcDbEntity
  8
STANDARDEBENE
 62
     7
100
AcDbVertex
100
AcDb2dVertex
 10
-156.3574842939702
 20
-98.41507412236416
 30
0.0
  0
VERTEX
  5
298
330
294
100
AcDbEntity
  8
STANDARDEBENE
 62
     7
100
AcDbVertex
100
AcDb2dVertex
 10
-156.5169923201638
 20
-98.41507412236416
 30
0.0
  0
VERTEX
  5
299
330
294
100
AcDbEntity
  8
STANDARDEBENE
 62
     7
100
AcDbVertex
100
AcDb2dVertex
 10
-156.6851130907524
 20
-98.41507412236416
 30
0.0
  0
VERTEX
  5
29A
330
294
100
AcDbEntity
  8
STANDARDEBENE
 62
     7
100
AcDbVertex
100
AcDb2dVertex
 10
-156.8415205289638
 20
-98.41507412236416
 30
0.0
  0
SEQEND
  5
29B
330
294
100
AcDbEntity
  8
STANDARDEBENE
  0
POLYLINE
  5
29C
330
1F
100
AcDbEntity
  8
STANDARDEBENE
 62
     7
100
AcDb2dPolyline
 66
     1
 10
0.0
 20
0.0
 30
0.0
  0
VERTEX
  5
29D
330
29C
100
AcDbEntity
  8
STANDARDEBENE
 62
     7
100
AcDbVertex
100
AcDb2dVertex
 10
-152.5923369542939
 20
-75.41491247066034
 30
0.0
  0
VERTEX
  5
29E
330
29C
100
AcDbEntity
  8
STANDARDEBENE
 62
     7
100
AcDbVertex
100
AcDb2dVertex
 10
-151.0255064939729
 20
-75.41491247066034
 30
0.0
  0
VERTEX
  5
29F
330
29C
100
AcDbEntity
  8
STANDARDEBENE
 62
     7
100
AcDbVertex
100
AcDb2dVertex
 10
-149.4865813254914
 20
-75.41491247066034
 30
0.0
  0
VERTEX
  5
2A0
330
29C
100
AcDbEntity
  8
STANDARDEBENE
 62
     7
100
AcDbVertex
100
AcDb2dVertex
 10
-148.0003661527068
 20
-75.41491247066034
 30
0.0
  0
VERTEX
  5
2A1
330
29C
100
AcDbEntity
  8
STANDARDEBENE
 62
     7
100
AcDbVertex
100
AcDb2dVertex
 10
-146.592010189252
 20
-75.41491247066034
 30
0.0
  0
VERTEX
  5
2A2
330
29C
100
AcDbEntity
  8
STANDARDEBENE
 62
     7
100
AcDbVertex
100
AcDb2dVertex
 10
-145.2880406878635
 20
-75.41491247066034
 30
0.0
  0
VERTEX
  5
2A3
330
29C
100
AcDbEntity
  8
STANDARDEBENE
 62
     7
100
AcDbVertex
100
AcDb2dVertex
 10
-144.1067166666585
 20
-75.41491247066034
 30
0.0
  0
VERTEX
  5
2A4
330
29C
100
AcDbEntity
  8
STANDARDEBENE
 62
     7
100
AcDbVertex
100
AcDb2dVertex
 10
-143.0724983197183
 20
-75.41491247066034
 30
0.0
  0
VERTEX
  5
2A5
330
29C
100
AcDbEntity
  8
STANDARDEBENE
 62
     7
100
AcDbVertex
100
AcDb2dVertex
 10
-142.2005440771783
 20
-75.41491247066034
 30
0.0
  0
VERTEX
  5
2A6
330
29C
100
AcDbEntity
  8
STANDARDEBENE
 62
     7
100
AcDbVertex
100
AcDb2dVertex
 10
-141.5060123691732
 20
-75.41491247066034
 30
0.0
  0
VERTEX
  5
2A7
330
29C
100
AcDbEntity
  8
STANDARDEBENE
 62
     7
100
AcDbVertex
100
AcDb2dVertex
 10
-141.0016500574076
 20
-75.41491247066034
 30
0.0
  0
VERTEX
  5
2A8
330
29C
100
AcDbEntity
  8
STANDARDEBENE
 62
     7
100
AcDbVertex
100
AcDb2dVertex
 10
-140.6946918471732
 20
-75.41491247066034
 30
0.0
  0
VERTEX
  5
2A9
330
29C
100
AcDbEntity
  8
STANDARDEBENE
 62
     7
100
AcDbVertex
100
AcDb2dVertex
 10
-140.5920279339859
 20
-75.41491247066034
 30
0.0
  0
SEQEND
  5
2AA
330
29C
100
AcDbEntity
  8
STANDARDEBENE
  0
POLYLINE
  5
2AB
330
1F
100
AcDbEntity
  8
STANDARDEBENE
 62
     7
100
AcDb2dPolyline
 66
     1
 10
0.0
 20
0.0
 30
0.0
  0
VERTEX
  5
2AC
330
2AB
100
AcDbEntity
  8
STANDARDEBENE
 62
     7
100
AcDbVertex
100
AcDb2dVertex
 10
-164.592301464826
 20
-75.41491247066034
 30
0.0
  0
VERTEX
  5
2AD
330
2AB
100
AcDbEntity
  8
STANDARDEBENE
 62
     7
100
AcDbVertex
100
AcDb2dVertex
 10
-164.4903265711904
 20
-75.41491247066034
 30
0.0
  0
VERTEX
  5
2AE
330
2AB
100
AcDbEntity
  8
STANDARDEBENE
 62
     7
100
AcDbVertex
100
AcDb2dVertex
 10
-164.183368360956
 20
-75.41491247066034
 30
0.0
  0
VERTEX
  5
2AF
330
2AB
100
AcDbEntity
  8
STANDARDEBENE
 62
     7
100
AcDbVertex
100
AcDb2dVertex
 10
-163.6790060491904
 20
-75.41491247066034
 30
0.0
  0
VERTEX
  5
2B0
330
2AB
100
AcDbEntity
  8
STANDARDEBENE
 62
     7
100
AcDbVertex
100
AcDb2dVertex
 10
-162.9844743411853
 20
-75.41491247066034
 30
0.0
  0
VERTEX
  5
2B1
330
2AB
100
AcDbEntity
  8
STANDARDEBENE
 62
     7
100
AcDbVertex
100
AcDb2dVertex
 10
-162.1125200986452
 20
-75.41491247066034
 30
0.0
  0
VERTEX
  5
2B2
330
2AB
100
AcDbEntity
  8
STANDARDEBENE
 62
     7
100
AcDbVertex
100
AcDb2dVertex
 10
-161.0779572419293
 20
-75.41491247066034
 30
0.0
  0
VERTEX
  5
2B3
330
2AB
100
AcDbEntity
  8
STANDARDEBENE
 62
     7
100
AcDbVertex
100
AcDb2dVertex
 10
-159.8976667500517
 20
-75.41491247066034
 30
0.0
  0
VERTEX
  5
2B4
330
2AB
100
AcDbEntity
  8
STANDARDEBENE
 62
     7
100
AcDbVertex
100
AcDb2dVertex
 10
-158.5923192095599
 20
-75.41491247066034
 30
0.0
  0
VERTEX
  5
2B5
330
2AB
100
AcDbEntity
  8
STANDARDEBENE
 62
     7
100
AcDbVertex
100
AcDb2dVertex
 10
-157.1853412852084
 20
-75.41491247066034
 30
0.0
  0
VERTEX
  5
2B6
330
2AB
100
AcDbEntity
  8
STANDARDEBENE
 62
     7
100
AcDbVertex
100
AcDb2dVertex
 10
-155.6977480733206
 20
-75.41491247066034
 30
0.0
  0
VERTEX
  5
2B7
330
2AB
100
AcDbEntity
  8
STANDARDEBENE
 62
     7
100
AcDbVertex
100
AcDb2dVertex
 10
-154.1581338852875
 20
-75.41491247066034
 30
0.0
  0
VERTEX
  5
2B8
330
2AB
100
AcDbEntity
  8
STANDARDEBENE
 62
     7
100
AcDbVertex
100
AcDb2dVertex
 10
-152.5923369542939
 20
-75.41491247066034
 30
0.0
  0
SEQEND
  5
2B9
330
2AB
100
AcDbEntity
  8
STANDARDEBENE
  0
POLYLINE
  5
2BA
330
1F
100
AcDbEntity
  8
STANDARDEBENE
 62
     7
100
AcDb2dPolyline
 66
     1
 10
0.0
 20
0.0
 30
0.0
  0
VERTEX
  5
2BB
330
2BA
100
AcDbEntity
  8
STANDARDEBENE
 62
     7
100
AcDbVertex
100
AcDb2dVertex
 10
-152.5923369542939
 20
-84.9149417931276
 30
0.0
  0
VERTEX
  5
2BC
330
2BA
100
AcDbEntity
  8
STANDARDEBENE
 62
     7
100
AcDbVertex
100
AcDb2dVertex
 10
-150.9603941463474
 20
-84.9149417931276
 30
0.0
  0
VERTEX
  5
2BD
330
2BA
100
AcDbEntity
  8
STANDARDEBENE
 62
     7
100
AcDbVertex
100
AcDb2dVertex
 10
-149.3570456497921
 20
-84.9149417931276
 30
0.0
  0
VERTEX
  5
2BE
330
2BA
100
AcDbEntity
  8
STANDARDEBENE
 62
     7
100
AcDbVertex
100
AcDb2dVertex
 10
-147.8091632271399
 20
-84.9149417931276
 30
0.0
  0
VERTEX
  5
2BF
330
2BA
100
AcDbEntity
  8
STANDARDEBENE
 62
     7
100
AcDbVertex
100
AcDb2dVertex
 10
-146.3429296213514
 20
-84.9149417931276
 30
0.0
  0
VERTEX
  5
2C0
330
2BA
100
AcDbEntity
  8
STANDARDEBENE
 62
     7
100
AcDbVertex
100
AcDb2dVertex
 10
-144.9828050265081
 20
-84.9149417931276
 30
0.0
  0
VERTEX
  5
2C1
330
2BA
100
AcDbEntity
  8
STANDARDEBENE
 62
     7
100
AcDbVertex
100
AcDb2dVertex
 10
-143.7532496366916
 20
-84.9149417931276
 30
0.0
  0
VERTEX
  5
2C2
330
2BA
100
AcDbEntity
  8
STANDARDEBENE
 62
     7
100
AcDbVertex
100
AcDb2dVertex
 10
-142.6752785482254
 20
-84.9149417931276
 30
0.0
  0
VERTEX
  5
2C3
330
2BA
100
AcDbEntity
  8
STANDARDEBENE
 62
     7
100
AcDbVertex
100
AcDb2dVertex
 10
-141.7664617596751
 20
-84.9149417931276
 30
0.0
  0
VERTEX
  5
2C4
330
2BA
100
AcDbEntity
  8
STANDARDEBENE
 62
     7
100
AcDbVertex
100
AcDb2dVertex
 10
-141.0436802500547
 20
-84.9149417931276
 30
0.0
  0
VERTEX
  5
2C5
330
2BA
100
AcDbEntity
  8
STANDARDEBENE
 62
     7
100
AcDbVertex
100
AcDb2dVertex
 10
-140.5179583321897
 20
-84.9149417931276
 30
0.0
  0
VERTEX
  5
2C6
330
2BA
100
AcDbEntity
  8
STANDARDEBENE
 62
     7
100
AcDbVertex
100
AcDb2dVertex
 10
-140.1992867895783
 20
-84.9149417931276
 30
0.0
  0
VERTEX
  5
2C7
330
2BA
100
AcDbEntity
  8
STANDARDEBENE
 62
     7
100
AcDbVertex
100
AcDb2dVertex
 10
-140.0921442493057
 20
-84.9149417931276
 30
0.0
  0
SEQEND
  5
2C8
330
2BA
100
AcDbEntity
  8
STANDARDEBENE
  0
POLYLINE
  5
2C9
330
1F
100
AcDbEntity
  8
STANDARDEBENE
 62
     7
100
AcDb2dPolyline
 66
     1
 10
0.0
 20
0.0
 30
0.0
  0
VERTEX
  5
2CA
330
2C9
100
AcDbEntity
  8
STANDARDEBENE
 62
     7
100
AcDbVertex
100
AcDb2dVertex
 10
-165.0921851495063
 20
-84.9149417931276
 30
0.0
  0
VERTEX
  5
2CB
330
2C9
100
AcDbEntity
  8
STANDARDEBENE
 62
     7
100
AcDbVertex
100
AcDb2dVertex
 10
-164.9850426092337
 20
-84.9149417931276
 30
0.0
  0
VERTEX
  5
2CC
330
2C9
100
AcDbEntity
  8
STANDARDEBENE
 62
     7
100
AcDbVertex
100
AcDb2dVertex
 10
-164.6663710666222
 20
-84.9149417931276
 30
0.0
  0
VERTEX
  5
2CD
330
2C9
100
AcDbEntity
  8
STANDARDEBENE
 62
     7
100
AcDbVertex
100
AcDb2dVertex
 10
-164.1406491487573
 20
-84.9149417931276
 30
0.0
  0
VERTEX
  5
2CE
330
2C9
100
AcDbEntity
  8
STANDARDEBENE
 62
     7
100
AcDbVertex
100
AcDb2dVertex
 10
-163.4178676391369
 20
-84.9149417931276
 30
0.0
  0
VERTEX
  5
2CF
330
2C9
100
AcDbEntity
  8
STANDARDEBENE
 62
     7
100
AcDbVertex
100
AcDb2dVertex
 10
-162.5097398701382
 20
-84.9149417931276
 30
0.0
  0
VERTEX
  5
2D0
330
2C9
100
AcDbEntity
  8
STANDARDEBENE
 62
     7
100
AcDbVertex
100
AcDb2dVertex
 10
-161.4310797621204
 20
-84.9149417931276
 30
0.0
  0
VERTEX
  5
2D1
330
2C9
100
AcDbEntity
  8
STANDARDEBENE
 62
     7
100
AcDbVertex
100
AcDb2dVertex
 10
-160.2015243723039
 20
-84.9149417931276
 30
0.0
  0
VERTEX
  5
2D2
330
2C9
100
AcDbEntity
  8
STANDARDEBENE
 62
     7
100
AcDbVertex
100
AcDb2dVertex
 10
-158.8427778165638
 20
-84.9149417931276
 30
0.0
  0
VERTEX
  5
2D3
330
2C9
100
AcDbEntity
  8
STANDARDEBENE
 62
     7
100
AcDbVertex
100
AcDb2dVertex
 10
-157.3758551912237
 20
-84.9149417931276
 30
0.0
  0
VERTEX
  5
2D4
330
2C9
100
AcDbEntity
  8
STANDARDEBENE
 62
     7
100
AcDbVertex
100
AcDb2dVertex
 10
-155.8276282587957
 20
-84.9149417931276
 30
0.0
  0
VERTEX
  5
2D5
330
2C9
100
AcDbEntity
  8
STANDARDEBENE
 62
     7
100
AcDbVertex
100
AcDb2dVertex
 10
-154.2246242720161
 20
-84.9149417931276
 30
0.0
  0
VERTEX
  5
2D6
330
2C9
100
AcDbEntity
  8
STANDARDEBENE
 62
     7
100
AcDbVertex
100
AcDb2dVertex
 10
-152.5923369542939
 20
-84.9149417931276
 30
0.0
  0
SEQEND
  5
2D7
330
2C9
100
AcDbEntity
  8
STANDARDEBENE
  0
POLYLINE
  5
2D8
330
1F
100
AcDbEntity
  8
STANDARDEBENE
 62
     7
100
AcDb2dPolyline
 66
     1
 10
0.0
 20
0.0
 30
0.0
  0
VERTEX
  5
2D9
330
2D8
100
AcDbEntity
  8
STANDARDEBENE
 62
     7
100
AcDbVertex
100
AcDb2dVertex
 10
-140.0921442493057
 20
-75.91514066511638
 30
0.0
  0
VERTEX
  5
2DA
330
2D8
100
AcDbEntity
  8
STANDARDEBENE
 62
     7
100
AcDbVertex
100
AcDb2dVertex
 10
-140.1992867895783
 20
-75.91514066511638
 30
0.0
  0
VERTEX
  5
2DB
330
2D8
100
AcDbEntity
  8
STANDARDEBENE
 62
     7
100
AcDbVertex
100
AcDb2dVertex
 10
-140.5179583321897
 20
-75.91514066511638
 30
0.0
  0
VERTEX
  5
2DC
330
2D8
100
AcDbEntity
  8
STANDARDEBENE
 62
     7
100
AcDbVertex
100
AcDb2dVertex
 10
-141.0436802500547
 20
-75.91514066511638
 30
0.0
  0
VERTEX
  5
2DD
330
2D8
100
AcDbEntity
  8
STANDARDEBENE
 62
     7
100
AcDbVertex
100
AcDb2dVertex
 10
-141.7664617596751
 20
-75.91514066511638
 30
0.0
  0
VERTEX
  5
2DE
330
2D8
100
AcDbEntity
  8
STANDARDEBENE
 62
     7
100
AcDbVertex
100
AcDb2dVertex
 10
-142.6752785482254
 20
-75.91514066511638
 30
0.0
  0
VERTEX
  5
2DF
330
2D8
100
AcDbEntity
  8
STANDARDEBENE
 62
     7
100
AcDbVertex
100
AcDb2dVertex
 10
-143.7532496366916
 20
-75.91514066511638
 30
0.0
  0
VERTEX
  5
2E0
330
2D8
100
AcDbEntity
  8
STANDARDEBENE
 62
     7
100
AcDbVertex
100
AcDb2dVertex
 10
-144.9828050265081
 20
-75.91514066511638
 30
0.0
  0
VERTEX
  5
2E1
330
2D8
100
AcDbEntity
  8
STANDARDEBENE
 62
     7
100
AcDbVertex
100
AcDb2dVertex
 10
-146.3429296213514
 20
-75.91514066511638
 30
0.0
  0
VERTEX
  5
2E2
330
2D8
100
AcDbEntity
  8
STANDARDEBENE
 62
     7
100
AcDbVertex
100
AcDb2dVertex
 10
-147.8091632271399
 20
-75.91514066511638
 30
0.0
  0
VERTEX
  5
2E3
330
2D8
100
AcDbEntity
  8
STANDARDEBENE
 62
     7
100
AcDbVertex
100
AcDb2dVertex
 10
-149.3570456497921
 20
-75.91514066511638
 30
0.0
  0
VERTEX
  5
2E4
330
2D8
100
AcDbEntity
  8
STANDARDEBENE
 62
     7
100
AcDbVertex
100
AcDb2dVertex
 10
-150.9603941463474
 20
-75.91514066511638
 30
0.0
  0
VERTEX
  5
2E5
330
2D8
100
AcDbEntity
  8
STANDARDEBENE
 62
     7
100
AcDbVertex
100
AcDb2dVertex
 10
-152.5923369542939
 20
-75.91514066511638
 30
0.0
  0
VERTEX
  5
2E6
330
2D8
100
AcDbEntity
  8
STANDARDEBENE
 62
     7
100
AcDbVertex
100
AcDb2dVertex
 10
-154.2246242720161
 20
-75.91514066511638
 30
0.0
  0
VERTEX
  5
2E7
330
2D8
100
AcDbEntity
  8
STANDARDEBENE
 62
     7
100
AcDbVertex
100
AcDb2dVertex
 10
-155.8276282587957
 20
-75.91514066511638
 30
0.0
  0
VERTEX
  5
2E8
330
2D8
100
AcDbEntity
  8
STANDARDEBENE
 62
     7
100
AcDbVertex
100
AcDb2dVertex
 10
-157.3758551912237
 20
-75.91514066511638
 30
0.0
  0
VERTEX
  5
2E9
330
2D8
100
AcDbEntity
  8
STANDARDEBENE
 62
     7
100
AcDbVertex
100
AcDb2dVertex
 10
-158.8427778165638
 20
-75.91514066511638
 30
0.0
  0
VERTEX
  5
2EA
330
2D8
100
AcDbEntity
  8
STANDARDEBENE
 62
     7
100
AcDbVertex
100
AcDb2dVertex
 10
-160.2015243723039
 20
-75.91514066511638
 30
0.0
  0
VERTEX
  5
2EB
330
2D8
100
AcDbEntity
  8
STANDARDEBENE
 62
     7
100
AcDbVertex
100
AcDb2dVertex
 10
-161.4310797621204
 20
-75.91514066511638
 30
0.0
  0
VERTEX
  5
2EC
330
2D8
100
AcDbEntity
  8
STANDARDEBENE
 62
     7
100
AcDbVertex
100
AcDb2dVertex
 10
-162.5097398701382
 20
-75.91514066511638
 30
0.0
  0
VERTEX
  5
2ED
330
2D8
100
AcDbEntity
  8
STANDARDEBENE
 62
     7
100
AcDbVertex
100
AcDb2dVertex
 10
-163.4178676391369
 20
-75.91514066511638
 30
0.0
  0
VERTEX
  5
2EE
330
2D8
100
AcDbEntity
  8
STANDARDEBENE
 62
     7
100
AcDbVertex
100
AcDb2dVertex
 10
-164.1406491487573
 20
-75.91514066511638
 30
0.0
  0
VERTEX
  5
2EF
330
2D8
100
AcDbEntity
  8
STANDARDEBENE
 62
     7
100
AcDbVertex
100
AcDb2dVertex
 10
-164.6663710666222
 20
-75.91514066511638
 30
0.0
  0
VERTEX
  5
2F0
330
2D8
100
AcDbEntity
  8
STANDARDEBENE
 62
     7
100
AcDbVertex
100
AcDb2dVertex
 10
-164.9850426092337
 20
-75.91514066511638
 30
0.0
  0
VERTEX
  5
2F1
330
2D8
100
AcDbEntity
  8
STANDARDEBENE
 62
     7
100
AcDbVertex
100
AcDb2dVertex
 10
-165.0921851495063
 20
-75.91514066511638
 30
0.0
  0
SEQEND
  5
2F2
330
2D8
100
AcDbEntity
  8
STANDARDEBENE
  0
POLYLINE
  5
2F3
330
1F
100
AcDbEntity
  8
STANDARDEBENE
 62
     7
100
AcDb2dPolyline
 66
     1
 10
0.0
 20
0.0
 30
0.0
  0
VERTEX
  5
2F4
330
2F3
100
AcDbEntity
  8
STANDARDEBENE
 62
     7
100
AcDbVertex
100
AcDb2dVertex
 10
-140.5920279339859
 20
-85.41482547780784
 30
0.0
  0
VERTEX
  5
2F5
330
2F3
100
AcDbEntity
  8
STANDARDEBENE
 62
     7
100
AcDbVertex
100
AcDb2dVertex
 10
-140.6946918471732
 20
-85.41482547780784
 30
0.0
  0
VERTEX
  5
2F6
330
2F3
100
AcDbEntity
  8
STANDARDEBENE
 62
     7
100
AcDbVertex
100
AcDb2dVertex
 10
-141.0016500574076
 20
-85.41482547780784
 30
0.0
  0
VERTEX
  5
2F7
330
2F3
100
AcDbEntity
  8
STANDARDEBENE
 62
     7
100
AcDbVertex
100
AcDb2dVertex
 10
-141.5060123691732
 20
-85.41482547780784
 30
0.0
  0
VERTEX
  5
2F8
330
2F3
100
AcDbEntity
  8
STANDARDEBENE
 62
     7
100
AcDbVertex
100
AcDb2dVertex
 10
-142.2005440771783
 20
-85.41482547780784
 30
0.0
  0
VERTEX
  5
2F9
330
2F3
100
AcDbEntity
  8
STANDARDEBENE
 62
     7
100
AcDbVertex
100
AcDb2dVertex
 10
-143.0724983197183
 20
-85.41482547780784
 30
0.0
  0
VERTEX
  5
2FA
330
2F3
100
AcDbEntity
  8
STANDARDEBENE
 62
     7
100
AcDbVertex
100
AcDb2dVertex
 10
-144.1067166666585
 20
-85.41482547780784
 30
0.0
  0
VERTEX
  5
2FB
330
2F3
100
AcDbEntity
  8
STANDARDEBENE
 62
     7
100
AcDbVertex
100
AcDb2dVertex
 10
-145.2880406878635
 20
-85.41482547780784
 30
0.0
  0
VERTEX
  5
2FC
330
2F3
100
AcDbEntity
  8
STANDARDEBENE
 62
     7
100
AcDbVertex
100
AcDb2dVertex
 10
-146.592010189252
 20
-85.41482547780784
 30
0.0
  0
VERTEX
  5
2FD
330
2F3
100
AcDbEntity
  8
STANDARDEBENE
 62
     7
100
AcDbVertex
100
AcDb2dVertex
 10
-148.0003661527068
 20
-85.41482547780784
 30
0.0
  0
VERTEX
  5
2FE
330
2F3
100
AcDbEntity
  8
STANDARDEBENE
 62
     7
100
AcDbVertex
100
AcDb2dVertex
 10
-149.4865813254914
 20
-85.41482547780784
 30
0.0
  0
VERTEX
  5
2FF
330
2F3
100
AcDbEntity
  8
STANDARDEBENE
 62
     7
100
AcDbVertex
100
AcDb2dVertex
 10
-151.0255064939729
 20
-85.41482547780784
 30
0.0
  0
VERTEX
  5
300
330
2F3
100
AcDbEntity
  8
STANDARDEBENE
 62
     7
100
AcDbVertex
100
AcDb2dVertex
 10
-152.5923369542939
 20
-85.41482547780784
 30
0.0
  0
VERTEX
  5
301
330
2F3
100
AcDbEntity
  8
STANDARDEBENE
 62
     7
100
AcDbVertex
100
AcDb2dVertex
 10
-154.1581338852875
 20
-85.41482547780784
 30
0.0
  0
VERTEX
  5
302
330
2F3
100
AcDbEntity
  8
STANDARDEBENE
 62
     7
100
AcDbVertex
100
AcDb2dVertex
 10
-155.6977480733206
 20
-85.41482547780784
 30
0.0
  0
VERTEX
  5
303
330
2F3
100
AcDbEntity
  8
STANDARDEBENE
 62
     7
100
AcDbVertex
100
AcDb2dVertex
 10
-157.1853412852084
 20
-85.41482547780784
 30
0.0
  0
VERTEX
  5
304
330
2F3
100
AcDbEntity
  8
STANDARDEBENE
 62
     7
100
AcDbVertex
100
AcDb2dVertex
 10
-158.5923192095599
 20
-85.41482547780784
 30
0.0
  0
VERTEX
  5
305
330
2F3
100
AcDbEntity
  8
STANDARDEBENE
 62
     7
100
AcDbVertex
100
AcDb2dVertex
 10
-159.8976667500517
 20
-85.41482547780784
 30
0.0
  0
VERTEX
  5
306
330
2F3
100
AcDbEntity
  8
STANDARDEBENE
 62
     7
100
AcDbVertex
100
AcDb2dVertex
 10
-161.0779572419293
 20
-85.41482547780784
 30
0.0
  0
VERTEX
  5
307
330
2F3
100
AcDbEntity
  8
STANDARDEBENE
 62
     7
100
AcDbVertex
100
AcDb2dVertex
 10
-162.1125200986452
 20
-85.41482547780784
 30
0.0
  0
VERTEX
  5
308
330
2F3
100
AcDbEntity
  8
STANDARDEBENE
 62
     7
100
AcDbVertex
100
AcDb2dVertex
 10
-162.9844743411853
 20
-85.41482547780784
 30
0.0
  0
VERTEX
  5
309
330
2F3
100
AcDbEntity
  8
STANDARDEBENE
 62
     7
100
AcDbVertex
100
AcDb2dVertex
 10
-163.6790060491904
 20
-85.41482547780784
 30
0.0
  0
VERTEX
  5
30A
330
2F3
100
AcDbEntity
  8
STANDARDEBENE
 62
     7
100
AcDbVertex
100
AcDb2dVertex
 10
-164.183368360956
 20
-85.41482547780784
 30
0.0
  0
VERTEX
  5
30B
330
2F3
100
AcDbEntity
  8
STANDARDEBENE
 62
     7
100
AcDbVertex
100
AcDb2dVertex
 10
-164.4903265711904
 20
-85.41482547780784
 30
0.0
  0
VERTEX
  5
30C
330
2F3
100
AcDbEntity
  8
STANDARDEBENE
 62
     7
100
AcDbVertex
100
AcDb2dVertex
 10
-164.592301464826
 20
-85.41482547780784
 30
0.0
  0
SEQEND
  5
30D
330
2F3
100
AcDbEntity
  8
STANDARDEBENE
  0
POLYLINE
  5
30E
330
1F
100
AcDbEntity
  8
STANDARDEBENE
 62
     7
100
AcDb2dPolyline
 66
     1
 10
0.0
 20
0.0
 30
0.0
  0
VERTEX
  5
30F
330
30E
100
AcDbEntity
  8
STANDARDEBENE
 62
     7
100
AcDbVertex
100
AcDb2dVertex
 10
-149.5923458266608
 20
-97.81493809292724
 30
0.0
  0
VERTEX
  5
310
330
30E
100
AcDbEntity
  8
STANDARDEBENE
 62
     7
100
AcDbVertex
100
AcDb2dVertex
 10
-149.5923458266608
 20
-97.21531882815401
 30
0.0
  0
SEQEND
  5
311
330
30E
100
AcDbEntity
  8
STANDARDEBENE
  0
POLYLINE
  5
312
330
1F
100
AcDbEntity
  8
STANDARDEBENE
 62
     7
100
AcDb2dPolyline
 66
     1
 10
0.0
 20
0.0
 30
0.0
  0
VERTEX
  5
313
330
312
100
AcDbEntity
  8
STANDARDEBENE
 62
     7
100
AcDbVertex
100
AcDb2dVertex
 10
-155.5926725917027
 20
-97.21531882815401
 30
0.0
  0
VERTEX
  5
314
330
312
100
AcDbEntity
  8
STANDARDEBENE
 62
     7
100
AcDbVertex
100
AcDb2dVertex
 10
-155.5926725917027
 20
-97.81493809292724
 30
0.0
  0
VERTEX
  5
315
330
312
100
AcDbEntity
  8
STANDARDEBENE
 62
     7
100
AcDbVertex
100
AcDb2dVertex
 10
-155.6250565106276
 20
-97.84852779606737
 30
0.0
  0
VERTEX
  5
316
330
312
100
AcDbEntity
  8
STANDARDEBENE
 62
     7
100
AcDbVertex
100
AcDb2dVertex
 10
-155.7053272883881
 20
-97.92845406405208
 30
0.0
  0
VERTEX
  5
317
330
312
100
AcDbEntity
  8
STANDARDEBENE
 62
     7
100
AcDbVertex
100
AcDb2dVertex
 10
-155.8011010060594
 20
-98.02353876217182
 30
0.0
  0
VERTEX
  5
318
330
312
100
AcDbEntity
  8
STANDARDEBENE
 62
     7
100
AcDbVertex
100
AcDb2dVertex
 10
-155.9003198214887
 20
-98.12258532271322
 30
0.0
  0
VERTEX
  5
319
330
312
100
AcDbEntity
  8
STANDARDEBENE
 62
     7
100
AcDbVertex
100
AcDb2dVertex
 10
-155.9878253045409
 20
-98.21026306065335
 30
0.0
  0
VERTEX
  5
31A
330
312
100
AcDbEntity
  8
STANDARDEBENE
 62
     7
100
AcDbVertex
100
AcDb2dVertex
 10
-156.0605168672339
 20
-98.28295462334634
 30
0.0
  0
VERTEX
  5
31B
330
312
100
AcDbEntity
  8
STANDARDEBENE
 62
     7
100
AcDbVertex
100
AcDb2dVertex
 10
-156.1225286268772
 20
-98.34548314765334
 30
0.0
  0
VERTEX
  5
31C
330
312
100
AcDbEntity
  8
STANDARDEBENE
 62
     7
100
AcDbVertex
100
AcDb2dVertex
 10
-156.1624917608696
 20
-98.384929516982
 30
0.0
  0
VERTEX
  5
31D
330
312
100
AcDbEntity
  8
STANDARDEBENE
 62
     7
100
AcDbVertex
100
AcDb2dVertex
 10
-156.1883299940543
 20
-98.41007873061513
 30
0.0
  0
VERTEX
  5
31E
330
312
100
AcDbEntity
  8
STANDARDEBENE
 62
     7
100
AcDbVertex
100
AcDb2dVertex
 10
-156.192119601588
 20
-98.41507412236416
 30
0.0
  0
SEQEND
  5
31F
330
312
100
AcDbEntity
  8
STANDARDEBENE
  0
POLYLINE
  5
320
330
1F
100
AcDbEntity
  8
STANDARDEBENE
 62
     7
100
AcDb2dPolyline
 66
     1
 10
0.0
 20
0.0
 30
0.0
  0
VERTEX
  5
321
330
320
100
AcDbEntity
  8
STANDARDEBENE
 62
     7
100
AcDbVertex
100
AcDb2dVertex
 10
-149.4786576006481
 20
-97.92845406405208
 30
0.0
  0
VERTEX
  5
322
330
320
100
AcDbEntity
  8
STANDARDEBENE
 62
     7
100
AcDbVertex
100
AcDb2dVertex
 10
-149.4858923059398
 20
-97.92173612342405
 30
0.0
  0
VERTEX
  5
323
330
320
100
AcDbEntity
  8
STANDARDEBENE
 62
     7
100
AcDbVertex
100
AcDb2dVertex
 10
-149.5699526912341
 20
-97.83784799301769
 30
0.0
  0
VERTEX
  5
324
330
320
100
AcDbEntity
  8
STANDARDEBENE
 62
     7
100
AcDbVertex
100
AcDb2dVertex
 10
-149.5923458266608
 20
-97.81493809292724
 30
0.0
  0
SEQEND
  5
325
330
320
100
AcDbEntity
  8
STANDARDEBENE
  0
POLYLINE
  5
326
330
1F
100
AcDbEntity
  8
STANDARDEBENE
 62
     7
100
AcDb2dPolyline
 66
     1
 10
0.0
 20
0.0
 30
0.0
  0
VERTEX
  5
327
330
326
100
AcDbEntity
  8
STANDARDEBENE
 62
     7
100
AcDbVertex
100
AcDb2dVertex
 10
-148.9918652874481
 20
-98.41507412236416
 30
0.0
  0
VERTEX
  5
328
330
326
100
AcDbEntity
  8
STANDARDEBENE
 62
     7
100
AcDbVertex
100
AcDb2dVertex
 10
-149.0035786198252
 20
-98.40404980953869
 30
0.0
  0
VERTEX
  5
329
330
326
100
AcDbEntity
  8
STANDARDEBENE
 62
     7
100
AcDbVertex
100
AcDb2dVertex
 10
-149.0338954800953
 20
-98.37407745904443
 30
0.0
  0
VERTEX
  5
32A
330
326
100
AcDbEntity
  8
STANDARDEBENE
 62
     7
100
AcDbVertex
100
AcDb2dVertex
 10
-149.0862609660163
 20
-98.32136746334761
 30
0.0
  0
VERTEX
  5
32B
330
326
100
AcDbEntity
  8
STANDARDEBENE
 62
     7
100
AcDbVertex
100
AcDb2dVertex
 10
-149.1465501767806
 20
-98.26090599769537
 30
0.0
  0
VERTEX
  5
32C
330
326
100
AcDbEntity
  8
STANDARDEBENE
 62
     7
100
AcDbVertex
100
AcDb2dVertex
 10
-149.2140740928367
 20
-98.19303757186354
 30
0.0
  0
VERTEX
  5
32D
330
326
100
AcDbEntity
  8
STANDARDEBENE
 62
     7
100
AcDbVertex
100
AcDb2dVertex
 10
-149.2919333021666
 20
-98.1150061076457
 30
0.0
  0
VERTEX
  5
32E
330
326
100
AcDbEntity
  8
STANDARDEBENE
 62
     7
100
AcDbVertex
100
AcDb2dVertex
 10
-149.3756491776851
 20
-98.03180699679093
 30
0.0
  0
VERTEX
  5
32F
330
326
100
AcDbEntity
  8
STANDARDEBENE
 62
     7
100
AcDbVertex
100
AcDb2dVertex
 10
-149.4597095629793
 20
-97.94774661149667
 30
0.0
  0
VERTEX
  5
330
330
326
100
AcDbEntity
  8
STANDARDEBENE
 62
     7
100
AcDbVertex
100
AcDb2dVertex
 10
-149.4786576006481
 20
-97.92845406405208
 30
0.0
  0
SEQEND
  5
331
330
326
100
AcDbEntity
  8
STANDARDEBENE
  0
SPLINE
  5
332
330
1F
100
AcDbEntity
  8
STANDARDEBENE
 62
     7
100
AcDbSpline
210
0.0
220
0.0
230
1.0
 70
     8
 71
     3
 72
     8
 73
     4
 74
     0
 42
0.0000000001
 43
0.0000000001
 40
0.0
 40
0.0
 40
0.0
 40
0.0
 40
1.0
 40
1.0
 40
1.0
 40
1.0
 10
-149.5923458266608
 20
-97.21531882815401
 30
0.0
 10
-149.5923458266608
 20
-96.77296827603173
 30
0.0
 10
-149.9502914837131
 20
-96.4153671287553
 30
0.0
 10
-150.3922975260595
 20
-96.4153671287553
 30
0.0
  0
SPLINE
  5
333
330
1F
100
AcDbEntity
  8
STANDARDEBENE
 62
     7
100
AcDbSpline
210
0.0
220
0.0
230
1.0
 70
     8
 71
     3
 72
     8
 73
     4
 74
     0
 42
0.0000000001
 43
0.0000000001
 40
0.0
 40
0.0
 40
0.0
 40
0.0
 40
1.0
 40
1.0
 40
1.0
 40
1.0
 10
-154.792720892304
 20
-96.4153671287553
 30
0.0
 10
-155.2343824248747
 20
-96.4153671287553
 30
0.0
 10
-155.5926725917027
 20
-96.77296827603173
 30
0.0
 10
-155.5926725917027
 20
-97.21531882815401
 30
0.0
  0
SPLINE
  5
334
330
1F
100
AcDbEntity
  8
STANDARDEBENE
 62
     7
100
AcDbSpline
210
0.0
220
0.0
230
1.0
 70
    11
 71
     3
 72
    17
 73
    13
 74
     0
 42
0.0000000001
 43
0.0000000001
 40
0.0
 40
0.0
 40
0.0
 40
0.0
 40
1.0
 40
1.0
 40
1.0
 40
2.0
 40
2.0
 40
2.0
 40
3.0
 40
3.0
 40
3.0
 40
4.0
 40
4.0
 40
4.0
 40
4.0
 10
-205.2758053983714
 20
-141.4949880563477
 30
0.0
 10
-205.2758053983714
 20
-134.8683425189084
 30
0.0
 10
-210.6489521165764
 20
-129.4957125653671
 30
0.0
 10
-217.2761144186794
 20
-129.4957125653671
 30
0.0
 10
-223.9034489756703
 20
-129.4957125653671
 30
0.0
 10
-229.2762511840994
 20
-134.8683425189084
 30
0.0
 10
-229.2762511840994
 20
-141.4949880563477
 30
0.0
 10
-229.2762511840994
 20
-148.1226671231144
 30
0.0
 10
-223.9034489756703
 20
-153.4959860962072
 30
0.0
 10
-217.2761144186794
 20
-153.4959860962072
 30
0.0
 10
-210.6489521165764
 20
-153.4959860962072
 30
0.0
 10
-205.2758053983714
 20
-148.1226671231144
 30
0.0
 10
-205.2758053983714
 20
-141.4949880563477
 30
0.0
  0
SPLINE
  5
335
330
1F
100
AcDbEntity
  8
STANDARDEBENE
 62
     7
100
AcDbSpline
210
0.0
220
0.0
230
1.0
 70
    11
 71
     3
 72
    17
 73
    13
 74
     0
 42
0.0000000001
 43
0.0000000001
 40
0.0
 40
0.0
 40
0.0
 40
0.0
 40
1.0
 40
1.0
 40
1.0
 40
2.0
 40
2.0
 40
2.0
 40
3.0
 40
3.0
 40
3.0
 40
4.0
 40
4.0
 40
4.0
 40
4.0
 10
-204.7760939685791
 20
-141.4949880563477
 30
0.0
 10
-204.7760939685791
 20
-134.5923901884956
 30
0.0
 10
-210.3724830214999
 20
-128.9954843709111
 30
0.0
 10
-217.2761144186794
 20
-128.9954843709111
 30
0.0
 10
-224.1797458158588
 20
-128.9954843709111
 30
0.0
 10
-229.7757903590038
 20
-134.5923901884956
 30
0.0
 10
-229.7757903590038
 20
-141.4949880563477
 30
0.0
 10
-229.7757903590038
 20
-148.3989639633029
 30
0.0
 10
-224.1797458158588
 20
-153.9958697808875
 30
0.0
 10
-217.2761144186794
 20
-153.9958697808875
 30
0.0
 10
-210.3724830214999
 20
-153.9958697808875
 30
0.0
 10
-204.7760939685791
 20
-148.3989639633029
 30
0.0
 10
-204.7760939685791
 20
-141.4949880563477
 30
0.0
  0
MTEXT
  5
337
330
1F
100
AcDbEntity
  8
TEXT
 62
     7
100
AcDbMText
 10
-205.6106689004453
 20
-86.35637069505877
 30
0.0
 40
2.398890470823883
 41
0.0
 71
     7
 72
     1
  1
\fINDEX Univers 45 Light|b0|i0|c0|p34;\W1;\U+00F825
  0
MTEXT
  5
338
330
1F
100
AcDbEntity
  8
TEXT
 62
     7
100
AcDbMText
 10
-188.7917016460763
 20
-97.91570720234762
 30
0.0
 40
2.398890470823883
 41
0.0
 71
     7
 72
     1
  1
\fINDEX Univers 45 Light|b0|i0|c0|p34;\W1;10
 11
-4.371139000186241E-8
 21
0.999999999999999
 31
0.0
  0
MTEXT
  5
339
330
1F
100
AcDbEntity
  8
TEXT
 62
     7
100
AcDbMText
 10
-153.3182190518964
 20
-101.6717250329654
 30
0.0
 40
2.398890470823883
 41
0.0
 71
     7
 72
     1
  1
\fINDEX Univers 45 Light|b0|i0|c0|p34;\W1;23
 11
-4.371139000186241E-8
 21
0.999999999999999
 31
0.0
  0
MTEXT
  5
33A
330
1F
100
AcDbEntity
  8
TEXT
 62
     7
100
AcDbMText
 10
-236.2994274734801
 20
-116.359899324035
 30
0.0
 40
2.398890470823883
 41
0.0
 71
     7
 72
     1
  1
\fINDEX Univers 45 Light|b0|i0|c0|p34;\W1;HSK 25 C
  0
MTEXT
  5
33B
330
1F
100
AcDbEntity
  8
TEXT
 62
     7
100
AcDbMText
 10
-236.2091659122215
 20
-111.6693987265702
 30
0.0
 40
2.398890470823883
 41
0.0
 71
     7
 72
     1
  1
\fINDEX Univers 45 Light|b0|i0|c0|p34;\W1;DIN 69893
  0
POLYLINE
  5
33D
330
1F
100
AcDbEntity
  8
BEMA_UNG
 62
     7
100
AcDb2dPolyline
 66
     1
 10
0.0
 20
0.0
 30
0.0
  0
VERTEX
  5
33E
330
33D
100
AcDbEntity
  8
BEMA_UNG
 62
     7
100
AcDbVertex
100
AcDb2dVertex
 10
-236.5703844121438
 20
-112.4152623911689
 30
0.0
  0
VERTEX
  5
33F
330
33D
100
AcDbEntity
  8
BEMA_UNG
 62
     7
100
AcDbVertex
100
AcDb2dVertex
 10
-213.9300632212591
 20
-112.4152623911689
 30
0.0
  0
SEQEND
  5
340
330
33D
100
AcDbEntity
  8
BEMA_UNG
  0
POLYLINE
  5
341
330
1F
100
AcDbEntity
  8
BEMA_UNG
 62
     7
100
AcDb2dPolyline
 66
     1
 10
0.0
 20
0.0
 30
0.0
  0
VERTEX
  5
342
330
341
100
AcDbEntity
  8
BEMA_UNG
 62
     7
100
AcDbVertex
100
AcDb2dVertex
 10
-205.6208319388313
 20
-104.1811342398646
 30
0.0
  0
VERTEX
  5
343
330
341
100
AcDbEntity
  8
BEMA_UNG
 62
     7
100
AcDbVertex
100
AcDb2dVertex
 10
-213.9300632212591
 20
-112.4152623911689
 30
0.0
  0
SEQEND
  5
344
330
341
100
AcDbEntity
  8
BEMA_UNG
  0
SPLINE
  5
345
330
1F
100
AcDbEntity
  8
BEMA_UNG
 62
     7
100
AcDbSpline
210
0.0
220
0.0
230
1.0
 70
    11
 71
     3
 72
    17
 73
    13
 74
     0
 42
0.0000000001
 43
0.0000000001
 40
0.0
 40
0.0
 40
0.0
 40
0.0
 40
1.0
 40
1.0
 40
1.0
 40
2.0
 40
2.0
 40
2.0
 40
3.0
 40
3.0
 40
3.0
 40
4.0
 40
4.0
 40
4.0
 40
4.0
 10
-205.2081092274275
 20
-104.1811342398646
 30
0.0
 10
-205.2081092274275
 20
-103.9532410231755
 30
0.0
 10
-205.3927664672542
 20
-103.7685837833487
 30
0.0
 10
-205.6208319388313
 20
-103.7685837833487
 30
0.0
 10
-205.8485529006325
 20
-103.7685837833487
 30
0.0
 10
-206.0332101404593
 20
-103.9532410231755
 30
0.0
 10
-206.0332101404593
 20
-104.1811342398646
 30
0.0
 10
-206.0332101404593
 20
-104.4088552016659
 30
0.0
 10
-205.8485529006325
 20
-104.5936846963805
 30
0.0
 10
-205.6208319388313
 20
-104.5936846963805
 30
0.0
 10
-205.3927664672542
 20
-104.5936846963805
 30
0.0
 10
-205.2081092274275
 20
-104.4088552016659
 30
0.0
 10
-205.2081092274275
 20
-104.1811342398646
 30
0.0
  0
SPLINE
  5
346
330
1F
100
AcDbEntity
  8
BEMA_UNG
 62
     7
100
AcDbSpline
210
0.0
220
0.0
230
1.0
 70
    11
 71
     3
 72
    17
 73
    13
 74
     0
 42
0.0000000001
 43
0.0000000001
 40
0.0
 40
0.0
 40
0.0
 40
0.0
 40
1.0
 40
1.0
 40
1.0
 40
2.0
 40
2.0
 40
2.0
 40
3.0
 40
3.0
 40
3.0
 40
4.0
 40
4.0
 40
4.0
 40
4.0
 10
-205.2360145192669
 20
-104.1811342398646
 30
0.0
 10
-205.2360145192669
 20
-103.9685717081984
 30
0.0
 10
-205.4082694071651
 20
-103.7963168203003
 30
0.0
 10
-205.6208319388313
 20
-103.7963168203003
 30
0.0
 10
-205.8328777058338
 20
-103.7963168203003
 30
0.0
 10
-206.0054771035077
 20
-103.9685717081984
 30
0.0
 10
-206.0054771035077
 20
-104.1811342398646
 30
0.0
 10
-206.0054771035077
 20
-104.3933522617551
 30
0.0
 10
-205.8328777058338
 20
-104.5656071496532
 30
0.0
 10
-205.6208319388313
 20
-104.5656071496532
 30
0.0
 10
-205.4082694071651
 20
-104.5656071496532
 30
0.0
 10
-205.2360145192669
 20
-104.3933522617551
 30
0.0
 10
-205.2360145192669
 20
-104.1811342398646
 30
0.0
  0
SPLINE
  5
347
330
1F
100
AcDbEntity
  8
BEMA_UNG
 62
     7
100
AcDbSpline
210
0.0
220
0.0
230
1.0
 70
    11
 71
     3
 72
    17
 73
    13
 74
     0
 42
0.0000000001
 43
0.0000000001
 40
0.0
 40
0.0
 40
0.0
 40
0.0
 40
1.0
 40
1.0
 40
1.0
 40
2.0
 40
2.0
 40
2.0
 40
3.0
 40
3.0
 40
3.0
 40
4.0
 40
4.0
 40
4.0
 40
4.0
 10
-205.2639198111064
 20
-104.1811342398646
 30
0.0
 10
-205.2639198111064
 20
-103.9840746481092
 30
0.0
 10
-205.4237723470759
 20
-103.8242221121398
 30
0.0
 10
-205.6208319388313
 20
-103.8242221121398
 30
0.0
 10
-205.8177192756988
 20
-103.8242221121398
 30
0.0
 10
-205.9773995567803
 20
-103.9840746481092
 30
0.0
 10
-205.9773995567803
 20
-104.1811342398646
 30
0.0
 10
-205.9773995567803
 20
-104.3780215767322
 30
0.0
 10
-205.8177192756988
 20
-104.5375296029258
 30
0.0
 10
-205.6208319388313
 20
-104.5375296029258
 30
0.0
 10
-205.4237723470759
 20
-104.5375296029258
 30
0.0
 10
-205.2639198111064
 20
-104.3780215767322
 30
0.0
 10
-205.2639198111064
 20
-104.1811342398646
 30
0.0
  0
SPLINE
  5
348
330
1F
100
AcDbEntity
  8
BEMA_UNG
 62
     7
100
AcDbSpline
210
0.0
220
0.0
230
1.0
 70
    11
 71
     3
 72
    17
 73
    13
 74
     0
 42
0.0000000001
 43
0.0000000001
 40
0.0
 40
0.0
 40
0.0
 40
0.0
 40
1.0
 40
1.0
 40
1.0
 40
2.0
 40
2.0
 40
2.0
 40
3.0
 40
3.0
 40
3.0
 40
4.0
 40
4.0
 40
4.0
 40
4.0
 10
-205.2919973578338
 20
-104.1811342398646
 30
0.0
 10
-205.2919973578338
 20
-103.9994053331322
 30
0.0
 10
-205.4392752869867
 20
-103.8521274039793
 30
0.0
 10
-205.6208319388313
 20
-103.8521274039793
 30
0.0
 10
-205.8020440809001
 20
-103.8521274039793
 30
0.0
 10
-205.9494942649408
 20
-103.9994053331322
 30
0.0
 10
-205.9494942649408
 20
-104.1811342398646
 30
0.0
 10
-205.9494942649408
 20
-104.3625186368213
 30
0.0
 10
-205.8020440809001
 20
-104.5096243110863
 30
0.0
 10
-205.6208319388313
 20
-104.5096243110863
 30
0.0
 10
-205.4392752869867
 20
-104.5096243110863
 30
0.0
 10
-205.2919973578338
 20
-104.3625186368213
 30
0.0
 10
-205.2919973578338
 20
-104.1811342398646
 30
0.0
  0
SPLINE
  5
349
330
1F
100
AcDbEntity
  8
BEMA_UNG
 62
     7
100
AcDbSpline
210
0.0
220
0.0
230
1.0
 70
    11
 71
     3
 72
    17
 73
    13
 74
     0
 42
0.0000000001
 43
0.0000000001
 40
0.0
 40
0.0
 40
0.0
 40
0.0
 40
1.0
 40
1.0
 40
1.0
 40
2.0
 40
2.0
 40
2.0
 40
3.0
 40
3.0
 40
3.0
 40
4.0
 40
4.0
 40
4.0
 40
4.0
 10
-205.3199026496733
 20
-104.1811342398646
 30
0.0
 10
-205.3199026496733
 20
-104.014908273043
 30
0.0
 10
-205.4546059720096
 20
-103.8800326958188
 30
0.0
 10
-205.6208319388313
 20
-103.8800326958188
 30
0.0
 10
-205.786885650765
 20
-103.8800326958188
 30
0.0
 10
-205.9214167182134
 20
-104.014908273043
 30
0.0
 10
-205.9214167182134
 20
-104.1811342398646
 30
0.0
 10
-205.9214167182134
 20
-104.3470156969105
 30
0.0
 10
-205.786885650765
 20
-104.4815467643589
 30
0.0
 10
-205.6208319388313
 20
-104.4815467643589
 30
0.0
 10
-205.4546059720096
 20
-104.4815467643589
 30
0.0
 10
-205.3199026496733
 20
-104.3470156969105
 30
0.0
 10
-205.3199026496733
 20
-104.1811342398646
 30
0.0
  0
SPLINE
  5
34A
330
1F
100
AcDbEntity
  8
BEMA_UNG
 62
     7
100
AcDbSpline
210
0.0
220
0.0
230
1.0
 70
    11
 71
     3
 72
    17
 73
    13
 74
     0
 42
0.0000000001
 43
0.0000000001
 40
0.0
 40
0.0
 40
0.0
 40
0.0
 40
1.0
 40
1.0
 40
1.0
 40
2.0
 40
2.0
 40
2.0
 40
3.0
 40
3.0
 40
3.0
 40
4.0
 40
4.0
 40
4.0
 40
4.0
 10
-205.3478079415128
 20
-104.1811342398646
 30
0.0
 10
-205.3478079415128
 20
-104.0302389580659
 30
0.0
 10
-205.4701089119204
 20
-103.9081102425462
 30
0.0
 10
-205.6208319388313
 20
-103.9081102425462
 30
0.0
 10
-205.7712104559663
 20
-103.9081102425462
 30
0.0
 10
-205.893339171486
 20
-104.0302389580659
 30
0.0
 10
-205.893339171486
 20
-104.1811342398646
 30
0.0
 10
-205.893339171486
 20
-104.3316850118876
 30
0.0
 10
-205.7712104559663
 20
-104.4538137274073
 30
0.0
 10
-205.6208319388313
 20
-104.4538137274073
 30
0.0
 10
-205.4701089119204
 20
-104.4538137274073
 30
0.0
 10
-205.3478079415128
 20
-104.3316850118876
 30
0.0
 10
-205.3478079415128
 20
-104.1811342398646
 30
0.0
  0
SPLINE
  5
34B
330
1F
100
AcDbEntity
  8
BEMA_UNG
 62
     7
100
AcDbSpline
210
0.0
220
0.0
230
1.0
 70
    11
 71
     3
 72
    17
 73
    13
 74
     0
 42
0.0000000001
 43
0.0000000001
 40
0.0
 40
0.0
 40
0.0
 40
0.0
 40
1.0
 40
1.0
 40
1.0
 40
2.0
 40
2.0
 40
2.0
 40
3.0
 40
3.0
 40
3.0
 40
4.0
 40
4.0
 40
4.0
 40
4.0
 10
-205.3757132333523
 20
-104.1811342398646
 30
0.0
 10
-205.3757132333523
 20
-104.0457418979768
 30
0.0
 10
-205.4856118518313
 20
-103.9360155343857
 30
0.0
 10
-205.6208319388313
 20
-103.9360155343857
 30
0.0
 10
-205.7560520258313
 20
-103.9360155343857
 30
0.0
 10
-205.8654338796466
 20
-104.0457418979768
 30
0.0
 10
-205.8654338796466
 20
-104.1811342398646
 30
0.0
 10
-205.8654338796466
 20
-104.3163543268646
 30
0.0
 10
-205.7560520258313
 20
-104.4257361806799
 30
0.0
 10
-205.6208319388313
 20
-104.4257361806799
 30
0.0
 10
-205.4856118518313
 20
-104.4257361806799
 30
0.0
 10
-205.3757132333523
 20
-104.3163543268646
 30
0.0
 10
-205.3757132333523
 20
-104.1811342398646
 30
0.0
  0
SPLINE
  5
34C
330
1F
100
AcDbEntity
  8
BEMA_UNG
 62
     7
100
AcDbSpline
210
0.0
220
0.0
230
1.0
 70
    11
 71
     3
 72
    17
 73
    13
 74
     0
 42
0.0000000001
 43
0.0000000001
 40
0.0
 40
0.0
 40
0.0
 40
0.0
 40
1.0
 40
1.0
 40
1.0
 40
2.0
 40
2.0
 40
2.0
 40
3.0
 40
3.0
 40
3.0
 40
4.0
 40
4.0
 40
4.0
 40
4.0
 10
-205.4037907800797
 20
-104.1811342398646
 30
0.0
 10
-205.4037907800797
 20
-104.0612448378876
 30
0.0
 10
-205.5007702819663
 20
-103.9639208262252
 30
0.0
 10
-205.6208319388313
 20
-103.9639208262252
 30
0.0
 10
-205.7405490859204
 20
-103.9639208262252
 30
0.0
 10
-205.8375285878071
 20
-104.0612448378876
 30
0.0
 10
-205.8375285878071
 20
-104.1811342398646
 30
0.0
 10
-205.8375285878071
 20
-104.3006791320659
 30
0.0
 10
-205.7405490859204
 20
-104.3978308888404
 30
0.0
 10
-205.6208319388313
 20
-104.3978308888404
 30
0.0
 10
-205.5007702819663
 20
-104.3978308888404
 30
0.0
 10
-205.4037907800797
 20
-104.3006791320659
 30
0.0
 10
-205.4037907800797
 20
-104.1811342398646
 30
0.0
  0
SPLINE
  5
34D
330
1F
100
AcDbEntity
  8
BEMA_UNG
 62
     7
100
AcDbSpline
210
0.0
220
0.0
230
1.0
 70
    11
 71
     3
 72
    17
 73
    13
 74
     0
 42
0.0000000001
 43
0.0000000001
 40
0.0
 40
0.0
 40
0.0
 40
0.0
 40
1.0
 40
1.0
 40
1.0
 40
2.0
 40
2.0
 40
2.0
 40
3.0
 40
3.0
 40
3.0
 40
4.0
 40
4.0
 40
4.0
 40
4.0
 10
-205.4316960719192
 20
-104.1811342398646
 30
0.0
 10
-205.4316960719192
 20
-104.0767477777984
 30
0.0
 10
-205.516445476765
 20
-103.9918261180647
 30
0.0
 10
-205.6208319388313
 20
-103.9918261180647
 30
0.0
 10
-205.7252184008975
 20
-103.9918261180647
 30
0.0
 10
-205.8096232959676
 20
-104.0767477777984
 30
0.0
 10
-205.8096232959676
 20
-104.1811342398646
 30
0.0
 10
-205.8096232959676
 20
-104.285348447043
 30
0.0
 10
-205.7252184008975
 20
-104.3702701067767
 30
0.0
 10
-205.6208319388313
 20
-104.3702701067767
 30
0.0
 10
-205.516445476765
 20
-104.3702701067767
 30
0.0
 10
-205.4316960719192
 20
-104.285348447043
 30
0.0
 10
-205.4316960719192
 20
-104.1811342398646
 30
0.0
  0
SPLINE
  5
34E
330
1F
100
AcDbEntity
  8
BEMA_UNG
 62
     7
100
AcDbSpline
210
0.0
220
0.0
230
1.0
 70
    11
 71
     3
 72
    17
 73
    13
 74
     0
 42
0.0000000001
 43
0.0000000001
 40
0.0
 40
0.0
 40
0.0
 40
0.0
 40
1.0
 40
1.0
 40
1.0
 40
2.0
 40
2.0
 40
2.0
 40
3.0
 40
3.0
 40
3.0
 40
4.0
 40
4.0
 40
4.0
 40
4.0
 10
-205.4597736186466
 20
-104.1811342398646
 30
0.0
 10
-205.4597736186466
 20
-104.0919062079334
 30
0.0
 10
-205.5314316520122
 20
-104.019903664792
 30
0.0
 10
-205.6208319388313
 20
-104.019903664792
 30
0.0
 10
-205.7095432060988
 20
-104.019903664792
 30
0.0
 10
-205.7815457492402
 20
-104.0919062079334
 30
0.0
 10
-205.7815457492402
 20
-104.1811342398646
 30
0.0
 10
-205.7815457492402
 20
-104.2700177620201
 30
0.0
 10
-205.7095432060988
 20
-104.3418480502736
 30
0.0
 10
-205.6208319388313
 20
-104.3418480502736
 30
0.0
 10
-205.5314316520122
 20
-104.3418480502736
 30
0.0
 10
-205.4597736186466
 20
-104.2700177620201
 30
0.0
 10
-205.4597736186466
 20
-104.1811342398646
 30
0.0
  0
SPLINE
  5
34F
330
1F
100
AcDbEntity
  8
BEMA_UNG
 62
     7
100
AcDbSpline
210
0.0
220
0.0
230
1.0
 70
    11
 71
     3
 72
    17
 73
    13
 74
     0
 42
0.0000000001
 43
0.0000000001
 40
0.0
 40
0.0
 40
0.0
 40
0.0
 40
1.0
 40
1.0
 40
1.0
 40
2.0
 40
2.0
 40
2.0
 40
3.0
 40
3.0
 40
3.0
 40
4.0
 40
4.0
 40
4.0
 40
4.0
 10
-205.4876789104861
 20
-104.1811342398646
 30
0.0
 10
-205.4876789104861
 20
-104.1074091478443
 30
0.0
 10
-205.5472791016988
 20
-104.0476367017436
 30
0.0
 10
-205.6208319388313
 20
-104.0476367017436
 30
0.0
 10
-205.6942125210759
 20
-104.0476367017436
 30
0.0
 10
-205.7536404574007
 20
-104.1074091478443
 30
0.0
 10
-205.7536404574007
 20
-104.1811342398646
 30
0.0
 10
-205.7536404574007
 20
-104.2546870769971
 30
0.0
 10
-205.6942125210759
 20
-104.3139427584341
 30
0.0
 10
-205.6208319388313
 20
-104.3139427584341
 30
0.0
 10
-205.5472791016988
 20
-104.3139427584341
 30
0.0
 10
-205.4876789104861
 20
-104.2546870769971
 30
0.0
 10
-205.4876789104861
 20
-104.1811342398646
 30
0.0
  0
SPLINE
  5
350
330
1F
100
AcDbEntity
  8
BEMA_UNG
 62
     7
100
AcDbSpline
210
0.0
220
0.0
230
1.0
 70
    11
 71
     3
 72
    17
 73
    13
 74
     0
 42
0.0000000001
 43
0.0000000001
 40
0.0
 40
0.0
 40
0.0
 40
0.0
 40
1.0
 40
1.0
 40
1.0
 40
2.0
 40
2.0
 40
2.0
 40
3.0
 40
3.0
 40
3.0
 40
4.0
 40
4.0
 40
4.0
 40
4.0
 10
-205.5155842023256
 20
-104.1811342398646
 30
0.0
 10
-205.5155842023256
 20
-104.123084342643
 30
0.0
 10
-205.5624375318338
 20
-104.0758865033589
 30
0.0
 10
-205.6208319388313
 20
-104.0758865033589
 30
0.0
 10
-205.6788818360529
 20
-104.0758865033589
 30
0.0
 10
-205.7257351655612
 20
-104.123084342643
 30
0.0
 10
-205.7257351655612
 20
-104.1811342398646
 30
0.0
 10
-205.7257351655612
 20
-104.2390118821984
 30
0.0
 10
-205.6788818360529
 20
-104.2860374665946
 30
0.0
 10
-205.6208319388313
 20
-104.2860374665946
 30
0.0
 10
-205.5624375318338
 20
-104.2860374665946
 30
0.0
 10
-205.5155842023256
 20
-104.2390118821984
 30
0.0
 10
-205.5155842023256
 20
-104.1811342398646
 30
0.0
  0
SPLINE
  5
351
330
1F
100
AcDbEntity
  8
BEMA_UNG
 62
     7
100
AcDbSpline
210
0.0
220
0.0
230
1.0
 70
    11
 71
     3
 72
    17
 73
    13
 74
     0
 42
0.0000000001
 43
0.0000000001
 40
0.0
 40
0.0
 40
0.0
 40
0.0
 40
1.0
 40
1.0
 40
1.0
 40
2.0
 40
2.0
 40
2.0
 40
3.0
 40
3.0
 40
3.0
 40
4.0
 40
4.0
 40
4.0
 40
4.0
 10
-205.543489494165
 20
-104.1811342398646
 30
0.0
 10
-205.543489494165
 20
-104.1384150276659
 30
0.0
 10
-205.5781127266326
 20
-104.1037917951984
 30
0.0
 10
-205.6208319388313
 20
-104.1037917951984
 30
0.0
 10
-205.6633788961421
 20
-104.1037917951984
 30
0.0
 10
-205.6978298737217
 20
-104.1384150276659
 30
0.0
 10
-205.6978298737217
 20
-104.1811342398646
 30
0.0
 10
-205.6978298737217
 20
-104.2235089422876
 30
0.0
 10
-205.6633788961421
 20
-104.2579599198672
 30
0.0
 10
-205.6208319388313
 20
-104.2579599198672
 30
0.0
 10
-205.5781127266326
 20
-104.2579599198672
 30
0.0
 10
-205.543489494165
 20
-104.2235089422876
 30
0.0
 10
-205.543489494165
 20
-104.1811342398646
 30
0.0
  0
SPLINE
  5
352
330
1F
100
AcDbEntity
  8
BEMA_UNG
 62
     7
100
AcDbSpline
210
0.0
220
0.0
230
1.0
 70
    11
 71
     3
 72
    17
 73
    13
 74
     0
 42
0.0000000001
 43
0.0000000001
 40
0.0
 40
0.0
 40
0.0
 40
0.0
 40
1.0
 40
1.0
 40
1.0
 40
2.0
 40
2.0
 40
2.0
 40
3.0
 40
3.0
 40
3.0
 40
4.0
 40
4.0
 40
4.0
 40
4.0
 10
-205.5715670408924
 20
-104.1811342398646
 30
0.0
 10
-205.5715670408924
 20
-104.1539179675767
 30
0.0
 10
-205.5932711567676
 20
-104.1316970870379
 30
0.0
 10
-205.6208319388313
 20
-104.1316970870379
 30
0.0
 10
-205.6478759562313
 20
-104.1316970870379
 30
0.0
 10
-205.6699245818822
 20
-104.1539179675767
 30
0.0
 10
-205.6699245818822
 20
-104.1811342398646
 30
0.0
 10
-205.6699245818822
 20
-104.2081782572646
 30
0.0
 10
-205.6478759562313
 20
-104.2303991378035
 30
0.0
 10
-205.6208319388313
 20
-104.2303991378035
 30
0.0
 10
-205.5932711567676
 20
-104.2303991378035
 30
0.0
 10
-205.5715670408924
 20
-104.2081782572646
 30
0.0
 10
-205.5715670408924
 20
-104.1811342398646
 30
0.0
  0
SPLINE
  5
353
330
1F
100
AcDbEntity
  8
BEMA_UNG
 62
     7
100
AcDbSpline
210
0.0
220
0.0
230
1.0
 70
    11
 71
     3
 72
    17
 73
    13
 74
     0
 42
0.0000000001
 43
0.0000000001
 40
0.0
 40
0.0
 40
0.0
 40
0.0
 40
1.0
 40
1.0
 40
1.0
 40
2.0
 40
2.0
 40
2.0
 40
3.0
 40
3.0
 40
3.0
 40
4.0
 40
4.0
 40
4.0
 40
4.0
 10
-205.5994723327319
 20
-104.1811342398646
 30
0.0
 10
-205.5994723327319
 20
-104.1692486525997
 30
0.0
 10
-205.6089463515663
 20
-104.1597746337653
 30
0.0
 10
-205.6208319388313
 20
-104.1597746337653
 30
0.0
 10
-205.6322007614326
 20
-104.1597746337653
 30
0.0
 10
-205.6420192900427
 20
-104.1692486525997
 30
0.0
 10
-205.6420192900427
 20
-104.1811342398646
 30
0.0
 10
-205.6420192900427
 20
-104.1926753173538
 30
0.0
 10
-205.6322007614326
 20
-104.202493845964
 30
0.0
 10
-205.6208319388313
 20
-104.202493845964
 30
0.0
 10
-205.6089463515663
 20
-104.202493845964
 30
0.0
 10
-205.5994723327319
 20
-104.1926753173538
 30
0.0
 10
-205.5994723327319
 20
-104.1811342398646
 30
0.0
  0
POLYLINE
  5
354
330
1F
100
AcDbEntity
  8
BEMA_UNG
 62
     7
100
AcDb2dPolyline
 66
     1
 10
0.0
 20
0.0
 30
0.0
  0
VERTEX
  5
355
330
354
100
AcDbEntity
  8
BEMA_UNG
 62
     7
100
AcDbVertex
100
AcDb2dVertex
 10
-209.9347833513509
 20
-93.31098953905602
 30
0.0
  0
VERTEX
  5
356
330
354
100
AcDbEntity
  8
BEMA_UNG
 62
     7
100
AcDbVertex
100
AcDb2dVertex
 10
-209.9347833513509
 20
-86.0118609192626
 30
0.0
  0
SEQEND
  5
357
330
354
100
AcDbEntity
  8
BEMA_UNG
  0
POLYLINE
  5
358
330
1F
100
AcDbEntity
  8
BEMA_UNG
 62
     7
100
AcDb2dPolyline
 66
     1
 10
0.0
 20
0.0
 30
0.0
  0
VERTEX
  5
359
330
358
100
AcDbEntity
  8
BEMA_UNG
 62
     7
100
AcDbVertex
100
AcDb2dVertex
 10
-196.1848814346621
 20
-93.31098953905602
 30
0.0
  0
VERTEX
  5
35A
330
358
100
AcDbEntity
  8
BEMA_UNG
 62
     7
100
AcDbVertex
100
AcDb2dVertex
 10
-196.1848814346621
 20
-86.0118609192626
 30
0.0
  0
SEQEND
  5
35B
330
358
100
AcDbEntity
  8
BEMA_UNG
  0
POLYLINE
  5
35C
330
1F
100
AcDbEntity
  8
BEMA_UNG
 62
     7
100
AcDb2dPolyline
 66
     1
 10
0.0
 20
0.0
 30
0.0
  0
VERTEX
  5
35D
330
35C
100
AcDbEntity
  8
BEMA_UNG
 62
     7
100
AcDbVertex
100
AcDb2dVertex
 10
-209.9347833513509
 20
-87.11205288826766
 30
0.0
  0
VERTEX
  5
35E
330
35C
100
AcDbEntity
  8
BEMA_UNG
 62
     7
100
AcDbVertex
100
AcDb2dVertex
 10
-196.1848814346621
 20
-87.11205288826766
 30
0.0
  0
SEQEND
  5
35F
330
35C
100
AcDbEntity
  8
BEMA_UNG
  0
POLYLINE
  5
360
330
1F
100
AcDbEntity
  8
BEMA_UNG
 62
     7
100
AcDb2dPolyline
 66
     1
 10
0.0
 20
0.0
 30
0.0
  0
VERTEX
  5
361
330
360
100
AcDbEntity
  8
BEMA_UNG
 62
     7
100
AcDbVertex
100
AcDb2dVertex
 10
-209.9347833513509
 20
-87.11205288826766
 30
0.0
  0
VERTEX
  5
362
330
360
100
AcDbEntity
  8
BEMA_UNG
 62
     7
100
AcDbVertex
100
AcDb2dVertex
 10
-208.5598448361484
 20
-87.29309277544854
 30
0.0
  0
VERTEX
  5
363
330
360
100
AcDbEntity
  8
BEMA_UNG
 62
     7
100
AcDbVertex
100
AcDb2dVertex
 10
-208.5598448361484
 20
-86.93084074619888
 30
0.0
  0
VERTEX
  5
364
330
360
100
AcDbEntity
  8
BEMA_UNG
 62
     7
100
AcDbVertex
100
AcDb2dVertex
 10
-209.9347833513509
 20
-87.11205288826766
 30
0.0
  0
SEQEND
  5
365
330
360
100
AcDbEntity
  8
BEMA_UNG
  0
POLYLINE
  5
366
330
1F
100
AcDbEntity
  8
BEMA_UNG
 62
     7
100
AcDb2dPolyline
 66
     1
 10
0.0
 20
0.0
 30
0.0
  0
VERTEX
  5
367
330
366
100
AcDbEntity
  8
BEMA_UNG
 62
     7
100
AcDbVertex
100
AcDb2dVertex
 10
-208.5598448361484
 20
-87.2794846393046
 30
0.0
  0
VERTEX
  5
368
330
366
100
AcDbEntity
  8
BEMA_UNG
 62
     7
100
AcDbVertex
100
AcDb2dVertex
 10
-208.6614752200083
 20
-87.2794846393046
 30
0.0
  0
SEQEND
  5
369
330
366
100
AcDbEntity
  8
BEMA_UNG
  0
POLYLINE
  5
36A
330
1F
100
AcDbEntity
  8
BEMA_UNG
 62
     7
100
AcDb2dPolyline
 66
     1
 10
0.0
 20
0.0
 30
0.0
  0
VERTEX
  5
36B
330
36A
100
AcDbEntity
  8
BEMA_UNG
 62
     7
100
AcDbVertex
100
AcDb2dVertex
 10
-208.5598448361484
 20
-87.2794846393046
 30
0.0
  0
VERTEX
  5
36C
330
36A
100
AcDbEntity
  8
BEMA_UNG
 62
     7
100
AcDbVertex
100
AcDb2dVertex
 10
-208.6614752200083
 20
-87.2794846393046
 30
0.0
  0
SEQEND
  5
36D
330
36A
100
AcDbEntity
  8
BEMA_UNG
  0
POLYLINE
  5
36E
330
1F
100
AcDbEntity
  8
BEMA_UNG
 62
     7
100
AcDb2dPolyline
 66
     1
 10
0.0
 20
0.0
 30
0.0
  0
VERTEX
  5
36F
330
36E
100
AcDbEntity
  8
BEMA_UNG
 62
     7
100
AcDbVertex
100
AcDb2dVertex
 10
-208.5598448361484
 20
-87.25157934746511
 30
0.0
  0
VERTEX
  5
370
330
36E
100
AcDbEntity
  8
BEMA_UNG
 62
     7
100
AcDbVertex
100
AcDb2dVertex
 10
-208.8738654967866
 20
-87.25157934746511
 30
0.0
  0
SEQEND
  5
371
330
36E
100
AcDbEntity
  8
BEMA_UNG
  0
POLYLINE
  5
372
330
1F
100
AcDbEntity
  8
BEMA_UNG
 62
     7
100
AcDb2dPolyline
 66
     1
 10
0.0
 20
0.0
 30
0.0
  0
VERTEX
  5
373
330
372
100
AcDbEntity
  8
BEMA_UNG
 62
     7
100
AcDbVertex
100
AcDb2dVertex
 10
-208.5598448361484
 20
-87.22367405562562
 30
0.0
  0
VERTEX
  5
374
330
372
100
AcDbEntity
  8
BEMA_UNG
 62
     7
100
AcDbVertex
100
AcDb2dVertex
 10
-209.0859112637891
 20
-87.22367405562562
 30
0.0
  0
SEQEND
  5
375
330
372
100
AcDbEntity
  8
BEMA_UNG
  0
POLYLINE
  5
376
330
1F
100
AcDbEntity
  8
BEMA_UNG
 62
     7
100
AcDb2dPolyline
 66
     1
 10
0.0
 20
0.0
 30
0.0
  0
VERTEX
  5
377
330
376
100
AcDbEntity
  8
BEMA_UNG
 62
     7
100
AcDbVertex
100
AcDb2dVertex
 10
-208.5598448361484
 20
-87.19559650889823
 30
0.0
  0
VERTEX
  5
378
330
376
100
AcDbEntity
  8
BEMA_UNG
 62
     7
100
AcDbVertex
100
AcDb2dVertex
 10
-209.2981292856796
 20
-87.19559650889823
 30
0.0
  0
SEQEND
  5
379
330
376
100
AcDbEntity
  8
BEMA_UNG
  0
POLYLINE
  5
37A
330
1F
100
AcDbEntity
  8
BEMA_UNG
 62
     7
100
AcDb2dPolyline
 66
     1
 10
0.0
 20
0.0
 30
0.0
  0
VERTEX
  5
37B
330
37A
100
AcDbEntity
  8
BEMA_UNG
 62
     7
100
AcDbVertex
100
AcDb2dVertex
 10
-208.5598448361484
 20
-87.16769121705875
 30
0.0
  0
VERTEX
  5
37C
330
37A
100
AcDbEntity
  8
BEMA_UNG
 62
     7
100
AcDbVertex
100
AcDb2dVertex
 10
-209.51034730757
 20
-87.16769121705875
 30
0.0
  0
SEQEND
  5
37D
330
37A
100
AcDbEntity
  8
BEMA_UNG
  0
POLYLINE
  5
37E
330
1F
100
AcDbEntity
  8
BEMA_UNG
 62
     7
100
AcDb2dPolyline
 66
     1
 10
0.0
 20
0.0
 30
0.0
  0
VERTEX
  5
37F
330
37E
100
AcDbEntity
  8
BEMA_UNG
 62
     7
100
AcDbVertex
100
AcDb2dVertex
 10
-208.5598448361484
 20
-87.13978592521926
 30
0.0
  0
VERTEX
  5
380
330
37E
100
AcDbEntity
  8
BEMA_UNG
 62
     7
100
AcDbVertex
100
AcDb2dVertex
 10
-209.7227375843484
 20
-87.13978592521926
 30
0.0
  0
SEQEND
  5
381
330
37E
100
AcDbEntity
  8
BEMA_UNG
  0
POLYLINE
  5
382
330
1F
100
AcDbEntity
  8
BEMA_UNG
 62
     7
100
AcDb2dPolyline
 66
     1
 10
0.0
 20
0.0
 30
0.0
  0
VERTEX
  5
383
330
382
100
AcDbEntity
  8
BEMA_UNG
 62
     7
100
AcDbVertex
100
AcDb2dVertex
 10
-208.5598448361484
 20
-87.11205288826766
 30
0.0
  0
VERTEX
  5
384
330
382
100
AcDbEntity
  8
BEMA_UNG
 62
     7
100
AcDbVertex
100
AcDb2dVertex
 10
-209.9347833513509
 20
-87.11205288826766
 30
0.0
  0
SEQEND
  5
385
330
382
100
AcDbEntity
  8
BEMA_UNG
  0
POLYLINE
  5
386
330
1F
100
AcDbEntity
  8
BEMA_UNG
 62
     7
100
AcDb2dPolyline
 66
     1
 10
0.0
 20
0.0
 30
0.0
  0
VERTEX
  5
387
330
386
100
AcDbEntity
  8
BEMA_UNG
 62
     7
100
AcDbVertex
100
AcDb2dVertex
 10
-208.5598448361484
 20
-86.94444888234283
 30
0.0
  0
VERTEX
  5
388
330
386
100
AcDbEntity
  8
BEMA_UNG
 62
     7
100
AcDbVertex
100
AcDb2dVertex
 10
-208.6614752200083
 20
-86.94444888234283
 30
0.0
  0
SEQEND
  5
389
330
386
100
AcDbEntity
  8
BEMA_UNG
  0
POLYLINE
  5
38A
330
1F
100
AcDbEntity
  8
BEMA_UNG
 62
     7
100
AcDb2dPolyline
 66
     1
 10
0.0
 20
0.0
 30
0.0
  0
VERTEX
  5
38B
330
38A
100
AcDbEntity
  8
BEMA_UNG
 62
     7
100
AcDbVertex
100
AcDb2dVertex
 10
-208.5598448361484
 20
-86.94444888234283
 30
0.0
  0
VERTEX
  5
38C
330
38A
100
AcDbEntity
  8
BEMA_UNG
 62
     7
100
AcDbVertex
100
AcDb2dVertex
 10
-208.6614752200083
 20
-86.94444888234283
 30
0.0
  0
SEQEND
  5
38D
330
38A
100
AcDbEntity
  8
BEMA_UNG
  0
POLYLINE
  5
38E
330
1F
100
AcDbEntity
  8
BEMA_UNG
 62
     7
100
AcDb2dPolyline
 66
     1
 10
0.0
 20
0.0
 30
0.0
  0
VERTEX
  5
38F
330
38E
100
AcDbEntity
  8
BEMA_UNG
 62
     7
100
AcDbVertex
100
AcDb2dVertex
 10
-208.5598448361484
 20
-86.97235417418231
 30
0.0
  0
VERTEX
  5
390
330
38E
100
AcDbEntity
  8
BEMA_UNG
 62
     7
100
AcDbVertex
100
AcDb2dVertex
 10
-208.8738654967866
 20
-86.97235417418231
 30
0.0
  0
SEQEND
  5
391
330
38E
100
AcDbEntity
  8
BEMA_UNG
  0
POLYLINE
  5
392
330
1F
100
AcDbEntity
  8
BEMA_UNG
 62
     7
100
AcDb2dPolyline
 66
     1
 10
0.0
 20
0.0
 30
0.0
  0
VERTEX
  5
393
330
392
100
AcDbEntity
  8
BEMA_UNG
 62
     7
100
AcDbVertex
100
AcDb2dVertex
 10
-208.5598448361484
 20
-87.0002594660218
 30
0.0
  0
VERTEX
  5
394
330
392
100
AcDbEntity
  8
BEMA_UNG
 62
     7
100
AcDbVertex
100
AcDb2dVertex
 10
-209.0859112637891
 20
-87.0002594660218
 30
0.0
  0
SEQEND
  5
395
330
392
100
AcDbEntity
  8
BEMA_UNG
  0
POLYLINE
  5
396
330
1F
100
AcDbEntity
  8
BEMA_UNG
 62
     7
100
AcDb2dPolyline
 66
     1
 10
0.0
 20
0.0
 30
0.0
  0
VERTEX
  5
397
330
396
100
AcDbEntity
  8
BEMA_UNG
 62
     7
100
AcDbVertex
100
AcDb2dVertex
 10
-208.5598448361484
 20
-87.02816475786129
 30
0.0
  0
VERTEX
  5
398
330
396
100
AcDbEntity
  8
BEMA_UNG
 62
     7
100
AcDbVertex
100
AcDb2dVertex
 10
-209.2981292856796
 20
-87.02816475786129
 30
0.0
  0
SEQEND
  5
399
330
396
100
AcDbEntity
  8
BEMA_UNG
  0
POLYLINE
  5
39A
330
1F
100
AcDbEntity
  8
BEMA_UNG
 62
     7
100
AcDb2dPolyline
 66
     1
 10
0.0
 20
0.0
 30
0.0
  0
VERTEX
  5
39B
330
39A
100
AcDbEntity
  8
BEMA_UNG
 62
     7
100
AcDbVertex
100
AcDb2dVertex
 10
-208.5598448361484
 20
-87.05607004970078
 30
0.0
  0
VERTEX
  5
39C
330
39A
100
AcDbEntity
  8
BEMA_UNG
 62
     7
100
AcDbVertex
100
AcDb2dVertex
 10
-209.51034730757
 20
-87.05607004970078
 30
0.0
  0
SEQEND
  5
39D
330
39A
100
AcDbEntity
  8
BEMA_UNG
  0
POLYLINE
  5
39E
330
1F
100
AcDbEntity
  8
BEMA_UNG
 62
     7
100
AcDb2dPolyline
 66
     1
 10
0.0
 20
0.0
 30
0.0
  0
VERTEX
  5
39F
330
39E
100
AcDbEntity
  8
BEMA_UNG
 62
     7
100
AcDbVertex
100
AcDb2dVertex
 10
-208.5598448361484
 20
-87.08414759642817
 30
0.0
  0
VERTEX
  5
3A0
330
39E
100
AcDbEntity
  8
BEMA_UNG
 62
     7
100
AcDbVertex
100
AcDb2dVertex
 10
-209.7227375843484
 20
-87.08414759642817
 30
0.0
  0
SEQEND
  5
3A1
330
39E
100
AcDbEntity
  8
BEMA_UNG
  0
POLYLINE
  5
3A2
330
1F
100
AcDbEntity
  8
BEMA_UNG
 62
     7
100
AcDb2dPolyline
 66
     1
 10
0.0
 20
0.0
 30
0.0
  0
VERTEX
  5
3A3
330
3A2
100
AcDbEntity
  8
BEMA_UNG
 62
     7
100
AcDbVertex
100
AcDb2dVertex
 10
-208.5598448361484
 20
-87.11205288826766
 30
0.0
  0
VERTEX
  5
3A4
330
3A2
100
AcDbEntity
  8
BEMA_UNG
 62
     7
100
AcDbVertex
100
AcDb2dVertex
 10
-209.9347833513509
 20
-87.11205288826766
 30
0.0
  0
SEQEND
  5
3A5
330
3A2
100
AcDbEntity
  8
BEMA_UNG
  0
POLYLINE
  5
3A6
330
1F
100
AcDbEntity
  8
BEMA_UNG
 62
     7
100
AcDb2dPolyline
 66
     1
 10
0.0
 20
0.0
 30
0.0
  0
VERTEX
  5
3A7
330
3A6
100
AcDbEntity
  8
BEMA_UNG
 62
     7
100
AcDbVertex
100
AcDb2dVertex
 10
-196.1848814346621
 20
-87.11205288826766
 30
0.0
  0
VERTEX
  5
3A8
330
3A6
100
AcDbEntity
  8
BEMA_UNG
 62
     7
100
AcDbVertex
100
AcDb2dVertex
 10
-197.5596476949767
 20
-86.93084074619888
 30
0.0
  0
VERTEX
  5
3A9
330
3A6
100
AcDbEntity
  8
BEMA_UNG
 62
     7
100
AcDbVertex
100
AcDb2dVertex
 10
-197.5596476949767
 20
-87.29309277544854
 30
0.0
  0
VERTEX
  5
3AA
330
3A6
100
AcDbEntity
  8
BEMA_UNG
 62
     7
100
AcDbVertex
100
AcDb2dVertex
 10
-196.1848814346621
 20
-87.11205288826766
 30
0.0
  0
SEQEND
  5
3AB
330
3A6
100
AcDbEntity
  8
BEMA_UNG
  0
POLYLINE
  5
3AC
330
1F
100
AcDbEntity
  8
BEMA_UNG
 62
     7
100
AcDb2dPolyline
 66
     1
 10
0.0
 20
0.0
 30
0.0
  0
VERTEX
  5
3AD
330
3AC
100
AcDbEntity
  8
BEMA_UNG
 62
     7
100
AcDbVertex
100
AcDb2dVertex
 10
-197.5596476949767
 20
-86.94444888234283
 30
0.0
  0
VERTEX
  5
3AE
330
3AC
100
AcDbEntity
  8
BEMA_UNG
 62
     7
100
AcDbVertex
100
AcDb2dVertex
 10
-197.4580173111169
 20
-86.94444888234283
 30
0.0
  0
SEQEND
  5
3AF
330
3AC
100
AcDbEntity
  8
BEMA_UNG
  0
POLYLINE
  5
3B0
330
1F
100
AcDbEntity
  8
BEMA_UNG
 62
     7
100
AcDb2dPolyline
 66
     1
 10
0.0
 20
0.0
 30
0.0
  0
VERTEX
  5
3B1
330
3B0
100
AcDbEntity
  8
BEMA_UNG
 62
     7
100
AcDbVertex
100
AcDb2dVertex
 10
-197.5596476949767
 20
-86.94444888234283
 30
0.0
  0
VERTEX
  5
3B2
330
3B0
100
AcDbEntity
  8
BEMA_UNG
 62
     7
100
AcDbVertex
100
AcDb2dVertex
 10
-197.4580173111169
 20
-86.94444888234283
 30
0.0
  0
SEQEND
  5
3B3
330
3B0
100
AcDbEntity
  8
BEMA_UNG
  0
POLYLINE
  5
3B4
330
1F
100
AcDbEntity
  8
BEMA_UNG
 62
     7
100
AcDb2dPolyline
 66
     1
 10
0.0
 20
0.0
 30
0.0
  0
VERTEX
  5
3B5
330
3B4
100
AcDbEntity
  8
BEMA_UNG
 62
     7
100
AcDbVertex
100
AcDb2dVertex
 10
-197.5596476949767
 20
-86.97235417418231
 30
0.0
  0
VERTEX
  5
3B6
330
3B4
100
AcDbEntity
  8
BEMA_UNG
 62
     7
100
AcDbVertex
100
AcDb2dVertex
 10
-197.2461437990022
 20
-86.97235417418231
 30
0.0
  0
SEQEND
  5
3B7
330
3B4
100
AcDbEntity
  8
BEMA_UNG
  0
POLYLINE
  5
3B8
330
1F
100
AcDbEntity
  8
BEMA_UNG
 62
     7
100
AcDb2dPolyline
 66
     1
 10
0.0
 20
0.0
 30
0.0
  0
VERTEX
  5
3B9
330
3B8
100
AcDbEntity
  8
BEMA_UNG
 62
     7
100
AcDbVertex
100
AcDb2dVertex
 10
-197.5596476949767
 20
-87.0002594660218
 30
0.0
  0
VERTEX
  5
3BA
330
3B8
100
AcDbEntity
  8
BEMA_UNG
 62
     7
100
AcDbVertex
100
AcDb2dVertex
 10
-197.0337535222239
 20
-87.0002594660218
 30
0.0
  0
SEQEND
  5
3BB
330
3B8
100
AcDbEntity
  8
BEMA_UNG
  0
POLYLINE
  5
3BC
330
1F
100
AcDbEntity
  8
BEMA_UNG
 62
     7
100
AcDb2dPolyline
 66
     1
 10
0.0
 20
0.0
 30
0.0
  0
VERTEX
  5
3BD
330
3BC
100
AcDbEntity
  8
BEMA_UNG
 62
     7
100
AcDbVertex
100
AcDb2dVertex
 10
-197.5596476949767
 20
-87.02816475786129
 30
0.0
  0
VERTEX
  5
3BE
330
3BC
100
AcDbEntity
  8
BEMA_UNG
 62
     7
100
AcDbVertex
100
AcDb2dVertex
 10
-196.8217077552213
 20
-87.02816475786129
 30
0.0
  0
SEQEND
  5
3BF
330
3BC
100
AcDbEntity
  8
BEMA_UNG
  0
POLYLINE
  5
3C0
330
1F
100
AcDbEntity
  8
BEMA_UNG
 62
     7
100
AcDb2dPolyline
 66
     1
 10
0.0
 20
0.0
 30
0.0
  0
VERTEX
  5
3C1
330
3C0
100
AcDbEntity
  8
BEMA_UNG
 62
     7
100
AcDbVertex
100
AcDb2dVertex
 10
-197.5596476949767
 20
-87.05607004970078
 30
0.0
  0
VERTEX
  5
3C2
330
3C0
100
AcDbEntity
  8
BEMA_UNG
 62
     7
100
AcDbVertex
100
AcDb2dVertex
 10
-196.6091452235551
 20
-87.05607004970078
 30
0.0
  0
SEQEND
  5
3C3
330
3C0
100
AcDbEntity
  8
BEMA_UNG
  0
POLYLINE
  5
3C4
330
1F
100
AcDbEntity
  8
BEMA_UNG
 62
     7
100
AcDb2dPolyline
 66
     1
 10
0.0
 20
0.0
 30
0.0
  0
VERTEX
  5
3C5
330
3C4
100
AcDbEntity
  8
BEMA_UNG
 62
     7
100
AcDbVertex
100
AcDb2dVertex
 10
-197.5596476949767
 20
-87.08414759642817
 30
0.0
  0
VERTEX
  5
3C6
330
3C4
100
AcDbEntity
  8
BEMA_UNG
 62
     7
100
AcDbVertex
100
AcDb2dVertex
 10
-196.3972717114405
 20
-87.08414759642817
 30
0.0
  0
SEQEND
  5
3C7
330
3C4
100
AcDbEntity
  8
BEMA_UNG
  0
POLYLINE
  5
3C8
330
1F
100
AcDbEntity
  8
BEMA_UNG
 62
     7
100
AcDb2dPolyline
 66
     1
 10
0.0
 20
0.0
 30
0.0
  0
VERTEX
  5
3C9
330
3C8
100
AcDbEntity
  8
BEMA_UNG
 62
     7
100
AcDbVertex
100
AcDb2dVertex
 10
-197.5596476949767
 20
-87.11205288826766
 30
0.0
  0
VERTEX
  5
3CA
330
3C8
100
AcDbEntity
  8
BEMA_UNG
 62
     7
100
AcDbVertex
100
AcDb2dVertex
 10
-196.1848814346621
 20
-87.11205288826766
 30
0.0
  0
SEQEND
  5
3CB
330
3C8
100
AcDbEntity
  8
BEMA_UNG
  0
POLYLINE
  5
3CC
330
1F
100
AcDbEntity
  8
BEMA_UNG
 62
     7
100
AcDb2dPolyline
 66
     1
 10
0.0
 20
0.0
 30
0.0
  0
VERTEX
  5
3CD
330
3CC
100
AcDbEntity
  8
BEMA_UNG
 62
     7
100
AcDbVertex
100
AcDb2dVertex
 10
-197.5596476949767
 20
-87.2794846393046
 30
0.0
  0
VERTEX
  5
3CE
330
3CC
100
AcDbEntity
  8
BEMA_UNG
 62
     7
100
AcDbVertex
100
AcDb2dVertex
 10
-197.4580173111169
 20
-87.2794846393046
 30
0.0
  0
SEQEND
  5
3CF
330
3CC
100
AcDbEntity
  8
BEMA_UNG
  0
POLYLINE
  5
3D0
330
1F
100
AcDbEntity
  8
BEMA_UNG
 62
     7
100
AcDb2dPolyline
 66
     1
 10
0.0
 20
0.0
 30
0.0
  0
VERTEX
  5
3D1
330
3D0
100
AcDbEntity
  8
BEMA_UNG
 62
     7
100
AcDbVertex
100
AcDb2dVertex
 10
-197.5596476949767
 20
-87.2794846393046
 30
0.0
  0
VERTEX
  5
3D2
330
3D0
100
AcDbEntity
  8
BEMA_UNG
 62
     7
100
AcDbVertex
100
AcDb2dVertex
 10
-197.4580173111169
 20
-87.2794846393046
 30
0.0
  0
SEQEND
  5
3D3
330
3D0
100
AcDbEntity
  8
BEMA_UNG
  0
POLYLINE
  5
3D4
330
1F
100
AcDbEntity
  8
BEMA_UNG
 62
     7
100
AcDb2dPolyline
 66
     1
 10
0.0
 20
0.0
 30
0.0
  0
VERTEX
  5
3D5
330
3D4
100
AcDbEntity
  8
BEMA_UNG
 62
     7
100
AcDbVertex
100
AcDb2dVertex
 10
-197.5596476949767
 20
-87.25157934746511
 30
0.0
  0
VERTEX
  5
3D6
330
3D4
100
AcDbEntity
  8
BEMA_UNG
 62
     7
100
AcDbVertex
100
AcDb2dVertex
 10
-197.2461437990022
 20
-87.25157934746511
 30
0.0
  0
SEQEND
  5
3D7
330
3D4
100
AcDbEntity
  8
BEMA_UNG
  0
POLYLINE
  5
3D8
330
1F
100
AcDbEntity
  8
BEMA_UNG
 62
     7
100
AcDb2dPolyline
 66
     1
 10
0.0
 20
0.0
 30
0.0
  0
VERTEX
  5
3D9
330
3D8
100
AcDbEntity
  8
BEMA_UNG
 62
     7
100
AcDbVertex
100
AcDb2dVertex
 10
-197.5596476949767
 20
-87.22367405562562
 30
0.0
  0
VERTEX
  5
3DA
330
3D8
100
AcDbEntity
  8
BEMA_UNG
 62
     7
100
AcDbVertex
100
AcDb2dVertex
 10
-197.0337535222239
 20
-87.22367405562562
 30
0.0
  0
SEQEND
  5
3DB
330
3D8
100
AcDbEntity
  8
BEMA_UNG
  0
POLYLINE
  5
3DC
330
1F
100
AcDbEntity
  8
BEMA_UNG
 62
     7
100
AcDb2dPolyline
 66
     1
 10
0.0
 20
0.0
 30
0.0
  0
VERTEX
  5
3DD
330
3DC
100
AcDbEntity
  8
BEMA_UNG
 62
     7
100
AcDbVertex
100
AcDb2dVertex
 10
-197.5596476949767
 20
-87.19559650889823
 30
0.0
  0
VERTEX
  5
3DE
330
3DC
100
AcDbEntity
  8
BEMA_UNG
 62
     7
100
AcDbVertex
100
AcDb2dVertex
 10
-196.8217077552213
 20
-87.19559650889823
 30
0.0
  0
SEQEND
  5
3DF
330
3DC
100
AcDbEntity
  8
BEMA_UNG
  0
POLYLINE
  5
3E0
330
1F
100
AcDbEntity
  8
BEMA_UNG
 62
     7
100
AcDb2dPolyline
 66
     1
 10
0.0
 20
0.0
 30
0.0
  0
VERTEX
  5
3E1
330
3E0
100
AcDbEntity
  8
BEMA_UNG
 62
     7
100
AcDbVertex
100
AcDb2dVertex
 10
-197.5596476949767
 20
-87.16769121705875
 30
0.0
  0
VERTEX
  5
3E2
330
3E0
100
AcDbEntity
  8
BEMA_UNG
 62
     7
100
AcDbVertex
100
AcDb2dVertex
 10
-196.6091452235551
 20
-87.16769121705875
 30
0.0
  0
SEQEND
  5
3E3
330
3E0
100
AcDbEntity
  8
BEMA_UNG
  0
POLYLINE
  5
3E4
330
1F
100
AcDbEntity
  8
BEMA_UNG
 62
     7
100
AcDb2dPolyline
 66
     1
 10
0.0
 20
0.0
 30
0.0
  0
VERTEX
  5
3E5
330
3E4
100
AcDbEntity
  8
BEMA_UNG
 62
     7
100
AcDbVertex
100
AcDb2dVertex
 10
-197.5596476949767
 20
-87.13978592521926
 30
0.0
  0
VERTEX
  5
3E6
330
3E4
100
AcDbEntity
  8
BEMA_UNG
 62
     7
100
AcDbVertex
100
AcDb2dVertex
 10
-196.3972717114405
 20
-87.13978592521926
 30
0.0
  0
SEQEND
  5
3E7
330
3E4
100
AcDbEntity
  8
BEMA_UNG
  0
POLYLINE
  5
3E8
330
1F
100
AcDbEntity
  8
BEMA_UNG
 62
     7
100
AcDb2dPolyline
 66
     1
 10
0.0
 20
0.0
 30
0.0
  0
VERTEX
  5
3E9
330
3E8
100
AcDbEntity
  8
BEMA_UNG
 62
     7
100
AcDbVertex
100
AcDb2dVertex
 10
-197.5596476949767
 20
-87.11205288826766
 30
0.0
  0
VERTEX
  5
3EA
330
3E8
100
AcDbEntity
  8
BEMA_UNG
 62
     7
100
AcDbVertex
100
AcDb2dVertex
 10
-196.1848814346621
 20
-87.11205288826766
 30
0.0
  0
SEQEND
  5
3EB
330
3E8
100
AcDbEntity
  8
BEMA_UNG
  0
POLYLINE
  5
3EC
330
1F
100
AcDbEntity
  8
BEMA_UNG
 62
     7
100
AcDb2dPolyline
 66
     1
 10
0.0
 20
0.0
 30
0.0
  0
VERTEX
  5
3ED
330
3EC
100
AcDbEntity
  8
BEMA_UNG
 62
     7
100
AcDbVertex
100
AcDb2dVertex
 10
-196.4598002357475
 20
-93.03589848308279
 30
0.0
  0
VERTEX
  5
3EE
330
3EC
100
AcDbEntity
  8
BEMA_UNG
 62
     7
100
AcDbVertex
100
AcDb2dVertex
 10
-186.9802692449401
 20
-93.03589848308279
 30
0.0
  0
SEQEND
  5
3EF
330
3EC
100
AcDbEntity
  8
BEMA_UNG
  0
POLYLINE
  5
3F0
330
1F
100
AcDbEntity
  8
BEMA_UNG
 62
     7
100
AcDb2dPolyline
 66
     1
 10
0.0
 20
0.0
 30
0.0
  0
VERTEX
  5
3F1
330
3F0
100
AcDbEntity
  8
BEMA_UNG
 62
     7
100
AcDbVertex
100
AcDb2dVertex
 10
-196.4598002357475
 20
-98.53582479878072
 30
0.0
  0
VERTEX
  5
3F2
330
3F0
100
AcDbEntity
  8
BEMA_UNG
 62
     7
100
AcDbVertex
100
AcDb2dVertex
 10
-186.9802692449401
 20
-98.53582479878072
 30
0.0
  0
SEQEND
  5
3F3
330
3F0
100
AcDbEntity
  8
BEMA_UNG
  0
POLYLINE
  5
3F4
330
1F
100
AcDbEntity
  8
BEMA_UNG
 62
     7
100
AcDb2dPolyline
 66
     1
 10
0.0
 20
0.0
 30
0.0
  0
VERTEX
  5
3F5
330
3F4
100
AcDbEntity
  8
BEMA_UNG
 62
     7
100
AcDbVertex
100
AcDb2dVertex
 10
-188.0802889590572
 20
-93.03589848308279
 30
0.0
  0
VERTEX
  5
3F6
330
3F4
100
AcDbEntity
  8
BEMA_UNG
 62
     7
100
AcDbVertex
100
AcDb2dVertex
 10
-188.0802889590572
 20
-98.53582479878072
 30
0.0
  0
SEQEND
  5
3F7
330
3F4
100
AcDbEntity
  8
BEMA_UNG
  0
POLYLINE
  5
3F8
330
1F
100
AcDbEntity
  8
BEMA_UNG
 62
     7
100
AcDb2dPolyline
 66
     1
 10
0.0
 20
0.0
 30
0.0
  0
VERTEX
  5
3F9
330
3F8
100
AcDbEntity
  8
BEMA_UNG
 62
     7
100
AcDbVertex
100
AcDb2dVertex
 10
-188.0802889590572
 20
-93.03589848308279
 30
0.0
  0
VERTEX
  5
3FA
330
3F8
100
AcDbEntity
  8
BEMA_UNG
 62
     7
100
AcDbVertex
100
AcDb2dVertex
 10
-188.261501101126
 20
-94.41083699828529
 30
0.0
  0
VERTEX
  5
3FB
330
3F8
100
AcDbEntity
  8
BEMA_UNG
 62
     7
100
AcDbVertex
100
AcDb2dVertex
 10
-187.8990768169884
 20
-94.41083699828529
 30
0.0
  0
VERTEX
  5
3FC
330
3F8
100
AcDbEntity
  8
BEMA_UNG
 62
     7
100
AcDbVertex
100
AcDb2dVertex
 10
-188.0802889590572
 20
-93.03589848308279
 30
0.0
  0
SEQEND
  5
3FD
330
3F8
100
AcDbEntity
  8
BEMA_UNG
  0
POLYLINE
  5
3FE
330
1F
100
AcDbEntity
  8
BEMA_UNG
 62
     7
100
AcDb2dPolyline
 66
     1
 10
0.0
 20
0.0
 30
0.0
  0
VERTEX
  5
3FF
330
3FE
100
AcDbEntity
  8
BEMA_UNG
 62
     7
100
AcDbVertex
100
AcDb2dVertex
 10
-188.2484097296458
 20
-94.41083699828529
 30
0.0
  0
VERTEX
  5
400
330
3FE
100
AcDbEntity
  8
BEMA_UNG
 62
     7
100
AcDbVertex
100
AcDb2dVertex
 10
-188.2484097296458
 20
-94.30903435953753
 30
0.0
  0
SEQEND
  5
401
330
3FE
100
AcDbEntity
  8
BEMA_UNG
  0
POLYLINE
  5
402
330
1F
100
AcDbEntity
  8
BEMA_UNG
 62
     7
100
AcDb2dPolyline
 66
     1
 10
0.0
 20
0.0
 30
0.0
  0
VERTEX
  5
403
330
402
100
AcDbEntity
  8
BEMA_UNG
 62
     7
100
AcDbVertex
100
AcDb2dVertex
 10
-188.2484097296458
 20
-94.41083699828529
 30
0.0
  0
VERTEX
  5
404
330
402
100
AcDbEntity
  8
BEMA_UNG
 62
     7
100
AcDbVertex
100
AcDb2dVertex
 10
-188.2484097296458
 20
-94.30903435953753
 30
0.0
  0
SEQEND
  5
405
330
402
100
AcDbEntity
  8
BEMA_UNG
  0
POLYLINE
  5
406
330
1F
100
AcDbEntity
  8
BEMA_UNG
 62
     7
100
AcDb2dPolyline
 66
     1
 10
0.0
 20
0.0
 30
0.0
  0
VERTEX
  5
407
330
406
100
AcDbEntity
  8
BEMA_UNG
 62
     7
100
AcDbVertex
100
AcDb2dVertex
 10
-188.2201599280305
 20
-94.41083699828529
 30
0.0
  0
VERTEX
  5
408
330
406
100
AcDbEntity
  8
BEMA_UNG
 62
     7
100
AcDbVertex
100
AcDb2dVertex
 10
-188.2201599280305
 20
-94.09716084742288
 30
0.0
  0
SEQEND
  5
409
330
406
100
AcDbEntity
  8
BEMA_UNG
  0
POLYLINE
  5
40A
330
1F
100
AcDbEntity
  8
BEMA_UNG
 62
     7
100
AcDb2dPolyline
 66
     1
 10
0.0
 20
0.0
 30
0.0
  0
VERTEX
  5
40B
330
40A
100
AcDbEntity
  8
BEMA_UNG
 62
     7
100
AcDbVertex
100
AcDb2dVertex
 10
-188.1919101264152
 20
-94.41083699828529
 30
0.0
  0
VERTEX
  5
40C
330
40A
100
AcDbEntity
  8
BEMA_UNG
 62
     7
100
AcDbVertex
100
AcDb2dVertex
 10
-188.1919101264152
 20
-93.88477057064455
 30
0.0
  0
SEQEND
  5
40D
330
40A
100
AcDbEntity
  8
BEMA_UNG
  0
POLYLINE
  5
40E
330
1F
100
AcDbEntity
  8
BEMA_UNG
 62
     7
100
AcDb2dPolyline
 66
     1
 10
0.0
 20
0.0
 30
0.0
  0
VERTEX
  5
40F
330
40E
100
AcDbEntity
  8
BEMA_UNG
 62
     7
100
AcDbVertex
100
AcDb2dVertex
 10
-188.1640048345757
 20
-94.41083699828529
 30
0.0
  0
VERTEX
  5
410
330
40E
100
AcDbEntity
  8
BEMA_UNG
 62
     7
100
AcDbVertex
100
AcDb2dVertex
 10
-188.1640048345757
 20
-93.672724803642
 30
0.0
  0
SEQEND
  5
411
330
40E
100
AcDbEntity
  8
BEMA_UNG
  0
POLYLINE
  5
412
330
1F
100
AcDbEntity
  8
BEMA_UNG
 62
     7
100
AcDb2dPolyline
 66
     1
 10
0.0
 20
0.0
 30
0.0
  0
VERTEX
  5
413
330
412
100
AcDbEntity
  8
BEMA_UNG
 62
     7
100
AcDbVertex
100
AcDb2dVertex
 10
-188.1360995427362
 20
-94.41083699828529
 30
0.0
  0
VERTEX
  5
414
330
412
100
AcDbEntity
  8
BEMA_UNG
 62
     7
100
AcDbVertex
100
AcDb2dVertex
 10
-188.1360995427362
 20
-93.46016227197576
 30
0.0
  0
SEQEND
  5
415
330
412
100
AcDbEntity
  8
BEMA_UNG
  0
POLYLINE
  5
416
330
1F
100
AcDbEntity
  8
BEMA_UNG
 62
     7
100
AcDb2dPolyline
 66
     1
 10
0.0
 20
0.0
 30
0.0
  0
VERTEX
  5
417
330
416
100
AcDbEntity
  8
BEMA_UNG
 62
     7
100
AcDbVertex
100
AcDb2dVertex
 10
-188.1081942508967
 20
-94.41083699828529
 30
0.0
  0
VERTEX
  5
418
330
416
100
AcDbEntity
  8
BEMA_UNG
 62
     7
100
AcDbVertex
100
AcDb2dVertex
 10
-188.1081942508967
 20
-93.24828875986113
 30
0.0
  0
SEQEND
  5
419
330
416
100
AcDbEntity
  8
BEMA_UNG
  0
POLYLINE
  5
41A
330
1F
100
AcDbEntity
  8
BEMA_UNG
 62
     7
100
AcDb2dPolyline
 66
     1
 10
0.0
 20
0.0
 30
0.0
  0
VERTEX
  5
41B
330
41A
100
AcDbEntity
  8
BEMA_UNG
 62
     7
100
AcDbVertex
100
AcDb2dVertex
 10
-188.0802889590572
 20
-94.41083699828529
 30
0.0
  0
VERTEX
  5
41C
330
41A
100
AcDbEntity
  8
BEMA_UNG
 62
     7
100
AcDbVertex
100
AcDb2dVertex
 10
-188.0802889590572
 20
-93.03589848308279
 30
0.0
  0
SEQEND
  5
41D
330
41A
100
AcDbEntity
  8
BEMA_UNG
  0
POLYLINE
  5
41E
330
1F
100
AcDbEntity
  8
BEMA_UNG
 62
     7
100
AcDb2dPolyline
 66
     1
 10
0.0
 20
0.0
 30
0.0
  0
VERTEX
  5
41F
330
41E
100
AcDbEntity
  8
BEMA_UNG
 62
     7
100
AcDbVertex
100
AcDb2dVertex
 10
-187.9125126982445
 20
-94.41083699828529
 30
0.0
  0
VERTEX
  5
420
330
41E
100
AcDbEntity
  8
BEMA_UNG
 62
     7
100
AcDbVertex
100
AcDb2dVertex
 10
-187.9125126982445
 20
-94.30903435953753
 30
0.0
  0
SEQEND
  5
421
330
41E
100
AcDbEntity
  8
BEMA_UNG
  0
POLYLINE
  5
422
330
1F
100
AcDbEntity
  8
BEMA_UNG
 62
     7
100
AcDb2dPolyline
 66
     1
 10
0.0
 20
0.0
 30
0.0
  0
VERTEX
  5
423
330
422
100
AcDbEntity
  8
BEMA_UNG
 62
     7
100
AcDbVertex
100
AcDb2dVertex
 10
-187.9125126982445
 20
-94.41083699828529
 30
0.0
  0
VERTEX
  5
424
330
422
100
AcDbEntity
  8
BEMA_UNG
 62
     7
100
AcDbVertex
100
AcDb2dVertex
 10
-187.9125126982445
 20
-94.30903435953753
 30
0.0
  0
SEQEND
  5
425
330
422
100
AcDbEntity
  8
BEMA_UNG
  0
POLYLINE
  5
426
330
1F
100
AcDbEntity
  8
BEMA_UNG
 62
     7
100
AcDb2dPolyline
 66
     1
 10
0.0
 20
0.0
 30
0.0
  0
VERTEX
  5
427
330
426
100
AcDbEntity
  8
BEMA_UNG
 62
     7
100
AcDbVertex
100
AcDb2dVertex
 10
-187.940417990084
 20
-94.41083699828529
 30
0.0
  0
VERTEX
  5
428
330
426
100
AcDbEntity
  8
BEMA_UNG
 62
     7
100
AcDbVertex
100
AcDb2dVertex
 10
-187.940417990084
 20
-94.09716084742288
 30
0.0
  0
SEQEND
  5
429
330
426
100
AcDbEntity
  8
BEMA_UNG
  0
POLYLINE
  5
42A
330
1F
100
AcDbEntity
  8
BEMA_UNG
 62
     7
100
AcDb2dPolyline
 66
     1
 10
0.0
 20
0.0
 30
0.0
  0
VERTEX
  5
42B
330
42A
100
AcDbEntity
  8
BEMA_UNG
 62
     7
100
AcDbVertex
100
AcDb2dVertex
 10
-187.9683232819235
 20
-94.41083699828529
 30
0.0
  0
VERTEX
  5
42C
330
42A
100
AcDbEntity
  8
BEMA_UNG
 62
     7
100
AcDbVertex
100
AcDb2dVertex
 10
-187.9683232819235
 20
-93.88477057064455
 30
0.0
  0
SEQEND
  5
42D
330
42A
100
AcDbEntity
  8
BEMA_UNG
  0
POLYLINE
  5
42E
330
1F
100
AcDbEntity
  8
BEMA_UNG
 62
     7
100
AcDb2dPolyline
 66
     1
 10
0.0
 20
0.0
 30
0.0
  0
VERTEX
  5
42F
330
42E
100
AcDbEntity
  8
BEMA_UNG
 62
     7
100
AcDbVertex
100
AcDb2dVertex
 10
-187.996228573763
 20
-94.41083699828529
 30
0.0
  0
VERTEX
  5
430
330
42E
100
AcDbEntity
  8
BEMA_UNG
 62
     7
100
AcDbVertex
100
AcDb2dVertex
 10
-187.996228573763
 20
-93.672724803642
 30
0.0
  0
SEQEND
  5
431
330
42E
100
AcDbEntity
  8
BEMA_UNG
  0
POLYLINE
  5
432
330
1F
100
AcDbEntity
  8
BEMA_UNG
 62
     7
100
AcDb2dPolyline
 66
     1
 10
0.0
 20
0.0
 30
0.0
  0
VERTEX
  5
433
330
432
100
AcDbEntity
  8
BEMA_UNG
 62
     7
100
AcDbVertex
100
AcDb2dVertex
 10
-188.0241338656025
 20
-94.41083699828529
 30
0.0
  0
VERTEX
  5
434
330
432
100
AcDbEntity
  8
BEMA_UNG
 62
     7
100
AcDbVertex
100
AcDb2dVertex
 10
-188.0241338656025
 20
-93.46016227197576
 30
0.0
  0
SEQEND
  5
435
330
432
100
AcDbEntity
  8
BEMA_UNG
  0
POLYLINE
  5
436
330
1F
100
AcDbEntity
  8
BEMA_UNG
 62
     7
100
AcDb2dPolyline
 66
     1
 10
0.0
 20
0.0
 30
0.0
  0
VERTEX
  5
437
330
436
100
AcDbEntity
  8
BEMA_UNG
 62
     7
100
AcDbVertex
100
AcDb2dVertex
 10
-188.0523836672178
 20
-94.41083699828529
 30
0.0
  0
VERTEX
  5
438
330
436
100
AcDbEntity
  8
BEMA_UNG
 62
     7
100
AcDbVertex
100
AcDb2dVertex
 10
-188.0523836672178
 20
-93.24828875986113
 30
0.0
  0
SEQEND
  5
439
330
436
100
AcDbEntity
  8
BEMA_UNG
  0
POLYLINE
  5
43A
330
1F
100
AcDbEntity
  8
BEMA_UNG
 62
     7
100
AcDb2dPolyline
 66
     1
 10
0.0
 20
0.0
 30
0.0
  0
VERTEX
  5
43B
330
43A
100
AcDbEntity
  8
BEMA_UNG
 62
     7
100
AcDbVertex
100
AcDb2dVertex
 10
-188.0802889590572
 20
-94.41083699828529
 30
0.0
  0
VERTEX
  5
43C
330
43A
100
AcDbEntity
  8
BEMA_UNG
 62
     7
100
AcDbVertex
100
AcDb2dVertex
 10
-188.0802889590572
 20
-93.03589848308279
 30
0.0
  0
SEQEND
  5
43D
330
43A
100
AcDbEntity
  8
BEMA_UNG
  0
POLYLINE
  5
43E
330
1F
100
AcDbEntity
  8
BEMA_UNG
 62
     7
100
AcDb2dPolyline
 66
     1
 10
0.0
 20
0.0
 30
0.0
  0
VERTEX
  5
43F
330
43E
100
AcDbEntity
  8
BEMA_UNG
 62
     7
100
AcDbVertex
100
AcDb2dVertex
 10
-188.0802889590572
 20
-98.53582479878072
 30
0.0
  0
VERTEX
  5
440
330
43E
100
AcDbEntity
  8
BEMA_UNG
 62
     7
100
AcDbVertex
100
AcDb2dVertex
 10
-187.8990768169884
 20
-97.16088628357821
 30
0.0
  0
VERTEX
  5
441
330
43E
100
AcDbEntity
  8
BEMA_UNG
 62
     7
100
AcDbVertex
100
AcDb2dVertex
 10
-188.261501101126
 20
-97.16088628357821
 30
0.0
  0
VERTEX
  5
442
330
43E
100
AcDbEntity
  8
BEMA_UNG
 62
     7
100
AcDbVertex
100
AcDb2dVertex
 10
-188.0802889590572
 20
-98.53582479878072
 30
0.0
  0
SEQEND
  5
443
330
43E
100
AcDbEntity
  8
BEMA_UNG
  0
POLYLINE
  5
444
330
1F
100
AcDbEntity
  8
BEMA_UNG
 62
     7
100
AcDb2dPolyline
 66
     1
 10
0.0
 20
0.0
 30
0.0
  0
VERTEX
  5
445
330
444
100
AcDbEntity
  8
BEMA_UNG
 62
     7
100
AcDbVertex
100
AcDb2dVertex
 10
-187.9125126982445
 20
-97.16088628357821
 30
0.0
  0
VERTEX
  5
446
330
444
100
AcDbEntity
  8
BEMA_UNG
 62
     7
100
AcDbVertex
100
AcDb2dVertex
 10
-187.9125126982445
 20
-97.26234441255019
 30
0.0
  0
SEQEND
  5
447
330
444
100
AcDbEntity
  8
BEMA_UNG
  0
POLYLINE
  5
448
330
1F
100
AcDbEntity
  8
BEMA_UNG
 62
     7
100
AcDb2dPolyline
 66
     1
 10
0.0
 20
0.0
 30
0.0
  0
VERTEX
  5
449
330
448
100
AcDbEntity
  8
BEMA_UNG
 62
     7
100
AcDbVertex
100
AcDb2dVertex
 10
-187.9125126982445
 20
-97.16088628357821
 30
0.0
  0
VERTEX
  5
44A
330
448
100
AcDbEntity
  8
BEMA_UNG
 62
     7
100
AcDbVertex
100
AcDb2dVertex
 10
-187.9125126982445
 20
-97.26234441255019
 30
0.0
  0
SEQEND
  5
44B
330
448
100
AcDbEntity
  8
BEMA_UNG
  0
POLYLINE
  5
44C
330
1F
100
AcDbEntity
  8
BEMA_UNG
 62
     7
100
AcDb2dPolyline
 66
     1
 10
0.0
 20
0.0
 30
0.0
  0
VERTEX
  5
44D
330
44C
100
AcDbEntity
  8
BEMA_UNG
 62
     7
100
AcDbVertex
100
AcDb2dVertex
 10
-187.940417990084
 20
-97.16088628357821
 30
0.0
  0
VERTEX
  5
44E
330
44C
100
AcDbEntity
  8
BEMA_UNG
 62
     7
100
AcDbVertex
100
AcDb2dVertex
 10
-187.940417990084
 20
-97.47490694421641
 30
0.0
  0
SEQEND
  5
44F
330
44C
100
AcDbEntity
  8
BEMA_UNG
  0
POLYLINE
  5
450
330
1F
100
AcDbEntity
  8
BEMA_UNG
 62
     7
100
AcDb2dPolyline
 66
     1
 10
0.0
 20
0.0
 30
0.0
  0
VERTEX
  5
451
330
450
100
AcDbEntity
  8
BEMA_UNG
 62
     7
100
AcDbVertex
100
AcDb2dVertex
 10
-187.9683232819235
 20
-97.16088628357821
 30
0.0
  0
VERTEX
  5
452
330
450
100
AcDbEntity
  8
BEMA_UNG
 62
     7
100
AcDbVertex
100
AcDb2dVertex
 10
-187.9683232819235
 20
-97.68695271121896
 30
0.0
  0
SEQEND
  5
453
330
450
100
AcDbEntity
  8
BEMA_UNG
  0
POLYLINE
  5
454
330
1F
100
AcDbEntity
  8
BEMA_UNG
 62
     7
100
AcDb2dPolyline
 66
     1
 10
0.0
 20
0.0
 30
0.0
  0
VERTEX
  5
455
330
454
100
AcDbEntity
  8
BEMA_UNG
 62
     7
100
AcDbVertex
100
AcDb2dVertex
 10
-187.996228573763
 20
-97.16088628357821
 30
0.0
  0
VERTEX
  5
456
330
454
100
AcDbEntity
  8
BEMA_UNG
 62
     7
100
AcDbVertex
100
AcDb2dVertex
 10
-187.996228573763
 20
-97.8995152428852
 30
0.0
  0
SEQEND
  5
457
330
454
100
AcDbEntity
  8
BEMA_UNG
  0
POLYLINE
  5
458
330
1F
100
AcDbEntity
  8
BEMA_UNG
 62
     7
100
AcDb2dPolyline
 66
     1
 10
0.0
 20
0.0
 30
0.0
  0
VERTEX
  5
459
330
458
100
AcDbEntity
  8
BEMA_UNG
 62
     7
100
AcDbVertex
100
AcDb2dVertex
 10
-188.0241338656025
 20
-97.16088628357821
 30
0.0
  0
VERTEX
  5
45A
330
458
100
AcDbEntity
  8
BEMA_UNG
 62
     7
100
AcDbVertex
100
AcDb2dVertex
 10
-188.0241338656025
 20
-98.11156100988774
 30
0.0
  0
SEQEND
  5
45B
330
458
100
AcDbEntity
  8
BEMA_UNG
  0
POLYLINE
  5
45C
330
1F
100
AcDbEntity
  8
BEMA_UNG
 62
     7
100
AcDb2dPolyline
 66
     1
 10
0.0
 20
0.0
 30
0.0
  0
VERTEX
  5
45D
330
45C
100
AcDbEntity
  8
BEMA_UNG
 62
     7
100
AcDbVertex
100
AcDb2dVertex
 10
-188.0523836672178
 20
-97.16088628357821
 30
0.0
  0
VERTEX
  5
45E
330
45C
100
AcDbEntity
  8
BEMA_UNG
 62
     7
100
AcDbVertex
100
AcDb2dVertex
 10
-188.0523836672178
 20
-98.32377903177819
 30
0.0
  0
SEQEND
  5
45F
330
45C
100
AcDbEntity
  8
BEMA_UNG
  0
POLYLINE
  5
460
330
1F
100
AcDbEntity
  8
BEMA_UNG
 62
     7
100
AcDb2dPolyline
 66
     1
 10
0.0
 20
0.0
 30
0.0
  0
VERTEX
  5
461
330
460
100
AcDbEntity
  8
BEMA_UNG
 62
     7
100
AcDbVertex
100
AcDb2dVertex
 10
-188.0802889590572
 20
-97.16088628357821
 30
0.0
  0
VERTEX
  5
462
330
460
100
AcDbEntity
  8
BEMA_UNG
 62
     7
100
AcDbVertex
100
AcDb2dVertex
 10
-188.0802889590572
 20
-98.53582479878072
 30
0.0
  0
SEQEND
  5
463
330
460
100
AcDbEntity
  8
BEMA_UNG
  0
POLYLINE
  5
464
330
1F
100
AcDbEntity
  8
BEMA_UNG
 62
     7
100
AcDb2dPolyline
 66
     1
 10
0.0
 20
0.0
 30
0.0
  0
VERTEX
  5
465
330
464
100
AcDbEntity
  8
BEMA_UNG
 62
     7
100
AcDbVertex
100
AcDb2dVertex
 10
-188.2484097296458
 20
-97.16088628357821
 30
0.0
  0
VERTEX
  5
466
330
464
100
AcDbEntity
  8
BEMA_UNG
 62
     7
100
AcDbVertex
100
AcDb2dVertex
 10
-188.2484097296458
 20
-97.26234441255019
 30
0.0
  0
SEQEND
  5
467
330
464
100
AcDbEntity
  8
BEMA_UNG
  0
POLYLINE
  5
468
330
1F
100
AcDbEntity
  8
BEMA_UNG
 62
     7
100
AcDb2dPolyline
 66
     1
 10
0.0
 20
0.0
 30
0.0
  0
VERTEX
  5
469
330
468
100
AcDbEntity
  8
BEMA_UNG
 62
     7
100
AcDbVertex
100
AcDb2dVertex
 10
-188.2484097296458
 20
-97.16088628357821
 30
0.0
  0
VERTEX
  5
46A
330
468
100
AcDbEntity
  8
BEMA_UNG
 62
     7
100
AcDbVertex
100
AcDb2dVertex
 10
-188.2484097296458
 20
-97.26234441255019
 30
0.0
  0
SEQEND
  5
46B
330
468
100
AcDbEntity
  8
BEMA_UNG
  0
POLYLINE
  5
46C
330
1F
100
AcDbEntity
  8
BEMA_UNG
 62
     7
100
AcDb2dPolyline
 66
     1
 10
0.0
 20
0.0
 30
0.0
  0
VERTEX
  5
46D
330
46C
100
AcDbEntity
  8
BEMA_UNG
 62
     7
100
AcDbVertex
100
AcDb2dVertex
 10
-188.2201599280305
 20
-97.16088628357821
 30
0.0
  0
VERTEX
  5
46E
330
46C
100
AcDbEntity
  8
BEMA_UNG
 62
     7
100
AcDbVertex
100
AcDb2dVertex
 10
-188.2201599280305
 20
-97.47490694421641
 30
0.0
  0
SEQEND
  5
46F
330
46C
100
AcDbEntity
  8
BEMA_UNG
  0
POLYLINE
  5
470
330
1F
100
AcDbEntity
  8
BEMA_UNG
 62
     7
100
AcDb2dPolyline
 66
     1
 10
0.0
 20
0.0
 30
0.0
  0
VERTEX
  5
471
330
470
100
AcDbEntity
  8
BEMA_UNG
 62
     7
100
AcDbVertex
100
AcDb2dVertex
 10
-188.1919101264152
 20
-97.16088628357821
 30
0.0
  0
VERTEX
  5
472
330
470
100
AcDbEntity
  8
BEMA_UNG
 62
     7
100
AcDbVertex
100
AcDb2dVertex
 10
-188.1919101264152
 20
-97.68695271121896
 30
0.0
  0
SEQEND
  5
473
330
470
100
AcDbEntity
  8
BEMA_UNG
  0
POLYLINE
  5
474
330
1F
100
AcDbEntity
  8
BEMA_UNG
 62
     7
100
AcDb2dPolyline
 66
     1
 10
0.0
 20
0.0
 30
0.0
  0
VERTEX
  5
475
330
474
100
AcDbEntity
  8
BEMA_UNG
 62
     7
100
AcDbVertex
100
AcDb2dVertex
 10
-188.1640048345757
 20
-97.16088628357821
 30
0.0
  0
VERTEX
  5
476
330
474
100
AcDbEntity
  8
BEMA_UNG
 62
     7
100
AcDbVertex
100
AcDb2dVertex
 10
-188.1640048345757
 20
-97.8995152428852
 30
0.0
  0
SEQEND
  5
477
330
474
100
AcDbEntity
  8
BEMA_UNG
  0
POLYLINE
  5
478
330
1F
100
AcDbEntity
  8
BEMA_UNG
 62
     7
100
AcDb2dPolyline
 66
     1
 10
0.0
 20
0.0
 30
0.0
  0
VERTEX
  5
479
330
478
100
AcDbEntity
  8
BEMA_UNG
 62
     7
100
AcDbVertex
100
AcDb2dVertex
 10
-188.1360995427362
 20
-97.16088628357821
 30
0.0
  0
VERTEX
  5
47A
330
478
100
AcDbEntity
  8
BEMA_UNG
 62
     7
100
AcDbVertex
100
AcDb2dVertex
 10
-188.1360995427362
 20
-98.11156100988774
 30
0.0
  0
SEQEND
  5
47B
330
478
100
AcDbEntity
  8
BEMA_UNG
  0
POLYLINE
  5
47C
330
1F
100
AcDbEntity
  8
BEMA_UNG
 62
     7
100
AcDb2dPolyline
 66
     1
 10
0.0
 20
0.0
 30
0.0
  0
VERTEX
  5
47D
330
47C
100
AcDbEntity
  8
BEMA_UNG
 62
     7
100
AcDbVertex
100
AcDb2dVertex
 10
-188.1081942508967
 20
-97.16088628357821
 30
0.0
  0
VERTEX
  5
47E
330
47C
100
AcDbEntity
  8
BEMA_UNG
 62
     7
100
AcDbVertex
100
AcDb2dVertex
 10
-188.1081942508967
 20
-98.32377903177819
 30
0.0
  0
SEQEND
  5
47F
330
47C
100
AcDbEntity
  8
BEMA_UNG
  0
POLYLINE
  5
480
330
1F
100
AcDbEntity
  8
BEMA_UNG
 62
     7
100
AcDb2dPolyline
 66
     1
 10
0.0
 20
0.0
 30
0.0
  0
VERTEX
  5
481
330
480
100
AcDbEntity
  8
BEMA_UNG
 62
     7
100
AcDbVertex
100
AcDb2dVertex
 10
-188.0802889590572
 20
-97.16088628357821
 30
0.0
  0
VERTEX
  5
482
330
480
100
AcDbEntity
  8
BEMA_UNG
 62
     7
100
AcDbVertex
100
AcDb2dVertex
 10
-188.0802889590572
 20
-98.53582479878072
 30
0.0
  0
SEQEND
  5
483
330
480
100
AcDbEntity
  8
BEMA_UNG
  0
POLYLINE
  5
484
330
1F
100
AcDbEntity
  8
BEMA_UNG
 62
     7
100
AcDb2dPolyline
 66
     1
 10
0.0
 20
0.0
 30
0.0
  0
VERTEX
  5
485
330
484
100
AcDbEntity
  8
BEMA_UNG
 62
     7
100
AcDbVertex
100
AcDb2dVertex
 10
-160.8836537283803
 20
-93.03589848308279
 30
0.0
  0
VERTEX
  5
486
330
484
100
AcDbEntity
  8
BEMA_UNG
 62
     7
100
AcDbVertex
100
AcDb2dVertex
 10
-151.4168695992774
 20
-93.03589848308279
 30
0.0
  0
SEQEND
  5
487
330
484
100
AcDbEntity
  8
BEMA_UNG
  0
POLYLINE
  5
488
330
1F
100
AcDbEntity
  8
BEMA_UNG
 62
     7
100
AcDb2dPolyline
 66
     1
 10
0.0
 20
0.0
 30
0.0
  0
VERTEX
  5
489
330
488
100
AcDbEntity
  8
BEMA_UNG
 62
     7
100
AcDbVertex
100
AcDb2dVertex
 10
-162.8080853359777
 20
-105.6859529405423
 30
0.0
  0
VERTEX
  5
48A
330
488
100
AcDbEntity
  8
BEMA_UNG
 62
     7
100
AcDbVertex
100
AcDb2dVertex
 10
-151.4168695992774
 20
-105.6859529405423
 30
0.0
  0
SEQEND
  5
48B
330
488
100
AcDbEntity
  8
BEMA_UNG
  0
POLYLINE
  5
48C
330
1F
100
AcDbEntity
  8
BEMA_UNG
 62
     7
100
AcDb2dPolyline
 66
     1
 10
0.0
 20
0.0
 30
0.0
  0
VERTEX
  5
48D
330
48C
100
AcDbEntity
  8
BEMA_UNG
 62
     7
100
AcDbVertex
100
AcDb2dVertex
 10
-152.5168893133945
 20
-93.03589848308279
 30
0.0
  0
VERTEX
  5
48E
330
48C
100
AcDbEntity
  8
BEMA_UNG
 62
     7
100
AcDbVertex
100
AcDb2dVertex
 10
-152.5168893133945
 20
-105.6859529405423
 30
0.0
  0
SEQEND
  5
48F
330
48C
100
AcDbEntity
  8
BEMA_UNG
  0
POLYLINE
  5
490
330
1F
100
AcDbEntity
  8
BEMA_UNG
 62
     7
100
AcDb2dPolyline
 66
     1
 10
0.0
 20
0.0
 30
0.0
  0
VERTEX
  5
491
330
490
100
AcDbEntity
  8
BEMA_UNG
 62
     7
100
AcDbVertex
100
AcDb2dVertex
 10
-152.5168893133945
 20
-93.03589848308279
 30
0.0
  0
VERTEX
  5
492
330
490
100
AcDbEntity
  8
BEMA_UNG
 62
     7
100
AcDbVertex
100
AcDb2dVertex
 10
-152.6977569456875
 20
-94.41083699828529
 30
0.0
  0
VERTEX
  5
493
330
490
100
AcDbEntity
  8
BEMA_UNG
 62
     7
100
AcDbVertex
100
AcDb2dVertex
 10
-152.3356771713257
 20
-94.41083699828529
 30
0.0
  0
VERTEX
  5
494
330
490
100
AcDbEntity
  8
BEMA_UNG
 62
     7
100
AcDbVertex
100
AcDb2dVertex
 10
-152.5168893133945
 20
-93.03589848308279
 30
0.0
  0
SEQEND
  5
495
330
490
100
AcDbEntity
  8
BEMA_UNG
  0
POLYLINE
  5
496
330
1F
100
AcDbEntity
  8
BEMA_UNG
 62
     7
100
AcDb2dPolyline
 66
     1
 10
0.0
 20
0.0
 30
0.0
  0
VERTEX
  5
497
330
496
100
AcDbEntity
  8
BEMA_UNG
 62
     7
100
AcDbVertex
100
AcDb2dVertex
 10
-152.6846655742073
 20
-94.41083699828529
 30
0.0
  0
VERTEX
  5
498
330
496
100
AcDbEntity
  8
BEMA_UNG
 62
     7
100
AcDbVertex
100
AcDb2dVertex
 10
-152.6846655742073
 20
-94.30903435953753
 30
0.0
  0
SEQEND
  5
499
330
496
100
AcDbEntity
  8
BEMA_UNG
  0
POLYLINE
  5
49A
330
1F
100
AcDbEntity
  8
BEMA_UNG
 62
     7
100
AcDb2dPolyline
 66
     1
 10
0.0
 20
0.0
 30
0.0
  0
VERTEX
  5
49B
330
49A
100
AcDbEntity
  8
BEMA_UNG
 62
     7
100
AcDbVertex
100
AcDb2dVertex
 10
-152.6846655742073
 20
-94.41083699828529
 30
0.0
  0
VERTEX
  5
49C
330
49A
100
AcDbEntity
  8
BEMA_UNG
 62
     7
100
AcDbVertex
100
AcDb2dVertex
 10
-152.6846655742073
 20
-94.30903435953753
 30
0.0
  0
SEQEND
  5
49D
330
49A
100
AcDbEntity
  8
BEMA_UNG
  0
POLYLINE
  5
49E
330
1F
100
AcDbEntity
  8
BEMA_UNG
 62
     7
100
AcDb2dPolyline
 66
     1
 10
0.0
 20
0.0
 30
0.0
  0
VERTEX
  5
49F
330
49E
100
AcDbEntity
  8
BEMA_UNG
 62
     7
100
AcDbVertex
100
AcDb2dVertex
 10
-152.6567602823678
 20
-94.41083699828529
 30
0.0
  0
VERTEX
  5
4A0
330
49E
100
AcDbEntity
  8
BEMA_UNG
 62
     7
100
AcDbVertex
100
AcDb2dVertex
 10
-152.6567602823678
 20
-94.09716084742288
 30
0.0
  0
SEQEND
  5
4A1
330
49E
100
AcDbEntity
  8
BEMA_UNG
  0
POLYLINE
  5
4A2
330
1F
100
AcDbEntity
  8
BEMA_UNG
 62
     7
100
AcDb2dPolyline
 66
     1
 10
0.0
 20
0.0
 30
0.0
  0
VERTEX
  5
4A3
330
4A2
100
AcDbEntity
  8
BEMA_UNG
 62
     7
100
AcDbVertex
100
AcDb2dVertex
 10
-152.6285104807525
 20
-94.41083699828529
 30
0.0
  0
VERTEX
  5
4A4
330
4A2
100
AcDbEntity
  8
BEMA_UNG
 62
     7
100
AcDbVertex
100
AcDb2dVertex
 10
-152.6285104807525
 20
-93.88477057064455
 30
0.0
  0
SEQEND
  5
4A5
330
4A2
100
AcDbEntity
  8
BEMA_UNG
  0
POLYLINE
  5
4A6
330
1F
100
AcDbEntity
  8
BEMA_UNG
 62
     7
100
AcDb2dPolyline
 66
     1
 10
0.0
 20
0.0
 30
0.0
  0
VERTEX
  5
4A7
330
4A6
100
AcDbEntity
  8
BEMA_UNG
 62
     7
100
AcDbVertex
100
AcDb2dVertex
 10
-152.600605188913
 20
-94.41083699828529
 30
0.0
  0
VERTEX
  5
4A8
330
4A6
100
AcDbEntity
  8
BEMA_UNG
 62
     7
100
AcDbVertex
100
AcDb2dVertex
 10
-152.600605188913
 20
-93.672724803642
 30
0.0
  0
SEQEND
  5
4A9
330
4A6
100
AcDbEntity
  8
BEMA_UNG
  0
POLYLINE
  5
4AA
330
1F
100
AcDbEntity
  8
BEMA_UNG
 62
     7
100
AcDb2dPolyline
 66
     1
 10
0.0
 20
0.0
 30
0.0
  0
VERTEX
  5
4AB
330
4AA
100
AcDbEntity
  8
BEMA_UNG
 62
     7
100
AcDbVertex
100
AcDb2dVertex
 10
-152.5726998970735
 20
-94.41083699828529
 30
0.0
  0
VERTEX
  5
4AC
330
4AA
100
AcDbEntity
  8
BEMA_UNG
 62
     7
100
AcDbVertex
100
AcDb2dVertex
 10
-152.5726998970735
 20
-93.46016227197576
 30
0.0
  0
SEQEND
  5
4AD
330
4AA
100
AcDbEntity
  8
BEMA_UNG
  0
POLYLINE
  5
4AE
330
1F
100
AcDbEntity
  8
BEMA_UNG
 62
     7
100
AcDb2dPolyline
 66
     1
 10
0.0
 20
0.0
 30
0.0
  0
VERTEX
  5
4AF
330
4AE
100
AcDbEntity
  8
BEMA_UNG
 62
     7
100
AcDbVertex
100
AcDb2dVertex
 10
-152.544794605234
 20
-94.41083699828529
 30
0.0
  0
VERTEX
  5
4B0
330
4AE
100
AcDbEntity
  8
BEMA_UNG
 62
     7
100
AcDbVertex
100
AcDb2dVertex
 10
-152.544794605234
 20
-93.24828875986113
 30
0.0
  0
SEQEND
  5
4B1
330
4AE
100
AcDbEntity
  8
BEMA_UNG
  0
POLYLINE
  5
4B2
330
1F
100
AcDbEntity
  8
BEMA_UNG
 62
     7
100
AcDb2dPolyline
 66
     1
 10
0.0
 20
0.0
 30
0.0
  0
VERTEX
  5
4B3
330
4B2
100
AcDbEntity
  8
BEMA_UNG
 62
     7
100
AcDbVertex
100
AcDb2dVertex
 10
-152.5168893133945
 20
-94.41083699828529
 30
0.0
  0
VERTEX
  5
4B4
330
4B2
100
AcDbEntity
  8
BEMA_UNG
 62
     7
100
AcDbVertex
100
AcDb2dVertex
 10
-152.5168893133945
 20
-93.03589848308279
 30
0.0
  0
SEQEND
  5
4B5
330
4B2
100
AcDbEntity
  8
BEMA_UNG
  0
POLYLINE
  5
4B6
330
1F
100
AcDbEntity
  8
BEMA_UNG
 62
     7
100
AcDb2dPolyline
 66
     1
 10
0.0
 20
0.0
 30
0.0
  0
VERTEX
  5
4B7
330
4B6
100
AcDbEntity
  8
BEMA_UNG
 62
     7
100
AcDbVertex
100
AcDb2dVertex
 10
-152.3491130525818
 20
-94.41083699828529
 30
0.0
  0
VERTEX
  5
4B8
330
4B6
100
AcDbEntity
  8
BEMA_UNG
 62
     7
100
AcDbVertex
100
AcDb2dVertex
 10
-152.3491130525818
 20
-94.30903435953753
 30
0.0
  0
SEQEND
  5
4B9
330
4B6
100
AcDbEntity
  8
BEMA_UNG
  0
POLYLINE
  5
4BA
330
1F
100
AcDbEntity
  8
BEMA_UNG
 62
     7
100
AcDb2dPolyline
 66
     1
 10
0.0
 20
0.0
 30
0.0
  0
VERTEX
  5
4BB
330
4BA
100
AcDbEntity
  8
BEMA_UNG
 62
     7
100
AcDbVertex
100
AcDb2dVertex
 10
-152.3491130525818
 20
-94.41083699828529
 30
0.0
  0
VERTEX
  5
4BC
330
4BA
100
AcDbEntity
  8
BEMA_UNG
 62
     7
100
AcDbVertex
100
AcDb2dVertex
 10
-152.3491130525818
 20
-94.30903435953753
 30
0.0
  0
SEQEND
  5
4BD
330
4BA
100
AcDbEntity
  8
BEMA_UNG
  0
POLYLINE
  5
4BE
330
1F
100
AcDbEntity
  8
BEMA_UNG
 62
     7
100
AcDb2dPolyline
 66
     1
 10
0.0
 20
0.0
 30
0.0
  0
VERTEX
  5
4BF
330
4BE
100
AcDbEntity
  8
BEMA_UNG
 62
     7
100
AcDbVertex
100
AcDb2dVertex
 10
-152.3770183444213
 20
-94.41083699828529
 30
0.0
  0
VERTEX
  5
4C0
330
4BE
100
AcDbEntity
  8
BEMA_UNG
 62
     7
100
AcDbVertex
100
AcDb2dVertex
 10
-152.3770183444213
 20
-94.09716084742288
 30
0.0
  0
SEQEND
  5
4C1
330
4BE
100
AcDbEntity
  8
BEMA_UNG
  0
POLYLINE
  5
4C2
330
1F
100
AcDbEntity
  8
BEMA_UNG
 62
     7
100
AcDb2dPolyline
 66
     1
 10
0.0
 20
0.0
 30
0.0
  0
VERTEX
  5
4C3
330
4C2
100
AcDbEntity
  8
BEMA_UNG
 62
     7
100
AcDbVertex
100
AcDb2dVertex
 10
-152.4049236362608
 20
-94.41083699828529
 30
0.0
  0
VERTEX
  5
4C4
330
4C2
100
AcDbEntity
  8
BEMA_UNG
 62
     7
100
AcDbVertex
100
AcDb2dVertex
 10
-152.4049236362608
 20
-93.88477057064455
 30
0.0
  0
SEQEND
  5
4C5
330
4C2
100
AcDbEntity
  8
BEMA_UNG
  0
POLYLINE
  5
4C6
330
1F
100
AcDbEntity
  8
BEMA_UNG
 62
     7
100
AcDb2dPolyline
 66
     1
 10
0.0
 20
0.0
 30
0.0
  0
VERTEX
  5
4C7
330
4C6
100
AcDbEntity
  8
BEMA_UNG
 62
     7
100
AcDbVertex
100
AcDb2dVertex
 10
-152.4328289281003
 20
-94.41083699828529
 30
0.0
  0
VERTEX
  5
4C8
330
4C6
100
AcDbEntity
  8
BEMA_UNG
 62
     7
100
AcDbVertex
100
AcDb2dVertex
 10
-152.4328289281003
 20
-93.672724803642
 30
0.0
  0
SEQEND
  5
4C9
330
4C6
100
AcDbEntity
  8
BEMA_UNG
  0
POLYLINE
  5
4CA
330
1F
100
AcDbEntity
  8
BEMA_UNG
 62
     7
100
AcDb2dPolyline
 66
     1
 10
0.0
 20
0.0
 30
0.0
  0
VERTEX
  5
4CB
330
4CA
100
AcDbEntity
  8
BEMA_UNG
 62
     7
100
AcDbVertex
100
AcDb2dVertex
 10
-152.4607342199398
 20
-94.41083699828529
 30
0.0
  0
VERTEX
  5
4CC
330
4CA
100
AcDbEntity
  8
BEMA_UNG
 62
     7
100
AcDbVertex
100
AcDb2dVertex
 10
-152.4607342199398
 20
-93.46016227197576
 30
0.0
  0
SEQEND
  5
4CD
330
4CA
100
AcDbEntity
  8
BEMA_UNG
  0
POLYLINE
  5
4CE
330
1F
100
AcDbEntity
  8
BEMA_UNG
 62
     7
100
AcDb2dPolyline
 66
     1
 10
0.0
 20
0.0
 30
0.0
  0
VERTEX
  5
4CF
330
4CE
100
AcDbEntity
  8
BEMA_UNG
 62
     7
100
AcDbVertex
100
AcDb2dVertex
 10
-152.488984021555
 20
-94.41083699828529
 30
0.0
  0
VERTEX
  5
4D0
330
4CE
100
AcDbEntity
  8
BEMA_UNG
 62
     7
100
AcDbVertex
100
AcDb2dVertex
 10
-152.488984021555
 20
-93.24828875986113
 30
0.0
  0
SEQEND
  5
4D1
330
4CE
100
AcDbEntity
  8
BEMA_UNG
  0
POLYLINE
  5
4D2
330
1F
100
AcDbEntity
  8
BEMA_UNG
 62
     7
100
AcDb2dPolyline
 66
     1
 10
0.0
 20
0.0
 30
0.0
  0
VERTEX
  5
4D3
330
4D2
100
AcDbEntity
  8
BEMA_UNG
 62
     7
100
AcDbVertex
100
AcDb2dVertex
 10
-152.5168893133945
 20
-94.41083699828529
 30
0.0
  0
VERTEX
  5
4D4
330
4D2
100
AcDbEntity
  8
BEMA_UNG
 62
     7
100
AcDbVertex
100
AcDb2dVertex
 10
-152.5168893133945
 20
-93.03589848308279
 30
0.0
  0
SEQEND
  5
4D5
330
4D2
100
AcDbEntity
  8
BEMA_UNG
  0
POLYLINE
  5
4D6
330
1F
100
AcDbEntity
  8
BEMA_UNG
 62
     7
100
AcDb2dPolyline
 66
     1
 10
0.0
 20
0.0
 30
0.0
  0
VERTEX
  5
4D7
330
4D6
100
AcDbEntity
  8
BEMA_UNG
 62
     7
100
AcDbVertex
100
AcDb2dVertex
 10
-152.5168893133945
 20
-105.6859529405423
 30
0.0
  0
VERTEX
  5
4D8
330
4D6
100
AcDbEntity
  8
BEMA_UNG
 62
     7
100
AcDbVertex
100
AcDb2dVertex
 10
-152.3356771713257
 20
-104.3108421704519
 30
0.0
  0
VERTEX
  5
4D9
330
4D6
100
AcDbEntity
  8
BEMA_UNG
 62
     7
100
AcDbVertex
100
AcDb2dVertex
 10
-152.6977569456875
 20
-104.3108421704519
 30
0.0
  0
VERTEX
  5
4DA
330
4D6
100
AcDbEntity
  8
BEMA_UNG
 62
     7
100
AcDbVertex
100
AcDb2dVertex
 10
-152.5168893133945
 20
-105.6859529405423
 30
0.0
  0
SEQEND
  5
4DB
330
4D6
100
AcDbEntity
  8
BEMA_UNG
  0
POLYLINE
  5
4DC
330
1F
100
AcDbEntity
  8
BEMA_UNG
 62
     7
100
AcDb2dPolyline
 66
     1
 10
0.0
 20
0.0
 30
0.0
  0
VERTEX
  5
4DD
330
4DC
100
AcDbEntity
  8
BEMA_UNG
 62
     7
100
AcDbVertex
100
AcDb2dVertex
 10
-152.3491130525818
 20
-104.3108421704519
 30
0.0
  0
VERTEX
  5
4DE
330
4DC
100
AcDbEntity
  8
BEMA_UNG
 62
     7
100
AcDbVertex
100
AcDb2dVertex
 10
-152.3491130525818
 20
-104.4124725543118
 30
0.0
  0
SEQEND
  5
4DF
330
4DC
100
AcDbEntity
  8
BEMA_UNG
  0
POLYLINE
  5
4E0
330
1F
100
AcDbEntity
  8
BEMA_UNG
 62
     7
100
AcDb2dPolyline
 66
     1
 10
0.0
 20
0.0
 30
0.0
  0
VERTEX
  5
4E1
330
4E0
100
AcDbEntity
  8
BEMA_UNG
 62
     7
100
AcDbVertex
100
AcDb2dVertex
 10
-152.3491130525818
 20
-104.3108421704519
 30
0.0
  0
VERTEX
  5
4E2
330
4E0
100
AcDbEntity
  8
BEMA_UNG
 62
     7
100
AcDbVertex
100
AcDb2dVertex
 10
-152.3491130525818
 20
-104.4124725543118
 30
0.0
  0
SEQEND
  5
4E3
330
4E0
100
AcDbEntity
  8
BEMA_UNG
  0
POLYLINE
  5
4E4
330
1F
100
AcDbEntity
  8
BEMA_UNG
 62
     7
100
AcDb2dPolyline
 66
     1
 10
0.0
 20
0.0
 30
0.0
  0
VERTEX
  5
4E5
330
4E4
100
AcDbEntity
  8
BEMA_UNG
 62
     7
100
AcDbVertex
100
AcDb2dVertex
 10
-152.3770183444213
 20
-104.3108421704519
 30
0.0
  0
VERTEX
  5
4E6
330
4E4
100
AcDbEntity
  8
BEMA_UNG
 62
     7
100
AcDbVertex
100
AcDb2dVertex
 10
-152.3770183444213
 20
-104.625035085978
 30
0.0
  0
SEQEND
  5
4E7
330
4E4
100
AcDbEntity
  8
BEMA_UNG
  0
POLYLINE
  5
4E8
330
1F
100
AcDbEntity
  8
BEMA_UNG
 62
     7
100
AcDb2dPolyline
 66
     1
 10
0.0
 20
0.0
 30
0.0
  0
VERTEX
  5
4E9
330
4E8
100
AcDbEntity
  8
BEMA_UNG
 62
     7
100
AcDbVertex
100
AcDb2dVertex
 10
-152.4049236362608
 20
-104.3108421704519
 30
0.0
  0
VERTEX
  5
4EA
330
4E8
100
AcDbEntity
  8
BEMA_UNG
 62
     7
100
AcDbVertex
100
AcDb2dVertex
 10
-152.4049236362608
 20
-104.8370808529805
 30
0.0
  0
SEQEND
  5
4EB
330
4E8
100
AcDbEntity
  8
BEMA_UNG
  0
POLYLINE
  5
4EC
330
1F
100
AcDbEntity
  8
BEMA_UNG
 62
     7
100
AcDb2dPolyline
 66
     1
 10
0.0
 20
0.0
 30
0.0
  0
VERTEX
  5
4ED
330
4EC
100
AcDbEntity
  8
BEMA_UNG
 62
     7
100
AcDbVertex
100
AcDb2dVertex
 10
-152.4328289281003
 20
-104.3108421704519
 30
0.0
  0
VERTEX
  5
4EE
330
4EC
100
AcDbEntity
  8
BEMA_UNG
 62
     7
100
AcDbVertex
100
AcDb2dVertex
 10
-152.4328289281003
 20
-105.049298874871
 30
0.0
  0
SEQEND
  5
4EF
330
4EC
100
AcDbEntity
  8
BEMA_UNG
  0
POLYLINE
  5
4F0
330
1F
100
AcDbEntity
  8
BEMA_UNG
 62
     7
100
AcDb2dPolyline
 66
     1
 10
0.0
 20
0.0
 30
0.0
  0
VERTEX
  5
4F1
330
4F0
100
AcDbEntity
  8
BEMA_UNG
 62
     7
100
AcDbVertex
100
AcDb2dVertex
 10
-152.4607342199398
 20
-104.3108421704519
 30
0.0
  0
VERTEX
  5
4F2
330
4F0
100
AcDbEntity
  8
BEMA_UNG
 62
     7
100
AcDbVertex
100
AcDb2dVertex
 10
-152.4607342199398
 20
-105.2613446418735
 30
0.0
  0
SEQEND
  5
4F3
330
4F0
100
AcDbEntity
  8
BEMA_UNG
  0
POLYLINE
  5
4F4
330
1F
100
AcDbEntity
  8
BEMA_UNG
 62
     7
100
AcDb2dPolyline
 66
     1
 10
0.0
 20
0.0
 30
0.0
  0
VERTEX
  5
4F5
330
4F4
100
AcDbEntity
  8
BEMA_UNG
 62
     7
100
AcDbVertex
100
AcDb2dVertex
 10
-152.488984021555
 20
-104.3108421704519
 30
0.0
  0
VERTEX
  5
4F6
330
4F4
100
AcDbEntity
  8
BEMA_UNG
 62
     7
100
AcDbVertex
100
AcDb2dVertex
 10
-152.488984021555
 20
-105.4739071735398
 30
0.0
  0
SEQEND
  5
4F7
330
4F4
100
AcDbEntity
  8
BEMA_UNG
  0
POLYLINE
  5
4F8
330
1F
100
AcDbEntity
  8
BEMA_UNG
 62
     7
100
AcDb2dPolyline
 66
     1
 10
0.0
 20
0.0
 30
0.0
  0
VERTEX
  5
4F9
330
4F8
100
AcDbEntity
  8
BEMA_UNG
 62
     7
100
AcDbVertex
100
AcDb2dVertex
 10
-152.5168893133945
 20
-104.3108421704519
 30
0.0
  0
VERTEX
  5
4FA
330
4F8
100
AcDbEntity
  8
BEMA_UNG
 62
     7
100
AcDbVertex
100
AcDb2dVertex
 10
-152.5168893133945
 20
-105.6859529405423
 30
0.0
  0
SEQEND
  5
4FB
330
4F8
100
AcDbEntity
  8
BEMA_UNG
  0
POLYLINE
  5
4FC
330
1F
100
AcDbEntity
  8
BEMA_UNG
 62
     7
100
AcDb2dPolyline
 66
     1
 10
0.0
 20
0.0
 30
0.0
  0
VERTEX
  5
4FD
330
4FC
100
AcDbEntity
  8
BEMA_UNG
 62
     7
100
AcDbVertex
100
AcDb2dVertex
 10
-152.6846655742073
 20
-104.3108421704519
 30
0.0
  0
VERTEX
  5
4FE
330
4FC
100
AcDbEntity
  8
BEMA_UNG
 62
     7
100
AcDbVertex
100
AcDb2dVertex
 10
-152.6846655742073
 20
-104.4124725543118
 30
0.0
  0
SEQEND
  5
4FF
330
4FC
100
AcDbEntity
  8
BEMA_UNG
  0
POLYLINE
  5
500
330
1F
100
AcDbEntity
  8
BEMA_UNG
 62
     7
100
AcDb2dPolyline
 66
     1
 10
0.0
 20
0.0
 30
0.0
  0
VERTEX
  5
501
330
500
100
AcDbEntity
  8
BEMA_UNG
 62
     7
100
AcDbVertex
100
AcDb2dVertex
 10
-152.6846655742073
 20
-104.3108421704519
 30
0.0
  0
VERTEX
  5
502
330
500
100
AcDbEntity
  8
BEMA_UNG
 62
     7
100
AcDbVertex
100
AcDb2dVertex
 10
-152.6846655742073
 20
-104.4124725543118
 30
0.0
  0
SEQEND
  5
503
330
500
100
AcDbEntity
  8
BEMA_UNG
  0
POLYLINE
  5
504
330
1F
100
AcDbEntity
  8
BEMA_UNG
 62
     7
100
AcDb2dPolyline
 66
     1
 10
0.0
 20
0.0
 30
0.0
  0
VERTEX
  5
505
330
504
100
AcDbEntity
  8
BEMA_UNG
 62
     7
100
AcDbVertex
100
AcDb2dVertex
 10
-152.6567602823678
 20
-104.3108421704519
 30
0.0
  0
VERTEX
  5
506
330
504
100
AcDbEntity
  8
BEMA_UNG
 62
     7
100
AcDbVertex
100
AcDb2dVertex
 10
-152.6567602823678
 20
-104.625035085978
 30
0.0
  0
SEQEND
  5
507
330
504
100
AcDbEntity
  8
BEMA_UNG
  0
POLYLINE
  5
508
330
1F
100
AcDbEntity
  8
BEMA_UNG
 62
     7
100
AcDb2dPolyline
 66
     1
 10
0.0
 20
0.0
 30
0.0
  0
VERTEX
  5
509
330
508
100
AcDbEntity
  8
BEMA_UNG
 62
     7
100
AcDbVertex
100
AcDb2dVertex
 10
-152.6285104807525
 20
-104.3108421704519
 30
0.0
  0
VERTEX
  5
50A
330
508
100
AcDbEntity
  8
BEMA_UNG
 62
     7
100
AcDbVertex
100
AcDb2dVertex
 10
-152.6285104807525
 20
-104.8370808529805
 30
0.0
  0
SEQEND
  5
50B
330
508
100
AcDbEntity
  8
BEMA_UNG
  0
POLYLINE
  5
50C
330
1F
100
AcDbEntity
  8
BEMA_UNG
 62
     7
100
AcDb2dPolyline
 66
     1
 10
0.0
 20
0.0
 30
0.0
  0
VERTEX
  5
50D
330
50C
100
AcDbEntity
  8
BEMA_UNG
 62
     7
100
AcDbVertex
100
AcDb2dVertex
 10
-152.600605188913
 20
-104.3108421704519
 30
0.0
  0
VERTEX
  5
50E
330
50C
100
AcDbEntity
  8
BEMA_UNG
 62
     7
100
AcDbVertex
100
AcDb2dVertex
 10
-152.600605188913
 20
-105.049298874871
 30
0.0
  0
SEQEND
  5
50F
330
50C
100
AcDbEntity
  8
BEMA_UNG
  0
POLYLINE
  5
510
330
1F
100
AcDbEntity
  8
BEMA_UNG
 62
     7
100
AcDb2dPolyline
 66
     1
 10
0.0
 20
0.0
 30
0.0
  0
VERTEX
  5
511
330
510
100
AcDbEntity
  8
BEMA_UNG
 62
     7
100
AcDbVertex
100
AcDb2dVertex
 10
-152.5726998970735
 20
-104.3108421704519
 30
0.0
  0
VERTEX
  5
512
330
510
100
AcDbEntity
  8
BEMA_UNG
 62
     7
100
AcDbVertex
100
AcDb2dVertex
 10
-152.5726998970735
 20
-105.2613446418735
 30
0.0
  0
SEQEND
  5
513
330
510
100
AcDbEntity
  8
BEMA_UNG
  0
POLYLINE
  5
514
330
1F
100
AcDbEntity
  8
BEMA_UNG
 62
     7
100
AcDb2dPolyline
 66
     1
 10
0.0
 20
0.0
 30
0.0
  0
VERTEX
  5
515
330
514
100
AcDbEntity
  8
BEMA_UNG
 62
     7
100
AcDbVertex
100
AcDb2dVertex
 10
-152.544794605234
 20
-104.3108421704519
 30
0.0
  0
VERTEX
  5
516
330
514
100
AcDbEntity
  8
BEMA_UNG
 62
     7
100
AcDbVertex
100
AcDb2dVertex
 10
-152.544794605234
 20
-105.4739071735398
 30
0.0
  0
SEQEND
  5
517
330
514
100
AcDbEntity
  8
BEMA_UNG
  0
POLYLINE
  5
518
330
1F
100
AcDbEntity
  8
BEMA_UNG
 62
     7
100
AcDb2dPolyline
 66
     1
 10
0.0
 20
0.0
 30
0.0
  0
VERTEX
  5
519
330
518
100
AcDbEntity
  8
BEMA_UNG
 62
     7
100
AcDbVertex
100
AcDb2dVertex
 10
-152.5168893133945
 20
-104.3108421704519
 30
0.0
  0
VERTEX
  5
51A
330
518
100
AcDbEntity
  8
BEMA_UNG
 62
     7
100
AcDbVertex
100
AcDb2dVertex
 10
-152.5168893133945
 20
-105.6859529405423
 30
0.0
  0
SEQEND
  5
51B
330
518
100
AcDbEntity
  8
BEMA_UNG
  0
ENDSEC
  0
SECTION
  2
OBJECTS
  0
DICTIONARY
  5
C
330
0
100
AcDbDictionary
  3
ACAD_GROUP
350
D
  3
ACAD_LAYOUT
350
1A
  3
ACAD_MLINESTYLE
350
17
  3
ACAD_PLOTSETTINGS
350
19
  3
ACAD_TABLESTYLE
350
53C
  3
ACAD_VISUALSTYLE
350
2A
  3
ACDBHEADERROUNDTRIPXREC
350
51C
  0
DICTIONARY
  5
D
102
{ACAD_REACTORS
330
C
102
}
330
C
100
AcDbDictionary
  0
DICTIONARY
  5
1A
102
{ACAD_REACTORS
330
C
102
}
330
C
100
AcDbDictionary
  0
DICTIONARY
  5
17
102
{ACAD_REACTORS
330
C
102
}
330
C
100
AcDbDictionary
  3
STANDARD
350
18
  0
DICTIONARY
  5
19
102
{ACAD_REACTORS
330
C
102
}
330
C
100
AcDbDictionary
  0
DICTIONARY
  5
53C
102
{ACAD_REACTORS
330
C
102
}
330
C
100
AcDbDictionary
  0
DICTIONARY
  5
2A
102
{ACAD_REACTORS
330
C
102
}
330
C
100
AcDbDictionary
  3
2DWIREFRAME
350
2F
  3
3D_HIDDEN
350
31
  3
3DWIREFRAME
350
30
  3
BASIC
350
32
  3
BRIGHTEN
350
36
  3
COLORCHANGE
350
3A
  3
CONCEPTUAL
350
34
  3
DIM
350
35
  3
FACEPATTERN
350
39
  3
FLAT
350
2B
  3
FLATWITHEDGES
350
2C
  3
GOURAUD
350
2D
  3
GOURAUDWITHEDGES
350
2E
  3
LINEPATTERN
350
38
  3
REALISTIC
350
33
  3
THICKEN
350
37
  0
DICTIONARY
  5
51C
102
{ACAD_REACTORS
330
C
102
}
330
C
100
AcDbDictionary
  3
CEPSNTYPE
350
525
  3
DIMSTYLEDATA
350
53B
  3
FINGERPRINTGUID
350
526
  3
HYPERLINKBASE
350
51F
  3
INSUNITS
350
524
  3
LAYOUTDICT
350
521
  3
LWETCUNION
350
523
  3
PLOTSETDICT
350
522
  3
PSVPSCALE
350
528
  3
PUCSBASE
350
52B
  3
PUCSORGBACK
350
531
  3
PUCSORGBOTTOM
350
52D
  3
PUCSORGFRONT
350
530
  3
PUCSORGLEFT
350
52E
  3
PUCSORGRIGHT
350
52F
  3
PUCSORGTOP
350
52C
  3
PUCSORTHOREF
350
529
  3
PUCSORTHOVIEW
350
52A
  3
STYLESHEET
350
520
  3
TSTACKALIGN
350
51D
  3
TSTACKSIZE
350
51E
  3
UCSBASE
350
534
  3
UCSORGBACK
350
53A
  3
UCSORGBOTTOM
350
536
  3
UCSORGFRONT
350
539
  3
UCSORGLEFT
350
537
  3
UCSORGRIGHT
350
538
  3
UCSORGTOP
350
535
  3
UCSORTHOREF
350
532
  3
UCSORTHOVIEW
350
533
  3
VERSIONGUID
350
527
  0
MLINESTYLE
  5
18
102
{ACAD_REACTORS
330
17
102
}
330
17
100
AcDbMlineStyle
  2
Standard
 70
     0
  3

 62
   256
 51
90.0
 52
90.0
 71
     2
 49
0.5
 62
   256
  6
BYLAYER
 49
-0.5
 62
   256
  6
BYLAYER
  0
VISUALSTYLE
  5
2F
102
{ACAD_REACTORS
330
2A
102
}
330
2A
100
AcDbVisualStyle
  2
2dWireframe
 70
     4
 71
     0
 72
     2
 73
     0
 90
        0
 40
-0.6
 41
-30.0
 62
     5
 63
     7
 74
     1
 91
        4
 64
     7
 65
   257
 75
     1
175
     1
 42
1.0
 92
        0
 66
   257
 43
1.0
 76
     1
 77
     6
 78
     2
 67
     7
 79
     5
170
     0
171
     0
290
     0
174
     0
 93
        1
 44
0.0
173
     0
291
     0
 45
0.0
1001
ACAD
1000
AcDbSavedByObjectVersion
1070
     0
  0
VISUALSTYLE
  5
31
102
{ACAD_REACTORS
330
2A
102
}
330
2A
100
AcDbVisualStyle
  2
3D Hidden
 70
     6
 71
     1
 72
     2
 73
     2
 90
        0
 40
-0.6
 41
-30.0
 62
     5
 63
     7
 74
     2
 91
        2
 64
     7
 65
   257
 75
     2
175
     1
 42
40.0
 92
        0
 66
   257
 43
1.0
 76
     1
 77
     6
 78
     2
 67
     7
 79
     3
170
     0
171
     0
290
     0
174
     0
 93
        1
 44
0.0
173
     0
291
     0
 45
0.0
1001
ACAD
1000
AcDbSavedByObjectVersion
1070
     0
  0
VISUALSTYLE
  5
30
102
{ACAD_REACTORS
330
2A
102
}
330
2A
100
AcDbVisualStyle
  2
3dWireframe
 70
     5
 71
     0
 72
     2
 73
     0
 90
        0
 40
-0.6
 41
-30.0
 62
     5
 63
     7
 74
     1
 91
        4
 64
     7
 65
   257
 75
     1
175
     1
 42
1.0
 92
        0
 66
   257
 43
1.0
 76
     1
 77
     6
 78
     2
 67
     7
 79
     5
170
     0
171
     0
290
     0
174
     0
 93
        1
 44
0.0
173
     0
291
     0
 45
0.0
1001
ACAD
1000
AcDbSavedByObjectVersion
1070
     0
  0
VISUALSTYLE
  5
32
102
{ACAD_REACTORS
330
2A
102
}
330
2A
100
AcDbVisualStyle
  2
Basic
 70
     7
 71
     1
 72
     0
 73
     1
 90
        0
 40
-0.6
 41
-30.0
 62
     5
 63
     7
 74
     0
 91
        4
 64
     7
 65
   257
 75
     1
175
     1
 42
1.0
 92
        8
 66
     7
 43
1.0
 76
     1
 77
     6
 78
     2
 67
     7
 79
     5
170
     0
171
     0
290
     0
174
     0
 93
        1
 44
0.0
173
     0
291
     1
 45
0.0
1001
ACAD
1000
AcDbSavedByObjectVersion
1070
     0
  0
VISUALSTYLE
  5
36
102
{ACAD_REACTORS
330
2A
102
}
330
2A
100
AcDbVisualStyle
  2
Brighten
 70
    12
 71
     2
 72
     2
 73
     0
 90
        0
 40
-0.6
 41
-30.0
 62
     5
 63
     7
 74
     1
 91
        4
 64
     7
 65
   257
 75
     1
175
     1
 42
1.0
 92
        8
 66
     7
 43
1.0
 76
     1
 77
     6
 78
     2
 67
     7
 79
     5
170
     0
171
     0
290
     0
174
     0
 93
        1
 44
50.0
173
     0
291
     1
 45
0.0
1001
ACAD
1000
AcDbSavedByObjectVersion
1070
     0
  0
VISUALSTYLE
  5
3A
102
{ACAD_REACTORS
330
2A
102
}
330
2A
100
AcDbVisualStyle
  2
ColorChange
 70
    16
 71
     2
 72
     2
 73
     3
 90
        0
 40
-0.6
 41
-30.0
 62
     5
 63
     8
 74
     1
 91
        4
 64
     7
 65
   257
 75
     1
175
     1
 42
1.0
 92
        8
 66
     8
 43
1.0
 76
     1
 77
     6
 78
     2
 67
     7
 79
     5
170
     0
171
     0
290
     0
174
     0
 93
        1
 44
0.0
173
     0
291
     1
 45
0.0
1001
ACAD
1000
AcDbSavedByObjectVersion
1070
     0
  0
VISUALSTYLE
  5
34
102
{ACAD_REACTORS
330
2A
102
}
330
2A
100
AcDbVisualStyle
  2
Conceptual
 70
     9
 71
     3
 72
     2
 73
     0
 90
        0
 40
-0.6
 41
-30.0
 62
     5
 63
     7
 74
     2
 91
        2
 64
     7
 65
   257
 75
     1
175
     1
 42
40.0
 92
        8
 66
     7
 43
1.0
 76
     1
 77
     6
 78
     2
 67
     7
 79
     3
170
     0
171
     0
290
     0
174
     0
 93
        1
 44
0.0
173
     0
291
     0
 45
0.0
1001
ACAD
1000
AcDbSavedByObjectVersion
1070
     0
  0
VISUALSTYLE
  5
35
102
{ACAD_REACTORS
330
2A
102
}
330
2A
100
AcDbVisualStyle
  2
Dim
 70
    11
 71
     2
 72
     2
 73
     0
 90
        0
 40
-0.6
 41
-30.0
 62
     5
 63
     7
 74
     1
 91
        4
 64
     7
 65
   257
 75
     1
175
     1
 42
1.0
 92
        8
 66
     7
 43
1.0
 76
     1
 77
     6
 78
     2
 67
     7
 79
     5
170
     0
171
     0
290
     0
174
     0
 93
        1
 44
-50.0
173
     0
291
     1
 45
0.0
1001
ACAD
1000
AcDbSavedByObjectVersion
1070
     0
  0
VISUALSTYLE
  5
39
102
{ACAD_REACTORS
330
2A
102
}
330
2A
100
AcDbVisualStyle
  2
Facepattern
 70
    15
 71
     2
 72
     2
 73
     0
 90
        0
 40
-0.6
 41
-30.0
 62
     5
 63
     7
 74
     1
 91
        4
 64
     7
 65
   257
 75
     1
175
     1
 42
1.0
 92
        8
 66
     7
 43
1.0
 76
     1
 77
     6
 78
     2
 67
     7
 79
     5
170
     0
171
     0
290
     0
174
     0
 93
        1
 44
0.0
173
     0
291
     1
 45
0.0
1001
ACAD
1000
AcDbSavedByObjectVersion
1070
     0
  0
VISUALSTYLE
  5
2B
102
{ACAD_REACTORS
330
2A
102
}
330
2A
100
AcDbVisualStyle
  2
Flat
 70
     0
 71
     2
 72
     1
 73
     1
 90
        2
 40
-0.6
 41
30.0
 62
     5
 63
     7
 74
     0
 91
        4
 64
     7
 65
   257
 75
     1
175
     1
 42
1.0
 92
        8
 66
     7
 43
1.0
 76
     1
 77
     6
 78
     2
 67
     7
 79
     5
170
     0
171
     0
290
     0
174
     0
 93
       13
 44
0.0
173
     0
291
     1
 45
0.0
1001
ACAD
1000
AcDbSavedByObjectVersion
1070
     0
  0
VISUALSTYLE
  5
2C
102
{ACAD_REACTORS
330
2A
102
}
330
2A
100
AcDbVisualStyle
  2
FlatWithEdges
 70
     1
 71
     2
 72
     1
 73
     1
 90
        2
 40
-0.6
 41
30.0
 62
     5
 63
     7
 74
     1
 91
        4
 64
     7
 65
   257
 75
     1
175
     1
 42
1.0
 92
        0
 66
   257
 43
1.0
 76
     1
 77
     6
 78
     2
 67
     7
 79
     5
170
     0
171
     0
290
     0
174
     0
 93
       13
 44
0.0
173
     0
291
     1
 45
0.0
1001
ACAD
1000
AcDbSavedByObjectVersion
1070
     0
  0
VISUALSTYLE
  5
2D
102
{ACAD_REACTORS
330
2A
102
}
330
2A
100
AcDbVisualStyle
  2
Gouraud
 70
     2
 71
     2
 72
     2
 73
     1
 90
        2
 40
-0.6
 41
30.0
 62
     5
 63
     7
 74
     0
 91
        4
 64
     7
 65
   257
 75
     1
175
     1
 42
1.0
 92
        0
 66
     7
 43
1.0
 76
     1
 77
     6
 78
     2
 67
     7
 79
     5
170
     0
171
     0
290
     0
174
     0
 93
       13
 44
0.0
173
     0
291
     1
 45
0.0
1001
ACAD
1000
AcDbSavedByObjectVersion
1070
     0
  0
VISUALSTYLE
  5
2E
102
{ACAD_REACTORS
330
2A
102
}
330
2A
100
AcDbVisualStyle
  2
GouraudWithEdges
 70
     3
 71
     2
 72
     2
 73
     1
 90
        2
 40
-0.6
 41
30.0
 62
     5
 63
     7
 74
     1
 91
        4
 64
     7
 65
   257
 75
     1
175
     1
 42
1.0
 92
        0
 66
   257
 43
1.0
 76
     1
 77
     6
 78
     2
 67
     7
 79
     5
170
     0
171
     0
290
     0
174
     0
 93
       13
 44
0.0
173
     0
291
     1
 45
0.0
1001
ACAD
1000
AcDbSavedByObjectVersion
1070
     0
  0
VISUALSTYLE
  5
38
102
{ACAD_REACTORS
330
2A
102
}
330
2A
100
AcDbVisualStyle
  2
Linepattern
 70
    14
 71
     2
 72
     2
 73
     0
 90
        0
 40
-0.6
 41
-30.0
 62
     5
 63
     7
 74
     1
 91
        4
 64
     7
 65
   257
 75
     7
175
     7
 42
1.0
 92
        8
 66
     7
 43
1.0
 76
     1
 77
     6
 78
     2
 67
     7
 79
     5
170
     0
171
     0
290
     0
174
     0
 93
        1
 44
0.0
173
     0
291
     1
 45
0.0
1001
ACAD
1000
AcDbSavedByObjectVersion
1070
     0
  0
VISUALSTYLE
  5
33
102
{ACAD_REACTORS
330
2A
102
}
330
2A
100
AcDbVisualStyle
  2
Realistic
 70
     8
 71
     2
 72
     2
 73
     0
 90
        0
 40
-0.6
 41
-30.0
 62
     5
 63
     7
 74
     1
 91
        0
 64
     7
 65
   257
 75
     1
175
     1
 42
1.0
 92
        8
 66
     8
 43
1.0
 76
     1
 77
     6
 78
     2
 67
     7
 79
     5
170
     0
171
     0
290
     0
174
     0
 93
       13
 44
0.0
173
     0
291
     0
 45
0.0
1001
ACAD
1000
AcDbSavedByObjectVersion
1070
     0
  0
VISUALSTYLE
  5
37
102
{ACAD_REACTORS
330
2A
102
}
330
2A
100
AcDbVisualStyle
  2
Thicken
 70
    13
 71
     2
 72
     2
 73
     0
 90
        0
 40
-0.6
 41
-30.0
 62
     5
 63
     7
 74
     1
 91
        4
 64
     7
 65
   257
 75
     1
175
     1
 42
1.0
 92
       12
 66
     7
 43
1.0
 76
     1
 77
     6
 78
     2
 67
     7
 79
     5
170
     0
171
     0
290
     0
174
     0
 93
        1
 44
0.0
173
     0
291
     1
 45
0.0
1001
ACAD
1000
AcDbSavedByObjectVersion
1070
     0
  0
XRECORD
  5
525
102
{ACAD_REACTORS
330
51C
102
}
330
51C
100
AcDbXrecord
 90
        0
  0
XRECORD
  5
53B
102
{ACAD_REACTORS
330
51C
102
}
330
51C
100
AcDbXrecord
1000
DSTYLE
1002
{
1070
   340
340
11
1002
}
  0
XRECORD
  5
526
102
{ACAD_REACTORS
330
51C
102
}
330
51C
100
AcDbXrecord
  1
{5A5A2251-3F7D-44BE-BAF7-6063FE9D1BBC}
  0
XRECORD
  5
51F
102
{ACAD_REACTORS
330
51C
102
}
330
51C
100
AcDbXrecord
  1

  0
XRECORD
  5
524
102
{ACAD_REACTORS
330
51C
102
}
330
51C
100
AcDbXrecord
 90
        1
  0
XRECORD
  5
521
102
{ACAD_REACTORS
330
51C
102
}
330
51C
100
AcDbXrecord
340
1A
  0
XRECORD
  5
523
102
{ACAD_REACTORS
330
51C
102
}
330
51C
100
AcDbXrecord
 90
    10269
  0
XRECORD
  5
522
102
{ACAD_REACTORS
330
51C
102
}
330
51C
100
AcDbXrecord
340
19
  0
XRECORD
  5
528
102
{ACAD_REACTORS
330
51C
102
}
330
51C
100
AcDbXrecord
 40
0.0
  0
XRECORD
  5
52B
102
{ACAD_REACTORS
330
51C
102
}
330
51C
100
AcDbXrecord
340
0
  0
XRECORD
  5
531
102
{ACAD_REACTORS
330
51C
102
}
330
51C
100
AcDbXrecord
 10
0.0
 20
0.0
 30
0.0
  0
XRECORD
  5
52D
102
{ACAD_REACTORS
330
51C
102
}
330
51C
100
AcDbXrecord
 10
0.0
 20
0.0
 30
0.0
  0
XRECORD
  5
530
102
{ACAD_REACTORS
330
51C
102
}
330
51C
100
AcDbXrecord
 10
0.0
 20
0.0
 30
0.0
  0
XRECORD
  5
52E
102
{ACAD_REACTORS
330
51C
102
}
330
51C
100
AcDbXrecord
 10
0.0
 20
0.0
 30
0.0
  0
XRECORD
  5
52F
102
{ACAD_REACTORS
330
51C
102
}
330
51C
100
AcDbXrecord
 10
0.0
 20
0.0
 30
0.0
  0
XRECORD
  5
52C
102
{ACAD_REACTORS
330
51C
102
}
330
51C
100
AcDbXrecord
 10
0.0
 20
0.0
 30
0.0
  0
XRECORD
  5
529
102
{ACAD_REACTORS
330
51C
102
}
330
51C
100
AcDbXrecord
340
0
  0
XRECORD
  5
52A
102
{ACAD_REACTORS
330
51C
102
}
330
51C
100
AcDbXrecord
 70
     0
  0
XRECORD
  5
520
102
{ACAD_REACTORS
330
51C
102
}
330
51C
100
AcDbXrecord
  1

  0
XRECORD
  5
51D
102
{ACAD_REACTORS
330
51C
102
}
330
51C
100
AcDbXrecord
 90
        1
  0
XRECORD
  5
51E
102
{ACAD_REACTORS
330
51C
102
}
330
51C
100
AcDbXrecord
 90
       70
  0
XRECORD
  5
534
102
{ACAD_REACTORS
330
51C
102
}
330
51C
100
AcDbXrecord
340
0
  0
XRECORD
  5
53A
102
{ACAD_REACTORS
330
51C
102
}
330
51C
100
AcDbXrecord
 10
0.0
 20
0.0
 30
0.0
  0
XRECORD
  5
536
102
{ACAD_REACTORS
330
51C
102
}
330
51C
100
AcDbXrecord
 10
0.0
 20
0.0
 30
0.0
  0
XRECORD
  5
539
102
{ACAD_REACTORS
330
51C
102
}
330
51C
100
AcDbXrecord
 10
0.0
 20
0.0
 30
0.0
  0
XRECORD
  5
537
102
{ACAD_REACTORS
330
51C
102
}
330
51C
100
AcDbXrecord
 10
0.0
 20
0.0
 30
0.0
  0
XRECORD
  5
538
102
{ACAD_REACTORS
330
51C
102
}
330
51C
100
AcDbXrecord
 10
0.0
 20
0.0
 30
0.0
  0
XRECORD
  5
535
102
{ACAD_REACTORS
330
51C
102
}
330
51C
100
AcDbXrecord
 10
0.0
 20
0.0
 30
0.0
  0
XRECORD
  5
532
102
{ACAD_REACTORS
330
51C
102
}
330
51C
100
AcDbXrecord
340
0
  0
XRECORD
  5
533
102
{ACAD_REACTORS
330
51C
102
}
330
51C
100
AcDbXrecord
 70
     0
  0
XRECORD
  5
527
102
{ACAD_REACTORS
330
51C
102
}
330
51C
100
AcDbXrecord
  1
{FAEB1C32-E019-11D5-929B-00C0DF256EC4}
  0
ENDSEC
  0
EOF
