ISO-10303-21;
HEADER;
/* Generated by software containing ST-Developer
 * from STEP Tools, Inc. (www.steptools.com) 
 */
/* OPTION: using custom schema-name function */

FILE_DESCRIPTION(
/* description */ (''),
/* implementation_level */ '2;1');

FILE_NAME(
/* name */ '836616_stp.stp',
/* time_stamp */ '2017-05-05T07:35:52+02:00',
/* author */ (''),
/* organization */ (''),
/* preprocessor_version */ 'ST-DEVELOPER v15',
/* originating_system */ 'SIEMENS PLM Software NX 9.0',
/* authorisation */ '');

FILE_SCHEMA (('AUTOMOTIVE_DESIGN { 1 0 10303 214 3 1 1 1 }'));
ENDSEC;

DATA;
#10=PROPERTY_DEFINITION_REPRESENTATION(#14,#12);
#11=PROPERTY_DEFINITION_REPRESENTATION(#15,#13);
#12=REPRESENTATION('',(#16),#393);
#13=REPRESENTATION('',(#17),#393);
#14=PROPERTY_DEFINITION('pmi validation property','',#21);
#15=PROPERTY_DEFINITION('pmi validation property','',#21);
#16=VALUE_REPRESENTATION_ITEM('number of annotations',COUNT_MEASURE(0.));
#17=VALUE_REPRESENTATION_ITEM('number of views',COUNT_MEASURE(0.));
#18=SHAPE_REPRESENTATION_RELATIONSHIP('None',
'relationship between reic1D6440F2grie-None and reic1D6440F2grie-None',
#30,#19);
#19=ADVANCED_BREP_SHAPE_REPRESENTATION('reic1D6440F2grie-None',(#40),#393);
#20=SHAPE_DEFINITION_REPRESENTATION(#21,#30);
#21=PRODUCT_DEFINITION_SHAPE('','',#22);
#22=PRODUCT_DEFINITION(' ','',#24,#23);
#23=PRODUCT_DEFINITION_CONTEXT('part definition',#29,'design');
#24=PRODUCT_DEFINITION_FORMATION_WITH_SPECIFIED_SOURCE(' ',' ',#26,
 .NOT_KNOWN.);
#25=PRODUCT_RELATED_PRODUCT_CATEGORY('part','',(#26));
#26=PRODUCT('reic1D6440F2grie','reic1D6440F2grie',' ',(#27));
#27=PRODUCT_CONTEXT(' ',#29,'mechanical');
#28=APPLICATION_PROTOCOL_DEFINITION('international standard',
'automotive_design',2010,#29);
#29=APPLICATION_CONTEXT(
'core data for automotive mechanical design processes');
#30=SHAPE_REPRESENTATION('reic1D6440F2grie-None',(#231),#393);
#31=PRESENTATION_LAYER_ASSIGNMENT('210','Layer 210',(#40));
#32=STYLED_ITEM('',(#33),#40);
#33=PRESENTATION_STYLE_ASSIGNMENT((#34));
#34=SURFACE_STYLE_USAGE(.BOTH.,#35);
#35=SURFACE_SIDE_STYLE('',(#36));
#36=SURFACE_STYLE_FILL_AREA(#37);
#37=FILL_AREA_STYLE('',(#38));
#38=FILL_AREA_STYLE_COLOUR('',#39);
#39=COLOUR_RGB('Orange',1.,0.499992370489052,0.);
#40=MANIFOLD_SOLID_BREP('',#41);
#41=CLOSED_SHELL('',(#56,#57,#58,#59,#60,#61,#62,#63,#64,#65,#66,#67,#68,
#69,#70,#71,#72,#73));
#42=FACE_OUTER_BOUND('',#130,.T.);
#43=FACE_OUTER_BOUND('',#145,.T.);
#44=CONICAL_SURFACE('',#243,4.3135099835713,8.00000000000004);
#45=CONICAL_SURFACE('',#245,5.718918333882,8.00000001763311);
#46=CONICAL_SURFACE('',#260,7.061525734565,2.89872595775927);
#47=CONICAL_SURFACE('',#263,8.880230727935,75.0000000000666);
#48=CYLINDRICAL_SURFACE('',#241,10.);
#49=CYLINDRICAL_SURFACE('',#251,4.);
#50=CYLINDRICAL_SURFACE('',#256,15.);
#51=CYLINDRICAL_SURFACE('',#265,3.);
#52=TOROIDAL_SURFACE('',#237,10.4,0.599999999999994);
#53=TOROIDAL_SURFACE('',#249,4.3,0.8);
#54=TOROIDAL_SURFACE('',#258,5.068622450386,2.);
#55=TOROIDAL_SURFACE('',#262,9.39786881813799,2.00000000000001);
#56=ADVANCED_FACE('',(#80,#81),#74,.F.);
#57=ADVANCED_FACE('',(#82,#83),#52,.F.);
#58=ADVANCED_FACE('',(#84,#85),#75,.F.);
#59=ADVANCED_FACE('',(#86,#87),#48,.T.);
#60=ADVANCED_FACE('',(#88,#89),#44,.T.);
#61=ADVANCED_FACE('',(#90,#91),#45,.T.);
#62=ADVANCED_FACE('',(#92,#93),#76,.F.);
#63=ADVANCED_FACE('',(#94,#95),#53,.F.);
#64=ADVANCED_FACE('',(#96,#97),#49,.T.);
#65=ADVANCED_FACE('',(#42),#77,.T.);
#66=ADVANCED_FACE('',(#98,#99),#78,.F.);
#67=ADVANCED_FACE('',(#100,#101),#50,.T.);
#68=ADVANCED_FACE('',(#102,#103),#54,.T.);
#69=ADVANCED_FACE('',(#104,#105),#46,.T.);
#70=ADVANCED_FACE('',(#106,#107),#55,.F.);
#71=ADVANCED_FACE('',(#108,#109),#47,.T.);
#72=ADVANCED_FACE('',(#110,#111),#51,.F.);
#73=ADVANCED_FACE('',(#43),#79,.F.);
#74=PLANE('',#234);
#75=PLANE('',#240);
#76=PLANE('',#247);
#77=PLANE('',#252);
#78=PLANE('',#254);
#79=PLANE('',#266);
#80=FACE_BOUND('',#112,.T.);
#81=FACE_BOUND('',#113,.T.);
#82=FACE_BOUND('',#114,.T.);
#83=FACE_BOUND('',#115,.T.);
#84=FACE_BOUND('',#116,.T.);
#85=FACE_BOUND('',#117,.T.);
#86=FACE_BOUND('',#118,.T.);
#87=FACE_BOUND('',#119,.T.);
#88=FACE_BOUND('',#120,.T.);
#89=FACE_BOUND('',#121,.T.);
#90=FACE_BOUND('',#122,.T.);
#91=FACE_BOUND('',#123,.T.);
#92=FACE_BOUND('',#124,.T.);
#93=FACE_BOUND('',#125,.T.);
#94=FACE_BOUND('',#126,.T.);
#95=FACE_BOUND('',#127,.T.);
#96=FACE_BOUND('',#128,.T.);
#97=FACE_BOUND('',#129,.T.);
#98=FACE_BOUND('',#131,.T.);
#99=FACE_BOUND('',#132,.T.);
#100=FACE_BOUND('',#133,.T.);
#101=FACE_BOUND('',#134,.T.);
#102=FACE_BOUND('',#135,.T.);
#103=FACE_BOUND('',#136,.T.);
#104=FACE_BOUND('',#137,.T.);
#105=FACE_BOUND('',#138,.T.);
#106=FACE_BOUND('',#139,.T.);
#107=FACE_BOUND('',#140,.T.);
#108=FACE_BOUND('',#141,.T.);
#109=FACE_BOUND('',#142,.T.);
#110=FACE_BOUND('',#143,.T.);
#111=FACE_BOUND('',#144,.T.);
#112=EDGE_LOOP('',(#146));
#113=EDGE_LOOP('',(#147));
#114=EDGE_LOOP('',(#148));
#115=EDGE_LOOP('',(#149));
#116=EDGE_LOOP('',(#150));
#117=EDGE_LOOP('',(#151));
#118=EDGE_LOOP('',(#152));
#119=EDGE_LOOP('',(#153));
#120=EDGE_LOOP('',(#154));
#121=EDGE_LOOP('',(#155));
#122=EDGE_LOOP('',(#156));
#123=EDGE_LOOP('',(#157));
#124=EDGE_LOOP('',(#158));
#125=EDGE_LOOP('',(#159));
#126=EDGE_LOOP('',(#160));
#127=EDGE_LOOP('',(#161));
#128=EDGE_LOOP('',(#162));
#129=EDGE_LOOP('',(#163));
#130=EDGE_LOOP('',(#164));
#131=EDGE_LOOP('',(#165));
#132=EDGE_LOOP('',(#166));
#133=EDGE_LOOP('',(#167));
#134=EDGE_LOOP('',(#168));
#135=EDGE_LOOP('',(#169));
#136=EDGE_LOOP('',(#170));
#137=EDGE_LOOP('',(#171));
#138=EDGE_LOOP('',(#172));
#139=EDGE_LOOP('',(#173));
#140=EDGE_LOOP('',(#174));
#141=EDGE_LOOP('',(#175));
#142=EDGE_LOOP('',(#176));
#143=EDGE_LOOP('',(#177));
#144=EDGE_LOOP('',(#178));
#145=EDGE_LOOP('',(#179));
#146=ORIENTED_EDGE('',*,*,#197,.F.);
#147=ORIENTED_EDGE('',*,*,#198,.T.);
#148=ORIENTED_EDGE('',*,*,#199,.T.);
#149=ORIENTED_EDGE('',*,*,#200,.F.);
#150=ORIENTED_EDGE('',*,*,#201,.T.);
#151=ORIENTED_EDGE('',*,*,#202,.T.);
#152=ORIENTED_EDGE('',*,*,#201,.F.);
#153=ORIENTED_EDGE('',*,*,#199,.F.);
#154=ORIENTED_EDGE('',*,*,#202,.F.);
#155=ORIENTED_EDGE('',*,*,#203,.F.);
#156=ORIENTED_EDGE('',*,*,#204,.F.);
#157=ORIENTED_EDGE('',*,*,#203,.T.);
#158=ORIENTED_EDGE('',*,*,#205,.T.);
#159=ORIENTED_EDGE('',*,*,#204,.T.);
#160=ORIENTED_EDGE('',*,*,#206,.T.);
#161=ORIENTED_EDGE('',*,*,#205,.F.);
#162=ORIENTED_EDGE('',*,*,#206,.F.);
#163=ORIENTED_EDGE('',*,*,#207,.F.);
#164=ORIENTED_EDGE('',*,*,#207,.T.);
#165=ORIENTED_EDGE('',*,*,#208,.F.);
#166=ORIENTED_EDGE('',*,*,#200,.T.);
#167=ORIENTED_EDGE('',*,*,#208,.T.);
#168=ORIENTED_EDGE('',*,*,#209,.T.);
#169=ORIENTED_EDGE('',*,*,#210,.F.);
#170=ORIENTED_EDGE('',*,*,#197,.T.);
#171=ORIENTED_EDGE('',*,*,#211,.F.);
#172=ORIENTED_EDGE('',*,*,#210,.T.);
#173=ORIENTED_EDGE('',*,*,#212,.F.);
#174=ORIENTED_EDGE('',*,*,#211,.T.);
#175=ORIENTED_EDGE('',*,*,#209,.F.);
#176=ORIENTED_EDGE('',*,*,#212,.T.);
#177=ORIENTED_EDGE('',*,*,#198,.F.);
#178=ORIENTED_EDGE('',*,*,#213,.T.);
#179=ORIENTED_EDGE('',*,*,#213,.F.);
#180=VERTEX_POINT('',#341);
#181=VERTEX_POINT('',#343);
#182=VERTEX_POINT('',#346);
#183=VERTEX_POINT('',#348);
#184=VERTEX_POINT('',#351);
#185=VERTEX_POINT('',#353);
#186=VERTEX_POINT('',#357);
#187=VERTEX_POINT('',#360);
#188=VERTEX_POINT('',#363);
#189=VERTEX_POINT('',#366);
#190=VERTEX_POINT('',#369);
#191=VERTEX_POINT('',#373);
#192=VERTEX_POINT('',#376);
#193=VERTEX_POINT('',#379);
#194=VERTEX_POINT('',#382);
#195=VERTEX_POINT('',#385);
#196=VERTEX_POINT('',#389);
#197=EDGE_CURVE('',#180,#180,#214,.T.);
#198=EDGE_CURVE('',#181,#181,#215,.T.);
#199=EDGE_CURVE('',#182,#182,#216,.T.);
#200=EDGE_CURVE('',#183,#183,#217,.T.);
#201=EDGE_CURVE('',#184,#184,#218,.T.);
#202=EDGE_CURVE('',#185,#185,#219,.T.);
#203=EDGE_CURVE('',#186,#186,#220,.T.);
#204=EDGE_CURVE('',#187,#187,#221,.T.);
#205=EDGE_CURVE('',#188,#188,#222,.T.);
#206=EDGE_CURVE('',#189,#189,#223,.T.);
#207=EDGE_CURVE('',#190,#190,#224,.T.);
#208=EDGE_CURVE('',#191,#191,#225,.T.);
#209=EDGE_CURVE('',#192,#192,#226,.T.);
#210=EDGE_CURVE('',#193,#193,#227,.T.);
#211=EDGE_CURVE('',#194,#194,#228,.T.);
#212=EDGE_CURVE('',#195,#195,#229,.T.);
#213=EDGE_CURVE('',#196,#196,#230,.T.);
#214=CIRCLE('',#232,5.068622450386);
#215=CIRCLE('',#233,3.);
#216=CIRCLE('',#235,10.);
#217=CIRCLE('',#236,10.0683375209645);
#218=CIRCLE('',#238,10.);
#219=CIRCLE('',#239,6.);
#220=CIRCLE('',#242,5.718918333882);
#221=CIRCLE('',#244,4.31350999999999);
#222=CIRCLE('',#246,4.3);
#223=CIRCLE('',#248,4.);
#224=CIRCLE('',#250,4.);
#225=CIRCLE('',#253,15.);
#226=CIRCLE('',#255,15.);
#227=CIRCLE('',#257,7.061525734565);
#228=CIRCLE('',#259,7.39908716409979);
#229=CIRCLE('',#261,8.880230727935);
#230=CIRCLE('',#264,3.);
#231=AXIS2_PLACEMENT_3D('',#339,#267,#268);
#232=AXIS2_PLACEMENT_3D('',#340,#269,#270);
#233=AXIS2_PLACEMENT_3D('',#342,#271,#272);
#234=AXIS2_PLACEMENT_3D('',#344,#273,#274);
#235=AXIS2_PLACEMENT_3D('',#345,#275,#276);
#236=AXIS2_PLACEMENT_3D('',#347,#277,#278);
#237=AXIS2_PLACEMENT_3D('',#349,#279,#280);
#238=AXIS2_PLACEMENT_3D('',#350,#281,#282);
#239=AXIS2_PLACEMENT_3D('',#352,#283,#284);
#240=AXIS2_PLACEMENT_3D('',#354,#285,#286);
#241=AXIS2_PLACEMENT_3D('',#355,#287,#288);
#242=AXIS2_PLACEMENT_3D('',#356,#289,#290);
#243=AXIS2_PLACEMENT_3D('',#358,#291,#292);
#244=AXIS2_PLACEMENT_3D('',#359,#293,#294);
#245=AXIS2_PLACEMENT_3D('',#361,#295,#296);
#246=AXIS2_PLACEMENT_3D('',#362,#297,#298);
#247=AXIS2_PLACEMENT_3D('',#364,#299,#300);
#248=AXIS2_PLACEMENT_3D('',#365,#301,#302);
#249=AXIS2_PLACEMENT_3D('',#367,#303,#304);
#250=AXIS2_PLACEMENT_3D('',#368,#305,#306);
#251=AXIS2_PLACEMENT_3D('',#370,#307,#308);
#252=AXIS2_PLACEMENT_3D('',#371,#309,#310);
#253=AXIS2_PLACEMENT_3D('',#372,#311,#312);
#254=AXIS2_PLACEMENT_3D('',#374,#313,#314);
#255=AXIS2_PLACEMENT_3D('',#375,#315,#316);
#256=AXIS2_PLACEMENT_3D('',#377,#317,#318);
#257=AXIS2_PLACEMENT_3D('',#378,#319,#320);
#258=AXIS2_PLACEMENT_3D('',#380,#321,#322);
#259=AXIS2_PLACEMENT_3D('',#381,#323,#324);
#260=AXIS2_PLACEMENT_3D('',#383,#325,#326);
#261=AXIS2_PLACEMENT_3D('',#384,#327,#328);
#262=AXIS2_PLACEMENT_3D('',#386,#329,#330);
#263=AXIS2_PLACEMENT_3D('',#387,#331,#332);
#264=AXIS2_PLACEMENT_3D('',#388,#333,#334);
#265=AXIS2_PLACEMENT_3D('',#390,#335,#336);
#266=AXIS2_PLACEMENT_3D('',#391,#337,#338);
#267=DIRECTION('',(0.,0.,1.));
#268=DIRECTION('',(1.,0.,0.));
#269=DIRECTION('',(0.,0.,-1.));
#270=DIRECTION('',(0.,1.,0.));
#271=DIRECTION('',(0.,0.,-1.));
#272=DIRECTION('',(-1.,0.,0.));
#273=DIRECTION('',(0.,0.,-1.));
#274=DIRECTION('',(0.,1.,0.));
#275=DIRECTION('',(0.,0.,1.));
#276=DIRECTION('',(-1.,0.,0.));
#277=DIRECTION('',(0.,0.,1.));
#278=DIRECTION('',(-1.,0.,0.));
#279=DIRECTION('',(0.,0.,-1.));
#280=DIRECTION('',(0.,1.,0.));
#281=DIRECTION('',(0.,0.,-1.));
#282=DIRECTION('',(0.,1.,0.));
#283=DIRECTION('',(0.,0.,1.));
#284=DIRECTION('',(-1.,0.,0.));
#285=DIRECTION('',(0.,0.,1.));
#286=DIRECTION('',(0.,-1.,0.));
#287=DIRECTION('',(0.,0.,-1.));
#288=DIRECTION('',(0.,1.,0.));
#289=DIRECTION('',(0.,0.,-1.));
#290=DIRECTION('',(0.,1.,0.));
#291=DIRECTION('',(0.,0.,1.));
#292=DIRECTION('',(0.,-1.,-1.43707679302621E-016));
#293=DIRECTION('',(0.,0.,-1.));
#294=DIRECTION('',(0.,1.,0.));
#295=DIRECTION('',(0.,0.,1.));
#296=DIRECTION('',(0.,-1.,0.));
#297=DIRECTION('',(0.,0.,1.));
#298=DIRECTION('',(0.,-1.,0.));
#299=DIRECTION('',(0.,0.,1.));
#300=DIRECTION('',(0.,-1.,0.));
#301=DIRECTION('',(0.,0.,1.));
#302=DIRECTION('',(-1.,0.,0.));
#303=DIRECTION('',(0.,0.,1.));
#304=DIRECTION('',(0.,-1.,0.));
#305=DIRECTION('',(0.,0.,-1.));
#306=DIRECTION('',(-1.,0.,0.));
#307=DIRECTION('',(0.,0.,-1.));
#308=DIRECTION('',(0.,1.,0.));
#309=DIRECTION('',(0.,0.,-1.));
#310=DIRECTION('',(0.,1.,0.));
#311=DIRECTION('',(0.,0.,1.));
#312=DIRECTION('',(1.,0.,0.));
#313=DIRECTION('',(0.,0.,1.));
#314=DIRECTION('',(0.,-1.,0.));
#315=DIRECTION('',(0.,0.,-1.));
#316=DIRECTION('',(0.,1.,0.));
#317=DIRECTION('',(0.,0.,-1.));
#318=DIRECTION('',(0.,1.,0.));
#319=DIRECTION('',(0.,0.,-1.));
#320=DIRECTION('',(0.,1.,0.));
#321=DIRECTION('',(0.,0.,-1.));
#322=DIRECTION('',(0.,1.,0.));
#323=DIRECTION('',(0.,0.,-1.));
#324=DIRECTION('',(0.,1.,0.));
#325=DIRECTION('',(0.,0.,-1.));
#326=DIRECTION('',(0.,1.,2.40528562611777E-016));
#327=DIRECTION('',(0.,0.,-1.));
#328=DIRECTION('',(0.,1.,0.));
#329=DIRECTION('',(0.,0.,-1.));
#330=DIRECTION('',(0.,1.,0.));
#331=DIRECTION('',(0.,0.,-1.));
#332=DIRECTION('',(0.,1.,7.41942990430984E-018));
#333=DIRECTION('',(0.,0.,-1.));
#334=DIRECTION('',(-1.,0.,0.));
#335=DIRECTION('',(0.,0.,-1.));
#336=DIRECTION('',(0.,1.,0.));
#337=DIRECTION('',(0.,0.,-1.));
#338=DIRECTION('',(-1.,0.,0.));
#339=CARTESIAN_POINT('',(0.,0.,0.));
#340=CARTESIAN_POINT('',(0.,0.,17.));
#341=CARTESIAN_POINT('',(0.,5.068622450386,17.));
#342=CARTESIAN_POINT('',(0.,0.,17.));
#343=CARTESIAN_POINT('',(-3.,0.,17.));
#344=CARTESIAN_POINT('',(-3.289855956267,0.,17.));
#345=CARTESIAN_POINT('',(0.,0.,-0.0527864045000553));
#346=CARTESIAN_POINT('',(-10.,0.,-0.0527864045000553));
#347=CARTESIAN_POINT('',(0.,0.,0.));
#348=CARTESIAN_POINT('',(-10.0683375209645,0.,0.));
#349=CARTESIAN_POINT('',(0.,0.,-0.5));
#350=CARTESIAN_POINT('',(0.,0.,-10.9999999980875));
#351=CARTESIAN_POINT('',(0.,10.,-10.9999999980875));
#352=CARTESIAN_POINT('',(0.,0.,-11.));
#353=CARTESIAN_POINT('',(-6.,0.,-11.));
#354=CARTESIAN_POINT('',(-10.,0.,-11.0000000009563));
#355=CARTESIAN_POINT('',(0.,0.,-101.923179905009));
#356=CARTESIAN_POINT('',(0.,0.,-13.00000011584));
#357=CARTESIAN_POINT('',(0.,5.718918333882,-13.00000011584));
#358=CARTESIAN_POINT('',(0.,0.,-23.));
#359=CARTESIAN_POINT('',(0.,0.,-23.));
#360=CARTESIAN_POINT('',(0.,4.31350999999999,-23.));
#361=CARTESIAN_POINT('',(0.,0.,-13.00000011584));
#362=CARTESIAN_POINT('',(0.,0.,-23.));
#363=CARTESIAN_POINT('',(0.,-4.3,-23.));
#364=CARTESIAN_POINT('',(-4.31350999999999,0.,-23.));
#365=CARTESIAN_POINT('',(0.,0.,-23.0583801512904));
#366=CARTESIAN_POINT('',(-4.,0.,-23.0583801512904));
#367=CARTESIAN_POINT('',(0.,0.,-23.8));
#368=CARTESIAN_POINT('',(0.,0.,-28.));
#369=CARTESIAN_POINT('',(-4.,0.,-28.));
#370=CARTESIAN_POINT('',(0.,0.,-101.923179905009));
#371=CARTESIAN_POINT('',(0.,0.,-28.));
#372=CARTESIAN_POINT('',(0.,0.,0.));
#373=CARTESIAN_POINT('',(15.,0.,0.));
#374=CARTESIAN_POINT('',(-14.5,0.,0.));
#375=CARTESIAN_POINT('',(0.,0.,5.));
#376=CARTESIAN_POINT('',(0.,15.,5.));
#377=CARTESIAN_POINT('',(0.,0.,-101.923179905009));
#378=CARTESIAN_POINT('',(0.,0.,15.168334488169));
#379=CARTESIAN_POINT('',(0.,7.061525734565,15.168334488169));
#380=CARTESIAN_POINT('',(0.,0.,15.));
#381=CARTESIAN_POINT('',(0.,0.,8.50183989348));
#382=CARTESIAN_POINT('',(0.,7.39908716409979,8.50183989348));
#383=CARTESIAN_POINT('',(0.,0.,15.168334488169));
#384=CARTESIAN_POINT('',(0.,0.,6.639787234307));
#385=CARTESIAN_POINT('',(0.,8.880230727935,6.639787234307));
#386=CARTESIAN_POINT('',(0.,0.,8.57163888688501));
#387=CARTESIAN_POINT('',(0.,0.,6.639787234307));
#388=CARTESIAN_POINT('',(0.,0.,-11.));
#389=CARTESIAN_POINT('',(-3.,0.,-11.));
#390=CARTESIAN_POINT('',(0.,0.,-101.923179905009));
#391=CARTESIAN_POINT('',(0.,0.,-11.));
#392=MECHANICAL_DESIGN_GEOMETRIC_PRESENTATION_REPRESENTATION('',(#32),#393);
#393=(
GEOMETRIC_REPRESENTATION_CONTEXT(3)
GLOBAL_UNCERTAINTY_ASSIGNED_CONTEXT((#394))
GLOBAL_UNIT_ASSIGNED_CONTEXT((#400,#396,#395))
REPRESENTATION_CONTEXT('836616_stp','TOP_LEVEL_ASSEMBLY_PART')
);
#394=UNCERTAINTY_MEASURE_WITH_UNIT(LENGTH_MEASURE(2.E-005),#400,
'DISTANCE_ACCURACY_VALUE','Maximum Tolerance applied to model');
#395=(
NAMED_UNIT(*)
SI_UNIT($,.STERADIAN.)
SOLID_ANGLE_UNIT()
);
#396=(
CONVERSION_BASED_UNIT('DEGREE',#398)
NAMED_UNIT(#397)
PLANE_ANGLE_UNIT()
);
#397=DIMENSIONAL_EXPONENTS(0.,0.,0.,0.,0.,0.,0.);
#398=PLANE_ANGLE_MEASURE_WITH_UNIT(PLANE_ANGLE_MEASURE(0.0174532925),#399);
#399=(
NAMED_UNIT(*)
PLANE_ANGLE_UNIT()
SI_UNIT($,.RADIAN.)
);
#400=(
LENGTH_UNIT()
NAMED_UNIT(*)
SI_UNIT(.MILLI.,.METRE.)
);
ENDSEC;
END-ISO-10303-21;
