  0
SECTION
  2
HEADER
  9
$ACADVER
  1
AC1014
  9
$ACADMAINTVER
 70
     9
  9
$DWGCODEPAGE
  3
ANSI_1252
  9
$INSBASE
 10
0.0
 20
0.0
 30
0.0
  9
$EXTMIN
 10
1.000000000000000E+20
 20
1.000000000000000E+20
 30
1.000000000000000E+20
  9
$EXTMAX
 10
-1.000000000000000E+20
 20
-1.000000000000000E+20
 30
-1.000000000000000E+20
  9
$LIMMIN
 10
0.0
 20
0.0
  9
$LIMMAX
 10
12.0
 20
9.0
  9
$ORTHOMODE
 70
     0
  9
$REGENMODE
 70
     1
  9
$FILLMODE
 70
     1
  9
$QTEXTMODE
 70
     0
  9
$MIRRTEXT
 70
     1
  9
$DRAGMODE
 70
     2
  9
$LTSCALE
 40
1.0
  9
$OSMODE
 70
    37
  9
$ATTMODE
 70
     1
  9
$TEXTSIZE
 40
0.2
  9
$TRACEWID
 40
0.05
  9
$TEXTSTYLE
  7
STANDARD
  9
$CLAYER
  8
0
  9
$CELTYPE
  6
BYLAYER
  9
$CECOLOR
 62
   256
  9
$CELTSCALE
 40
1.0
  9
$DELOBJ
 70
     1
  9
$DISPSILH
 70
     0
  9
$DIMSCALE
 40
1.0
  9
$DIMASZ
 40
0.18
  9
$DIMEXO
 40
0.0625
  9
$DIMDLI
 40
0.38
  9
$DIMRND
 40
0.0
  9
$DIMDLE
 40
0.0
  9
$DIMEXE
 40
0.18
  9
$DIMTP
 40
0.0
  9
$DIMTM
 40
0.0
  9
$DIMTXT
 40
0.18
  9
$DIMCEN
 40
0.09
  9
$DIMTSZ
 40
0.0
  9
$DIMTOL
 70
     0
  9
$DIMLIM
 70
     0
  9
$DIMTIH
 70
     1
  9
$DIMTOH
 70
     1
  9
$DIMSE1
 70
     0
  9
$DIMSE2
 70
     0
  9
$DIMTAD
 70
     0
  9
$DIMZIN
 70
     0
  9
$DIMBLK
  1

  9
$DIMASO
 70
     1
  9
$DIMSHO
 70
     1
  9
$DIMPOST
  1

  9
$DIMAPOST
  1

  9
$DIMALT
 70
     0
  9
$DIMALTD
 70
     2
  9
$DIMALTF
 40
25.4
  9
$DIMLFAC
 40
1.0
  9
$DIMTOFL
 70
     0
  9
$DIMTVP
 40
0.0
  9
$DIMTIX
 70
     0
  9
$DIMSOXD
 70
     0
  9
$DIMSAH
 70
     0
  9
$DIMBLK1
  1

  9
$DIMBLK2
  1

  9
$DIMSTYLE
  2
STANDARD
  9
$DIMCLRD
 70
     0
  9
$DIMCLRE
 70
     0
  9
$DIMCLRT
 70
     0
  9
$DIMTFAC
 40
1.0
  9
$DIMGAP
 40
0.09
  9
$DIMJUST
 70
     0
  9
$DIMSD1
 70
     0
  9
$DIMSD2
 70
     0
  9
$DIMTOLJ
 70
     1
  9
$DIMTZIN
 70
     0
  9
$DIMALTZ
 70
     0
  9
$DIMALTTZ
 70
     0
  9
$DIMFIT
 70
     3
  9
$DIMUPT
 70
     0
  9
$DIMUNIT
 70
     2
  9
$DIMDEC
 70
     4
  9
$DIMTDEC
 70
     4
  9
$DIMALTU
 70
     2
  9
$DIMALTTD
 70
     2
  9
$DIMTXSTY
  7
STANDARD
  9
$DIMAUNIT
 70
     0
  9
$LUNITS
 70
     2
  9
$LUPREC
 70
     4
  9
$SKETCHINC
 40
0.1
  9
$FILLETRAD
 40
0.5
  9
$AUNITS
 70
     0
  9
$AUPREC
 70
     0
  9
$MENU
  1
.
  9
$ELEVATION
 40
0.0
  9
$PELEVATION
 40
0.0
  9
$THICKNESS
 40
0.0
  9
$LIMCHECK
 70
     0
  9
$CHAMFERA
 40
0.5
  9
$CHAMFERB
 40
0.5
  9
$CHAMFERC
 40
1.0
  9
$CHAMFERD
 40
0.0
  9
$SKPOLY
 70
     0
  9
$TDCREATE
 40
2458694.615554201
  9
$TDUPDATE
 40
2458694.615554213
  9
$TDINDWG
 40
0.0000000116
  9
$TDUSRTIMER
 40
0.0000000116
  9
$USRTIMER
 70
     1
  9
$ANGBASE
 50
0.0
  9
$ANGDIR
 70
     0
  9
$PDMODE
 70
     0
  9
$PDSIZE
 40
0.0
  9
$PLINEWID
 40
0.0
  9
$COORDS
 70
     1
  9
$SPLFRAME
 70
     0
  9
$SPLINETYPE
 70
     6
  9
$SPLINESEGS
 70
     8
  9
$ATTDIA
 70
     0
  9
$ATTREQ
 70
     1
  9
$HANDLING
 70
     1
  9
$HANDSEED
  5
567
  9
$SURFTAB1
 70
     6
  9
$SURFTAB2
 70
     6
  9
$SURFTYPE
 70
     6
  9
$SURFU
 70
     6
  9
$SURFV
 70
     6
  9
$UCSNAME
  2

  9
$UCSORG
 10
0.0
 20
0.0
 30
0.0
  9
$UCSXDIR
 10
1.0
 20
0.0
 30
0.0
  9
$UCSYDIR
 10
0.0
 20
1.0
 30
0.0
  9
$PUCSNAME
  2

  9
$PUCSORG
 10
0.0
 20
0.0
 30
0.0
  9
$PUCSXDIR
 10
1.0
 20
0.0
 30
0.0
  9
$PUCSYDIR
 10
0.0
 20
1.0
 30
0.0
  9
$USERI1
 70
     0
  9
$USERI2
 70
     0
  9
$USERI3
 70
     0
  9
$USERI4
 70
     0
  9
$USERI5
 70
     0
  9
$USERR1
 40
0.0
  9
$USERR2
 40
0.0
  9
$USERR3
 40
0.0
  9
$USERR4
 40
0.0
  9
$USERR5
 40
0.0
  9
$WORLDVIEW
 70
     1
  9
$SHADEDGE
 70
     3
  9
$SHADEDIF
 70
    70
  9
$TILEMODE
 70
     1
  9
$MAXACTVP
 70
    64
  9
$PINSBASE
 10
0.0
 20
0.0
 30
0.0
  9
$PLIMCHECK
 70
     0
  9
$PEXTMIN
 10
1.000000000000000E+20
 20
1.000000000000000E+20
 30
1.000000000000000E+20
  9
$PEXTMAX
 10
-1.000000000000000E+20
 20
-1.000000000000000E+20
 30
-1.000000000000000E+20
  9
$PLIMMIN
 10
0.0
 20
0.0
  9
$PLIMMAX
 10
12.0
 20
9.0
  9
$UNITMODE
 70
     0
  9
$VISRETAIN
 70
     1
  9
$PLINEGEN
 70
     0
  9
$PSLTSCALE
 70
     1
  9
$TREEDEPTH
 70
  3020
  9
$PICKSTYLE
 70
     1
  9
$CMLSTYLE
  2
STANDARD
  9
$CMLJUST
 70
     0
  9
$CMLSCALE
 40
1.0
  9
$PROXYGRAPHICS
 70
     1
  9
$MEASUREMENT
 70
     0
  0
ENDSEC
  0
SECTION
  2
CLASSES
  0
CLASS
  1
ACDBDICTIONARYWDFLT
  2
AcDbDictionaryWithDefault
  3
ObjectDBX Classes
 90
        0
280
     0
281
     0
  0
CLASS
  1
VISUALSTYLE
  2
AcDbVisualStyle
  3
ObjectDBX Classes
 90
     4095
280
     0
281
     0
  0
CLASS
  1
XRECORD
  2
AcDbXrecord
  3
AutoCAD 2000
 90
        0
280
     0
281
     0
  0
CLASS
  1
LWPOLYLINE
  2
AcDbPolyline
  3
AutoCAD 2000
 90
        0
280
     0
281
     1
  0
CLASS
  1
HATCH
  2
AcDbHatch
  3
AutoCAD 2000
 90
        0
280
     0
281
     1
  0
CLASS
  1
ACDBPLACEHOLDER
  2
AcDbPlaceHolder
  3
ObjectDBX Classes
 90
        0
280
     0
281
     0
  0
CLASS
  1
LAYOUT
  2
AcDbLayout
  3
ObjectDBX Classes
 90
        0
280
     0
281
     0
  0
ENDSEC
  0
SECTION
  2
TABLES
  0
TABLE
  2
VPORT
  5
8
330
0
100
AcDbSymbolTable
 70
     1
  0
VPORT
  5
29
330
8
100
AcDbSymbolTableRecord
100
AcDbViewportTableRecord
  2
*ACTIVE
 70
     0
 10
0.0
 20
0.0
 11
1.0
 21
1.0
 12
0.0
 22
0.0
 13
0.0
 23
0.0
 14
0.5
 24
0.5
 15
0.5
 25
0.5
 16
0.0
 26
0.0
 36
1.0
 17
100.0619370952102
 27
127.0193786303545
 37
0.0
 40
297.0001314904201
 41
0.7070759562020681
 42
50.0
 43
0.0
 44
0.0
 50
0.0
 51
0.0
 71
     0
 72
   100
 73
     1
 74
     3
 75
     0
 76
     0
 77
     0
 78
     0
  0
ENDTAB
  0
TABLE
  2
LTYPE
  5
5
330
0
100
AcDbSymbolTable
 70
     1
  0
LTYPE
  5
14
330
5
100
AcDbSymbolTableRecord
100
AcDbLinetypeTableRecord
  2
BYBLOCK
 70
     0
  3

 72
    65
 73
     0
 40
0.0
  0
LTYPE
  5
15
330
5
100
AcDbSymbolTableRecord
100
AcDbLinetypeTableRecord
  2
BYLAYER
 70
     0
  3

 72
    65
 73
     0
 40
0.0
  0
LTYPE
  5
16
330
5
100
AcDbSymbolTableRecord
100
AcDbLinetypeTableRecord
  2
CONTINUOUS
 70
     0
  3
Solid line
 72
    65
 73
     0
 40
0.0
  0
ENDTAB
  0
TABLE
  2
LAYER
  5
2
330
0
100
AcDbSymbolTable
 70
     5
  0
LAYER
  5
10
330
2
100
AcDbSymbolTableRecord
100
AcDbLayerTableRecord
  2
0
 70
     0
 62
     7
  6
CONTINUOUS
  0
LAYER
  5
3B
330
2
100
AcDbSymbolTableRecord
100
AcDbLayerTableRecord
  2
GRAU_10_
 70
     0
 62
     7
  6
CONTINUOUS
  0
LAYER
  5
77
330
2
100
AcDbSymbolTableRecord
100
AcDbLayerTableRecord
  2
STANDARDEBENE
 70
     0
 62
     7
  6
CONTINUOUS
  0
LAYER
  5
220
330
2
100
AcDbSymbolTableRecord
100
AcDbLayerTableRecord
  2
BEMAßUNG
 70
     1
 62
     7
  6
CONTINUOUS
  0
LAYER
  5
541
330
2
100
AcDbSymbolTableRecord
100
AcDbLayerTableRecord
  2
TEXT
 70
     1
 62
     7
  6
CONTINUOUS
  0
ENDTAB
  0
TABLE
  2
STYLE
  5
3
330
0
100
AcDbSymbolTable
 70
     1
  0
STYLE
  5
11
330
3
100
AcDbSymbolTableRecord
100
AcDbTextStyleTableRecord
  2
STANDARD
 70
     0
 40
0.0
 41
1.0
 50
0.0
 71
     0
 42
0.2
  3
txt
  4

  0
ENDTAB
  0
TABLE
  2
VIEW
  5
6
330
0
100
AcDbSymbolTable
 70
     0
  0
ENDTAB
  0
TABLE
  2
UCS
  5
7
330
0
100
AcDbSymbolTable
 70
     0
  0
ENDTAB
  0
TABLE
  2
APPID
  5
9
330
0
100
AcDbSymbolTable
 70
     1
  0
APPID
  5
12
330
9
100
AcDbSymbolTableRecord
100
AcDbRegAppTableRecord
  2
ACAD
 70
     0
  0
ENDTAB
  0
TABLE
  2
DIMSTYLE
  5
A
330
0
100
AcDbSymbolTable
 70
     1
  0
DIMSTYLE
105
27
330
A
100
AcDbSymbolTableRecord
100
AcDbDimStyleTableRecord
  2
STANDARD
 70
     0
  3

  4

  5

  6

  7

 40
1.0
 41
0.18
 42
0.0625
 43
0.38
 44
0.18
 45
0.0
 46
0.0
 47
0.0
 48
0.0
140
0.18
141
0.09
142
0.0
143
25.4
144
1.0
145
0.0
146
1.0
147
0.09
 71
     0
 72
     0
 73
     1
 74
     1
 75
     0
 76
     0
 77
     0
 78
     0
170
     0
171
     2
172
     0
173
     0
174
     0
175
     0
176
     0
177
     0
178
     0
270
     2
271
     4
272
     4
273
     2
274
     2
340
11
275
     0
280
     0
281
     0
282
     0
283
     1
284
     0
285
     0
286
     0
287
     3
288
     0
  0
ENDTAB
  0
TABLE
  2
BLOCK_RECORD
  5
1
330
0
100
AcDbSymbolTable
 70
     1
  0
BLOCK_RECORD
  5
1F
330
1
100
AcDbSymbolTableRecord
100
AcDbBlockTableRecord
  2
*MODEL_SPACE
  0
BLOCK_RECORD
  5
1B
330
1
100
AcDbSymbolTableRecord
100
AcDbBlockTableRecord
  2
*PAPER_SPACE
  0
ENDTAB
  0
ENDSEC
  0
SECTION
  2
BLOCKS
  0
BLOCK
  5
20
330
1F
100
AcDbEntity
  8
0
100
AcDbBlockBegin
  2
*MODEL_SPACE
 70
     0
 71
     0
 10
0.0
 20
0.0
 30
0.0
  3
*MODEL_SPACE
  1

  0
ENDBLK
  5
21
330
1F
100
AcDbEntity
  8
0
100
AcDbBlockEnd
  0
BLOCK
  5
1C
330
1B
100
AcDbEntity
 67
     1
  8
0
100
AcDbBlockBegin
  2
*PAPER_SPACE
 70
     0
 71
     0
 10
0.0
 20
0.0
 30
0.0
  3
*PAPER_SPACE
  1

  0
ENDBLK
  5
1D
330
1B
100
AcDbEntity
 67
     1
  8
0
100
AcDbBlockEnd
  0
ENDSEC
  0
SECTION
  2
ENTITIES
  0
POLYLINE
  5
3C
330
1F
100
AcDbEntity
  8
GRAU_10_
 62
     7
100
AcDb2dPolyline
 66
     1
 10
0.0
 20
0.0
 30
0.0
  0
VERTEX
  5
3D
330
3C
100
AcDbEntity
  8
GRAU_10_
 62
     7
100
AcDbVertex
100
AcDb2dVertex
 10
53.20519340032718
 20
126.5385294280008
 30
0.0
  0
VERTEX
  5
3E
330
3C
100
AcDbEntity
  8
GRAU_10_
 62
     7
100
AcDbVertex
100
AcDb2dVertex
 10
152.7052354218931
 20
126.5385294280008
 30
0.0
  0
SEQEND
  5
3F
330
3C
100
AcDbEntity
  8
GRAU_10_
  0
POLYLINE
  5
40
330
1F
100
AcDbEntity
  8
GRAU_10_
 62
     7
100
AcDb2dPolyline
 66
     1
 10
0.0
 20
0.0
 30
0.0
  0
VERTEX
  5
41
330
40
100
AcDbEntity
  8
GRAU_10_
 62
     7
100
AcDbVertex
100
AcDb2dVertex
 10
152.7052354218931
 20
131.5385687605181
 30
0.0
  0
VERTEX
  5
42
330
40
100
AcDbEntity
  8
GRAU_10_
 62
     7
100
AcDbVertex
100
AcDb2dVertex
 10
53.20519340032718
 20
131.5385687605181
 30
0.0
  0
VERTEX
  5
43
330
40
100
AcDbEntity
  8
GRAU_10_
 62
     7
100
AcDbVertex
100
AcDb2dVertex
 10
52.70531004541743
 20
131.0386854056084
 30
0.0
  0
SEQEND
  5
44
330
40
100
AcDbEntity
  8
GRAU_10_
  0
POLYLINE
  5
45
330
1F
100
AcDbEntity
  8
GRAU_10_
 62
     7
100
AcDb2dPolyline
 66
     1
 10
0.0
 20
0.0
 30
0.0
  0
VERTEX
  5
46
330
45
100
AcDbEntity
  8
GRAU_10_
 62
     7
100
AcDbVertex
100
AcDb2dVertex
 10
52.70531004541743
 20
127.0387572924591
 30
0.0
  0
VERTEX
  5
47
330
45
100
AcDbEntity
  8
GRAU_10_
 62
     7
100
AcDbVertex
100
AcDb2dVertex
 10
53.20519340032718
 20
126.5385294280008
 30
0.0
  0
SEQEND
  5
48
330
45
100
AcDbEntity
  8
GRAU_10_
  0
POLYLINE
  5
49
330
1F
100
AcDbEntity
  8
GRAU_10_
 62
     7
100
AcDb2dPolyline
 66
     1
 10
0.0
 20
0.0
 30
0.0
  0
VERTEX
  5
4A
330
49
100
AcDbEntity
  8
GRAU_10_
 62
     7
100
AcDbVertex
100
AcDb2dVertex
 10
58.70511608775428
 20
131.5385687605181
 30
0.0
  0
VERTEX
  5
4B
330
49
100
AcDbEntity
  8
GRAU_10_
 62
     7
100
AcDbVertex
100
AcDb2dVertex
 10
58.70511608775428
 20
126.5385294280008
 30
0.0
  0
SEQEND
  5
4C
330
49
100
AcDbEntity
  8
GRAU_10_
  0
POLYLINE
  5
4D
330
1F
100
AcDbEntity
  8
GRAU_10_
 62
     7
100
AcDb2dPolyline
 66
     1
 10
0.0
 20
0.0
 30
0.0
  0
VERTEX
  5
4E
330
4D
100
AcDbEntity
  8
GRAU_10_
 62
     7
100
AcDbVertex
100
AcDb2dVertex
 10
53.20519340032718
 20
131.5385687605181
 30
0.0
  0
VERTEX
  5
4F
330
4D
100
AcDbEntity
  8
GRAU_10_
 62
     7
100
AcDbVertex
100
AcDb2dVertex
 10
53.20519340032718
 20
131.4372829532518
 30
0.0
  0
VERTEX
  5
50
330
4D
100
AcDbEntity
  8
GRAU_10_
 62
     7
100
AcDbVertex
100
AcDb2dVertex
 10
53.20519340032718
 20
131.1416937606174
 30
0.0
  0
VERTEX
  5
51
330
4D
100
AcDbEntity
  8
GRAU_10_
 62
     7
100
AcDbVertex
100
AcDb2dVertex
 10
53.20519340032718
 20
130.6755723414631
 30
0.0
  0
VERTEX
  5
52
330
4D
100
AcDbEntity
  8
GRAU_10_
 62
     7
100
AcDbVertex
100
AcDb2dVertex
 10
53.20519340032718
 20
130.0776760199979
 30
0.0
  0
VERTEX
  5
53
330
4D
100
AcDbEntity
  8
GRAU_10_
 62
     7
100
AcDbVertex
100
AcDb2dVertex
 10
53.20519340032718
 20
129.3946858400472
 30
0.0
  0
VERTEX
  5
54
330
4D
100
AcDbEntity
  8
GRAU_10_
 62
     7
100
AcDbVertex
100
AcDb2dVertex
 10
53.20519340032718
 20
128.6827568580203
 30
0.0
  0
VERTEX
  5
55
330
4D
100
AcDbEntity
  8
GRAU_10_
 62
     7
100
AcDbVertex
100
AcDb2dVertex
 10
53.20519340032718
 20
128.0004556971666
 30
0.0
  0
VERTEX
  5
56
330
4D
100
AcDbEntity
  8
GRAU_10_
 62
     7
100
AcDbVertex
100
AcDb2dVertex
 10
53.20519340032718
 20
127.4018703566044
 30
0.0
  0
VERTEX
  5
57
330
4D
100
AcDbEntity
  8
GRAU_10_
 62
     7
100
AcDbVertex
100
AcDb2dVertex
 10
53.20519340032718
 20
126.9354044279016
 30
0.0
  0
VERTEX
  5
58
330
4D
100
AcDbEntity
  8
GRAU_10_
 62
     7
100
AcDbVertex
100
AcDb2dVertex
 10
53.20519340032718
 20
126.6401597448157
 30
0.0
  0
VERTEX
  5
59
330
4D
100
AcDbEntity
  8
GRAU_10_
 62
     7
100
AcDbVertex
100
AcDb2dVertex
 10
53.20519340032718
 20
126.5385294280008
 30
0.0
  0
SEQEND
  5
5A
330
4D
100
AcDbEntity
  8
GRAU_10_
  0
POLYLINE
  5
5B
330
1F
100
AcDbEntity
  8
GRAU_10_
 62
     7
100
AcDb2dPolyline
 66
     1
 10
0.0
 20
0.0
 30
0.0
  0
VERTEX
  5
5C
330
5B
100
AcDbEntity
  8
GRAU_10_
 62
     7
100
AcDbVertex
100
AcDb2dVertex
 10
152.7052354218931
 20
131.5385687605181
 30
0.0
  0
VERTEX
  5
5D
330
5B
100
AcDbEntity
  8
GRAU_10_
 62
     7
100
AcDbVertex
100
AcDb2dVertex
 10
152.7052354218931
 20
131.4372829532518
 30
0.0
  0
VERTEX
  5
5E
330
5B
100
AcDbEntity
  8
GRAU_10_
 62
     7
100
AcDbVertex
100
AcDb2dVertex
 10
152.7052354218931
 20
131.1416937606174
 30
0.0
  0
VERTEX
  5
5F
330
5B
100
AcDbEntity
  8
GRAU_10_
 62
     7
100
AcDbVertex
100
AcDb2dVertex
 10
152.7052354218931
 20
130.6755723414631
 30
0.0
  0
VERTEX
  5
60
330
5B
100
AcDbEntity
  8
GRAU_10_
 62
     7
100
AcDbVertex
100
AcDb2dVertex
 10
152.7052354218931
 20
130.0776760199979
 30
0.0
  0
VERTEX
  5
61
330
5B
100
AcDbEntity
  8
GRAU_10_
 62
     7
100
AcDbVertex
100
AcDb2dVertex
 10
152.7052354218931
 20
129.3946858400472
 30
0.0
  0
VERTEX
  5
62
330
5B
100
AcDbEntity
  8
GRAU_10_
 62
     7
100
AcDbVertex
100
AcDb2dVertex
 10
152.7052354218931
 20
128.6827568580203
 30
0.0
  0
VERTEX
  5
63
330
5B
100
AcDbEntity
  8
GRAU_10_
 62
     7
100
AcDbVertex
100
AcDb2dVertex
 10
152.7052354218931
 20
128.0004556971666
 30
0.0
  0
VERTEX
  5
64
330
5B
100
AcDbEntity
  8
GRAU_10_
 62
     7
100
AcDbVertex
100
AcDb2dVertex
 10
152.7052354218931
 20
127.4018703566044
 30
0.0
  0
VERTEX
  5
65
330
5B
100
AcDbEntity
  8
GRAU_10_
 62
     7
100
AcDbVertex
100
AcDb2dVertex
 10
152.7052354218931
 20
126.9354044279016
 30
0.0
  0
VERTEX
  5
66
330
5B
100
AcDbEntity
  8
GRAU_10_
 62
     7
100
AcDbVertex
100
AcDb2dVertex
 10
152.7052354218931
 20
126.6401597448157
 30
0.0
  0
VERTEX
  5
67
330
5B
100
AcDbEntity
  8
GRAU_10_
 62
     7
100
AcDbVertex
100
AcDb2dVertex
 10
152.7052354218931
 20
126.5385294280008
 30
0.0
  0
SEQEND
  5
68
330
5B
100
AcDbEntity
  8
GRAU_10_
  0
POLYLINE
  5
69
330
1F
100
AcDbEntity
  8
GRAU_10_
 62
     7
100
AcDb2dPolyline
 66
     1
 10
0.0
 20
0.0
 30
0.0
  0
VERTEX
  5
6A
330
69
100
AcDbEntity
  8
GRAU_10_
 62
     7
100
AcDbVertex
100
AcDb2dVertex
 10
52.70531004541743
 20
129.0388074764209
 30
0.0
  0
VERTEX
  5
6B
330
69
100
AcDbEntity
  8
GRAU_10_
 62
     7
100
AcDbVertex
100
AcDb2dVertex
 10
52.70531004541743
 20
129.8039631836949
 30
0.0
  0
VERTEX
  5
6C
330
69
100
AcDbEntity
  8
GRAU_10_
 62
     7
100
AcDbVertex
100
AcDb2dVertex
 10
52.70531004541743
 20
130.4530191731159
 30
0.0
  0
VERTEX
  5
6D
330
69
100
AcDbEntity
  8
GRAU_10_
 62
     7
100
AcDbVertex
100
AcDb2dVertex
 10
52.70531004541743
 20
130.8865844399346
 30
0.0
  0
VERTEX
  5
6E
330
69
100
AcDbEntity
  8
GRAU_10_
 62
     7
100
AcDbVertex
100
AcDb2dVertex
 10
52.70531004541743
 20
131.0386854056084
 30
0.0
  0
SEQEND
  5
6F
330
69
100
AcDbEntity
  8
GRAU_10_
  0
POLYLINE
  5
70
330
1F
100
AcDbEntity
  8
GRAU_10_
 62
     7
100
AcDb2dPolyline
 66
     1
 10
0.0
 20
0.0
 30
0.0
  0
VERTEX
  5
71
330
70
100
AcDbEntity
  8
GRAU_10_
 62
     7
100
AcDbVertex
100
AcDb2dVertex
 10
52.70531004541743
 20
127.0387572924591
 30
0.0
  0
VERTEX
  5
72
330
70
100
AcDbEntity
  8
GRAU_10_
 62
     7
100
AcDbVertex
100
AcDb2dVertex
 10
52.70531004541743
 20
127.1912027676814
 30
0.0
  0
VERTEX
  5
73
330
70
100
AcDbEntity
  8
GRAU_10_
 62
     7
100
AcDbVertex
100
AcDb2dVertex
 10
52.70531004541743
 20
127.6244235249515
 30
0.0
  0
VERTEX
  5
74
330
70
100
AcDbEntity
  8
GRAU_10_
 62
     7
100
AcDbVertex
100
AcDb2dVertex
 10
52.70531004541743
 20
128.2734795143726
 30
0.0
  0
VERTEX
  5
75
330
70
100
AcDbEntity
  8
GRAU_10_
 62
     7
100
AcDbVertex
100
AcDb2dVertex
 10
52.70531004541743
 20
129.0388074764209
 30
0.0
  0
SEQEND
  5
76
330
70
100
AcDbEntity
  8
GRAU_10_
  0
POLYLINE
  5
78
330
1F
100
AcDbEntity
  8
STANDARDEBENE
 62
     7
100
AcDb2dPolyline
 66
     1
 10
0.0
 20
0.0
 30
0.0
  0
VERTEX
  5
79
330
78
100
AcDbEntity
  8
STANDARDEBENE
 62
     7
100
AcDbVertex
100
AcDb2dVertex
 10
52.70531004541743
 20
127.5391574116916
 30
0.0
  0
VERTEX
  5
7A
330
78
100
AcDbEntity
  8
STANDARDEBENE
 62
     7
100
AcDbVertex
100
AcDb2dVertex
 10
53.20519340032718
 20
127.5391574116916
 30
0.0
  0
SEQEND
  5
7B
330
78
100
AcDbEntity
  8
STANDARDEBENE
  0
POLYLINE
  5
7C
330
1F
100
AcDbEntity
  8
STANDARDEBENE
 62
     7
100
AcDb2dPolyline
 66
     1
 10
0.0
 20
0.0
 30
0.0
  0
VERTEX
  5
7D
330
7C
100
AcDbEntity
  8
STANDARDEBENE
 62
     7
100
AcDbVertex
100
AcDb2dVertex
 10
54.20496011014668
 20
127.5391574116916
 30
0.0
  0
VERTEX
  5
7E
330
7C
100
AcDbEntity
  8
STANDARDEBENE
 62
     7
100
AcDbVertex
100
AcDb2dVertex
 10
55.20507132951471
 20
127.5391574116916
 30
0.0
  0
SEQEND
  5
7F
330
7C
100
AcDbEntity
  8
STANDARDEBENE
  0
POLYLINE
  5
80
330
1F
100
AcDbEntity
  8
STANDARDEBENE
 62
     7
100
AcDb2dPolyline
 66
     1
 10
0.0
 20
0.0
 30
0.0
  0
VERTEX
  5
81
330
80
100
AcDbEntity
  8
STANDARDEBENE
 62
     7
100
AcDbVertex
100
AcDb2dVertex
 10
56.20518254888273
 20
127.5391574116916
 30
0.0
  0
VERTEX
  5
82
330
80
100
AcDbEntity
  8
STANDARDEBENE
 62
     7
100
AcDbVertex
100
AcDb2dVertex
 10
57.20546602302502
 20
127.5391574116916
 30
0.0
  0
SEQEND
  5
83
330
80
100
AcDbEntity
  8
STANDARDEBENE
  0
POLYLINE
  5
84
330
1F
100
AcDbEntity
  8
STANDARDEBENE
 62
     7
100
AcDb2dPolyline
 66
     1
 10
0.0
 20
0.0
 30
0.0
  0
VERTEX
  5
85
330
84
100
AcDbEntity
  8
STANDARDEBENE
 62
     7
100
AcDbVertex
100
AcDb2dVertex
 10
58.20523273284453
 20
127.5391574116916
 30
0.0
  0
VERTEX
  5
86
330
84
100
AcDbEntity
  8
STANDARDEBENE
 62
     7
100
AcDbVertex
100
AcDb2dVertex
 10
59.20499944266403
 20
127.5391574116916
 30
0.0
  0
SEQEND
  5
87
330
84
100
AcDbEntity
  8
STANDARDEBENE
  0
POLYLINE
  5
88
330
1F
100
AcDbEntity
  8
STANDARDEBENE
 62
     7
100
AcDb2dPolyline
 66
     1
 10
0.0
 20
0.0
 30
0.0
  0
VERTEX
  5
89
330
88
100
AcDbEntity
  8
STANDARDEBENE
 62
     7
100
AcDbVertex
100
AcDb2dVertex
 10
60.20545517158058
 20
127.5391574116916
 30
0.0
  0
VERTEX
  5
8A
330
88
100
AcDbEntity
  8
STANDARDEBENE
 62
     7
100
AcDbVertex
100
AcDb2dVertex
 10
61.20556639094861
 20
127.5391574116916
 30
0.0
  0
SEQEND
  5
8B
330
88
100
AcDbEntity
  8
STANDARDEBENE
  0
POLYLINE
  5
8C
330
1F
100
AcDbEntity
  8
STANDARDEBENE
 62
     7
100
AcDb2dPolyline
 66
     1
 10
0.0
 20
0.0
 30
0.0
  0
VERTEX
  5
8D
330
8C
100
AcDbEntity
  8
STANDARDEBENE
 62
     7
100
AcDbVertex
100
AcDb2dVertex
 10
62.20533310076812
 20
127.5391574116916
 30
0.0
  0
VERTEX
  5
8E
330
8C
100
AcDbEntity
  8
STANDARDEBENE
 62
     7
100
AcDbVertex
100
AcDb2dVertex
 10
63.20509981058762
 20
127.5391574116916
 30
0.0
  0
SEQEND
  5
8F
330
8C
100
AcDbEntity
  8
STANDARDEBENE
  0
POLYLINE
  5
90
330
1F
100
AcDbEntity
  8
STANDARDEBENE
 62
     7
100
AcDb2dPolyline
 66
     1
 10
0.0
 20
0.0
 30
0.0
  0
VERTEX
  5
91
330
90
100
AcDbEntity
  8
STANDARDEBENE
 62
     7
100
AcDbVertex
100
AcDb2dVertex
 10
64.20555553950418
 20
127.5391574116916
 30
0.0
  0
VERTEX
  5
92
330
90
100
AcDbEntity
  8
STANDARDEBENE
 62
     7
100
AcDbVertex
100
AcDb2dVertex
 10
65.20532224932367
 20
127.5391574116916
 30
0.0
  0
SEQEND
  5
93
330
90
100
AcDbEntity
  8
STANDARDEBENE
  0
POLYLINE
  5
94
330
1F
100
AcDbEntity
  8
STANDARDEBENE
 62
     7
100
AcDb2dPolyline
 66
     1
 10
0.0
 20
0.0
 30
0.0
  0
VERTEX
  5
95
330
94
100
AcDbEntity
  8
STANDARDEBENE
 62
     7
100
AcDbVertex
100
AcDb2dVertex
 10
66.2054334686917
 20
127.5391574116916
 30
0.0
  0
VERTEX
  5
96
330
94
100
AcDbEntity
  8
STANDARDEBENE
 62
     7
100
AcDbVertex
100
AcDb2dVertex
 10
67.2052001785112
 20
127.5391574116916
 30
0.0
  0
SEQEND
  5
97
330
94
100
AcDbEntity
  8
STANDARDEBENE
  0
POLYLINE
  5
98
330
1F
100
AcDbEntity
  8
STANDARDEBENE
 62
     7
100
AcDb2dPolyline
 66
     1
 10
0.0
 20
0.0
 30
0.0
  0
VERTEX
  5
99
330
98
100
AcDbEntity
  8
STANDARDEBENE
 62
     7
100
AcDbVertex
100
AcDb2dVertex
 10
68.2049668883307
 20
127.5391574116916
 30
0.0
  0
VERTEX
  5
9A
330
98
100
AcDbEntity
  8
STANDARDEBENE
 62
     7
100
AcDbVertex
100
AcDb2dVertex
 10
69.20542261724727
 20
127.5391574116916
 30
0.0
  0
SEQEND
  5
9B
330
98
100
AcDbEntity
  8
STANDARDEBENE
  0
POLYLINE
  5
9C
330
1F
100
AcDbEntity
  8
STANDARDEBENE
 62
     7
100
AcDb2dPolyline
 66
     1
 10
0.0
 20
0.0
 30
0.0
  0
VERTEX
  5
9D
330
9C
100
AcDbEntity
  8
STANDARDEBENE
 62
     7
100
AcDbVertex
100
AcDb2dVertex
 10
70.20518932706676
 20
127.5391574116916
 30
0.0
  0
VERTEX
  5
9E
330
9C
100
AcDbEntity
  8
STANDARDEBENE
 62
     7
100
AcDbVertex
100
AcDb2dVertex
 10
71.20530054643478
 20
127.5391574116916
 30
0.0
  0
SEQEND
  5
9F
330
9C
100
AcDbEntity
  8
STANDARDEBENE
  0
POLYLINE
  5
A0
330
1F
100
AcDbEntity
  8
STANDARDEBENE
 62
     7
100
AcDb2dPolyline
 66
     1
 10
0.0
 20
0.0
 30
0.0
  0
VERTEX
  5
A1
330
A0
100
AcDbEntity
  8
STANDARDEBENE
 62
     7
100
AcDbVertex
100
AcDb2dVertex
 10
72.2050672562543
 20
127.5391574116916
 30
0.0
  0
VERTEX
  5
A2
330
A0
100
AcDbEntity
  8
STANDARDEBENE
 62
     7
100
AcDbVertex
100
AcDb2dVertex
 10
73.20483396607379
 20
127.5391574116916
 30
0.0
  0
SEQEND
  5
A3
330
A0
100
AcDbEntity
  8
STANDARDEBENE
  0
POLYLINE
  5
A4
330
1F
100
AcDbEntity
  8
STANDARDEBENE
 62
     7
100
AcDb2dPolyline
 66
     1
 10
0.0
 20
0.0
 30
0.0
  0
VERTEX
  5
A5
330
A4
100
AcDbEntity
  8
STANDARDEBENE
 62
     7
100
AcDbVertex
100
AcDb2dVertex
 10
74.20546194976461
 20
127.5391574116916
 30
0.0
  0
VERTEX
  5
A6
330
A4
100
AcDbEntity
  8
STANDARDEBENE
 62
     7
100
AcDbVertex
100
AcDb2dVertex
 10
75.20557316913263
 20
127.5391574116916
 30
0.0
  0
SEQEND
  5
A7
330
A4
100
AcDbEntity
  8
STANDARDEBENE
  0
POLYLINE
  5
A8
330
1F
100
AcDbEntity
  8
STANDARDEBENE
 62
     7
100
AcDb2dPolyline
 66
     1
 10
0.0
 20
0.0
 30
0.0
  0
VERTEX
  5
A9
330
A8
100
AcDbEntity
  8
STANDARDEBENE
 62
     7
100
AcDbVertex
100
AcDb2dVertex
 10
76.20499536940362
 20
127.5391574116916
 30
0.0
  0
VERTEX
  5
AA
330
A8
100
AcDbEntity
  8
STANDARDEBENE
 62
     7
100
AcDbVertex
100
AcDb2dVertex
 10
77.20510658877164
 20
127.5391574116916
 30
0.0
  0
SEQEND
  5
AB
330
A8
100
AcDbEntity
  8
STANDARDEBENE
  0
POLYLINE
  5
AC
330
1F
100
AcDbEntity
  8
STANDARDEBENE
 62
     7
100
AcDb2dPolyline
 66
     1
 10
0.0
 20
0.0
 30
0.0
  0
VERTEX
  5
AD
330
AC
100
AcDbEntity
  8
STANDARDEBENE
 62
     7
100
AcDbVertex
100
AcDb2dVertex
 10
78.20556231768819
 20
127.5391574116916
 30
0.0
  0
VERTEX
  5
AE
330
AC
100
AcDbEntity
  8
STANDARDEBENE
 62
     7
100
AcDbVertex
100
AcDb2dVertex
 10
79.2053290275077
 20
127.5391574116916
 30
0.0
  0
SEQEND
  5
AF
330
AC
100
AcDbEntity
  8
STANDARDEBENE
  0
POLYLINE
  5
B0
330
1F
100
AcDbEntity
  8
STANDARDEBENE
 62
     7
100
AcDb2dPolyline
 66
     1
 10
0.0
 20
0.0
 30
0.0
  0
VERTEX
  5
B1
330
B0
100
AcDbEntity
  8
STANDARDEBENE
 62
     7
100
AcDbVertex
100
AcDb2dVertex
 10
80.20544024687572
 20
127.5391574116916
 30
0.0
  0
VERTEX
  5
B2
330
B0
100
AcDbEntity
  8
STANDARDEBENE
 62
     7
100
AcDbVertex
100
AcDb2dVertex
 10
81.20520695669524
 20
127.5391574116916
 30
0.0
  0
SEQEND
  5
B3
330
B0
100
AcDbEntity
  8
STANDARDEBENE
  0
POLYLINE
  5
B4
330
1F
100
AcDbEntity
  8
STANDARDEBENE
 62
     7
100
AcDb2dPolyline
 66
     1
 10
0.0
 20
0.0
 30
0.0
  0
VERTEX
  5
B5
330
B4
100
AcDbEntity
  8
STANDARDEBENE
 62
     7
100
AcDbVertex
100
AcDb2dVertex
 10
82.20497366651473
 20
127.5391574116916
 30
0.0
  0
VERTEX
  5
B6
330
B4
100
AcDbEntity
  8
STANDARDEBENE
 62
     7
100
AcDbVertex
100
AcDb2dVertex
 10
83.20542939543128
 20
127.5391574116916
 30
0.0
  0
SEQEND
  5
B7
330
B4
100
AcDbEntity
  8
STANDARDEBENE
  0
POLYLINE
  5
B8
330
1F
100
AcDbEntity
  8
STANDARDEBENE
 62
     7
100
AcDb2dPolyline
 66
     1
 10
0.0
 20
0.0
 30
0.0
  0
VERTEX
  5
B9
330
B8
100
AcDbEntity
  8
STANDARDEBENE
 62
     7
100
AcDbVertex
100
AcDb2dVertex
 10
84.20554061479932
 20
127.5391574116916
 30
0.0
  0
VERTEX
  5
BA
330
B8
100
AcDbEntity
  8
STANDARDEBENE
 62
     7
100
AcDbVertex
100
AcDb2dVertex
 10
85.20496281507029
 20
127.5391574116916
 30
0.0
  0
SEQEND
  5
BB
330
B8
100
AcDbEntity
  8
STANDARDEBENE
  0
POLYLINE
  5
BC
330
1F
100
AcDbEntity
  8
STANDARDEBENE
 62
     7
100
AcDb2dPolyline
 66
     1
 10
0.0
 20
0.0
 30
0.0
  0
VERTEX
  5
BD
330
BC
100
AcDbEntity
  8
STANDARDEBENE
 62
     7
100
AcDbVertex
100
AcDb2dVertex
 10
86.20507403443833
 20
127.5391574116916
 30
0.0
  0
VERTEX
  5
BE
330
BC
100
AcDbEntity
  8
STANDARDEBENE
 62
     7
100
AcDbVertex
100
AcDb2dVertex
 10
87.20484074425782
 20
127.5391574116916
 30
0.0
  0
SEQEND
  5
BF
330
BC
100
AcDbEntity
  8
STANDARDEBENE
  0
POLYLINE
  5
C0
330
1F
100
AcDbEntity
  8
STANDARDEBENE
 62
     7
100
AcDb2dPolyline
 66
     1
 10
0.0
 20
0.0
 30
0.0
  0
VERTEX
  5
C1
330
C0
100
AcDbEntity
  8
STANDARDEBENE
 62
     7
100
AcDbVertex
100
AcDb2dVertex
 10
88.20546872794864
 20
127.5391574116916
 30
0.0
  0
VERTEX
  5
C2
330
C0
100
AcDbEntity
  8
STANDARDEBENE
 62
     7
100
AcDbVertex
100
AcDb2dVertex
 10
89.20557994731666
 20
127.5391574116916
 30
0.0
  0
SEQEND
  5
C3
330
C0
100
AcDbEntity
  8
STANDARDEBENE
  0
POLYLINE
  5
C4
330
1F
100
AcDbEntity
  8
STANDARDEBENE
 62
     7
100
AcDb2dPolyline
 66
     1
 10
0.0
 20
0.0
 30
0.0
  0
VERTEX
  5
C5
330
C4
100
AcDbEntity
  8
STANDARDEBENE
 62
     7
100
AcDbVertex
100
AcDb2dVertex
 10
90.20500214758765
 20
127.5391574116916
 30
0.0
  0
VERTEX
  5
C6
330
C4
100
AcDbEntity
  8
STANDARDEBENE
 62
     7
100
AcDbVertex
100
AcDb2dVertex
 10
91.2054578765042
 20
127.5391574116916
 30
0.0
  0
SEQEND
  5
C7
330
C4
100
AcDbEntity
  8
STANDARDEBENE
  0
POLYLINE
  5
C8
330
1F
100
AcDbEntity
  8
STANDARDEBENE
 62
     7
100
AcDb2dPolyline
 66
     1
 10
0.0
 20
0.0
 30
0.0
  0
VERTEX
  5
C9
330
C8
100
AcDbEntity
  8
STANDARDEBENE
 62
     7
100
AcDbVertex
100
AcDb2dVertex
 10
92.20556909587222
 20
127.5391574116916
 30
0.0
  0
VERTEX
  5
CA
330
C8
100
AcDbEntity
  8
STANDARDEBENE
 62
     7
100
AcDbVertex
100
AcDb2dVertex
 10
93.20533580569173
 20
127.5391574116916
 30
0.0
  0
SEQEND
  5
CB
330
C8
100
AcDbEntity
  8
STANDARDEBENE
  0
POLYLINE
  5
CC
330
1F
100
AcDbEntity
  8
STANDARDEBENE
 62
     7
100
AcDb2dPolyline
 66
     1
 10
0.0
 20
0.0
 30
0.0
  0
VERTEX
  5
CD
330
CC
100
AcDbEntity
  8
STANDARDEBENE
 62
     7
100
AcDbVertex
100
AcDb2dVertex
 10
94.20510251551123
 20
127.5391574116916
 30
0.0
  0
VERTEX
  5
CE
330
CC
100
AcDbEntity
  8
STANDARDEBENE
 62
     7
100
AcDbVertex
100
AcDb2dVertex
 10
95.20555824442778
 20
127.5391574116916
 30
0.0
  0
SEQEND
  5
CF
330
CC
100
AcDbEntity
  8
STANDARDEBENE
  0
POLYLINE
  5
D0
330
1F
100
AcDbEntity
  8
STANDARDEBENE
 62
     7
100
AcDb2dPolyline
 66
     1
 10
0.0
 20
0.0
 30
0.0
  0
VERTEX
  5
D1
330
D0
100
AcDbEntity
  8
STANDARDEBENE
 62
     7
100
AcDbVertex
100
AcDb2dVertex
 10
96.20532495424729
 20
127.5391574116916
 30
0.0
  0
VERTEX
  5
D2
330
D0
100
AcDbEntity
  8
STANDARDEBENE
 62
     7
100
AcDbVertex
100
AcDb2dVertex
 10
97.20543617361531
 20
127.5391574116916
 30
0.0
  0
SEQEND
  5
D3
330
D0
100
AcDbEntity
  8
STANDARDEBENE
  0
POLYLINE
  5
D4
330
1F
100
AcDbEntity
  8
STANDARDEBENE
 62
     7
100
AcDb2dPolyline
 66
     1
 10
0.0
 20
0.0
 30
0.0
  0
VERTEX
  5
D5
330
D4
100
AcDbEntity
  8
STANDARDEBENE
 62
     7
100
AcDbVertex
100
AcDb2dVertex
 10
98.20520288343481
 20
127.5391574116916
 30
0.0
  0
VERTEX
  5
D6
330
D4
100
AcDbEntity
  8
STANDARDEBENE
 62
     7
100
AcDbVertex
100
AcDb2dVertex
 10
99.20496959325432
 20
127.5391574116916
 30
0.0
  0
SEQEND
  5
D7
330
D4
100
AcDbEntity
  8
STANDARDEBENE
  0
POLYLINE
  5
D8
330
1F
100
AcDbEntity
  8
STANDARDEBENE
 62
     7
100
AcDb2dPolyline
 66
     1
 10
0.0
 20
0.0
 30
0.0
  0
VERTEX
  5
D9
330
D8
100
AcDbEntity
  8
STANDARDEBENE
 62
     7
100
AcDbVertex
100
AcDb2dVertex
 10
100.2054253221709
 20
127.5391574116916
 30
0.0
  0
VERTEX
  5
DA
330
D8
100
AcDbEntity
  8
STANDARDEBENE
 62
     7
100
AcDbVertex
100
AcDb2dVertex
 10
101.2055365415389
 20
127.5391574116916
 30
0.0
  0
SEQEND
  5
DB
330
D8
100
AcDbEntity
  8
STANDARDEBENE
  0
POLYLINE
  5
DC
330
1F
100
AcDbEntity
  8
STANDARDEBENE
 62
     7
100
AcDb2dPolyline
 66
     1
 10
0.0
 20
0.0
 30
0.0
  0
VERTEX
  5
DD
330
DC
100
AcDbEntity
  8
STANDARDEBENE
 62
     7
100
AcDbVertex
100
AcDb2dVertex
 10
102.2053032513584
 20
127.5391574116916
 30
0.0
  0
VERTEX
  5
DE
330
DC
100
AcDbEntity
  8
STANDARDEBENE
 62
     7
100
AcDbVertex
100
AcDb2dVertex
 10
103.2050699611779
 20
127.5391574116916
 30
0.0
  0
SEQEND
  5
DF
330
DC
100
AcDbEntity
  8
STANDARDEBENE
  0
POLYLINE
  5
E0
330
1F
100
AcDbEntity
  8
STANDARDEBENE
 62
     7
100
AcDb2dPolyline
 66
     1
 10
0.0
 20
0.0
 30
0.0
  0
VERTEX
  5
E1
330
E0
100
AcDbEntity
  8
STANDARDEBENE
 62
     7
100
AcDbVertex
100
AcDb2dVertex
 10
104.2048366709974
 20
127.5391574116916
 30
0.0
  0
VERTEX
  5
E2
330
E0
100
AcDbEntity
  8
STANDARDEBENE
 62
     7
100
AcDbVertex
100
AcDb2dVertex
 10
105.2054646546882
 20
127.5391574116916
 30
0.0
  0
SEQEND
  5
E3
330
E0
100
AcDbEntity
  8
STANDARDEBENE
  0
POLYLINE
  5
E4
330
1F
100
AcDbEntity
  8
STANDARDEBENE
 62
     7
100
AcDb2dPolyline
 66
     1
 10
0.0
 20
0.0
 30
0.0
  0
VERTEX
  5
E5
330
E4
100
AcDbEntity
  8
STANDARDEBENE
 62
     7
100
AcDbVertex
100
AcDb2dVertex
 10
106.2055758740563
 20
127.5391574116916
 30
0.0
  0
VERTEX
  5
E6
330
E4
100
AcDbEntity
  8
STANDARDEBENE
 62
     7
100
AcDbVertex
100
AcDb2dVertex
 10
107.2053425838757
 20
127.5391574116916
 30
0.0
  0
SEQEND
  5
E7
330
E4
100
AcDbEntity
  8
STANDARDEBENE
  0
POLYLINE
  5
E8
330
1F
100
AcDbEntity
  8
STANDARDEBENE
 62
     7
100
AcDb2dPolyline
 66
     1
 10
0.0
 20
0.0
 30
0.0
  0
VERTEX
  5
E9
330
E8
100
AcDbEntity
  8
STANDARDEBENE
 62
     7
100
AcDbVertex
100
AcDb2dVertex
 10
108.2051092936953
 20
127.5391574116916
 30
0.0
  0
VERTEX
  5
EA
330
E8
100
AcDbEntity
  8
STANDARDEBENE
 62
     7
100
AcDbVertex
100
AcDb2dVertex
 10
109.2055650226118
 20
127.5391574116916
 30
0.0
  0
SEQEND
  5
EB
330
E8
100
AcDbEntity
  8
STANDARDEBENE
  0
POLYLINE
  5
EC
330
1F
100
AcDbEntity
  8
STANDARDEBENE
 62
     7
100
AcDb2dPolyline
 66
     1
 10
0.0
 20
0.0
 30
0.0
  0
VERTEX
  5
ED
330
EC
100
AcDbEntity
  8
STANDARDEBENE
 62
     7
100
AcDbVertex
100
AcDb2dVertex
 10
110.2049872228828
 20
127.5391574116916
 30
0.0
  0
VERTEX
  5
EE
330
EC
100
AcDbEntity
  8
STANDARDEBENE
 62
     7
100
AcDbVertex
100
AcDb2dVertex
 10
111.2054429517993
 20
127.5391574116916
 30
0.0
  0
SEQEND
  5
EF
330
EC
100
AcDbEntity
  8
STANDARDEBENE
  0
POLYLINE
  5
F0
330
1F
100
AcDbEntity
  8
STANDARDEBENE
 62
     7
100
AcDb2dPolyline
 66
     1
 10
0.0
 20
0.0
 30
0.0
  0
VERTEX
  5
F1
330
F0
100
AcDbEntity
  8
STANDARDEBENE
 62
     7
100
AcDbVertex
100
AcDb2dVertex
 10
112.2052096616188
 20
127.5391574116916
 30
0.0
  0
VERTEX
  5
F2
330
F0
100
AcDbEntity
  8
STANDARDEBENE
 62
     7
100
AcDbVertex
100
AcDb2dVertex
 10
113.2049763714383
 20
127.5391574116916
 30
0.0
  0
SEQEND
  5
F3
330
F0
100
AcDbEntity
  8
STANDARDEBENE
  0
POLYLINE
  5
F4
330
1F
100
AcDbEntity
  8
STANDARDEBENE
 62
     7
100
AcDb2dPolyline
 66
     1
 10
0.0
 20
0.0
 30
0.0
  0
VERTEX
  5
F5
330
F4
100
AcDbEntity
  8
STANDARDEBENE
 62
     7
100
AcDbVertex
100
AcDb2dVertex
 10
114.2054321003549
 20
127.5391574116916
 30
0.0
  0
VERTEX
  5
F6
330
F4
100
AcDbEntity
  8
STANDARDEBENE
 62
     7
100
AcDbVertex
100
AcDb2dVertex
 10
115.2055433197229
 20
127.5391574116916
 30
0.0
  0
SEQEND
  5
F7
330
F4
100
AcDbEntity
  8
STANDARDEBENE
  0
POLYLINE
  5
F8
330
1F
100
AcDbEntity
  8
STANDARDEBENE
 62
     7
100
AcDb2dPolyline
 66
     1
 10
0.0
 20
0.0
 30
0.0
  0
VERTEX
  5
F9
330
F8
100
AcDbEntity
  8
STANDARDEBENE
 62
     7
100
AcDbVertex
100
AcDb2dVertex
 10
116.2053100295424
 20
127.5391574116916
 30
0.0
  0
VERTEX
  5
FA
330
F8
100
AcDbEntity
  8
STANDARDEBENE
 62
     7
100
AcDbVertex
100
AcDb2dVertex
 10
117.2050767393619
 20
127.5391574116916
 30
0.0
  0
SEQEND
  5
FB
330
F8
100
AcDbEntity
  8
STANDARDEBENE
  0
POLYLINE
  5
FC
330
1F
100
AcDbEntity
  8
STANDARDEBENE
 62
     7
100
AcDb2dPolyline
 66
     1
 10
0.0
 20
0.0
 30
0.0
  0
VERTEX
  5
FD
330
FC
100
AcDbEntity
  8
STANDARDEBENE
 62
     7
100
AcDbVertex
100
AcDb2dVertex
 10
118.2048434491814
 20
127.5391574116916
 30
0.0
  0
VERTEX
  5
FE
330
FC
100
AcDbEntity
  8
STANDARDEBENE
 62
     7
100
AcDbVertex
100
AcDb2dVertex
 10
119.2049546685495
 20
127.5391574116916
 30
0.0
  0
SEQEND
  5
FF
330
FC
100
AcDbEntity
  8
STANDARDEBENE
  0
POLYLINE
  5
100
330
1F
100
AcDbEntity
  8
STANDARDEBENE
 62
     7
100
AcDb2dPolyline
 66
     1
 10
0.0
 20
0.0
 30
0.0
  0
VERTEX
  5
101
330
100
100
AcDbEntity
  8
STANDARDEBENE
 62
     7
100
AcDbVertex
100
AcDb2dVertex
 10
120.2055826522403
 20
127.5391574116916
 30
0.0
  0
VERTEX
  5
102
330
100
100
AcDbEntity
  8
STANDARDEBENE
 62
     7
100
AcDbVertex
100
AcDb2dVertex
 10
121.2053493620598
 20
127.5391574116916
 30
0.0
  0
SEQEND
  5
103
330
100
100
AcDbEntity
  8
STANDARDEBENE
  0
POLYLINE
  5
104
330
1F
100
AcDbEntity
  8
STANDARDEBENE
 62
     7
100
AcDb2dPolyline
 66
     1
 10
0.0
 20
0.0
 30
0.0
  0
VERTEX
  5
105
330
104
100
AcDbEntity
  8
STANDARDEBENE
 62
     7
100
AcDbVertex
100
AcDb2dVertex
 10
122.2051160718793
 20
127.5391574116916
 30
0.0
  0
VERTEX
  5
106
330
104
100
AcDbEntity
  8
STANDARDEBENE
 62
     7
100
AcDbVertex
100
AcDb2dVertex
 10
123.2055718007958
 20
127.5391574116916
 30
0.0
  0
SEQEND
  5
107
330
104
100
AcDbEntity
  8
STANDARDEBENE
  0
POLYLINE
  5
108
330
1F
100
AcDbEntity
  8
STANDARDEBENE
 62
     7
100
AcDb2dPolyline
 66
     1
 10
0.0
 20
0.0
 30
0.0
  0
VERTEX
  5
109
330
108
100
AcDbEntity
  8
STANDARDEBENE
 62
     7
100
AcDbVertex
100
AcDb2dVertex
 10
124.2049940010668
 20
127.5391574116916
 30
0.0
  0
VERTEX
  5
10A
330
108
100
AcDbEntity
  8
STANDARDEBENE
 62
     7
100
AcDbVertex
100
AcDb2dVertex
 10
125.2054497299834
 20
127.5391574116916
 30
0.0
  0
SEQEND
  5
10B
330
108
100
AcDbEntity
  8
STANDARDEBENE
  0
POLYLINE
  5
10C
330
1F
100
AcDbEntity
  8
STANDARDEBENE
 62
     7
100
AcDb2dPolyline
 66
     1
 10
0.0
 20
0.0
 30
0.0
  0
VERTEX
  5
10D
330
10C
100
AcDbEntity
  8
STANDARDEBENE
 62
     7
100
AcDbVertex
100
AcDb2dVertex
 10
126.2052164398029
 20
127.5391574116916
 30
0.0
  0
VERTEX
  5
10E
330
10C
100
AcDbEntity
  8
STANDARDEBENE
 62
     7
100
AcDbVertex
100
AcDb2dVertex
 10
127.2049831496224
 20
127.5391574116916
 30
0.0
  0
SEQEND
  5
10F
330
10C
100
AcDbEntity
  8
STANDARDEBENE
  0
POLYLINE
  5
110
330
1F
100
AcDbEntity
  8
STANDARDEBENE
 62
     7
100
AcDb2dPolyline
 66
     1
 10
0.0
 20
0.0
 30
0.0
  0
VERTEX
  5
111
330
110
100
AcDbEntity
  8
STANDARDEBENE
 62
     7
100
AcDbVertex
100
AcDb2dVertex
 10
128.2050943689904
 20
127.5391574116916
 30
0.0
  0
VERTEX
  5
112
330
110
100
AcDbEntity
  8
STANDARDEBENE
 62
     7
100
AcDbVertex
100
AcDb2dVertex
 10
129.205550097907
 20
127.5391574116916
 30
0.0
  0
SEQEND
  5
113
330
110
100
AcDbEntity
  8
STANDARDEBENE
  0
POLYLINE
  5
114
330
1F
100
AcDbEntity
  8
STANDARDEBENE
 62
     7
100
AcDb2dPolyline
 66
     1
 10
0.0
 20
0.0
 30
0.0
  0
VERTEX
  5
115
330
114
100
AcDbEntity
  8
STANDARDEBENE
 62
     7
100
AcDbVertex
100
AcDb2dVertex
 10
130.2053168077265
 20
127.5391574116916
 30
0.0
  0
VERTEX
  5
116
330
114
100
AcDbEntity
  8
STANDARDEBENE
 62
     7
100
AcDbVertex
100
AcDb2dVertex
 10
131.2050835175459
 20
127.5391574116916
 30
0.0
  0
SEQEND
  5
117
330
114
100
AcDbEntity
  8
STANDARDEBENE
  0
POLYLINE
  5
118
330
1F
100
AcDbEntity
  8
STANDARDEBENE
 62
     7
100
AcDb2dPolyline
 66
     1
 10
0.0
 20
0.0
 30
0.0
  0
VERTEX
  5
119
330
118
100
AcDbEntity
  8
STANDARDEBENE
 62
     7
100
AcDbVertex
100
AcDb2dVertex
 10
132.205194736914
 20
127.5391574116916
 30
0.0
  0
VERTEX
  5
11A
330
118
100
AcDbEntity
  8
STANDARDEBENE
 62
     7
100
AcDbVertex
100
AcDb2dVertex
 10
133.2049614467335
 20
127.5391574116916
 30
0.0
  0
SEQEND
  5
11B
330
118
100
AcDbEntity
  8
STANDARDEBENE
  0
POLYLINE
  5
11C
330
1F
100
AcDbEntity
  8
STANDARDEBENE
 62
     7
100
AcDb2dPolyline
 66
     1
 10
0.0
 20
0.0
 30
0.0
  0
VERTEX
  5
11D
330
11C
100
AcDbEntity
  8
STANDARDEBENE
 62
     7
100
AcDbVertex
100
AcDb2dVertex
 10
134.20541717565
 20
127.5391574116916
 30
0.0
  0
VERTEX
  5
11E
330
11C
100
AcDbEntity
  8
STANDARDEBENE
 62
     7
100
AcDbVertex
100
AcDb2dVertex
 10
135.2051838854696
 20
127.5391574116916
 30
0.0
  0
SEQEND
  5
11F
330
11C
100
AcDbEntity
  8
STANDARDEBENE
  0
POLYLINE
  5
120
330
1F
100
AcDbEntity
  8
STANDARDEBENE
 62
     7
100
AcDb2dPolyline
 66
     1
 10
0.0
 20
0.0
 30
0.0
  0
VERTEX
  5
121
330
120
100
AcDbEntity
  8
STANDARDEBENE
 62
     7
100
AcDbVertex
100
AcDb2dVertex
 10
136.204950595289
 20
127.5391574116916
 30
0.0
  0
VERTEX
  5
122
330
120
100
AcDbEntity
  8
STANDARDEBENE
 62
     7
100
AcDbVertex
100
AcDb2dVertex
 10
137.2052340694313
 20
127.5391574116916
 30
0.0
  0
SEQEND
  5
123
330
120
100
AcDbEntity
  8
STANDARDEBENE
  0
POLYLINE
  5
124
330
1F
100
AcDbEntity
  8
STANDARDEBENE
 62
     7
100
AcDb2dPolyline
 66
     1
 10
0.0
 20
0.0
 30
0.0
  0
VERTEX
  5
125
330
124
100
AcDbEntity
  8
STANDARDEBENE
 62
     7
100
AcDbVertex
100
AcDb2dVertex
 10
138.2050007792508
 20
127.5391574116916
 30
0.0
  0
VERTEX
  5
126
330
124
100
AcDbEntity
  8
STANDARDEBENE
 62
     7
100
AcDbVertex
100
AcDb2dVertex
 10
139.2054565081674
 20
127.5391574116916
 30
0.0
  0
SEQEND
  5
127
330
124
100
AcDbEntity
  8
STANDARDEBENE
  0
POLYLINE
  5
128
330
1F
100
AcDbEntity
  8
STANDARDEBENE
 62
     7
100
AcDb2dPolyline
 66
     1
 10
0.0
 20
0.0
 30
0.0
  0
VERTEX
  5
129
330
128
100
AcDbEntity
  8
STANDARDEBENE
 62
     7
100
AcDbVertex
100
AcDb2dVertex
 10
140.2052232179869
 20
127.5391574116916
 30
0.0
  0
VERTEX
  5
12A
330
128
100
AcDbEntity
  8
STANDARDEBENE
 62
     7
100
AcDbVertex
100
AcDb2dVertex
 10
141.2049899278064
 20
127.5391574116916
 30
0.0
  0
SEQEND
  5
12B
330
128
100
AcDbEntity
  8
STANDARDEBENE
  0
POLYLINE
  5
12C
330
1F
100
AcDbEntity
  8
STANDARDEBENE
 62
     7
100
AcDb2dPolyline
 66
     1
 10
0.0
 20
0.0
 30
0.0
  0
VERTEX
  5
12D
330
12C
100
AcDbEntity
  8
STANDARDEBENE
 62
     7
100
AcDbVertex
100
AcDb2dVertex
 10
142.2051011471744
 20
127.5391574116916
 30
0.0
  0
VERTEX
  5
12E
330
12C
100
AcDbEntity
  8
STANDARDEBENE
 62
     7
100
AcDbVertex
100
AcDb2dVertex
 10
143.205556876091
 20
127.5391574116916
 30
0.0
  0
SEQEND
  5
12F
330
12C
100
AcDbEntity
  8
STANDARDEBENE
  0
POLYLINE
  5
130
330
1F
100
AcDbEntity
  8
STANDARDEBENE
 62
     7
100
AcDb2dPolyline
 66
     1
 10
0.0
 20
0.0
 30
0.0
  0
VERTEX
  5
131
330
130
100
AcDbEntity
  8
STANDARDEBENE
 62
     7
100
AcDbVertex
100
AcDb2dVertex
 10
144.2053235859105
 20
127.5391574116916
 30
0.0
  0
VERTEX
  5
132
330
130
100
AcDbEntity
  8
STANDARDEBENE
 62
     7
100
AcDbVertex
100
AcDb2dVertex
 10
145.20509029573
 20
127.5391574116916
 30
0.0
  0
SEQEND
  5
133
330
130
100
AcDbEntity
  8
STANDARDEBENE
  0
POLYLINE
  5
134
330
1F
100
AcDbEntity
  8
STANDARDEBENE
 62
     7
100
AcDb2dPolyline
 66
     1
 10
0.0
 20
0.0
 30
0.0
  0
VERTEX
  5
135
330
134
100
AcDbEntity
  8
STANDARDEBENE
 62
     7
100
AcDbVertex
100
AcDb2dVertex
 10
146.205201515098
 20
127.5391574116916
 30
0.0
  0
VERTEX
  5
136
330
134
100
AcDbEntity
  8
STANDARDEBENE
 62
     7
100
AcDbVertex
100
AcDb2dVertex
 10
147.2049682249175
 20
127.5391574116916
 30
0.0
  0
SEQEND
  5
137
330
134
100
AcDbEntity
  8
STANDARDEBENE
  0
POLYLINE
  5
138
330
1F
100
AcDbEntity
  8
STANDARDEBENE
 62
     7
100
AcDb2dPolyline
 66
     1
 10
0.0
 20
0.0
 30
0.0
  0
VERTEX
  5
139
330
138
100
AcDbEntity
  8
STANDARDEBENE
 62
     7
100
AcDbVertex
100
AcDb2dVertex
 10
148.2054239538341
 20
127.5391574116916
 30
0.0
  0
VERTEX
  5
13A
330
138
100
AcDbEntity
  8
STANDARDEBENE
 62
     7
100
AcDbVertex
100
AcDb2dVertex
 10
149.2051906636536
 20
127.5391574116916
 30
0.0
  0
SEQEND
  5
13B
330
138
100
AcDbEntity
  8
STANDARDEBENE
  0
POLYLINE
  5
13C
330
1F
100
AcDbEntity
  8
STANDARDEBENE
 62
     7
100
AcDb2dPolyline
 66
     1
 10
0.0
 20
0.0
 30
0.0
  0
VERTEX
  5
13D
330
13C
100
AcDbEntity
  8
STANDARDEBENE
 62
     7
100
AcDbVertex
100
AcDb2dVertex
 10
150.2049573734731
 20
127.5391574116916
 30
0.0
  0
VERTEX
  5
13E
330
13C
100
AcDbEntity
  8
STANDARDEBENE
 62
     7
100
AcDbVertex
100
AcDb2dVertex
 10
151.2050685928411
 20
127.5391574116916
 30
0.0
  0
SEQEND
  5
13F
330
13C
100
AcDbEntity
  8
STANDARDEBENE
  0
POLYLINE
  5
140
330
1F
100
AcDbEntity
  8
STANDARDEBENE
 62
     7
100
AcDb2dPolyline
 66
     1
 10
0.0
 20
0.0
 30
0.0
  0
VERTEX
  5
141
330
140
100
AcDbEntity
  8
STANDARDEBENE
 62
     7
100
AcDbVertex
100
AcDb2dVertex
 10
152.2050075574349
 20
127.5391574116916
 30
0.0
  0
VERTEX
  5
142
330
140
100
AcDbEntity
  8
STANDARDEBENE
 62
     7
100
AcDbVertex
100
AcDb2dVertex
 10
152.7052354218931
 20
127.5391574116916
 30
0.0
  0
SEQEND
  5
143
330
140
100
AcDbEntity
  8
STANDARDEBENE
  0
POLYLINE
  5
144
330
1F
100
AcDbEntity
  8
STANDARDEBENE
 62
     7
100
AcDb2dPolyline
 66
     1
 10
0.0
 20
0.0
 30
0.0
  0
VERTEX
  5
145
330
144
100
AcDbEntity
  8
STANDARDEBENE
 62
     7
100
AcDbVertex
100
AcDb2dVertex
 10
152.7052354218931
 20
130.5391465602472
 30
0.0
  0
VERTEX
  5
146
330
144
100
AcDbEntity
  8
STANDARDEBENE
 62
     7
100
AcDbVertex
100
AcDb2dVertex
 10
152.2050075574349
 20
130.5391465602472
 30
0.0
  0
SEQEND
  5
147
330
144
100
AcDbEntity
  8
STANDARDEBENE
  0
POLYLINE
  5
148
330
1F
100
AcDbEntity
  8
STANDARDEBENE
 62
     7
100
AcDb2dPolyline
 66
     1
 10
0.0
 20
0.0
 30
0.0
  0
VERTEX
  5
149
330
148
100
AcDbEntity
  8
STANDARDEBENE
 62
     7
100
AcDbVertex
100
AcDb2dVertex
 10
151.2050685928411
 20
130.5391465602472
 30
0.0
  0
VERTEX
  5
14A
330
148
100
AcDbEntity
  8
STANDARDEBENE
 62
     7
100
AcDbVertex
100
AcDb2dVertex
 10
150.2049573734731
 20
130.5391465602472
 30
0.0
  0
SEQEND
  5
14B
330
148
100
AcDbEntity
  8
STANDARDEBENE
  0
POLYLINE
  5
14C
330
1F
100
AcDbEntity
  8
STANDARDEBENE
 62
     7
100
AcDb2dPolyline
 66
     1
 10
0.0
 20
0.0
 30
0.0
  0
VERTEX
  5
14D
330
14C
100
AcDbEntity
  8
STANDARDEBENE
 62
     7
100
AcDbVertex
100
AcDb2dVertex
 10
149.2051906636536
 20
130.5391465602472
 30
0.0
  0
VERTEX
  5
14E
330
14C
100
AcDbEntity
  8
STANDARDEBENE
 62
     7
100
AcDbVertex
100
AcDb2dVertex
 10
148.2054239538341
 20
130.5391465602472
 30
0.0
  0
SEQEND
  5
14F
330
14C
100
AcDbEntity
  8
STANDARDEBENE
  0
POLYLINE
  5
150
330
1F
100
AcDbEntity
  8
STANDARDEBENE
 62
     7
100
AcDb2dPolyline
 66
     1
 10
0.0
 20
0.0
 30
0.0
  0
VERTEX
  5
151
330
150
100
AcDbEntity
  8
STANDARDEBENE
 62
     7
100
AcDbVertex
100
AcDb2dVertex
 10
147.2049682249175
 20
130.5391465602472
 30
0.0
  0
VERTEX
  5
152
330
150
100
AcDbEntity
  8
STANDARDEBENE
 62
     7
100
AcDbVertex
100
AcDb2dVertex
 10
146.205201515098
 20
130.5391465602472
 30
0.0
  0
SEQEND
  5
153
330
150
100
AcDbEntity
  8
STANDARDEBENE
  0
POLYLINE
  5
154
330
1F
100
AcDbEntity
  8
STANDARDEBENE
 62
     7
100
AcDb2dPolyline
 66
     1
 10
0.0
 20
0.0
 30
0.0
  0
VERTEX
  5
155
330
154
100
AcDbEntity
  8
STANDARDEBENE
 62
     7
100
AcDbVertex
100
AcDb2dVertex
 10
145.20509029573
 20
130.5391465602472
 30
0.0
  0
VERTEX
  5
156
330
154
100
AcDbEntity
  8
STANDARDEBENE
 62
     7
100
AcDbVertex
100
AcDb2dVertex
 10
144.2053235859105
 20
130.5391465602472
 30
0.0
  0
SEQEND
  5
157
330
154
100
AcDbEntity
  8
STANDARDEBENE
  0
POLYLINE
  5
158
330
1F
100
AcDbEntity
  8
STANDARDEBENE
 62
     7
100
AcDb2dPolyline
 66
     1
 10
0.0
 20
0.0
 30
0.0
  0
VERTEX
  5
159
330
158
100
AcDbEntity
  8
STANDARDEBENE
 62
     7
100
AcDbVertex
100
AcDb2dVertex
 10
143.205556876091
 20
130.5391465602472
 30
0.0
  0
VERTEX
  5
15A
330
158
100
AcDbEntity
  8
STANDARDEBENE
 62
     7
100
AcDbVertex
100
AcDb2dVertex
 10
142.2051011471744
 20
130.5391465602472
 30
0.0
  0
SEQEND
  5
15B
330
158
100
AcDbEntity
  8
STANDARDEBENE
  0
POLYLINE
  5
15C
330
1F
100
AcDbEntity
  8
STANDARDEBENE
 62
     7
100
AcDb2dPolyline
 66
     1
 10
0.0
 20
0.0
 30
0.0
  0
VERTEX
  5
15D
330
15C
100
AcDbEntity
  8
STANDARDEBENE
 62
     7
100
AcDbVertex
100
AcDb2dVertex
 10
141.2049899278064
 20
130.5391465602472
 30
0.0
  0
VERTEX
  5
15E
330
15C
100
AcDbEntity
  8
STANDARDEBENE
 62
     7
100
AcDbVertex
100
AcDb2dVertex
 10
140.2052232179869
 20
130.5391465602472
 30
0.0
  0
SEQEND
  5
15F
330
15C
100
AcDbEntity
  8
STANDARDEBENE
  0
POLYLINE
  5
160
330
1F
100
AcDbEntity
  8
STANDARDEBENE
 62
     7
100
AcDb2dPolyline
 66
     1
 10
0.0
 20
0.0
 30
0.0
  0
VERTEX
  5
161
330
160
100
AcDbEntity
  8
STANDARDEBENE
 62
     7
100
AcDbVertex
100
AcDb2dVertex
 10
139.2054565081674
 20
130.5391465602472
 30
0.0
  0
VERTEX
  5
162
330
160
100
AcDbEntity
  8
STANDARDEBENE
 62
     7
100
AcDbVertex
100
AcDb2dVertex
 10
138.2050007792508
 20
130.5391465602472
 30
0.0
  0
SEQEND
  5
163
330
160
100
AcDbEntity
  8
STANDARDEBENE
  0
POLYLINE
  5
164
330
1F
100
AcDbEntity
  8
STANDARDEBENE
 62
     7
100
AcDb2dPolyline
 66
     1
 10
0.0
 20
0.0
 30
0.0
  0
VERTEX
  5
165
330
164
100
AcDbEntity
  8
STANDARDEBENE
 62
     7
100
AcDbVertex
100
AcDb2dVertex
 10
137.2052340694313
 20
130.5391465602472
 30
0.0
  0
VERTEX
  5
166
330
164
100
AcDbEntity
  8
STANDARDEBENE
 62
     7
100
AcDbVertex
100
AcDb2dVertex
 10
136.204950595289
 20
130.5391465602472
 30
0.0
  0
SEQEND
  5
167
330
164
100
AcDbEntity
  8
STANDARDEBENE
  0
POLYLINE
  5
168
330
1F
100
AcDbEntity
  8
STANDARDEBENE
 62
     7
100
AcDb2dPolyline
 66
     1
 10
0.0
 20
0.0
 30
0.0
  0
VERTEX
  5
169
330
168
100
AcDbEntity
  8
STANDARDEBENE
 62
     7
100
AcDbVertex
100
AcDb2dVertex
 10
135.2051838854696
 20
130.5391465602472
 30
0.0
  0
VERTEX
  5
16A
330
168
100
AcDbEntity
  8
STANDARDEBENE
 62
     7
100
AcDbVertex
100
AcDb2dVertex
 10
134.20541717565
 20
130.5391465602472
 30
0.0
  0
SEQEND
  5
16B
330
168
100
AcDbEntity
  8
STANDARDEBENE
  0
POLYLINE
  5
16C
330
1F
100
AcDbEntity
  8
STANDARDEBENE
 62
     7
100
AcDb2dPolyline
 66
     1
 10
0.0
 20
0.0
 30
0.0
  0
VERTEX
  5
16D
330
16C
100
AcDbEntity
  8
STANDARDEBENE
 62
     7
100
AcDbVertex
100
AcDb2dVertex
 10
133.2049614467335
 20
130.5391465602472
 30
0.0
  0
VERTEX
  5
16E
330
16C
100
AcDbEntity
  8
STANDARDEBENE
 62
     7
100
AcDbVertex
100
AcDb2dVertex
 10
132.205194736914
 20
130.5391465602472
 30
0.0
  0
SEQEND
  5
16F
330
16C
100
AcDbEntity
  8
STANDARDEBENE
  0
POLYLINE
  5
170
330
1F
100
AcDbEntity
  8
STANDARDEBENE
 62
     7
100
AcDb2dPolyline
 66
     1
 10
0.0
 20
0.0
 30
0.0
  0
VERTEX
  5
171
330
170
100
AcDbEntity
  8
STANDARDEBENE
 62
     7
100
AcDbVertex
100
AcDb2dVertex
 10
131.2050835175459
 20
130.5391465602472
 30
0.0
  0
VERTEX
  5
172
330
170
100
AcDbEntity
  8
STANDARDEBENE
 62
     7
100
AcDbVertex
100
AcDb2dVertex
 10
130.2053168077265
 20
130.5391465602472
 30
0.0
  0
SEQEND
  5
173
330
170
100
AcDbEntity
  8
STANDARDEBENE
  0
POLYLINE
  5
174
330
1F
100
AcDbEntity
  8
STANDARDEBENE
 62
     7
100
AcDb2dPolyline
 66
     1
 10
0.0
 20
0.0
 30
0.0
  0
VERTEX
  5
175
330
174
100
AcDbEntity
  8
STANDARDEBENE
 62
     7
100
AcDbVertex
100
AcDb2dVertex
 10
129.205550097907
 20
130.5391465602472
 30
0.0
  0
VERTEX
  5
176
330
174
100
AcDbEntity
  8
STANDARDEBENE
 62
     7
100
AcDbVertex
100
AcDb2dVertex
 10
128.2050943689904
 20
130.5391465602472
 30
0.0
  0
SEQEND
  5
177
330
174
100
AcDbEntity
  8
STANDARDEBENE
  0
POLYLINE
  5
178
330
1F
100
AcDbEntity
  8
STANDARDEBENE
 62
     7
100
AcDb2dPolyline
 66
     1
 10
0.0
 20
0.0
 30
0.0
  0
VERTEX
  5
179
330
178
100
AcDbEntity
  8
STANDARDEBENE
 62
     7
100
AcDbVertex
100
AcDb2dVertex
 10
127.2049831496224
 20
130.5391465602472
 30
0.0
  0
VERTEX
  5
17A
330
178
100
AcDbEntity
  8
STANDARDEBENE
 62
     7
100
AcDbVertex
100
AcDb2dVertex
 10
126.2052164398029
 20
130.5391465602472
 30
0.0
  0
SEQEND
  5
17B
330
178
100
AcDbEntity
  8
STANDARDEBENE
  0
POLYLINE
  5
17C
330
1F
100
AcDbEntity
  8
STANDARDEBENE
 62
     7
100
AcDb2dPolyline
 66
     1
 10
0.0
 20
0.0
 30
0.0
  0
VERTEX
  5
17D
330
17C
100
AcDbEntity
  8
STANDARDEBENE
 62
     7
100
AcDbVertex
100
AcDb2dVertex
 10
125.2054497299834
 20
130.5391465602472
 30
0.0
  0
VERTEX
  5
17E
330
17C
100
AcDbEntity
  8
STANDARDEBENE
 62
     7
100
AcDbVertex
100
AcDb2dVertex
 10
124.2049940010668
 20
130.5391465602472
 30
0.0
  0
SEQEND
  5
17F
330
17C
100
AcDbEntity
  8
STANDARDEBENE
  0
POLYLINE
  5
180
330
1F
100
AcDbEntity
  8
STANDARDEBENE
 62
     7
100
AcDb2dPolyline
 66
     1
 10
0.0
 20
0.0
 30
0.0
  0
VERTEX
  5
181
330
180
100
AcDbEntity
  8
STANDARDEBENE
 62
     7
100
AcDbVertex
100
AcDb2dVertex
 10
123.2055718007958
 20
130.5391465602472
 30
0.0
  0
VERTEX
  5
182
330
180
100
AcDbEntity
  8
STANDARDEBENE
 62
     7
100
AcDbVertex
100
AcDb2dVertex
 10
122.2051160718793
 20
130.5391465602472
 30
0.0
  0
SEQEND
  5
183
330
180
100
AcDbEntity
  8
STANDARDEBENE
  0
POLYLINE
  5
184
330
1F
100
AcDbEntity
  8
STANDARDEBENE
 62
     7
100
AcDb2dPolyline
 66
     1
 10
0.0
 20
0.0
 30
0.0
  0
VERTEX
  5
185
330
184
100
AcDbEntity
  8
STANDARDEBENE
 62
     7
100
AcDbVertex
100
AcDb2dVertex
 10
121.2053493620598
 20
130.5391465602472
 30
0.0
  0
VERTEX
  5
186
330
184
100
AcDbEntity
  8
STANDARDEBENE
 62
     7
100
AcDbVertex
100
AcDb2dVertex
 10
120.2055826522403
 20
130.5391465602472
 30
0.0
  0
SEQEND
  5
187
330
184
100
AcDbEntity
  8
STANDARDEBENE
  0
POLYLINE
  5
188
330
1F
100
AcDbEntity
  8
STANDARDEBENE
 62
     7
100
AcDb2dPolyline
 66
     1
 10
0.0
 20
0.0
 30
0.0
  0
VERTEX
  5
189
330
188
100
AcDbEntity
  8
STANDARDEBENE
 62
     7
100
AcDbVertex
100
AcDb2dVertex
 10
119.2049546685495
 20
130.5391465602472
 30
0.0
  0
VERTEX
  5
18A
330
188
100
AcDbEntity
  8
STANDARDEBENE
 62
     7
100
AcDbVertex
100
AcDb2dVertex
 10
118.2048434491814
 20
130.5391465602472
 30
0.0
  0
SEQEND
  5
18B
330
188
100
AcDbEntity
  8
STANDARDEBENE
  0
POLYLINE
  5
18C
330
1F
100
AcDbEntity
  8
STANDARDEBENE
 62
     7
100
AcDb2dPolyline
 66
     1
 10
0.0
 20
0.0
 30
0.0
  0
VERTEX
  5
18D
330
18C
100
AcDbEntity
  8
STANDARDEBENE
 62
     7
100
AcDbVertex
100
AcDb2dVertex
 10
117.2050767393619
 20
130.5391465602472
 30
0.0
  0
VERTEX
  5
18E
330
18C
100
AcDbEntity
  8
STANDARDEBENE
 62
     7
100
AcDbVertex
100
AcDb2dVertex
 10
116.2053100295424
 20
130.5391465602472
 30
0.0
  0
SEQEND
  5
18F
330
18C
100
AcDbEntity
  8
STANDARDEBENE
  0
POLYLINE
  5
190
330
1F
100
AcDbEntity
  8
STANDARDEBENE
 62
     7
100
AcDb2dPolyline
 66
     1
 10
0.0
 20
0.0
 30
0.0
  0
VERTEX
  5
191
330
190
100
AcDbEntity
  8
STANDARDEBENE
 62
     7
100
AcDbVertex
100
AcDb2dVertex
 10
115.2055433197229
 20
130.5391465602472
 30
0.0
  0
VERTEX
  5
192
330
190
100
AcDbEntity
  8
STANDARDEBENE
 62
     7
100
AcDbVertex
100
AcDb2dVertex
 10
114.2054321003549
 20
130.5391465602472
 30
0.0
  0
SEQEND
  5
193
330
190
100
AcDbEntity
  8
STANDARDEBENE
  0
POLYLINE
  5
194
330
1F
100
AcDbEntity
  8
STANDARDEBENE
 62
     7
100
AcDb2dPolyline
 66
     1
 10
0.0
 20
0.0
 30
0.0
  0
VERTEX
  5
195
330
194
100
AcDbEntity
  8
STANDARDEBENE
 62
     7
100
AcDbVertex
100
AcDb2dVertex
 10
113.2049763714383
 20
130.5391465602472
 30
0.0
  0
VERTEX
  5
196
330
194
100
AcDbEntity
  8
STANDARDEBENE
 62
     7
100
AcDbVertex
100
AcDb2dVertex
 10
112.2052096616188
 20
130.5391465602472
 30
0.0
  0
SEQEND
  5
197
330
194
100
AcDbEntity
  8
STANDARDEBENE
  0
POLYLINE
  5
198
330
1F
100
AcDbEntity
  8
STANDARDEBENE
 62
     7
100
AcDb2dPolyline
 66
     1
 10
0.0
 20
0.0
 30
0.0
  0
VERTEX
  5
199
330
198
100
AcDbEntity
  8
STANDARDEBENE
 62
     7
100
AcDbVertex
100
AcDb2dVertex
 10
111.2054429517993
 20
130.5391465602472
 30
0.0
  0
VERTEX
  5
19A
330
198
100
AcDbEntity
  8
STANDARDEBENE
 62
     7
100
AcDbVertex
100
AcDb2dVertex
 10
110.2049872228828
 20
130.5391465602472
 30
0.0
  0
SEQEND
  5
19B
330
198
100
AcDbEntity
  8
STANDARDEBENE
  0
POLYLINE
  5
19C
330
1F
100
AcDbEntity
  8
STANDARDEBENE
 62
     7
100
AcDb2dPolyline
 66
     1
 10
0.0
 20
0.0
 30
0.0
  0
VERTEX
  5
19D
330
19C
100
AcDbEntity
  8
STANDARDEBENE
 62
     7
100
AcDbVertex
100
AcDb2dVertex
 10
109.2055650226118
 20
130.5391465602472
 30
0.0
  0
VERTEX
  5
19E
330
19C
100
AcDbEntity
  8
STANDARDEBENE
 62
     7
100
AcDbVertex
100
AcDb2dVertex
 10
108.2051092936953
 20
130.5391465602472
 30
0.0
  0
SEQEND
  5
19F
330
19C
100
AcDbEntity
  8
STANDARDEBENE
  0
POLYLINE
  5
1A0
330
1F
100
AcDbEntity
  8
STANDARDEBENE
 62
     7
100
AcDb2dPolyline
 66
     1
 10
0.0
 20
0.0
 30
0.0
  0
VERTEX
  5
1A1
330
1A0
100
AcDbEntity
  8
STANDARDEBENE
 62
     7
100
AcDbVertex
100
AcDb2dVertex
 10
107.2053425838757
 20
130.5391465602472
 30
0.0
  0
VERTEX
  5
1A2
330
1A0
100
AcDbEntity
  8
STANDARDEBENE
 62
     7
100
AcDbVertex
100
AcDb2dVertex
 10
106.2055758740563
 20
130.5391465602472
 30
0.0
  0
SEQEND
  5
1A3
330
1A0
100
AcDbEntity
  8
STANDARDEBENE
  0
POLYLINE
  5
1A4
330
1F
100
AcDbEntity
  8
STANDARDEBENE
 62
     7
100
AcDb2dPolyline
 66
     1
 10
0.0
 20
0.0
 30
0.0
  0
VERTEX
  5
1A5
330
1A4
100
AcDbEntity
  8
STANDARDEBENE
 62
     7
100
AcDbVertex
100
AcDb2dVertex
 10
105.2054646546882
 20
130.5391465602472
 30
0.0
  0
VERTEX
  5
1A6
330
1A4
100
AcDbEntity
  8
STANDARDEBENE
 62
     7
100
AcDbVertex
100
AcDb2dVertex
 10
104.2048366709974
 20
130.5391465602472
 30
0.0
  0
SEQEND
  5
1A7
330
1A4
100
AcDbEntity
  8
STANDARDEBENE
  0
POLYLINE
  5
1A8
330
1F
100
AcDbEntity
  8
STANDARDEBENE
 62
     7
100
AcDb2dPolyline
 66
     1
 10
0.0
 20
0.0
 30
0.0
  0
VERTEX
  5
1A9
330
1A8
100
AcDbEntity
  8
STANDARDEBENE
 62
     7
100
AcDbVertex
100
AcDb2dVertex
 10
103.2050699611779
 20
130.5391465602472
 30
0.0
  0
VERTEX
  5
1AA
330
1A8
100
AcDbEntity
  8
STANDARDEBENE
 62
     7
100
AcDbVertex
100
AcDb2dVertex
 10
102.2053032513584
 20
130.5391465602472
 30
0.0
  0
SEQEND
  5
1AB
330
1A8
100
AcDbEntity
  8
STANDARDEBENE
  0
POLYLINE
  5
1AC
330
1F
100
AcDbEntity
  8
STANDARDEBENE
 62
     7
100
AcDb2dPolyline
 66
     1
 10
0.0
 20
0.0
 30
0.0
  0
VERTEX
  5
1AD
330
1AC
100
AcDbEntity
  8
STANDARDEBENE
 62
     7
100
AcDbVertex
100
AcDb2dVertex
 10
101.2055365415389
 20
130.5391465602472
 30
0.0
  0
VERTEX
  5
1AE
330
1AC
100
AcDbEntity
  8
STANDARDEBENE
 62
     7
100
AcDbVertex
100
AcDb2dVertex
 10
100.2054253221709
 20
130.5391465602472
 30
0.0
  0
SEQEND
  5
1AF
330
1AC
100
AcDbEntity
  8
STANDARDEBENE
  0
POLYLINE
  5
1B0
330
1F
100
AcDbEntity
  8
STANDARDEBENE
 62
     7
100
AcDb2dPolyline
 66
     1
 10
0.0
 20
0.0
 30
0.0
  0
VERTEX
  5
1B1
330
1B0
100
AcDbEntity
  8
STANDARDEBENE
 62
     7
100
AcDbVertex
100
AcDb2dVertex
 10
99.20496959325432
 20
130.5391465602472
 30
0.0
  0
VERTEX
  5
1B2
330
1B0
100
AcDbEntity
  8
STANDARDEBENE
 62
     7
100
AcDbVertex
100
AcDb2dVertex
 10
98.20520288343481
 20
130.5391465602472
 30
0.0
  0
SEQEND
  5
1B3
330
1B0
100
AcDbEntity
  8
STANDARDEBENE
  0
POLYLINE
  5
1B4
330
1F
100
AcDbEntity
  8
STANDARDEBENE
 62
     7
100
AcDb2dPolyline
 66
     1
 10
0.0
 20
0.0
 30
0.0
  0
VERTEX
  5
1B5
330
1B4
100
AcDbEntity
  8
STANDARDEBENE
 62
     7
100
AcDbVertex
100
AcDb2dVertex
 10
97.20543617361531
 20
130.5391465602472
 30
0.0
  0
VERTEX
  5
1B6
330
1B4
100
AcDbEntity
  8
STANDARDEBENE
 62
     7
100
AcDbVertex
100
AcDb2dVertex
 10
96.20532495424729
 20
130.5391465602472
 30
0.0
  0
SEQEND
  5
1B7
330
1B4
100
AcDbEntity
  8
STANDARDEBENE
  0
POLYLINE
  5
1B8
330
1F
100
AcDbEntity
  8
STANDARDEBENE
 62
     7
100
AcDb2dPolyline
 66
     1
 10
0.0
 20
0.0
 30
0.0
  0
VERTEX
  5
1B9
330
1B8
100
AcDbEntity
  8
STANDARDEBENE
 62
     7
100
AcDbVertex
100
AcDb2dVertex
 10
95.20555824442778
 20
130.5391465602472
 30
0.0
  0
VERTEX
  5
1BA
330
1B8
100
AcDbEntity
  8
STANDARDEBENE
 62
     7
100
AcDbVertex
100
AcDb2dVertex
 10
94.20510251551123
 20
130.5391465602472
 30
0.0
  0
SEQEND
  5
1BB
330
1B8
100
AcDbEntity
  8
STANDARDEBENE
  0
POLYLINE
  5
1BC
330
1F
100
AcDbEntity
  8
STANDARDEBENE
 62
     7
100
AcDb2dPolyline
 66
     1
 10
0.0
 20
0.0
 30
0.0
  0
VERTEX
  5
1BD
330
1BC
100
AcDbEntity
  8
STANDARDEBENE
 62
     7
100
AcDbVertex
100
AcDb2dVertex
 10
93.20533580569173
 20
130.5391465602472
 30
0.0
  0
VERTEX
  5
1BE
330
1BC
100
AcDbEntity
  8
STANDARDEBENE
 62
     7
100
AcDbVertex
100
AcDb2dVertex
 10
92.20556909587222
 20
130.5391465602472
 30
0.0
  0
SEQEND
  5
1BF
330
1BC
100
AcDbEntity
  8
STANDARDEBENE
  0
POLYLINE
  5
1C0
330
1F
100
AcDbEntity
  8
STANDARDEBENE
 62
     7
100
AcDb2dPolyline
 66
     1
 10
0.0
 20
0.0
 30
0.0
  0
VERTEX
  5
1C1
330
1C0
100
AcDbEntity
  8
STANDARDEBENE
 62
     7
100
AcDbVertex
100
AcDb2dVertex
 10
91.2054578765042
 20
130.5391465602472
 30
0.0
  0
VERTEX
  5
1C2
330
1C0
100
AcDbEntity
  8
STANDARDEBENE
 62
     7
100
AcDbVertex
100
AcDb2dVertex
 10
90.20500214758765
 20
130.5391465602472
 30
0.0
  0
SEQEND
  5
1C3
330
1C0
100
AcDbEntity
  8
STANDARDEBENE
  0
POLYLINE
  5
1C4
330
1F
100
AcDbEntity
  8
STANDARDEBENE
 62
     7
100
AcDb2dPolyline
 66
     1
 10
0.0
 20
0.0
 30
0.0
  0
VERTEX
  5
1C5
330
1C4
100
AcDbEntity
  8
STANDARDEBENE
 62
     7
100
AcDbVertex
100
AcDb2dVertex
 10
89.20557994731666
 20
130.5391465602472
 30
0.0
  0
VERTEX
  5
1C6
330
1C4
100
AcDbEntity
  8
STANDARDEBENE
 62
     7
100
AcDbVertex
100
AcDb2dVertex
 10
88.20546872794864
 20
130.5391465602472
 30
0.0
  0
SEQEND
  5
1C7
330
1C4
100
AcDbEntity
  8
STANDARDEBENE
  0
POLYLINE
  5
1C8
330
1F
100
AcDbEntity
  8
STANDARDEBENE
 62
     7
100
AcDb2dPolyline
 66
     1
 10
0.0
 20
0.0
 30
0.0
  0
VERTEX
  5
1C9
330
1C8
100
AcDbEntity
  8
STANDARDEBENE
 62
     7
100
AcDbVertex
100
AcDb2dVertex
 10
87.20484074425782
 20
130.5391465602472
 30
0.0
  0
VERTEX
  5
1CA
330
1C8
100
AcDbEntity
  8
STANDARDEBENE
 62
     7
100
AcDbVertex
100
AcDb2dVertex
 10
86.20507403443833
 20
130.5391465602472
 30
0.0
  0
SEQEND
  5
1CB
330
1C8
100
AcDbEntity
  8
STANDARDEBENE
  0
POLYLINE
  5
1CC
330
1F
100
AcDbEntity
  8
STANDARDEBENE
 62
     7
100
AcDb2dPolyline
 66
     1
 10
0.0
 20
0.0
 30
0.0
  0
VERTEX
  5
1CD
330
1CC
100
AcDbEntity
  8
STANDARDEBENE
 62
     7
100
AcDbVertex
100
AcDb2dVertex
 10
85.20496281507029
 20
130.5391465602472
 30
0.0
  0
VERTEX
  5
1CE
330
1CC
100
AcDbEntity
  8
STANDARDEBENE
 62
     7
100
AcDbVertex
100
AcDb2dVertex
 10
84.20554061479932
 20
130.5391465602472
 30
0.0
  0
SEQEND
  5
1CF
330
1CC
100
AcDbEntity
  8
STANDARDEBENE
  0
POLYLINE
  5
1D0
330
1F
100
AcDbEntity
  8
STANDARDEBENE
 62
     7
100
AcDb2dPolyline
 66
     1
 10
0.0
 20
0.0
 30
0.0
  0
VERTEX
  5
1D1
330
1D0
100
AcDbEntity
  8
STANDARDEBENE
 62
     7
100
AcDbVertex
100
AcDb2dVertex
 10
83.20542939543128
 20
130.5391465602472
 30
0.0
  0
VERTEX
  5
1D2
330
1D0
100
AcDbEntity
  8
STANDARDEBENE
 62
     7
100
AcDbVertex
100
AcDb2dVertex
 10
82.20497366651473
 20
130.5391465602472
 30
0.0
  0
SEQEND
  5
1D3
330
1D0
100
AcDbEntity
  8
STANDARDEBENE
  0
POLYLINE
  5
1D4
330
1F
100
AcDbEntity
  8
STANDARDEBENE
 62
     7
100
AcDb2dPolyline
 66
     1
 10
0.0
 20
0.0
 30
0.0
  0
VERTEX
  5
1D5
330
1D4
100
AcDbEntity
  8
STANDARDEBENE
 62
     7
100
AcDbVertex
100
AcDb2dVertex
 10
81.20520695669524
 20
130.5391465602472
 30
0.0
  0
VERTEX
  5
1D6
330
1D4
100
AcDbEntity
  8
STANDARDEBENE
 62
     7
100
AcDbVertex
100
AcDb2dVertex
 10
80.20544024687572
 20
130.5391465602472
 30
0.0
  0
SEQEND
  5
1D7
330
1D4
100
AcDbEntity
  8
STANDARDEBENE
  0
POLYLINE
  5
1D8
330
1F
100
AcDbEntity
  8
STANDARDEBENE
 62
     7
100
AcDb2dPolyline
 66
     1
 10
0.0
 20
0.0
 30
0.0
  0
VERTEX
  5
1D9
330
1D8
100
AcDbEntity
  8
STANDARDEBENE
 62
     7
100
AcDbVertex
100
AcDb2dVertex
 10
79.2053290275077
 20
130.5391465602472
 30
0.0
  0
VERTEX
  5
1DA
330
1D8
100
AcDbEntity
  8
STANDARDEBENE
 62
     7
100
AcDbVertex
100
AcDb2dVertex
 10
78.20556231768819
 20
130.5391465602472
 30
0.0
  0
SEQEND
  5
1DB
330
1D8
100
AcDbEntity
  8
STANDARDEBENE
  0
POLYLINE
  5
1DC
330
1F
100
AcDbEntity
  8
STANDARDEBENE
 62
     7
100
AcDb2dPolyline
 66
     1
 10
0.0
 20
0.0
 30
0.0
  0
VERTEX
  5
1DD
330
1DC
100
AcDbEntity
  8
STANDARDEBENE
 62
     7
100
AcDbVertex
100
AcDb2dVertex
 10
77.20510658877164
 20
130.5391465602472
 30
0.0
  0
VERTEX
  5
1DE
330
1DC
100
AcDbEntity
  8
STANDARDEBENE
 62
     7
100
AcDbVertex
100
AcDb2dVertex
 10
76.20499536940362
 20
130.5391465602472
 30
0.0
  0
SEQEND
  5
1DF
330
1DC
100
AcDbEntity
  8
STANDARDEBENE
  0
POLYLINE
  5
1E0
330
1F
100
AcDbEntity
  8
STANDARDEBENE
 62
     7
100
AcDb2dPolyline
 66
     1
 10
0.0
 20
0.0
 30
0.0
  0
VERTEX
  5
1E1
330
1E0
100
AcDbEntity
  8
STANDARDEBENE
 62
     7
100
AcDbVertex
100
AcDb2dVertex
 10
75.20557316913263
 20
130.5391465602472
 30
0.0
  0
VERTEX
  5
1E2
330
1E0
100
AcDbEntity
  8
STANDARDEBENE
 62
     7
100
AcDbVertex
100
AcDb2dVertex
 10
74.20546194976461
 20
130.5391465602472
 30
0.0
  0
SEQEND
  5
1E3
330
1E0
100
AcDbEntity
  8
STANDARDEBENE
  0
POLYLINE
  5
1E4
330
1F
100
AcDbEntity
  8
STANDARDEBENE
 62
     7
100
AcDb2dPolyline
 66
     1
 10
0.0
 20
0.0
 30
0.0
  0
VERTEX
  5
1E5
330
1E4
100
AcDbEntity
  8
STANDARDEBENE
 62
     7
100
AcDbVertex
100
AcDb2dVertex
 10
73.20483396607379
 20
130.5391465602472
 30
0.0
  0
VERTEX
  5
1E6
330
1E4
100
AcDbEntity
  8
STANDARDEBENE
 62
     7
100
AcDbVertex
100
AcDb2dVertex
 10
72.2050672562543
 20
130.5391465602472
 30
0.0
  0
SEQEND
  5
1E7
330
1E4
100
AcDbEntity
  8
STANDARDEBENE
  0
POLYLINE
  5
1E8
330
1F
100
AcDbEntity
  8
STANDARDEBENE
 62
     7
100
AcDb2dPolyline
 66
     1
 10
0.0
 20
0.0
 30
0.0
  0
VERTEX
  5
1E9
330
1E8
100
AcDbEntity
  8
STANDARDEBENE
 62
     7
100
AcDbVertex
100
AcDb2dVertex
 10
71.20530054643478
 20
130.5391465602472
 30
0.0
  0
VERTEX
  5
1EA
330
1E8
100
AcDbEntity
  8
STANDARDEBENE
 62
     7
100
AcDbVertex
100
AcDb2dVertex
 10
70.20518932706676
 20
130.5391465602472
 30
0.0
  0
SEQEND
  5
1EB
330
1E8
100
AcDbEntity
  8
STANDARDEBENE
  0
POLYLINE
  5
1EC
330
1F
100
AcDbEntity
  8
STANDARDEBENE
 62
     7
100
AcDb2dPolyline
 66
     1
 10
0.0
 20
0.0
 30
0.0
  0
VERTEX
  5
1ED
330
1EC
100
AcDbEntity
  8
STANDARDEBENE
 62
     7
100
AcDbVertex
100
AcDb2dVertex
 10
69.20542261724727
 20
130.5391465602472
 30
0.0
  0
VERTEX
  5
1EE
330
1EC
100
AcDbEntity
  8
STANDARDEBENE
 62
     7
100
AcDbVertex
100
AcDb2dVertex
 10
68.2049668883307
 20
130.5391465602472
 30
0.0
  0
SEQEND
  5
1EF
330
1EC
100
AcDbEntity
  8
STANDARDEBENE
  0
POLYLINE
  5
1F0
330
1F
100
AcDbEntity
  8
STANDARDEBENE
 62
     7
100
AcDb2dPolyline
 66
     1
 10
0.0
 20
0.0
 30
0.0
  0
VERTEX
  5
1F1
330
1F0
100
AcDbEntity
  8
STANDARDEBENE
 62
     7
100
AcDbVertex
100
AcDb2dVertex
 10
67.2052001785112
 20
130.5391465602472
 30
0.0
  0
VERTEX
  5
1F2
330
1F0
100
AcDbEntity
  8
STANDARDEBENE
 62
     7
100
AcDbVertex
100
AcDb2dVertex
 10
66.2054334686917
 20
130.5391465602472
 30
0.0
  0
SEQEND
  5
1F3
330
1F0
100
AcDbEntity
  8
STANDARDEBENE
  0
POLYLINE
  5
1F4
330
1F
100
AcDbEntity
  8
STANDARDEBENE
 62
     7
100
AcDb2dPolyline
 66
     1
 10
0.0
 20
0.0
 30
0.0
  0
VERTEX
  5
1F5
330
1F4
100
AcDbEntity
  8
STANDARDEBENE
 62
     7
100
AcDbVertex
100
AcDb2dVertex
 10
65.20532224932367
 20
130.5391465602472
 30
0.0
  0
VERTEX
  5
1F6
330
1F4
100
AcDbEntity
  8
STANDARDEBENE
 62
     7
100
AcDbVertex
100
AcDb2dVertex
 10
64.20555553950418
 20
130.5391465602472
 30
0.0
  0
SEQEND
  5
1F7
330
1F4
100
AcDbEntity
  8
STANDARDEBENE
  0
POLYLINE
  5
1F8
330
1F
100
AcDbEntity
  8
STANDARDEBENE
 62
     7
100
AcDb2dPolyline
 66
     1
 10
0.0
 20
0.0
 30
0.0
  0
VERTEX
  5
1F9
330
1F8
100
AcDbEntity
  8
STANDARDEBENE
 62
     7
100
AcDbVertex
100
AcDb2dVertex
 10
63.20509981058762
 20
130.5391465602472
 30
0.0
  0
VERTEX
  5
1FA
330
1F8
100
AcDbEntity
  8
STANDARDEBENE
 62
     7
100
AcDbVertex
100
AcDb2dVertex
 10
62.20533310076812
 20
130.5391465602472
 30
0.0
  0
SEQEND
  5
1FB
330
1F8
100
AcDbEntity
  8
STANDARDEBENE
  0
POLYLINE
  5
1FC
330
1F
100
AcDbEntity
  8
STANDARDEBENE
 62
     7
100
AcDb2dPolyline
 66
     1
 10
0.0
 20
0.0
 30
0.0
  0
VERTEX
  5
1FD
330
1FC
100
AcDbEntity
  8
STANDARDEBENE
 62
     7
100
AcDbVertex
100
AcDb2dVertex
 10
61.20556639094861
 20
130.5391465602472
 30
0.0
  0
VERTEX
  5
1FE
330
1FC
100
AcDbEntity
  8
STANDARDEBENE
 62
     7
100
AcDbVertex
100
AcDb2dVertex
 10
60.20545517158058
 20
130.5391465602472
 30
0.0
  0
SEQEND
  5
1FF
330
1FC
100
AcDbEntity
  8
STANDARDEBENE
  0
POLYLINE
  5
200
330
1F
100
AcDbEntity
  8
STANDARDEBENE
 62
     7
100
AcDb2dPolyline
 66
     1
 10
0.0
 20
0.0
 30
0.0
  0
VERTEX
  5
201
330
200
100
AcDbEntity
  8
STANDARDEBENE
 62
     7
100
AcDbVertex
100
AcDb2dVertex
 10
59.20499944266403
 20
130.5391465602472
 30
0.0
  0
VERTEX
  5
202
330
200
100
AcDbEntity
  8
STANDARDEBENE
 62
     7
100
AcDbVertex
100
AcDb2dVertex
 10
58.20523273284453
 20
130.5391465602472
 30
0.0
  0
SEQEND
  5
203
330
200
100
AcDbEntity
  8
STANDARDEBENE
  0
POLYLINE
  5
204
330
1F
100
AcDbEntity
  8
STANDARDEBENE
 62
     7
100
AcDb2dPolyline
 66
     1
 10
0.0
 20
0.0
 30
0.0
  0
VERTEX
  5
205
330
204
100
AcDbEntity
  8
STANDARDEBENE
 62
     7
100
AcDbVertex
100
AcDb2dVertex
 10
57.20546602302502
 20
130.5391465602472
 30
0.0
  0
VERTEX
  5
206
330
204
100
AcDbEntity
  8
STANDARDEBENE
 62
     7
100
AcDbVertex
100
AcDb2dVertex
 10
56.20518254888273
 20
130.5391465602472
 30
0.0
  0
SEQEND
  5
207
330
204
100
AcDbEntity
  8
STANDARDEBENE
  0
POLYLINE
  5
208
330
1F
100
AcDbEntity
  8
STANDARDEBENE
 62
     7
100
AcDb2dPolyline
 66
     1
 10
0.0
 20
0.0
 30
0.0
  0
VERTEX
  5
209
330
208
100
AcDbEntity
  8
STANDARDEBENE
 62
     7
100
AcDbVertex
100
AcDb2dVertex
 10
55.20507132951471
 20
130.5391465602472
 30
0.0
  0
VERTEX
  5
20A
330
208
100
AcDbEntity
  8
STANDARDEBENE
 62
     7
100
AcDbVertex
100
AcDb2dVertex
 10
54.20496011014668
 20
130.5391465602472
 30
0.0
  0
SEQEND
  5
20B
330
208
100
AcDbEntity
  8
STANDARDEBENE
  0
POLYLINE
  5
20C
330
1F
100
AcDbEntity
  8
STANDARDEBENE
 62
     7
100
AcDb2dPolyline
 66
     1
 10
0.0
 20
0.0
 30
0.0
  0
VERTEX
  5
20D
330
20C
100
AcDbEntity
  8
STANDARDEBENE
 62
     7
100
AcDbVertex
100
AcDb2dVertex
 10
53.20519340032718
 20
130.5391465602472
 30
0.0
  0
VERTEX
  5
20E
330
20C
100
AcDbEntity
  8
STANDARDEBENE
 62
     7
100
AcDbVertex
100
AcDb2dVertex
 10
52.70531004541743
 20
130.5391465602472
 30
0.0
  0
SEQEND
  5
20F
330
20C
100
AcDbEntity
  8
STANDARDEBENE
  0
POLYLINE
  5
210
330
1F
100
AcDbEntity
  8
STANDARDEBENE
 62
     7
100
AcDb2dPolyline
 66
     1
 10
0.0
 20
0.0
 30
0.0
  0
VERTEX
  5
211
330
210
100
AcDbEntity
  8
STANDARDEBENE
 62
     7
100
AcDbVertex
100
AcDb2dVertex
 10
58.70511608775428
 20
131.0481594181928
 30
0.0
  0
VERTEX
  5
212
330
210
100
AcDbEntity
  8
STANDARDEBENE
 62
     7
100
AcDbVertex
100
AcDb2dVertex
 10
60.40440943585376
 20
131.5385687605181
 30
0.0
  0
SEQEND
  5
213
330
210
100
AcDbEntity
  8
STANDARDEBENE
  0
POLYLINE
  5
214
330
1F
100
AcDbEntity
  8
STANDARDEBENE
 62
     7
100
AcDb2dPolyline
 66
     1
 10
0.0
 20
0.0
 30
0.0
  0
VERTEX
  5
215
330
214
100
AcDbEntity
  8
STANDARDEBENE
 62
     7
100
AcDbVertex
100
AcDb2dVertex
 10
58.70511608775428
 20
127.0289387703261
 30
0.0
  0
VERTEX
  5
216
330
214
100
AcDbEntity
  8
STANDARDEBENE
 62
     7
100
AcDbVertex
100
AcDb2dVertex
 10
60.40440943585376
 20
126.5385294280008
 30
0.0
  0
SEQEND
  5
217
330
214
100
AcDbEntity
  8
STANDARDEBENE
  0
POLYLINE
  5
218
330
1F
100
AcDbEntity
  8
STANDARDEBENE
 62
     7
100
AcDb2dPolyline
 66
     1
 10
0.0
 20
0.0
 30
0.0
  0
VERTEX
  5
219
330
218
100
AcDbEntity
  8
STANDARDEBENE
 62
     7
100
AcDbVertex
100
AcDb2dVertex
 10
52.71443954845333
 20
131.0481594181928
 30
0.0
  0
VERTEX
  5
21A
330
218
100
AcDbEntity
  8
STANDARDEBENE
 62
     7
100
AcDbVertex
100
AcDb2dVertex
 10
58.70511608775428
 20
131.0481594181928
 30
0.0
  0
SEQEND
  5
21B
330
218
100
AcDbEntity
  8
STANDARDEBENE
  0
POLYLINE
  5
21C
330
1F
100
AcDbEntity
  8
STANDARDEBENE
 62
     7
100
AcDb2dPolyline
 66
     1
 10
0.0
 20
0.0
 30
0.0
  0
VERTEX
  5
21D
330
21C
100
AcDbEntity
  8
STANDARDEBENE
 62
     7
100
AcDbVertex
100
AcDb2dVertex
 10
52.71443954845333
 20
127.0289387703261
 30
0.0
  0
VERTEX
  5
21E
330
21C
100
AcDbEntity
  8
STANDARDEBENE
 62
     7
100
AcDbVertex
100
AcDb2dVertex
 10
58.70511608775428
 20
127.0289387703261
 30
0.0
  0
SEQEND
  5
21F
330
21C
100
AcDbEntity
  8
STANDARDEBENE
  0
POLYLINE
  5
221
330
1F
100
AcDbEntity
  8
BEMAßUNG
 62
     7
100
AcDb2dPolyline
 66
     1
 10
0.0
 20
0.0
 30
0.0
  0
VERTEX
  5
222
330
221
100
AcDbEntity
  8
BEMAßUNG
 62
     7
100
AcDbVertex
100
AcDb2dVertex
 10
53.20519340032718
 20
126.5385294280008
 30
0.0
  0
VERTEX
  5
223
330
221
100
AcDbEntity
  8
BEMAßUNG
 62
     7
100
AcDbVertex
100
AcDb2dVertex
 10
42.36933457057086
 20
126.5385294280008
 30
0.0
  0
SEQEND
  5
224
330
221
100
AcDbEntity
  8
BEMAßUNG
  0
POLYLINE
  5
225
330
1F
100
AcDbEntity
  8
BEMAßUNG
 62
     7
100
AcDb2dPolyline
 66
     1
 10
0.0
 20
0.0
 30
0.0
  0
VERTEX
  5
226
330
225
100
AcDbEntity
  8
BEMAßUNG
 62
     7
100
AcDbVertex
100
AcDb2dVertex
 10
53.20519340032718
 20
131.5385687605181
 30
0.0
  0
VERTEX
  5
227
330
225
100
AcDbEntity
  8
BEMAßUNG
 62
     7
100
AcDbVertex
100
AcDb2dVertex
 10
42.36933457057086
 20
131.5385687605181
 30
0.0
  0
SEQEND
  5
228
330
225
100
AcDbEntity
  8
BEMAßUNG
  0
POLYLINE
  5
229
330
1F
100
AcDbEntity
  8
BEMAßUNG
 62
     7
100
AcDb2dPolyline
 66
     1
 10
0.0
 20
0.0
 30
0.0
  0
VERTEX
  5
22A
330
229
100
AcDbEntity
  8
BEMAßUNG
 62
     7
100
AcDbVertex
100
AcDb2dVertex
 10
44.36955700930692
 20
148.3399549325331
 30
0.0
  0
VERTEX
  5
22B
330
229
100
AcDbEntity
  8
BEMAßUNG
 62
     7
100
AcDbVertex
100
AcDb2dVertex
 10
44.36955700930692
 20
117.7886759145633
 30
0.0
  0
SEQEND
  5
22C
330
229
100
AcDbEntity
  8
BEMAßUNG
  0
POLYLINE
  5
22D
330
1F
100
AcDbEntity
  8
BEMAßUNG
 62
     7
100
AcDb2dPolyline
 66
     1
 10
0.0
 20
0.0
 30
0.0
  0
VERTEX
  5
22E
330
22D
100
AcDbEntity
  8
BEMAßUNG
 62
     7
100
AcDbVertex
100
AcDb2dVertex
 10
44.36955700930692
 20
126.5385294280008
 30
0.0
  0
VERTEX
  5
22F
330
22D
100
AcDbEntity
  8
BEMAßUNG
 62
     7
100
AcDbVertex
100
AcDb2dVertex
 10
43.90843097860623
 20
123.039001434084
 30
0.0
  0
VERTEX
  5
230
330
22D
100
AcDbEntity
  8
BEMAßUNG
 62
     7
100
AcDbVertex
100
AcDb2dVertex
 10
44.83068304000761
 20
123.039001434084
 30
0.0
  0
VERTEX
  5
231
330
22D
100
AcDbEntity
  8
BEMAßUNG
 62
     7
100
AcDbVertex
100
AcDb2dVertex
 10
44.36955700930692
 20
126.5385294280008
 30
0.0
  0
SEQEND
  5
232
330
22D
100
AcDbEntity
  8
BEMAßUNG
  0
POLYLINE
  5
233
330
1F
100
AcDbEntity
  8
BEMAßUNG
 62
     7
100
AcDb2dPolyline
 66
     1
 10
0.0
 20
0.0
 30
0.0
  0
VERTEX
  5
234
330
233
100
AcDbEntity
  8
BEMAßUNG
 62
     7
100
AcDbVertex
100
AcDb2dVertex
 10
43.91273734796279
 20
123.039001434084
 30
0.0
  0
VERTEX
  5
235
330
233
100
AcDbEntity
  8
BEMAßUNG
 62
     7
100
AcDbVertex
100
AcDb2dVertex
 10
43.91273734796279
 20
123.0662176884175
 30
0.0
  0
SEQEND
  5
236
330
233
100
AcDbEntity
  8
BEMAßUNG
  0
POLYLINE
  5
237
330
1F
100
AcDbEntity
  8
BEMAßUNG
 62
     7
100
AcDb2dPolyline
 66
     1
 10
0.0
 20
0.0
 30
0.0
  0
VERTEX
  5
238
330
237
100
AcDbEntity
  8
BEMAßUNG
 62
     7
100
AcDbVertex
100
AcDb2dVertex
 10
43.91273734796279
 20
123.039001434084
 30
0.0
  0
VERTEX
  5
239
330
237
100
AcDbEntity
  8
BEMAßUNG
 62
     7
100
AcDbVertex
100
AcDb2dVertex
 10
43.91273734796279
 20
123.0662176884175
 30
0.0
  0
SEQEND
  5
23A
330
237
100
AcDbEntity
  8
BEMAßUNG
  0
POLYLINE
  5
23B
330
1F
100
AcDbEntity
  8
BEMAßUNG
 62
     7
100
AcDb2dPolyline
 66
     1
 10
0.0
 20
0.0
 30
0.0
  0
VERTEX
  5
23C
330
23B
100
AcDbEntity
  8
BEMAßUNG
 62
     7
100
AcDbVertex
100
AcDb2dVertex
 10
43.9632079968217
 20
123.039001434084
 30
0.0
  0
VERTEX
  5
23D
330
23B
100
AcDbEntity
  8
BEMAßUNG
 62
     7
100
AcDbVertex
100
AcDb2dVertex
 10
43.9632079968217
 20
123.4517238732169
 30
0.0
  0
SEQEND
  5
23E
330
23B
100
AcDbEntity
  8
BEMAßUNG
  0
POLYLINE
  5
23F
330
1F
100
AcDbEntity
  8
BEMAßUNG
 62
     7
100
AcDb2dPolyline
 66
     1
 10
0.0
 20
0.0
 30
0.0
  0
VERTEX
  5
240
330
23F
100
AcDbEntity
  8
BEMAßUNG
 62
     7
100
AcDbVertex
100
AcDb2dVertex
 10
44.01436766477766
 20
123.039001434084
 30
0.0
  0
VERTEX
  5
241
330
23F
100
AcDbEntity
  8
BEMAßUNG
 62
     7
100
AcDbVertex
100
AcDb2dVertex
 10
44.01436766477766
 20
123.8374023127907
 30
0.0
  0
SEQEND
  5
242
330
23F
100
AcDbEntity
  8
BEMAßUNG
  0
POLYLINE
  5
243
330
1F
100
AcDbEntity
  8
BEMAßUNG
 62
     7
100
AcDb2dPolyline
 66
     1
 10
0.0
 20
0.0
 30
0.0
  0
VERTEX
  5
244
330
243
100
AcDbEntity
  8
BEMAßUNG
 62
     7
100
AcDbVertex
100
AcDb2dVertex
 10
44.0651828231851
 20
123.039001434084
 30
0.0
  0
VERTEX
  5
245
330
243
100
AcDbEntity
  8
BEMAßUNG
 62
     7
100
AcDbVertex
100
AcDb2dVertex
 10
44.0651828231851
 20
124.2232530071386
 30
0.0
  0
SEQEND
  5
246
330
243
100
AcDbEntity
  8
BEMAßUNG
  0
POLYLINE
  5
247
330
1F
100
AcDbEntity
  8
BEMAßUNG
 62
     7
100
AcDb2dPolyline
 66
     1
 10
0.0
 20
0.0
 30
0.0
  0
VERTEX
  5
248
330
247
100
AcDbEntity
  8
BEMAßUNG
 62
     7
100
AcDbVertex
100
AcDb2dVertex
 10
44.115653472044
 20
123.039001434084
 30
0.0
  0
VERTEX
  5
249
330
247
100
AcDbEntity
  8
BEMAßUNG
 62
     7
100
AcDbVertex
100
AcDb2dVertex
 10
44.115653472044
 20
124.6096204658094
 30
0.0
  0
SEQEND
  5
24A
330
247
100
AcDbEntity
  8
BEMAßUNG
  0
POLYLINE
  5
24B
330
1F
100
AcDbEntity
  8
BEMAßUNG
 62
     7
100
AcDb2dPolyline
 66
     1
 10
0.0
 20
0.0
 30
0.0
  0
VERTEX
  5
24C
330
24B
100
AcDbEntity
  8
BEMAßUNG
 62
     7
100
AcDbVertex
100
AcDb2dVertex
 10
44.1666408852257
 20
123.039001434084
 30
0.0
  0
VERTEX
  5
24D
330
24B
100
AcDbEntity
  8
BEMAßUNG
 62
     7
100
AcDbVertex
100
AcDb2dVertex
 10
44.1666408852257
 20
124.9951266506089
 30
0.0
  0
SEQEND
  5
24E
330
24B
100
AcDbEntity
  8
BEMAßUNG
  0
POLYLINE
  5
24F
330
1F
100
AcDbEntity
  8
BEMAßUNG
 62
     7
100
AcDb2dPolyline
 66
     1
 10
0.0
 20
0.0
 30
0.0
  0
VERTEX
  5
250
330
24F
100
AcDbEntity
  8
BEMAßUNG
 62
     7
100
AcDbVertex
100
AcDb2dVertex
 10
44.21711153408462
 20
123.039001434084
 30
0.0
  0
VERTEX
  5
251
330
24F
100
AcDbEntity
  8
BEMAßUNG
 62
     7
100
AcDbVertex
100
AcDb2dVertex
 10
44.21711153408462
 20
125.3814941092796
 30
0.0
  0
SEQEND
  5
252
330
24F
100
AcDbEntity
  8
BEMAßUNG
  0
POLYLINE
  5
253
330
1F
100
AcDbEntity
  8
BEMAßUNG
 62
     7
100
AcDb2dPolyline
 66
     1
 10
0.0
 20
0.0
 30
0.0
  0
VERTEX
  5
254
330
253
100
AcDbEntity
  8
BEMAßUNG
 62
     7
100
AcDbVertex
100
AcDb2dVertex
 10
44.26792669249205
 20
123.039001434084
 30
0.0
  0
VERTEX
  5
255
330
253
100
AcDbEntity
  8
BEMAßUNG
 62
     7
100
AcDbVertex
100
AcDb2dVertex
 10
44.26792669249205
 20
125.7666557845306
 30
0.0
  0
SEQEND
  5
256
330
253
100
AcDbEntity
  8
BEMAßUNG
  0
POLYLINE
  5
257
330
1F
100
AcDbEntity
  8
BEMAßUNG
 62
     7
100
AcDb2dPolyline
 66
     1
 10
0.0
 20
0.0
 30
0.0
  0
VERTEX
  5
258
330
257
100
AcDbEntity
  8
BEMAßUNG
 62
     7
100
AcDbVertex
100
AcDb2dVertex
 10
44.31908636044801
 20
123.039001434084
 30
0.0
  0
VERTEX
  5
259
330
257
100
AcDbEntity
  8
BEMAßUNG
 62
     7
100
AcDbVertex
100
AcDb2dVertex
 10
44.31908636044801
 20
126.1530232432013
 30
0.0
  0
SEQEND
  5
25A
330
257
100
AcDbEntity
  8
BEMAßUNG
  0
POLYLINE
  5
25B
330
1F
100
AcDbEntity
  8
BEMAßUNG
 62
     7
100
AcDb2dPolyline
 66
     1
 10
0.0
 20
0.0
 30
0.0
  0
VERTEX
  5
25C
330
25B
100
AcDbEntity
  8
BEMAßUNG
 62
     7
100
AcDbVertex
100
AcDb2dVertex
 10
44.36955700930692
 20
123.039001434084
 30
0.0
  0
VERTEX
  5
25D
330
25B
100
AcDbEntity
  8
BEMAßUNG
 62
     7
100
AcDbVertex
100
AcDb2dVertex
 10
44.36955700930692
 20
126.5385294280008
 30
0.0
  0
SEQEND
  5
25E
330
25B
100
AcDbEntity
  8
BEMAßUNG
  0
POLYLINE
  5
25F
330
1F
100
AcDbEntity
  8
BEMAßUNG
 62
     7
100
AcDb2dPolyline
 66
     1
 10
0.0
 20
0.0
 30
0.0
  0
VERTEX
  5
260
330
25F
100
AcDbEntity
  8
BEMAßUNG
 62
     7
100
AcDbVertex
100
AcDb2dVertex
 10
44.82672118019957
 20
123.039001434084
 30
0.0
  0
VERTEX
  5
261
330
25F
100
AcDbEntity
  8
BEMAßUNG
 62
     7
100
AcDbVertex
100
AcDb2dVertex
 10
44.82672118019957
 20
123.0662176884175
 30
0.0
  0
SEQEND
  5
262
330
25F
100
AcDbEntity
  8
BEMAßUNG
  0
POLYLINE
  5
263
330
1F
100
AcDbEntity
  8
BEMAßUNG
 62
     7
100
AcDb2dPolyline
 66
     1
 10
0.0
 20
0.0
 30
0.0
  0
VERTEX
  5
264
330
263
100
AcDbEntity
  8
BEMAßUNG
 62
     7
100
AcDbVertex
100
AcDb2dVertex
 10
44.82672118019957
 20
123.039001434084
 30
0.0
  0
VERTEX
  5
265
330
263
100
AcDbEntity
  8
BEMAßUNG
 62
     7
100
AcDbVertex
100
AcDb2dVertex
 10
44.82672118019957
 20
123.0662176884175
 30
0.0
  0
SEQEND
  5
266
330
263
100
AcDbEntity
  8
BEMAßUNG
  0
POLYLINE
  5
267
330
1F
100
AcDbEntity
  8
BEMAßUNG
 62
     7
100
AcDb2dPolyline
 66
     1
 10
0.0
 20
0.0
 30
0.0
  0
VERTEX
  5
268
330
267
100
AcDbEntity
  8
BEMAßUNG
 62
     7
100
AcDbVertex
100
AcDb2dVertex
 10
44.77590602179214
 20
123.039001434084
 30
0.0
  0
VERTEX
  5
269
330
267
100
AcDbEntity
  8
BEMAßUNG
 62
     7
100
AcDbVertex
100
AcDb2dVertex
 10
44.77590602179214
 20
123.4517238732169
 30
0.0
  0
SEQEND
  5
26A
330
267
100
AcDbEntity
  8
BEMAßUNG
  0
POLYLINE
  5
26B
330
1F
100
AcDbEntity
  8
BEMAßUNG
 62
     7
100
AcDb2dPolyline
 66
     1
 10
0.0
 20
0.0
 30
0.0
  0
VERTEX
  5
26C
330
26B
100
AcDbEntity
  8
BEMAßUNG
 62
     7
100
AcDbVertex
100
AcDb2dVertex
 10
44.72560762770749
 20
123.039001434084
 30
0.0
  0
VERTEX
  5
26D
330
26B
100
AcDbEntity
  8
BEMAßUNG
 62
     7
100
AcDbVertex
100
AcDb2dVertex
 10
44.72560762770749
 20
123.8374023127907
 30
0.0
  0
SEQEND
  5
26E
330
26B
100
AcDbEntity
  8
BEMAßUNG
  0
POLYLINE
  5
26F
330
1F
100
AcDbEntity
  8
BEMAßUNG
 62
     7
100
AcDb2dPolyline
 66
     1
 10
0.0
 20
0.0
 30
0.0
  0
VERTEX
  5
270
330
26F
100
AcDbEntity
  8
BEMAßUNG
 62
     7
100
AcDbVertex
100
AcDb2dVertex
 10
44.67479246930005
 20
123.039001434084
 30
0.0
  0
VERTEX
  5
271
330
26F
100
AcDbEntity
  8
BEMAßUNG
 62
     7
100
AcDbVertex
100
AcDb2dVertex
 10
44.67479246930005
 20
124.2232530071386
 30
0.0
  0
SEQEND
  5
272
330
26F
100
AcDbEntity
  8
BEMAßUNG
  0
POLYLINE
  5
273
330
1F
100
AcDbEntity
  8
BEMAßUNG
 62
     7
100
AcDb2dPolyline
 66
     1
 10
0.0
 20
0.0
 30
0.0
  0
VERTEX
  5
274
330
273
100
AcDbEntity
  8
BEMAßUNG
 62
     7
100
AcDbVertex
100
AcDb2dVertex
 10
44.62363280134409
 20
123.039001434084
 30
0.0
  0
VERTEX
  5
275
330
273
100
AcDbEntity
  8
BEMAßUNG
 62
     7
100
AcDbVertex
100
AcDb2dVertex
 10
44.62363280134409
 20
124.6096204658094
 30
0.0
  0
SEQEND
  5
276
330
273
100
AcDbEntity
  8
BEMAßUNG
  0
POLYLINE
  5
277
330
1F
100
AcDbEntity
  8
BEMAßUNG
 62
     7
100
AcDb2dPolyline
 66
     1
 10
0.0
 20
0.0
 30
0.0
  0
VERTEX
  5
278
330
277
100
AcDbEntity
  8
BEMAßUNG
 62
     7
100
AcDbVertex
100
AcDb2dVertex
 10
44.57316215248518
 20
123.039001434084
 30
0.0
  0
VERTEX
  5
279
330
277
100
AcDbEntity
  8
BEMAßUNG
 62
     7
100
AcDbVertex
100
AcDb2dVertex
 10
44.57316215248518
 20
124.9951266506089
 30
0.0
  0
SEQEND
  5
27A
330
277
100
AcDbEntity
  8
BEMAßUNG
  0
POLYLINE
  5
27B
330
1F
100
AcDbEntity
  8
BEMAßUNG
 62
     7
100
AcDb2dPolyline
 66
     1
 10
0.0
 20
0.0
 30
0.0
  0
VERTEX
  5
27C
330
27B
100
AcDbEntity
  8
BEMAßUNG
 62
     7
100
AcDbVertex
100
AcDb2dVertex
 10
44.52200248452922
 20
123.039001434084
 30
0.0
  0
VERTEX
  5
27D
330
27B
100
AcDbEntity
  8
BEMAßUNG
 62
     7
100
AcDbVertex
100
AcDb2dVertex
 10
44.52200248452922
 20
125.3814941092796
 30
0.0
  0
SEQEND
  5
27E
330
27B
100
AcDbEntity
  8
BEMAßUNG
  0
POLYLINE
  5
27F
330
1F
100
AcDbEntity
  8
BEMAßUNG
 62
     7
100
AcDb2dPolyline
 66
     1
 10
0.0
 20
0.0
 30
0.0
  0
VERTEX
  5
280
330
27F
100
AcDbEntity
  8
BEMAßUNG
 62
     7
100
AcDbVertex
100
AcDb2dVertex
 10
44.47153183567031
 20
123.039001434084
 30
0.0
  0
VERTEX
  5
281
330
27F
100
AcDbEntity
  8
BEMAßUNG
 62
     7
100
AcDbVertex
100
AcDb2dVertex
 10
44.47153183567031
 20
125.7666557845306
 30
0.0
  0
SEQEND
  5
282
330
27F
100
AcDbEntity
  8
BEMAßUNG
  0
POLYLINE
  5
283
330
1F
100
AcDbEntity
  8
BEMAßUNG
 62
     7
100
AcDb2dPolyline
 66
     1
 10
0.0
 20
0.0
 30
0.0
  0
VERTEX
  5
284
330
283
100
AcDbEntity
  8
BEMAßUNG
 62
     7
100
AcDbVertex
100
AcDb2dVertex
 10
44.42071667726288
 20
123.039001434084
 30
0.0
  0
VERTEX
  5
285
330
283
100
AcDbEntity
  8
BEMAßUNG
 62
     7
100
AcDbVertex
100
AcDb2dVertex
 10
44.42071667726288
 20
126.1530232432013
 30
0.0
  0
SEQEND
  5
286
330
283
100
AcDbEntity
  8
BEMAßUNG
  0
POLYLINE
  5
287
330
1F
100
AcDbEntity
  8
BEMAßUNG
 62
     7
100
AcDb2dPolyline
 66
     1
 10
0.0
 20
0.0
 30
0.0
  0
VERTEX
  5
288
330
287
100
AcDbEntity
  8
BEMAßUNG
 62
     7
100
AcDbVertex
100
AcDb2dVertex
 10
44.36955700930692
 20
123.039001434084
 30
0.0
  0
VERTEX
  5
289
330
287
100
AcDbEntity
  8
BEMAßUNG
 62
     7
100
AcDbVertex
100
AcDb2dVertex
 10
44.36955700930692
 20
126.5385294280008
 30
0.0
  0
SEQEND
  5
28A
330
287
100
AcDbEntity
  8
BEMAßUNG
  0
POLYLINE
  5
28B
330
1F
100
AcDbEntity
  8
BEMAßUNG
 62
     7
100
AcDb2dPolyline
 66
     1
 10
0.0
 20
0.0
 30
0.0
  0
VERTEX
  5
28C
330
28B
100
AcDbEntity
  8
BEMAßUNG
 62
     7
100
AcDbVertex
100
AcDb2dVertex
 10
44.36955700930692
 20
131.5385687605181
 30
0.0
  0
VERTEX
  5
28D
330
28B
100
AcDbEntity
  8
BEMAßUNG
 62
     7
100
AcDbVertex
100
AcDb2dVertex
 10
44.83068304000761
 20
135.038785773532
 30
0.0
  0
VERTEX
  5
28E
330
28B
100
AcDbEntity
  8
BEMAßUNG
 62
     7
100
AcDbVertex
100
AcDb2dVertex
 10
43.90843097860623
 20
135.038785773532
 30
0.0
  0
VERTEX
  5
28F
330
28B
100
AcDbEntity
  8
BEMAßUNG
 62
     7
100
AcDbVertex
100
AcDb2dVertex
 10
44.36955700930692
 20
131.5385687605181
 30
0.0
  0
SEQEND
  5
290
330
28B
100
AcDbEntity
  8
BEMAßUNG
  0
POLYLINE
  5
291
330
1F
100
AcDbEntity
  8
BEMAßUNG
 62
     7
100
AcDb2dPolyline
 66
     1
 10
0.0
 20
0.0
 30
0.0
  0
VERTEX
  5
292
330
291
100
AcDbEntity
  8
BEMAßUNG
 62
     7
100
AcDbVertex
100
AcDb2dVertex
 10
44.82672118019957
 20
135.038785773532
 30
0.0
  0
VERTEX
  5
293
330
291
100
AcDbEntity
  8
BEMAßUNG
 62
     7
100
AcDbVertex
100
AcDb2dVertex
 10
44.82672118019957
 20
135.0115695191985
 30
0.0
  0
SEQEND
  5
294
330
291
100
AcDbEntity
  8
BEMAßUNG
  0
POLYLINE
  5
295
330
1F
100
AcDbEntity
  8
BEMAßUNG
 62
     7
100
AcDb2dPolyline
 66
     1
 10
0.0
 20
0.0
 30
0.0
  0
VERTEX
  5
296
330
295
100
AcDbEntity
  8
BEMAßUNG
 62
     7
100
AcDbVertex
100
AcDb2dVertex
 10
44.82672118019957
 20
135.038785773532
 30
0.0
  0
VERTEX
  5
297
330
295
100
AcDbEntity
  8
BEMAßUNG
 62
     7
100
AcDbVertex
100
AcDb2dVertex
 10
44.82672118019957
 20
135.0115695191985
 30
0.0
  0
SEQEND
  5
298
330
295
100
AcDbEntity
  8
BEMAßUNG
  0
POLYLINE
  5
299
330
1F
100
AcDbEntity
  8
BEMAßUNG
 62
     7
100
AcDb2dPolyline
 66
     1
 10
0.0
 20
0.0
 30
0.0
  0
VERTEX
  5
29A
330
299
100
AcDbEntity
  8
BEMAßUNG
 62
     7
100
AcDbVertex
100
AcDb2dVertex
 10
44.77590602179214
 20
135.038785773532
 30
0.0
  0
VERTEX
  5
29B
330
299
100
AcDbEntity
  8
BEMAßUNG
 62
     7
100
AcDbVertex
100
AcDb2dVertex
 10
44.77590602179214
 20
134.6257188248505
 30
0.0
  0
SEQEND
  5
29C
330
299
100
AcDbEntity
  8
BEMAßUNG
  0
POLYLINE
  5
29D
330
1F
100
AcDbEntity
  8
BEMAßUNG
 62
     7
100
AcDb2dPolyline
 66
     1
 10
0.0
 20
0.0
 30
0.0
  0
VERTEX
  5
29E
330
29D
100
AcDbEntity
  8
BEMAßUNG
 62
     7
100
AcDbVertex
100
AcDb2dVertex
 10
44.72560762770749
 20
135.038785773532
 30
0.0
  0
VERTEX
  5
29F
330
29D
100
AcDbEntity
  8
BEMAßUNG
 62
     7
100
AcDbVertex
100
AcDb2dVertex
 10
44.72560762770749
 20
134.2400403852768
 30
0.0
  0
SEQEND
  5
2A0
330
29D
100
AcDbEntity
  8
BEMAßUNG
  0
POLYLINE
  5
2A1
330
1F
100
AcDbEntity
  8
BEMAßUNG
 62
     7
100
AcDb2dPolyline
 66
     1
 10
0.0
 20
0.0
 30
0.0
  0
VERTEX
  5
2A2
330
2A1
100
AcDbEntity
  8
BEMAßUNG
 62
     7
100
AcDbVertex
100
AcDb2dVertex
 10
44.67479246930005
 20
135.038785773532
 30
0.0
  0
VERTEX
  5
2A3
330
2A1
100
AcDbEntity
  8
BEMAßUNG
 62
     7
100
AcDbVertex
100
AcDb2dVertex
 10
44.67479246930005
 20
133.853672926606
 30
0.0
  0
SEQEND
  5
2A4
330
2A1
100
AcDbEntity
  8
BEMAßUNG
  0
POLYLINE
  5
2A5
330
1F
100
AcDbEntity
  8
BEMAßUNG
 62
     7
100
AcDb2dPolyline
 66
     1
 10
0.0
 20
0.0
 30
0.0
  0
VERTEX
  5
2A6
330
2A5
100
AcDbEntity
  8
BEMAßUNG
 62
     7
100
AcDbVertex
100
AcDb2dVertex
 10
44.62363280134409
 20
135.038785773532
 30
0.0
  0
VERTEX
  5
2A7
330
2A5
100
AcDbEntity
  8
BEMAßUNG
 62
     7
100
AcDbVertex
100
AcDb2dVertex
 10
44.62363280134409
 20
133.4681667418066
 30
0.0
  0
SEQEND
  5
2A8
330
2A5
100
AcDbEntity
  8
BEMAßUNG
  0
POLYLINE
  5
2A9
330
1F
100
AcDbEntity
  8
BEMAßUNG
 62
     7
100
AcDb2dPolyline
 66
     1
 10
0.0
 20
0.0
 30
0.0
  0
VERTEX
  5
2AA
330
2A9
100
AcDbEntity
  8
BEMAßUNG
 62
     7
100
AcDbVertex
100
AcDb2dVertex
 10
44.57316215248518
 20
135.038785773532
 30
0.0
  0
VERTEX
  5
2AB
330
2A9
100
AcDbEntity
  8
BEMAßUNG
 62
     7
100
AcDbVertex
100
AcDb2dVertex
 10
44.57316215248518
 20
133.0819715379101
 30
0.0
  0
SEQEND
  5
2AC
330
2A9
100
AcDbEntity
  8
BEMAßUNG
  0
POLYLINE
  5
2AD
330
1F
100
AcDbEntity
  8
BEMAßUNG
 62
     7
100
AcDb2dPolyline
 66
     1
 10
0.0
 20
0.0
 30
0.0
  0
VERTEX
  5
2AE
330
2AD
100
AcDbEntity
  8
BEMAßUNG
 62
     7
100
AcDbVertex
100
AcDb2dVertex
 10
44.52200248452922
 20
135.038785773532
 30
0.0
  0
VERTEX
  5
2AF
330
2AD
100
AcDbEntity
  8
BEMAßUNG
 62
     7
100
AcDbVertex
100
AcDb2dVertex
 10
44.52200248452922
 20
132.6966376078849
 30
0.0
  0
SEQEND
  5
2B0
330
2AD
100
AcDbEntity
  8
BEMAßUNG
  0
POLYLINE
  5
2B1
330
1F
100
AcDbEntity
  8
BEMAßUNG
 62
     7
100
AcDb2dPolyline
 66
     1
 10
0.0
 20
0.0
 30
0.0
  0
VERTEX
  5
2B2
330
2B1
100
AcDbEntity
  8
BEMAßUNG
 62
     7
100
AcDbVertex
100
AcDb2dVertex
 10
44.47153183567031
 20
135.038785773532
 30
0.0
  0
VERTEX
  5
2B3
330
2B1
100
AcDbEntity
  8
BEMAßUNG
 62
     7
100
AcDbVertex
100
AcDb2dVertex
 10
44.47153183567031
 20
132.3102701492141
 30
0.0
  0
SEQEND
  5
2B4
330
2B1
100
AcDbEntity
  8
BEMAßUNG
  0
POLYLINE
  5
2B5
330
1F
100
AcDbEntity
  8
BEMAßUNG
 62
     7
100
AcDb2dPolyline
 66
     1
 10
0.0
 20
0.0
 30
0.0
  0
VERTEX
  5
2B6
330
2B5
100
AcDbEntity
  8
BEMAßUNG
 62
     7
100
AcDbVertex
100
AcDb2dVertex
 10
44.42071667726288
 20
135.038785773532
 30
0.0
  0
VERTEX
  5
2B7
330
2B5
100
AcDbEntity
  8
BEMAßUNG
 62
     7
100
AcDbVertex
100
AcDb2dVertex
 10
44.42071667726288
 20
131.9247639644146
 30
0.0
  0
SEQEND
  5
2B8
330
2B5
100
AcDbEntity
  8
BEMAßUNG
  0
POLYLINE
  5
2B9
330
1F
100
AcDbEntity
  8
BEMAßUNG
 62
     7
100
AcDb2dPolyline
 66
     1
 10
0.0
 20
0.0
 30
0.0
  0
VERTEX
  5
2BA
330
2B9
100
AcDbEntity
  8
BEMAßUNG
 62
     7
100
AcDbVertex
100
AcDb2dVertex
 10
44.36955700930692
 20
135.038785773532
 30
0.0
  0
VERTEX
  5
2BB
330
2B9
100
AcDbEntity
  8
BEMAßUNG
 62
     7
100
AcDbVertex
100
AcDb2dVertex
 10
44.36955700930692
 20
131.5385687605181
 30
0.0
  0
SEQEND
  5
2BC
330
2B9
100
AcDbEntity
  8
BEMAßUNG
  0
POLYLINE
  5
2BD
330
1F
100
AcDbEntity
  8
BEMAßUNG
 62
     7
100
AcDb2dPolyline
 66
     1
 10
0.0
 20
0.0
 30
0.0
  0
VERTEX
  5
2BE
330
2BD
100
AcDbEntity
  8
BEMAßUNG
 62
     7
100
AcDbVertex
100
AcDb2dVertex
 10
43.91273734796279
 20
135.038785773532
 30
0.0
  0
VERTEX
  5
2BF
330
2BD
100
AcDbEntity
  8
BEMAßUNG
 62
     7
100
AcDbVertex
100
AcDb2dVertex
 10
43.91273734796279
 20
135.0115695191985
 30
0.0
  0
SEQEND
  5
2C0
330
2BD
100
AcDbEntity
  8
BEMAßUNG
  0
POLYLINE
  5
2C1
330
1F
100
AcDbEntity
  8
BEMAßUNG
 62
     7
100
AcDb2dPolyline
 66
     1
 10
0.0
 20
0.0
 30
0.0
  0
VERTEX
  5
2C2
330
2C1
100
AcDbEntity
  8
BEMAßUNG
 62
     7
100
AcDbVertex
100
AcDb2dVertex
 10
43.91273734796279
 20
135.038785773532
 30
0.0
  0
VERTEX
  5
2C3
330
2C1
100
AcDbEntity
  8
BEMAßUNG
 62
     7
100
AcDbVertex
100
AcDb2dVertex
 10
43.91273734796279
 20
135.0115695191985
 30
0.0
  0
SEQEND
  5
2C4
330
2C1
100
AcDbEntity
  8
BEMAßUNG
  0
POLYLINE
  5
2C5
330
1F
100
AcDbEntity
  8
BEMAßUNG
 62
     7
100
AcDb2dPolyline
 66
     1
 10
0.0
 20
0.0
 30
0.0
  0
VERTEX
  5
2C6
330
2C5
100
AcDbEntity
  8
BEMAßUNG
 62
     7
100
AcDbVertex
100
AcDb2dVertex
 10
43.9632079968217
 20
135.038785773532
 30
0.0
  0
VERTEX
  5
2C7
330
2C5
100
AcDbEntity
  8
BEMAßUNG
 62
     7
100
AcDbVertex
100
AcDb2dVertex
 10
43.9632079968217
 20
134.6257188248505
 30
0.0
  0
SEQEND
  5
2C8
330
2C5
100
AcDbEntity
  8
BEMAßUNG
  0
POLYLINE
  5
2C9
330
1F
100
AcDbEntity
  8
BEMAßUNG
 62
     7
100
AcDb2dPolyline
 66
     1
 10
0.0
 20
0.0
 30
0.0
  0
VERTEX
  5
2CA
330
2C9
100
AcDbEntity
  8
BEMAßUNG
 62
     7
100
AcDbVertex
100
AcDb2dVertex
 10
44.01436766477766
 20
135.038785773532
 30
0.0
  0
VERTEX
  5
2CB
330
2C9
100
AcDbEntity
  8
BEMAßUNG
 62
     7
100
AcDbVertex
100
AcDb2dVertex
 10
44.01436766477766
 20
134.2400403852768
 30
0.0
  0
SEQEND
  5
2CC
330
2C9
100
AcDbEntity
  8
BEMAßUNG
  0
POLYLINE
  5
2CD
330
1F
100
AcDbEntity
  8
BEMAßUNG
 62
     7
100
AcDb2dPolyline
 66
     1
 10
0.0
 20
0.0
 30
0.0
  0
VERTEX
  5
2CE
330
2CD
100
AcDbEntity
  8
BEMAßUNG
 62
     7
100
AcDbVertex
100
AcDb2dVertex
 10
44.0651828231851
 20
135.038785773532
 30
0.0
  0
VERTEX
  5
2CF
330
2CD
100
AcDbEntity
  8
BEMAßUNG
 62
     7
100
AcDbVertex
100
AcDb2dVertex
 10
44.0651828231851
 20
133.853672926606
 30
0.0
  0
SEQEND
  5
2D0
330
2CD
100
AcDbEntity
  8
BEMAßUNG
  0
POLYLINE
  5
2D1
330
1F
100
AcDbEntity
  8
BEMAßUNG
 62
     7
100
AcDb2dPolyline
 66
     1
 10
0.0
 20
0.0
 30
0.0
  0
VERTEX
  5
2D2
330
2D1
100
AcDbEntity
  8
BEMAßUNG
 62
     7
100
AcDbVertex
100
AcDb2dVertex
 10
44.115653472044
 20
135.038785773532
 30
0.0
  0
VERTEX
  5
2D3
330
2D1
100
AcDbEntity
  8
BEMAßUNG
 62
     7
100
AcDbVertex
100
AcDb2dVertex
 10
44.115653472044
 20
133.4681667418066
 30
0.0
  0
SEQEND
  5
2D4
330
2D1
100
AcDbEntity
  8
BEMAßUNG
  0
POLYLINE
  5
2D5
330
1F
100
AcDbEntity
  8
BEMAßUNG
 62
     7
100
AcDb2dPolyline
 66
     1
 10
0.0
 20
0.0
 30
0.0
  0
VERTEX
  5
2D6
330
2D5
100
AcDbEntity
  8
BEMAßUNG
 62
     7
100
AcDbVertex
100
AcDb2dVertex
 10
44.1666408852257
 20
135.038785773532
 30
0.0
  0
VERTEX
  5
2D7
330
2D5
100
AcDbEntity
  8
BEMAßUNG
 62
     7
100
AcDbVertex
100
AcDb2dVertex
 10
44.1666408852257
 20
133.0819715379101
 30
0.0
  0
SEQEND
  5
2D8
330
2D5
100
AcDbEntity
  8
BEMAßUNG
  0
POLYLINE
  5
2D9
330
1F
100
AcDbEntity
  8
BEMAßUNG
 62
     7
100
AcDb2dPolyline
 66
     1
 10
0.0
 20
0.0
 30
0.0
  0
VERTEX
  5
2DA
330
2D9
100
AcDbEntity
  8
BEMAßUNG
 62
     7
100
AcDbVertex
100
AcDb2dVertex
 10
44.21711153408462
 20
135.038785773532
 30
0.0
  0
VERTEX
  5
2DB
330
2D9
100
AcDbEntity
  8
BEMAßUNG
 62
     7
100
AcDbVertex
100
AcDb2dVertex
 10
44.21711153408462
 20
132.6966376078849
 30
0.0
  0
SEQEND
  5
2DC
330
2D9
100
AcDbEntity
  8
BEMAßUNG
  0
POLYLINE
  5
2DD
330
1F
100
AcDbEntity
  8
BEMAßUNG
 62
     7
100
AcDb2dPolyline
 66
     1
 10
0.0
 20
0.0
 30
0.0
  0
VERTEX
  5
2DE
330
2DD
100
AcDbEntity
  8
BEMAßUNG
 62
     7
100
AcDbVertex
100
AcDb2dVertex
 10
44.26792669249205
 20
135.038785773532
 30
0.0
  0
VERTEX
  5
2DF
330
2DD
100
AcDbEntity
  8
BEMAßUNG
 62
     7
100
AcDbVertex
100
AcDb2dVertex
 10
44.26792669249205
 20
132.3102701492141
 30
0.0
  0
SEQEND
  5
2E0
330
2DD
100
AcDbEntity
  8
BEMAßUNG
  0
POLYLINE
  5
2E1
330
1F
100
AcDbEntity
  8
BEMAßUNG
 62
     7
100
AcDb2dPolyline
 66
     1
 10
0.0
 20
0.0
 30
0.0
  0
VERTEX
  5
2E2
330
2E1
100
AcDbEntity
  8
BEMAßUNG
 62
     7
100
AcDbVertex
100
AcDb2dVertex
 10
44.31908636044801
 20
135.038785773532
 30
0.0
  0
VERTEX
  5
2E3
330
2E1
100
AcDbEntity
  8
BEMAßUNG
 62
     7
100
AcDbVertex
100
AcDb2dVertex
 10
44.31908636044801
 20
131.9247639644146
 30
0.0
  0
SEQEND
  5
2E4
330
2E1
100
AcDbEntity
  8
BEMAßUNG
  0
POLYLINE
  5
2E5
330
1F
100
AcDbEntity
  8
BEMAßUNG
 62
     7
100
AcDb2dPolyline
 66
     1
 10
0.0
 20
0.0
 30
0.0
  0
VERTEX
  5
2E6
330
2E5
100
AcDbEntity
  8
BEMAßUNG
 62
     7
100
AcDbVertex
100
AcDb2dVertex
 10
44.36955700930692
 20
135.038785773532
 30
0.0
  0
VERTEX
  5
2E7
330
2E5
100
AcDbEntity
  8
BEMAßUNG
 62
     7
100
AcDbVertex
100
AcDb2dVertex
 10
44.36955700930692
 20
131.5385687605181
 30
0.0
  0
SEQEND
  5
2E8
330
2E5
100
AcDbEntity
  8
BEMAßUNG
  0
POLYLINE
  5
2E9
330
1F
100
AcDbEntity
  8
BEMAßUNG
 62
     7
100
AcDb2dPolyline
 66
     1
 10
0.0
 20
0.0
 30
0.0
  0
VERTEX
  5
2EA
330
2E9
100
AcDbEntity
  8
BEMAßUNG
 62
     7
100
AcDbVertex
100
AcDb2dVertex
 10
152.7052354218931
 20
131.5385687605181
 30
0.0
  0
VERTEX
  5
2EB
330
2E9
100
AcDbEntity
  8
BEMAßUNG
 62
     7
100
AcDbVertex
100
AcDb2dVertex
 10
152.7052354218931
 20
146.9209201021587
 30
0.0
  0
SEQEND
  5
2EC
330
2E9
100
AcDbEntity
  8
BEMAßUNG
  0
POLYLINE
  5
2ED
330
1F
100
AcDbEntity
  8
BEMAßUNG
 62
     7
100
AcDb2dPolyline
 66
     1
 10
0.0
 20
0.0
 30
0.0
  0
VERTEX
  5
2EE
330
2ED
100
AcDbEntity
  8
BEMAßUNG
 62
     7
100
AcDbVertex
100
AcDb2dVertex
 10
52.70531004541743
 20
131.0386854056084
 30
0.0
  0
VERTEX
  5
2EF
330
2ED
100
AcDbEntity
  8
BEMAßUNG
 62
     7
100
AcDbVertex
100
AcDb2dVertex
 10
52.70531004541743
 20
146.9209201021587
 30
0.0
  0
SEQEND
  5
2F0
330
2ED
100
AcDbEntity
  8
BEMAßUNG
  0
POLYLINE
  5
2F1
330
1F
100
AcDbEntity
  8
BEMAßUNG
 62
     7
100
AcDb2dPolyline
 66
     1
 10
0.0
 20
0.0
 30
0.0
  0
VERTEX
  5
2F2
330
2F1
100
AcDbEntity
  8
BEMAßUNG
 62
     7
100
AcDbVertex
100
AcDb2dVertex
 10
152.7052354218931
 20
144.9206976634226
 30
0.0
  0
VERTEX
  5
2F3
330
2F1
100
AcDbEntity
  8
BEMAßUNG
 62
     7
100
AcDbVertex
100
AcDb2dVertex
 10
52.70531004541743
 20
144.9206976634226
 30
0.0
  0
SEQEND
  5
2F4
330
2F1
100
AcDbEntity
  8
BEMAßUNG
  0
POLYLINE
  5
2F5
330
1F
100
AcDbEntity
  8
BEMAßUNG
 62
     7
100
AcDb2dPolyline
 66
     1
 10
0.0
 20
0.0
 30
0.0
  0
VERTEX
  5
2F6
330
2F5
100
AcDbEntity
  8
BEMAßUNG
 62
     7
100
AcDbVertex
100
AcDb2dVertex
 10
152.7052354218931
 20
144.9206976634226
 30
0.0
  0
VERTEX
  5
2F7
330
2F5
100
AcDbEntity
  8
BEMAßUNG
 62
     7
100
AcDbVertex
100
AcDb2dVertex
 10
149.2051906636536
 20
145.3814791845748
 30
0.0
  0
VERTEX
  5
2F8
330
2F5
100
AcDbEntity
  8
BEMAßUNG
 62
     7
100
AcDbVertex
100
AcDb2dVertex
 10
149.2051906636536
 20
144.4604329065932
 30
0.0
  0
VERTEX
  5
2F9
330
2F5
100
AcDbEntity
  8
BEMAßUNG
 62
     7
100
AcDbVertex
100
AcDb2dVertex
 10
152.7052354218931
 20
144.9206976634226
 30
0.0
  0
SEQEND
  5
2FA
330
2F5
100
AcDbEntity
  8
BEMAßUNG
  0
POLYLINE
  5
2FB
330
1F
100
AcDbEntity
  8
BEMAßUNG
 62
     7
100
AcDb2dPolyline
 66
     1
 10
0.0
 20
0.0
 30
0.0
  0
VERTEX
  5
2FC
330
2FB
100
AcDbEntity
  8
BEMAßUNG
 62
     7
100
AcDbVertex
100
AcDb2dVertex
 10
149.2051906636536
 20
145.3782063438638
 30
0.0
  0
VERTEX
  5
2FD
330
2FB
100
AcDbEntity
  8
BEMAßUNG
 62
     7
100
AcDbVertex
100
AcDb2dVertex
 10
149.232406917987
 20
145.3782063438638
 30
0.0
  0
SEQEND
  5
2FE
330
2FB
100
AcDbEntity
  8
BEMAßUNG
  0
POLYLINE
  5
2FF
330
1F
100
AcDbEntity
  8
BEMAßUNG
 62
     7
100
AcDb2dPolyline
 66
     1
 10
0.0
 20
0.0
 30
0.0
  0
VERTEX
  5
300
330
2FF
100
AcDbEntity
  8
BEMAßUNG
 62
     7
100
AcDbVertex
100
AcDb2dVertex
 10
149.2051906636536
 20
145.3782063438638
 30
0.0
  0
VERTEX
  5
301
330
2FF
100
AcDbEntity
  8
BEMAßUNG
 62
     7
100
AcDbVertex
100
AcDb2dVertex
 10
149.232406917987
 20
145.3782063438638
 30
0.0
  0
SEQEND
  5
302
330
2FF
100
AcDbEntity
  8
BEMAßUNG
  0
POLYLINE
  5
303
330
1F
100
AcDbEntity
  8
BEMAßUNG
 62
     7
100
AcDb2dPolyline
 66
     1
 10
0.0
 20
0.0
 30
0.0
  0
VERTEX
  5
304
330
303
100
AcDbEntity
  8
BEMAßUNG
 62
     7
100
AcDbVertex
100
AcDb2dVertex
 10
149.2051906636536
 20
145.3272189306821
 30
0.0
  0
VERTEX
  5
305
330
303
100
AcDbEntity
  8
BEMAßUNG
 62
     7
100
AcDbVertex
100
AcDb2dVertex
 10
149.6184298671093
 20
145.3272189306821
 30
0.0
  0
SEQEND
  5
306
330
303
100
AcDbEntity
  8
BEMAßUNG
  0
POLYLINE
  5
307
330
1F
100
AcDbEntity
  8
BEMAßUNG
 62
     7
100
AcDb2dPolyline
 66
     1
 10
0.0
 20
0.0
 30
0.0
  0
VERTEX
  5
308
330
307
100
AcDbEntity
  8
BEMAßUNG
 62
     7
100
AcDbVertex
100
AcDb2dVertex
 10
149.2051906636536
 20
145.2764037722746
 30
0.0
  0
VERTEX
  5
309
330
307
100
AcDbEntity
  8
BEMAßUNG
 62
     7
100
AcDbVertex
100
AcDb2dVertex
 10
150.0042805614573
 20
145.2764037722746
 30
0.0
  0
SEQEND
  5
30A
330
307
100
AcDbEntity
  8
BEMAßUNG
  0
POLYLINE
  5
30B
330
1F
100
AcDbEntity
  8
BEMAßUNG
 62
     7
100
AcDb2dPolyline
 66
     1
 10
0.0
 20
0.0
 30
0.0
  0
VERTEX
  5
30C
330
30B
100
AcDbEntity
  8
BEMAßUNG
 62
     7
100
AcDbVertex
100
AcDb2dVertex
 10
149.2051906636536
 20
145.2255886138672
 30
0.0
  0
VERTEX
  5
30D
330
30B
100
AcDbEntity
  8
BEMAßUNG
 62
     7
100
AcDbVertex
100
AcDb2dVertex
 10
150.389959001031
 20
145.2255886138672
 30
0.0
  0
SEQEND
  5
30E
330
30B
100
AcDbEntity
  8
BEMAßUNG
  0
POLYLINE
  5
30F
330
1F
100
AcDbEntity
  8
BEMAßUNG
 62
     7
100
AcDb2dPolyline
 66
     1
 10
0.0
 20
0.0
 30
0.0
  0
VERTEX
  5
310
330
30F
100
AcDbEntity
  8
BEMAßUNG
 62
     7
100
AcDbVertex
100
AcDb2dVertex
 10
149.2051906636536
 20
145.1747734554598
 30
0.0
  0
VERTEX
  5
311
330
30F
100
AcDbEntity
  8
BEMAßUNG
 62
     7
100
AcDbVertex
100
AcDb2dVertex
 10
150.775809695379
 20
145.1747734554598
 30
0.0
  0
SEQEND
  5
312
330
30F
100
AcDbEntity
  8
BEMAßUNG
  0
POLYLINE
  5
313
330
1F
100
AcDbEntity
  8
BEMAßUNG
 62
     7
100
AcDb2dPolyline
 66
     1
 10
0.0
 20
0.0
 30
0.0
  0
VERTEX
  5
314
330
313
100
AcDbEntity
  8
BEMAßUNG
 62
     7
100
AcDbVertex
100
AcDb2dVertex
 10
149.2051906636536
 20
145.1239582970524
 30
0.0
  0
VERTEX
  5
315
330
313
100
AcDbEntity
  8
BEMAßUNG
 62
     7
100
AcDbVertex
100
AcDb2dVertex
 10
151.1618326445012
 20
145.1239582970524
 30
0.0
  0
SEQEND
  5
316
330
313
100
AcDbEntity
  8
BEMAßUNG
  0
POLYLINE
  5
317
330
1F
100
AcDbEntity
  8
BEMAßUNG
 62
     7
100
AcDb2dPolyline
 66
     1
 10
0.0
 20
0.0
 30
0.0
  0
VERTEX
  5
318
330
317
100
AcDbEntity
  8
BEMAßUNG
 62
     7
100
AcDbVertex
100
AcDb2dVertex
 10
149.2051906636536
 20
145.0731431386449
 30
0.0
  0
VERTEX
  5
319
330
317
100
AcDbEntity
  8
BEMAßUNG
 62
     7
100
AcDbVertex
100
AcDb2dVertex
 10
151.5476833388492
 20
145.0731431386449
 30
0.0
  0
SEQEND
  5
31A
330
317
100
AcDbEntity
  8
BEMAßUNG
  0
POLYLINE
  5
31B
330
1F
100
AcDbEntity
  8
BEMAßUNG
 62
     7
100
AcDb2dPolyline
 66
     1
 10
0.0
 20
0.0
 30
0.0
  0
VERTEX
  5
31C
330
31B
100
AcDbEntity
  8
BEMAßUNG
 62
     7
100
AcDbVertex
100
AcDb2dVertex
 10
149.2051906636536
 20
145.0223279802375
 30
0.0
  0
VERTEX
  5
31D
330
31B
100
AcDbEntity
  8
BEMAßUNG
 62
     7
100
AcDbVertex
100
AcDb2dVertex
 10
151.9333617784229
 20
145.0223279802375
 30
0.0
  0
SEQEND
  5
31E
330
31B
100
AcDbEntity
  8
BEMAßUNG
  0
POLYLINE
  5
31F
330
1F
100
AcDbEntity
  8
BEMAßUNG
 62
     7
100
AcDb2dPolyline
 66
     1
 10
0.0
 20
0.0
 30
0.0
  0
VERTEX
  5
320
330
31F
100
AcDbEntity
  8
BEMAßUNG
 62
     7
100
AcDbVertex
100
AcDb2dVertex
 10
149.2051906636536
 20
144.9716850766043
 30
0.0
  0
VERTEX
  5
321
330
31F
100
AcDbEntity
  8
BEMAßUNG
 62
     7
100
AcDbVertex
100
AcDb2dVertex
 10
152.3192124727709
 20
144.9716850766043
 30
0.0
  0
SEQEND
  5
322
330
31F
100
AcDbEntity
  8
BEMAßUNG
  0
POLYLINE
  5
323
330
1F
100
AcDbEntity
  8
BEMAßUNG
 62
     7
100
AcDb2dPolyline
 66
     1
 10
0.0
 20
0.0
 30
0.0
  0
VERTEX
  5
324
330
323
100
AcDbEntity
  8
BEMAßUNG
 62
     7
100
AcDbVertex
100
AcDb2dVertex
 10
149.2051906636536
 20
144.9206976634226
 30
0.0
  0
VERTEX
  5
325
330
323
100
AcDbEntity
  8
BEMAßUNG
 62
     7
100
AcDbVertex
100
AcDb2dVertex
 10
152.7052354218931
 20
144.9206976634226
 30
0.0
  0
SEQEND
  5
326
330
323
100
AcDbEntity
  8
BEMAßUNG
  0
POLYLINE
  5
327
330
1F
100
AcDbEntity
  8
BEMAßUNG
 62
     7
100
AcDb2dPolyline
 66
     1
 10
0.0
 20
0.0
 30
0.0
  0
VERTEX
  5
328
330
327
100
AcDbEntity
  8
BEMAßUNG
 62
     7
100
AcDbVertex
100
AcDb2dVertex
 10
149.2051906636536
 20
144.4638780020785
 30
0.0
  0
VERTEX
  5
329
330
327
100
AcDbEntity
  8
BEMAßUNG
 62
     7
100
AcDbVertex
100
AcDb2dVertex
 10
149.232406917987
 20
144.4638780020785
 30
0.0
  0
SEQEND
  5
32A
330
327
100
AcDbEntity
  8
BEMAßUNG
  0
POLYLINE
  5
32B
330
1F
100
AcDbEntity
  8
BEMAßUNG
 62
     7
100
AcDb2dPolyline
 66
     1
 10
0.0
 20
0.0
 30
0.0
  0
VERTEX
  5
32C
330
32B
100
AcDbEntity
  8
BEMAßUNG
 62
     7
100
AcDbVertex
100
AcDb2dVertex
 10
149.2051906636536
 20
144.4638780020785
 30
0.0
  0
VERTEX
  5
32D
330
32B
100
AcDbEntity
  8
BEMAßUNG
 62
     7
100
AcDbVertex
100
AcDb2dVertex
 10
149.232406917987
 20
144.4638780020785
 30
0.0
  0
SEQEND
  5
32E
330
32B
100
AcDbEntity
  8
BEMAßUNG
  0
POLYLINE
  5
32F
330
1F
100
AcDbEntity
  8
BEMAßUNG
 62
     7
100
AcDb2dPolyline
 66
     1
 10
0.0
 20
0.0
 30
0.0
  0
VERTEX
  5
330
330
32F
100
AcDbEntity
  8
BEMAßUNG
 62
     7
100
AcDbVertex
100
AcDb2dVertex
 10
149.2051906636536
 20
144.5146931604859
 30
0.0
  0
VERTEX
  5
331
330
32F
100
AcDbEntity
  8
BEMAßUNG
 62
     7
100
AcDbVertex
100
AcDb2dVertex
 10
149.6184298671093
 20
144.5146931604859
 30
0.0
  0
SEQEND
  5
332
330
32F
100
AcDbEntity
  8
BEMAßUNG
  0
POLYLINE
  5
333
330
1F
100
AcDbEntity
  8
BEMAßUNG
 62
     7
100
AcDb2dPolyline
 66
     1
 10
0.0
 20
0.0
 30
0.0
  0
VERTEX
  5
334
330
333
100
AcDbEntity
  8
BEMAßUNG
 62
     7
100
AcDbVertex
100
AcDb2dVertex
 10
149.2051906636536
 20
144.5655083188934
 30
0.0
  0
VERTEX
  5
335
330
333
100
AcDbEntity
  8
BEMAßUNG
 62
     7
100
AcDbVertex
100
AcDb2dVertex
 10
150.0042805614573
 20
144.5655083188934
 30
0.0
  0
SEQEND
  5
336
330
333
100
AcDbEntity
  8
BEMAßUNG
  0
POLYLINE
  5
337
330
1F
100
AcDbEntity
  8
BEMAßUNG
 62
     7
100
AcDb2dPolyline
 66
     1
 10
0.0
 20
0.0
 30
0.0
  0
VERTEX
  5
338
330
337
100
AcDbEntity
  8
BEMAßUNG
 62
     7
100
AcDbVertex
100
AcDb2dVertex
 10
149.2051906636536
 20
144.6163234773008
 30
0.0
  0
VERTEX
  5
339
330
337
100
AcDbEntity
  8
BEMAßUNG
 62
     7
100
AcDbVertex
100
AcDb2dVertex
 10
150.389959001031
 20
144.6163234773008
 30
0.0
  0
SEQEND
  5
33A
330
337
100
AcDbEntity
  8
BEMAßUNG
  0
POLYLINE
  5
33B
330
1F
100
AcDbEntity
  8
BEMAßUNG
 62
     7
100
AcDb2dPolyline
 66
     1
 10
0.0
 20
0.0
 30
0.0
  0
VERTEX
  5
33C
330
33B
100
AcDbEntity
  8
BEMAßUNG
 62
     7
100
AcDbVertex
100
AcDb2dVertex
 10
149.2051906636536
 20
144.6671386357082
 30
0.0
  0
VERTEX
  5
33D
330
33B
100
AcDbEntity
  8
BEMAßUNG
 62
     7
100
AcDbVertex
100
AcDb2dVertex
 10
150.775809695379
 20
144.6671386357082
 30
0.0
  0
SEQEND
  5
33E
330
33B
100
AcDbEntity
  8
BEMAßUNG
  0
POLYLINE
  5
33F
330
1F
100
AcDbEntity
  8
BEMAßUNG
 62
     7
100
AcDb2dPolyline
 66
     1
 10
0.0
 20
0.0
 30
0.0
  0
VERTEX
  5
340
330
33F
100
AcDbEntity
  8
BEMAßUNG
 62
     7
100
AcDbVertex
100
AcDb2dVertex
 10
149.2051906636536
 20
144.7179537941157
 30
0.0
  0
VERTEX
  5
341
330
33F
100
AcDbEntity
  8
BEMAßUNG
 62
     7
100
AcDbVertex
100
AcDb2dVertex
 10
151.1618326445012
 20
144.7179537941157
 30
0.0
  0
SEQEND
  5
342
330
33F
100
AcDbEntity
  8
BEMAßUNG
  0
POLYLINE
  5
343
330
1F
100
AcDbEntity
  8
BEMAßUNG
 62
     7
100
AcDb2dPolyline
 66
     1
 10
0.0
 20
0.0
 30
0.0
  0
VERTEX
  5
344
330
343
100
AcDbEntity
  8
BEMAßUNG
 62
     7
100
AcDbVertex
100
AcDb2dVertex
 10
149.2051906636536
 20
144.7687689525231
 30
0.0
  0
VERTEX
  5
345
330
343
100
AcDbEntity
  8
BEMAßUNG
 62
     7
100
AcDbVertex
100
AcDb2dVertex
 10
151.5476833388492
 20
144.7687689525231
 30
0.0
  0
SEQEND
  5
346
330
343
100
AcDbEntity
  8
BEMAßUNG
  0
POLYLINE
  5
347
330
1F
100
AcDbEntity
  8
BEMAßUNG
 62
     7
100
AcDb2dPolyline
 66
     1
 10
0.0
 20
0.0
 30
0.0
  0
VERTEX
  5
348
330
347
100
AcDbEntity
  8
BEMAßUNG
 62
     7
100
AcDbVertex
100
AcDb2dVertex
 10
149.2051906636536
 20
144.8190673466077
 30
0.0
  0
VERTEX
  5
349
330
347
100
AcDbEntity
  8
BEMAßUNG
 62
     7
100
AcDbVertex
100
AcDb2dVertex
 10
151.9333617784229
 20
144.8190673466077
 30
0.0
  0
SEQEND
  5
34A
330
347
100
AcDbEntity
  8
BEMAßUNG
  0
POLYLINE
  5
34B
330
1F
100
AcDbEntity
  8
BEMAßUNG
 62
     7
100
AcDb2dPolyline
 66
     1
 10
0.0
 20
0.0
 30
0.0
  0
VERTEX
  5
34C
330
34B
100
AcDbEntity
  8
BEMAßUNG
 62
     7
100
AcDbVertex
100
AcDb2dVertex
 10
149.2051906636536
 20
144.8700547597894
 30
0.0
  0
VERTEX
  5
34D
330
34B
100
AcDbEntity
  8
BEMAßUNG
 62
     7
100
AcDbVertex
100
AcDb2dVertex
 10
152.3192124727709
 20
144.8700547597894
 30
0.0
  0
SEQEND
  5
34E
330
34B
100
AcDbEntity
  8
BEMAßUNG
  0
POLYLINE
  5
34F
330
1F
100
AcDbEntity
  8
BEMAßUNG
 62
     7
100
AcDb2dPolyline
 66
     1
 10
0.0
 20
0.0
 30
0.0
  0
VERTEX
  5
350
330
34F
100
AcDbEntity
  8
BEMAßUNG
 62
     7
100
AcDbVertex
100
AcDb2dVertex
 10
149.2051906636536
 20
144.9206976634226
 30
0.0
  0
VERTEX
  5
351
330
34F
100
AcDbEntity
  8
BEMAßUNG
 62
     7
100
AcDbVertex
100
AcDb2dVertex
 10
152.7052354218931
 20
144.9206976634226
 30
0.0
  0
SEQEND
  5
352
330
34F
100
AcDbEntity
  8
BEMAßUNG
  0
POLYLINE
  5
353
330
1F
100
AcDbEntity
  8
BEMAßUNG
 62
     7
100
AcDb2dPolyline
 66
     1
 10
0.0
 20
0.0
 30
0.0
  0
VERTEX
  5
354
330
353
100
AcDbEntity
  8
BEMAßUNG
 62
     7
100
AcDbVertex
100
AcDb2dVertex
 10
52.70531004541743
 20
144.9206976634226
 30
0.0
  0
VERTEX
  5
355
330
353
100
AcDbEntity
  8
BEMAßUNG
 62
     7
100
AcDbVertex
100
AcDb2dVertex
 10
56.20518254888273
 20
144.4604329065932
 30
0.0
  0
VERTEX
  5
356
330
353
100
AcDbEntity
  8
BEMAßUNG
 62
     7
100
AcDbVertex
100
AcDb2dVertex
 10
56.20518254888273
 20
145.3814791845748
 30
0.0
  0
VERTEX
  5
357
330
353
100
AcDbEntity
  8
BEMAßUNG
 62
     7
100
AcDbVertex
100
AcDb2dVertex
 10
52.70531004541743
 20
144.9206976634226
 30
0.0
  0
SEQEND
  5
358
330
353
100
AcDbEntity
  8
BEMAßUNG
  0
POLYLINE
  5
359
330
1F
100
AcDbEntity
  8
BEMAßUNG
 62
     7
100
AcDb2dPolyline
 66
     1
 10
0.0
 20
0.0
 30
0.0
  0
VERTEX
  5
35A
330
359
100
AcDbEntity
  8
BEMAßUNG
 62
     7
100
AcDbVertex
100
AcDb2dVertex
 10
56.20518254888273
 20
144.4638780020785
 30
0.0
  0
VERTEX
  5
35B
330
359
100
AcDbEntity
  8
BEMAßUNG
 62
     7
100
AcDbVertex
100
AcDb2dVertex
 10
56.17813854932352
 20
144.4638780020785
 30
0.0
  0
SEQEND
  5
35C
330
359
100
AcDbEntity
  8
BEMAßUNG
  0
POLYLINE
  5
35D
330
1F
100
AcDbEntity
  8
BEMAßUNG
 62
     7
100
AcDb2dPolyline
 66
     1
 10
0.0
 20
0.0
 30
0.0
  0
VERTEX
  5
35E
330
35D
100
AcDbEntity
  8
BEMAßUNG
 62
     7
100
AcDbVertex
100
AcDb2dVertex
 10
56.20518254888273
 20
144.4638780020785
 30
0.0
  0
VERTEX
  5
35F
330
35D
100
AcDbEntity
  8
BEMAßUNG
 62
     7
100
AcDbVertex
100
AcDb2dVertex
 10
56.17813854932352
 20
144.4638780020785
 30
0.0
  0
SEQEND
  5
360
330
35D
100
AcDbEntity
  8
BEMAßUNG
  0
POLYLINE
  5
361
330
1F
100
AcDbEntity
  8
BEMAßUNG
 62
     7
100
AcDb2dPolyline
 66
     1
 10
0.0
 20
0.0
 30
0.0
  0
VERTEX
  5
362
330
361
100
AcDbEntity
  8
BEMAßUNG
 62
     7
100
AcDbVertex
100
AcDb2dVertex
 10
56.20518254888273
 20
144.5146931604859
 30
0.0
  0
VERTEX
  5
363
330
361
100
AcDbEntity
  8
BEMAßUNG
 62
     7
100
AcDbVertex
100
AcDb2dVertex
 10
55.79211560020128
 20
144.5146931604859
 30
0.0
  0
SEQEND
  5
364
330
361
100
AcDbEntity
  8
BEMAßUNG
  0
POLYLINE
  5
365
330
1F
100
AcDbEntity
  8
BEMAßUNG
 62
     7
100
AcDb2dPolyline
 66
     1
 10
0.0
 20
0.0
 30
0.0
  0
VERTEX
  5
366
330
365
100
AcDbEntity
  8
BEMAßUNG
 62
     7
100
AcDbVertex
100
AcDb2dVertex
 10
56.20518254888273
 20
144.5655083188934
 30
0.0
  0
VERTEX
  5
367
330
365
100
AcDbEntity
  8
BEMAßUNG
 62
     7
100
AcDbVertex
100
AcDb2dVertex
 10
55.4062649058533
 20
144.5655083188934
 30
0.0
  0
SEQEND
  5
368
330
365
100
AcDbEntity
  8
BEMAßUNG
  0
POLYLINE
  5
369
330
1F
100
AcDbEntity
  8
BEMAßUNG
 62
     7
100
AcDb2dPolyline
 66
     1
 10
0.0
 20
0.0
 30
0.0
  0
VERTEX
  5
36A
330
369
100
AcDbEntity
  8
BEMAßUNG
 62
     7
100
AcDbVertex
100
AcDb2dVertex
 10
56.20518254888273
 20
144.6163234773008
 30
0.0
  0
VERTEX
  5
36B
330
369
100
AcDbEntity
  8
BEMAßUNG
 62
     7
100
AcDbVertex
100
AcDb2dVertex
 10
55.02024195673106
 20
144.6163234773008
 30
0.0
  0
SEQEND
  5
36C
330
369
100
AcDbEntity
  8
BEMAßUNG
  0
POLYLINE
  5
36D
330
1F
100
AcDbEntity
  8
BEMAßUNG
 62
     7
100
AcDb2dPolyline
 66
     1
 10
0.0
 20
0.0
 30
0.0
  0
VERTEX
  5
36E
330
36D
100
AcDbEntity
  8
BEMAßUNG
 62
     7
100
AcDbVertex
100
AcDb2dVertex
 10
56.20518254888273
 20
144.6671386357082
 30
0.0
  0
VERTEX
  5
36F
330
36D
100
AcDbEntity
  8
BEMAßUNG
 62
     7
100
AcDbVertex
100
AcDb2dVertex
 10
54.6347357719316
 20
144.6671386357082
 30
0.0
  0
SEQEND
  5
370
330
36D
100
AcDbEntity
  8
BEMAßUNG
  0
POLYLINE
  5
371
330
1F
100
AcDbEntity
  8
BEMAßUNG
 62
     7
100
AcDb2dPolyline
 66
     1
 10
0.0
 20
0.0
 30
0.0
  0
VERTEX
  5
372
330
371
100
AcDbEntity
  8
BEMAßUNG
 62
     7
100
AcDbVertex
100
AcDb2dVertex
 10
56.20518254888273
 20
144.7179537941157
 30
0.0
  0
VERTEX
  5
373
330
371
100
AcDbEntity
  8
BEMAßUNG
 62
     7
100
AcDbVertex
100
AcDb2dVertex
 10
54.24871282280935
 20
144.7179537941157
 30
0.0
  0
SEQEND
  5
374
330
371
100
AcDbEntity
  8
BEMAßUNG
  0
POLYLINE
  5
375
330
1F
100
AcDbEntity
  8
BEMAßUNG
 62
     7
100
AcDb2dPolyline
 66
     1
 10
0.0
 20
0.0
 30
0.0
  0
VERTEX
  5
376
330
375
100
AcDbEntity
  8
BEMAßUNG
 62
     7
100
AcDbVertex
100
AcDb2dVertex
 10
56.20518254888273
 20
144.7687689525231
 30
0.0
  0
VERTEX
  5
377
330
375
100
AcDbEntity
  8
BEMAßUNG
 62
     7
100
AcDbVertex
100
AcDb2dVertex
 10
53.86286212846137
 20
144.7687689525231
 30
0.0
  0
SEQEND
  5
378
330
375
100
AcDbEntity
  8
BEMAßUNG
  0
POLYLINE
  5
379
330
1F
100
AcDbEntity
  8
BEMAßUNG
 62
     7
100
AcDb2dPolyline
 66
     1
 10
0.0
 20
0.0
 30
0.0
  0
VERTEX
  5
37A
330
379
100
AcDbEntity
  8
BEMAßUNG
 62
     7
100
AcDbVertex
100
AcDb2dVertex
 10
56.20518254888273
 20
144.8190673466077
 30
0.0
  0
VERTEX
  5
37B
330
379
100
AcDbEntity
  8
BEMAßUNG
 62
     7
100
AcDbVertex
100
AcDb2dVertex
 10
53.47683917933912
 20
144.8190673466077
 30
0.0
  0
SEQEND
  5
37C
330
379
100
AcDbEntity
  8
BEMAßUNG
  0
POLYLINE
  5
37D
330
1F
100
AcDbEntity
  8
BEMAßUNG
 62
     7
100
AcDb2dPolyline
 66
     1
 10
0.0
 20
0.0
 30
0.0
  0
VERTEX
  5
37E
330
37D
100
AcDbEntity
  8
BEMAßUNG
 62
     7
100
AcDbVertex
100
AcDb2dVertex
 10
56.20518254888273
 20
144.8700547597894
 30
0.0
  0
VERTEX
  5
37F
330
37D
100
AcDbEntity
  8
BEMAßUNG
 62
     7
100
AcDbVertex
100
AcDb2dVertex
 10
53.09133299453967
 20
144.8700547597894
 30
0.0
  0
SEQEND
  5
380
330
37D
100
AcDbEntity
  8
BEMAßUNG
  0
POLYLINE
  5
381
330
1F
100
AcDbEntity
  8
BEMAßUNG
 62
     7
100
AcDb2dPolyline
 66
     1
 10
0.0
 20
0.0
 30
0.0
  0
VERTEX
  5
382
330
381
100
AcDbEntity
  8
BEMAßUNG
 62
     7
100
AcDbVertex
100
AcDb2dVertex
 10
56.20518254888273
 20
144.9206976634226
 30
0.0
  0
VERTEX
  5
383
330
381
100
AcDbEntity
  8
BEMAßUNG
 62
     7
100
AcDbVertex
100
AcDb2dVertex
 10
52.70531004541743
 20
144.9206976634226
 30
0.0
  0
SEQEND
  5
384
330
381
100
AcDbEntity
  8
BEMAßUNG
  0
POLYLINE
  5
385
330
1F
100
AcDbEntity
  8
BEMAßUNG
 62
     7
100
AcDb2dPolyline
 66
     1
 10
0.0
 20
0.0
 30
0.0
  0
VERTEX
  5
386
330
385
100
AcDbEntity
  8
BEMAßUNG
 62
     7
100
AcDbVertex
100
AcDb2dVertex
 10
56.20518254888273
 20
145.3782063438638
 30
0.0
  0
VERTEX
  5
387
330
385
100
AcDbEntity
  8
BEMAßUNG
 62
     7
100
AcDbVertex
100
AcDb2dVertex
 10
56.17813854932352
 20
145.3782063438638
 30
0.0
  0
SEQEND
  5
388
330
385
100
AcDbEntity
  8
BEMAßUNG
  0
POLYLINE
  5
389
330
1F
100
AcDbEntity
  8
BEMAßUNG
 62
     7
100
AcDb2dPolyline
 66
     1
 10
0.0
 20
0.0
 30
0.0
  0
VERTEX
  5
38A
330
389
100
AcDbEntity
  8
BEMAßUNG
 62
     7
100
AcDbVertex
100
AcDb2dVertex
 10
56.20518254888273
 20
145.3782063438638
 30
0.0
  0
VERTEX
  5
38B
330
389
100
AcDbEntity
  8
BEMAßUNG
 62
     7
100
AcDbVertex
100
AcDb2dVertex
 10
56.17813854932352
 20
145.3782063438638
 30
0.0
  0
SEQEND
  5
38C
330
389
100
AcDbEntity
  8
BEMAßUNG
  0
POLYLINE
  5
38D
330
1F
100
AcDbEntity
  8
BEMAßUNG
 62
     7
100
AcDb2dPolyline
 66
     1
 10
0.0
 20
0.0
 30
0.0
  0
VERTEX
  5
38E
330
38D
100
AcDbEntity
  8
BEMAßUNG
 62
     7
100
AcDbVertex
100
AcDb2dVertex
 10
56.20518254888273
 20
145.3272189306821
 30
0.0
  0
VERTEX
  5
38F
330
38D
100
AcDbEntity
  8
BEMAßUNG
 62
     7
100
AcDbVertex
100
AcDb2dVertex
 10
55.79211560020128
 20
145.3272189306821
 30
0.0
  0
SEQEND
  5
390
330
38D
100
AcDbEntity
  8
BEMAßUNG
  0
POLYLINE
  5
391
330
1F
100
AcDbEntity
  8
BEMAßUNG
 62
     7
100
AcDb2dPolyline
 66
     1
 10
0.0
 20
0.0
 30
0.0
  0
VERTEX
  5
392
330
391
100
AcDbEntity
  8
BEMAßUNG
 62
     7
100
AcDbVertex
100
AcDb2dVertex
 10
56.20518254888273
 20
145.2764037722746
 30
0.0
  0
VERTEX
  5
393
330
391
100
AcDbEntity
  8
BEMAßUNG
 62
     7
100
AcDbVertex
100
AcDb2dVertex
 10
55.4062649058533
 20
145.2764037722746
 30
0.0
  0
SEQEND
  5
394
330
391
100
AcDbEntity
  8
BEMAßUNG
  0
POLYLINE
  5
395
330
1F
100
AcDbEntity
  8
BEMAßUNG
 62
     7
100
AcDb2dPolyline
 66
     1
 10
0.0
 20
0.0
 30
0.0
  0
VERTEX
  5
396
330
395
100
AcDbEntity
  8
BEMAßUNG
 62
     7
100
AcDbVertex
100
AcDb2dVertex
 10
56.20518254888273
 20
145.2255886138672
 30
0.0
  0
VERTEX
  5
397
330
395
100
AcDbEntity
  8
BEMAßUNG
 62
     7
100
AcDbVertex
100
AcDb2dVertex
 10
55.02024195673106
 20
145.2255886138672
 30
0.0
  0
SEQEND
  5
398
330
395
100
AcDbEntity
  8
BEMAßUNG
  0
POLYLINE
  5
399
330
1F
100
AcDbEntity
  8
BEMAßUNG
 62
     7
100
AcDb2dPolyline
 66
     1
 10
0.0
 20
0.0
 30
0.0
  0
VERTEX
  5
39A
330
399
100
AcDbEntity
  8
BEMAßUNG
 62
     7
100
AcDbVertex
100
AcDb2dVertex
 10
56.20518254888273
 20
145.1747734554598
 30
0.0
  0
VERTEX
  5
39B
330
399
100
AcDbEntity
  8
BEMAßUNG
 62
     7
100
AcDbVertex
100
AcDb2dVertex
 10
54.6347357719316
 20
145.1747734554598
 30
0.0
  0
SEQEND
  5
39C
330
399
100
AcDbEntity
  8
BEMAßUNG
  0
POLYLINE
  5
39D
330
1F
100
AcDbEntity
  8
BEMAßUNG
 62
     7
100
AcDb2dPolyline
 66
     1
 10
0.0
 20
0.0
 30
0.0
  0
VERTEX
  5
39E
330
39D
100
AcDbEntity
  8
BEMAßUNG
 62
     7
100
AcDbVertex
100
AcDb2dVertex
 10
56.20518254888273
 20
145.1239582970524
 30
0.0
  0
VERTEX
  5
39F
330
39D
100
AcDbEntity
  8
BEMAßUNG
 62
     7
100
AcDbVertex
100
AcDb2dVertex
 10
54.24871282280935
 20
145.1239582970524
 30
0.0
  0
SEQEND
  5
3A0
330
39D
100
AcDbEntity
  8
BEMAßUNG
  0
POLYLINE
  5
3A1
330
1F
100
AcDbEntity
  8
BEMAßUNG
 62
     7
100
AcDb2dPolyline
 66
     1
 10
0.0
 20
0.0
 30
0.0
  0
VERTEX
  5
3A2
330
3A1
100
AcDbEntity
  8
BEMAßUNG
 62
     7
100
AcDbVertex
100
AcDb2dVertex
 10
56.20518254888273
 20
145.0731431386449
 30
0.0
  0
VERTEX
  5
3A3
330
3A1
100
AcDbEntity
  8
BEMAßUNG
 62
     7
100
AcDbVertex
100
AcDb2dVertex
 10
53.86286212846137
 20
145.0731431386449
 30
0.0
  0
SEQEND
  5
3A4
330
3A1
100
AcDbEntity
  8
BEMAßUNG
  0
POLYLINE
  5
3A5
330
1F
100
AcDbEntity
  8
BEMAßUNG
 62
     7
100
AcDb2dPolyline
 66
     1
 10
0.0
 20
0.0
 30
0.0
  0
VERTEX
  5
3A6
330
3A5
100
AcDbEntity
  8
BEMAßUNG
 62
     7
100
AcDbVertex
100
AcDb2dVertex
 10
56.20518254888273
 20
145.0223279802375
 30
0.0
  0
VERTEX
  5
3A7
330
3A5
100
AcDbEntity
  8
BEMAßUNG
 62
     7
100
AcDbVertex
100
AcDb2dVertex
 10
53.47683917933912
 20
145.0223279802375
 30
0.0
  0
SEQEND
  5
3A8
330
3A5
100
AcDbEntity
  8
BEMAßUNG
  0
POLYLINE
  5
3A9
330
1F
100
AcDbEntity
  8
BEMAßUNG
 62
     7
100
AcDb2dPolyline
 66
     1
 10
0.0
 20
0.0
 30
0.0
  0
VERTEX
  5
3AA
330
3A9
100
AcDbEntity
  8
BEMAßUNG
 62
     7
100
AcDbVertex
100
AcDb2dVertex
 10
56.20518254888273
 20
144.9716850766043
 30
0.0
  0
VERTEX
  5
3AB
330
3A9
100
AcDbEntity
  8
BEMAßUNG
 62
     7
100
AcDbVertex
100
AcDb2dVertex
 10
53.09133299453967
 20
144.9716850766043
 30
0.0
  0
SEQEND
  5
3AC
330
3A9
100
AcDbEntity
  8
BEMAßUNG
  0
POLYLINE
  5
3AD
330
1F
100
AcDbEntity
  8
BEMAßUNG
 62
     7
100
AcDb2dPolyline
 66
     1
 10
0.0
 20
0.0
 30
0.0
  0
VERTEX
  5
3AE
330
3AD
100
AcDbEntity
  8
BEMAßUNG
 62
     7
100
AcDbVertex
100
AcDb2dVertex
 10
56.20518254888273
 20
144.9206976634226
 30
0.0
  0
VERTEX
  5
3AF
330
3AD
100
AcDbEntity
  8
BEMAßUNG
 62
     7
100
AcDbVertex
100
AcDb2dVertex
 10
52.70531004541743
 20
144.9206976634226
 30
0.0
  0
SEQEND
  5
3B0
330
3AD
100
AcDbEntity
  8
BEMAßUNG
  0
POLYLINE
  5
3B1
330
1F
100
AcDbEntity
  8
BEMAßUNG
 62
     7
100
AcDb2dPolyline
 66
     1
 10
0.0
 20
0.0
 30
0.0
  0
VERTEX
  5
3B2
330
3B1
100
AcDbEntity
  8
BEMAßUNG
 62
     7
100
AcDbVertex
100
AcDb2dVertex
 10
52.71443954845333
 20
127.0289387703261
 30
0.0
  0
VERTEX
  5
3B3
330
3B1
100
AcDbEntity
  8
BEMAßUNG
 62
     7
100
AcDbVertex
100
AcDb2dVertex
 10
52.71443954845333
 20
107.4101535104739
 30
0.0
  0
SEQEND
  5
3B4
330
3B1
100
AcDbEntity
  8
BEMAßUNG
  0
POLYLINE
  5
3B5
330
1F
100
AcDbEntity
  8
BEMAßUNG
 62
     7
100
AcDb2dPolyline
 66
     1
 10
0.0
 20
0.0
 30
0.0
  0
VERTEX
  5
3B6
330
3B5
100
AcDbEntity
  8
BEMAßUNG
 62
     7
100
AcDbVertex
100
AcDb2dVertex
 10
58.70511608775428
 20
127.0289387703261
 30
0.0
  0
VERTEX
  5
3B7
330
3B5
100
AcDbEntity
  8
BEMAßUNG
 62
     7
100
AcDbVertex
100
AcDb2dVertex
 10
58.70511608775428
 20
107.4101535104739
 30
0.0
  0
SEQEND
  5
3B8
330
3B5
100
AcDbEntity
  8
BEMAßUNG
  0
POLYLINE
  5
3B9
330
1F
100
AcDbEntity
  8
BEMAßUNG
 62
     7
100
AcDb2dPolyline
 66
     1
 10
0.0
 20
0.0
 30
0.0
  0
VERTEX
  5
3BA
330
3B9
100
AcDbEntity
  8
BEMAßUNG
 62
     7
100
AcDbVertex
100
AcDb2dVertex
 10
43.96493054456433
 20
109.4102036944357
 30
0.0
  0
VERTEX
  5
3BB
330
3B9
100
AcDbEntity
  8
BEMAßUNG
 62
     7
100
AcDbVertex
100
AcDb2dVertex
 10
67.45496960119182
 20
109.4102036944357
 30
0.0
  0
SEQEND
  5
3BC
330
3B9
100
AcDbEntity
  8
BEMAßUNG
  0
POLYLINE
  5
3BD
330
1F
100
AcDbEntity
  8
BEMAßUNG
 62
     7
100
AcDb2dPolyline
 66
     1
 10
0.0
 20
0.0
 30
0.0
  0
VERTEX
  5
3BE
330
3BD
100
AcDbEntity
  8
BEMAßUNG
 62
     7
100
AcDbVertex
100
AcDb2dVertex
 10
52.71443954845333
 20
109.4102036944357
 30
0.0
  0
VERTEX
  5
3BF
330
3BD
100
AcDbEntity
  8
BEMAßUNG
 62
     7
100
AcDbVertex
100
AcDb2dVertex
 10
49.21491155453655
 20
109.8708129608136
 30
0.0
  0
VERTEX
  5
3C0
330
3BD
100
AcDbEntity
  8
BEMAßUNG
 62
     7
100
AcDbVertex
100
AcDb2dVertex
 10
49.21491155453655
 20
108.949077663735
 30
0.0
  0
VERTEX
  5
3C1
330
3BD
100
AcDbEntity
  8
BEMAßUNG
 62
     7
100
AcDbVertex
100
AcDb2dVertex
 10
52.71443954845333
 20
109.4102036944357
 30
0.0
  0
SEQEND
  5
3C2
330
3BD
100
AcDbEntity
  8
BEMAßUNG
  0
POLYLINE
  5
3C3
330
1F
100
AcDbEntity
  8
BEMAßUNG
 62
     7
100
AcDb2dPolyline
 66
     1
 10
0.0
 20
0.0
 30
0.0
  0
VERTEX
  5
3C4
330
3C3
100
AcDbEntity
  8
BEMAßUNG
 62
     7
100
AcDbVertex
100
AcDb2dVertex
 10
49.21491155453655
 20
109.8670233557798
 30
0.0
  0
VERTEX
  5
3C5
330
3C3
100
AcDbEntity
  8
BEMAßUNG
 62
     7
100
AcDbVertex
100
AcDb2dVertex
 10
49.24212780887002
 20
109.8670233557798
 30
0.0
  0
SEQEND
  5
3C6
330
3C3
100
AcDbEntity
  8
BEMAßUNG
  0
POLYLINE
  5
3C7
330
1F
100
AcDbEntity
  8
BEMAßUNG
 62
     7
100
AcDb2dPolyline
 66
     1
 10
0.0
 20
0.0
 30
0.0
  0
VERTEX
  5
3C8
330
3C7
100
AcDbEntity
  8
BEMAßUNG
 62
     7
100
AcDbVertex
100
AcDb2dVertex
 10
49.21491155453655
 20
109.8670233557798
 30
0.0
  0
VERTEX
  5
3C9
330
3C7
100
AcDbEntity
  8
BEMAßUNG
 62
     7
100
AcDbVertex
100
AcDb2dVertex
 10
49.24212780887002
 20
109.8670233557798
 30
0.0
  0
SEQEND
  5
3CA
330
3C7
100
AcDbEntity
  8
BEMAßUNG
  0
POLYLINE
  5
3CB
330
1F
100
AcDbEntity
  8
BEMAßUNG
 62
     7
100
AcDb2dPolyline
 66
     1
 10
0.0
 20
0.0
 30
0.0
  0
VERTEX
  5
3CC
330
3CB
100
AcDbEntity
  8
BEMAßUNG
 62
     7
100
AcDbVertex
100
AcDb2dVertex
 10
49.21491155453655
 20
109.8165527069209
 30
0.0
  0
VERTEX
  5
3CD
330
3CB
100
AcDbEntity
  8
BEMAßUNG
 62
     7
100
AcDbVertex
100
AcDb2dVertex
 10
49.62763399366948
 20
109.8165527069209
 30
0.0
  0
SEQEND
  5
3CE
330
3CB
100
AcDbEntity
  8
BEMAßUNG
  0
POLYLINE
  5
3CF
330
1F
100
AcDbEntity
  8
BEMAßUNG
 62
     7
100
AcDb2dPolyline
 66
     1
 10
0.0
 20
0.0
 30
0.0
  0
VERTEX
  5
3D0
330
3CF
100
AcDbEntity
  8
BEMAßUNG
 62
     7
100
AcDbVertex
100
AcDb2dVertex
 10
49.21491155453655
 20
109.7657375485134
 30
0.0
  0
VERTEX
  5
3D1
330
3CF
100
AcDbEntity
  8
BEMAßUNG
 62
     7
100
AcDbVertex
100
AcDb2dVertex
 10
50.01365694279173
 20
109.7657375485134
 30
0.0
  0
SEQEND
  5
3D2
330
3CF
100
AcDbEntity
  8
BEMAßUNG
  0
POLYLINE
  5
3D3
330
1F
100
AcDbEntity
  8
BEMAßUNG
 62
     7
100
AcDb2dPolyline
 66
     1
 10
0.0
 20
0.0
 30
0.0
  0
VERTEX
  5
3D4
330
3D3
100
AcDbEntity
  8
BEMAßUNG
 62
     7
100
AcDbVertex
100
AcDb2dVertex
 10
49.21491155453655
 20
109.714922390106
 30
0.0
  0
VERTEX
  5
3D5
330
3D3
100
AcDbEntity
  8
BEMAßUNG
 62
     7
100
AcDbVertex
100
AcDb2dVertex
 10
50.39967989191397
 20
109.714922390106
 30
0.0
  0
SEQEND
  5
3D6
330
3D3
100
AcDbEntity
  8
BEMAßUNG
  0
POLYLINE
  5
3D7
330
1F
100
AcDbEntity
  8
BEMAßUNG
 62
     7
100
AcDb2dPolyline
 66
     1
 10
0.0
 20
0.0
 30
0.0
  0
VERTEX
  5
3D8
330
3D7
100
AcDbEntity
  8
BEMAßUNG
 62
     7
100
AcDbVertex
100
AcDb2dVertex
 10
49.21491155453655
 20
109.6641072316986
 30
0.0
  0
VERTEX
  5
3D9
330
3D7
100
AcDbEntity
  8
BEMAßUNG
 62
     7
100
AcDbVertex
100
AcDb2dVertex
 10
50.78553058626196
 20
109.6641072316986
 30
0.0
  0
SEQEND
  5
3DA
330
3D7
100
AcDbEntity
  8
BEMAßUNG
  0
POLYLINE
  5
3DB
330
1F
100
AcDbEntity
  8
BEMAßUNG
 62
     7
100
AcDb2dPolyline
 66
     1
 10
0.0
 20
0.0
 30
0.0
  0
VERTEX
  5
3DC
330
3DB
100
AcDbEntity
  8
BEMAßUNG
 62
     7
100
AcDbVertex
100
AcDb2dVertex
 10
49.21491155453655
 20
109.6132920732911
 30
0.0
  0
VERTEX
  5
3DD
330
3DB
100
AcDbEntity
  8
BEMAßUNG
 62
     7
100
AcDbVertex
100
AcDb2dVertex
 10
51.17103677106141
 20
109.6132920732911
 30
0.0
  0
SEQEND
  5
3DE
330
3DB
100
AcDbEntity
  8
BEMAßUNG
  0
POLYLINE
  5
3DF
330
1F
100
AcDbEntity
  8
BEMAßUNG
 62
     7
100
AcDb2dPolyline
 66
     1
 10
0.0
 20
0.0
 30
0.0
  0
VERTEX
  5
3E0
330
3DF
100
AcDbEntity
  8
BEMAßUNG
 62
     7
100
AcDbVertex
100
AcDb2dVertex
 10
49.21491155453655
 20
109.562649169658
 30
0.0
  0
VERTEX
  5
3E1
330
3DF
100
AcDbEntity
  8
BEMAßUNG
 62
     7
100
AcDbVertex
100
AcDb2dVertex
 10
51.55705972018365
 20
109.562649169658
 30
0.0
  0
SEQEND
  5
3E2
330
3DF
100
AcDbEntity
  8
BEMAßUNG
  0
POLYLINE
  5
3E3
330
1F
100
AcDbEntity
  8
BEMAßUNG
 62
     7
100
AcDb2dPolyline
 66
     1
 10
0.0
 20
0.0
 30
0.0
  0
VERTEX
  5
3E4
330
3E3
100
AcDbEntity
  8
BEMAßUNG
 62
     7
100
AcDbVertex
100
AcDb2dVertex
 10
49.21491155453655
 20
109.5116617564763
 30
0.0
  0
VERTEX
  5
3E5
330
3E3
100
AcDbEntity
  8
BEMAßUNG
 62
     7
100
AcDbVertex
100
AcDb2dVertex
 10
51.94342717885442
 20
109.5116617564763
 30
0.0
  0
SEQEND
  5
3E6
330
3E3
100
AcDbEntity
  8
BEMAßUNG
  0
POLYLINE
  5
3E7
330
1F
100
AcDbEntity
  8
BEMAßUNG
 62
     7
100
AcDb2dPolyline
 66
     1
 10
0.0
 20
0.0
 30
0.0
  0
VERTEX
  5
3E8
330
3E7
100
AcDbEntity
  8
BEMAßUNG
 62
     7
100
AcDbVertex
100
AcDb2dVertex
 10
49.21491155453655
 20
109.4610188528431
 30
0.0
  0
VERTEX
  5
3E9
330
3E7
100
AcDbEntity
  8
BEMAßUNG
 62
     7
100
AcDbVertex
100
AcDb2dVertex
 10
52.32893336365388
 20
109.4610188528431
 30
0.0
  0
SEQEND
  5
3EA
330
3E7
100
AcDbEntity
  8
BEMAßUNG
  0
POLYLINE
  5
3EB
330
1F
100
AcDbEntity
  8
BEMAßUNG
 62
     7
100
AcDb2dPolyline
 66
     1
 10
0.0
 20
0.0
 30
0.0
  0
VERTEX
  5
3EC
330
3EB
100
AcDbEntity
  8
BEMAßUNG
 62
     7
100
AcDbVertex
100
AcDb2dVertex
 10
49.21491155453655
 20
109.4102036944357
 30
0.0
  0
VERTEX
  5
3ED
330
3EB
100
AcDbEntity
  8
BEMAßUNG
 62
     7
100
AcDbVertex
100
AcDb2dVertex
 10
52.71443954845333
 20
109.4102036944357
 30
0.0
  0
SEQEND
  5
3EE
330
3EB
100
AcDbEntity
  8
BEMAßUNG
  0
POLYLINE
  5
3EF
330
1F
100
AcDbEntity
  8
BEMAßUNG
 62
     7
100
AcDb2dPolyline
 66
     1
 10
0.0
 20
0.0
 30
0.0
  0
VERTEX
  5
3F0
330
3EF
100
AcDbEntity
  8
BEMAßUNG
 62
     7
100
AcDbVertex
100
AcDb2dVertex
 10
49.21491155453655
 20
108.9525227592202
 30
0.0
  0
VERTEX
  5
3F1
330
3EF
100
AcDbEntity
  8
BEMAßUNG
 62
     7
100
AcDbVertex
100
AcDb2dVertex
 10
49.24212780887002
 20
108.9525227592202
 30
0.0
  0
SEQEND
  5
3F2
330
3EF
100
AcDbEntity
  8
BEMAßUNG
  0
POLYLINE
  5
3F3
330
1F
100
AcDbEntity
  8
BEMAßUNG
 62
     7
100
AcDb2dPolyline
 66
     1
 10
0.0
 20
0.0
 30
0.0
  0
VERTEX
  5
3F4
330
3F3
100
AcDbEntity
  8
BEMAßUNG
 62
     7
100
AcDbVertex
100
AcDb2dVertex
 10
49.21491155453655
 20
108.9525227592202
 30
0.0
  0
VERTEX
  5
3F5
330
3F3
100
AcDbEntity
  8
BEMAßUNG
 62
     7
100
AcDbVertex
100
AcDb2dVertex
 10
49.24212780887002
 20
108.9525227592202
 30
0.0
  0
SEQEND
  5
3F6
330
3F3
100
AcDbEntity
  8
BEMAßUNG
  0
POLYLINE
  5
3F7
330
1F
100
AcDbEntity
  8
BEMAßUNG
 62
     7
100
AcDb2dPolyline
 66
     1
 10
0.0
 20
0.0
 30
0.0
  0
VERTEX
  5
3F8
330
3F7
100
AcDbEntity
  8
BEMAßUNG
 62
     7
100
AcDbVertex
100
AcDb2dVertex
 10
49.21491155453655
 20
109.0033379176276
 30
0.0
  0
VERTEX
  5
3F9
330
3F7
100
AcDbEntity
  8
BEMAßUNG
 62
     7
100
AcDbVertex
100
AcDb2dVertex
 10
49.62763399366948
 20
109.0033379176276
 30
0.0
  0
SEQEND
  5
3FA
330
3F7
100
AcDbEntity
  8
BEMAßUNG
  0
POLYLINE
  5
3FB
330
1F
100
AcDbEntity
  8
BEMAßUNG
 62
     7
100
AcDb2dPolyline
 66
     1
 10
0.0
 20
0.0
 30
0.0
  0
VERTEX
  5
3FC
330
3FB
100
AcDbEntity
  8
BEMAßUNG
 62
     7
100
AcDbVertex
100
AcDb2dVertex
 10
49.21491155453655
 20
109.0541530760351
 30
0.0
  0
VERTEX
  5
3FD
330
3FB
100
AcDbEntity
  8
BEMAßUNG
 62
     7
100
AcDbVertex
100
AcDb2dVertex
 10
50.01365694279173
 20
109.0541530760351
 30
0.0
  0
SEQEND
  5
3FE
330
3FB
100
AcDbEntity
  8
BEMAßUNG
  0
POLYLINE
  5
3FF
330
1F
100
AcDbEntity
  8
BEMAßUNG
 62
     7
100
AcDb2dPolyline
 66
     1
 10
0.0
 20
0.0
 30
0.0
  0
VERTEX
  5
400
330
3FF
100
AcDbEntity
  8
BEMAßUNG
 62
     7
100
AcDbVertex
100
AcDb2dVertex
 10
49.21491155453655
 20
109.1049682344425
 30
0.0
  0
VERTEX
  5
401
330
3FF
100
AcDbEntity
  8
BEMAßUNG
 62
     7
100
AcDbVertex
100
AcDb2dVertex
 10
50.39967989191397
 20
109.1049682344425
 30
0.0
  0
SEQEND
  5
402
330
3FF
100
AcDbEntity
  8
BEMAßUNG
  0
POLYLINE
  5
403
330
1F
100
AcDbEntity
  8
BEMAßUNG
 62
     7
100
AcDb2dPolyline
 66
     1
 10
0.0
 20
0.0
 30
0.0
  0
VERTEX
  5
404
330
403
100
AcDbEntity
  8
BEMAßUNG
 62
     7
100
AcDbVertex
100
AcDb2dVertex
 10
49.21491155453655
 20
109.15578339285
 30
0.0
  0
VERTEX
  5
405
330
403
100
AcDbEntity
  8
BEMAßUNG
 62
     7
100
AcDbVertex
100
AcDb2dVertex
 10
50.78553058626196
 20
109.15578339285
 30
0.0
  0
SEQEND
  5
406
330
403
100
AcDbEntity
  8
BEMAßUNG
  0
POLYLINE
  5
407
330
1F
100
AcDbEntity
  8
BEMAßUNG
 62
     7
100
AcDb2dPolyline
 66
     1
 10
0.0
 20
0.0
 30
0.0
  0
VERTEX
  5
408
330
407
100
AcDbEntity
  8
BEMAßUNG
 62
     7
100
AcDbVertex
100
AcDb2dVertex
 10
49.21491155453655
 20
109.2065985512574
 30
0.0
  0
VERTEX
  5
409
330
407
100
AcDbEntity
  8
BEMAßUNG
 62
     7
100
AcDbVertex
100
AcDb2dVertex
 10
51.17103677106141
 20
109.2065985512574
 30
0.0
  0
SEQEND
  5
40A
330
407
100
AcDbEntity
  8
BEMAßUNG
  0
POLYLINE
  5
40B
330
1F
100
AcDbEntity
  8
BEMAßUNG
 62
     7
100
AcDb2dPolyline
 66
     1
 10
0.0
 20
0.0
 30
0.0
  0
VERTEX
  5
40C
330
40B
100
AcDbEntity
  8
BEMAßUNG
 62
     7
100
AcDbVertex
100
AcDb2dVertex
 10
49.21491155453655
 20
109.2574137096648
 30
0.0
  0
VERTEX
  5
40D
330
40B
100
AcDbEntity
  8
BEMAßUNG
 62
     7
100
AcDbVertex
100
AcDb2dVertex
 10
51.55705972018365
 20
109.2574137096648
 30
0.0
  0
SEQEND
  5
40E
330
40B
100
AcDbEntity
  8
BEMAßUNG
  0
POLYLINE
  5
40F
330
1F
100
AcDbEntity
  8
BEMAßUNG
 62
     7
100
AcDb2dPolyline
 66
     1
 10
0.0
 20
0.0
 30
0.0
  0
VERTEX
  5
410
330
40F
100
AcDbEntity
  8
BEMAßUNG
 62
     7
100
AcDbVertex
100
AcDb2dVertex
 10
49.21491155453655
 20
109.3082288680722
 30
0.0
  0
VERTEX
  5
411
330
40F
100
AcDbEntity
  8
BEMAßUNG
 62
     7
100
AcDbVertex
100
AcDb2dVertex
 10
51.94342717885442
 20
109.3082288680722
 30
0.0
  0
SEQEND
  5
412
330
40F
100
AcDbEntity
  8
BEMAßUNG
  0
POLYLINE
  5
413
330
1F
100
AcDbEntity
  8
BEMAßUNG
 62
     7
100
AcDb2dPolyline
 66
     1
 10
0.0
 20
0.0
 30
0.0
  0
VERTEX
  5
414
330
413
100
AcDbEntity
  8
BEMAßUNG
 62
     7
100
AcDbVertex
100
AcDb2dVertex
 10
49.21491155453655
 20
109.3593885360282
 30
0.0
  0
VERTEX
  5
415
330
413
100
AcDbEntity
  8
BEMAßUNG
 62
     7
100
AcDbVertex
100
AcDb2dVertex
 10
52.32893336365388
 20
109.3593885360282
 30
0.0
  0
SEQEND
  5
416
330
413
100
AcDbEntity
  8
BEMAßUNG
  0
POLYLINE
  5
417
330
1F
100
AcDbEntity
  8
BEMAßUNG
 62
     7
100
AcDb2dPolyline
 66
     1
 10
0.0
 20
0.0
 30
0.0
  0
VERTEX
  5
418
330
417
100
AcDbEntity
  8
BEMAßUNG
 62
     7
100
AcDbVertex
100
AcDb2dVertex
 10
49.21491155453655
 20
109.4102036944357
 30
0.0
  0
VERTEX
  5
419
330
417
100
AcDbEntity
  8
BEMAßUNG
 62
     7
100
AcDbVertex
100
AcDb2dVertex
 10
52.71443954845333
 20
109.4102036944357
 30
0.0
  0
SEQEND
  5
41A
330
417
100
AcDbEntity
  8
BEMAßUNG
  0
POLYLINE
  5
41B
330
1F
100
AcDbEntity
  8
BEMAßUNG
 62
     7
100
AcDb2dPolyline
 66
     1
 10
0.0
 20
0.0
 30
0.0
  0
VERTEX
  5
41C
330
41B
100
AcDbEntity
  8
BEMAßUNG
 62
     7
100
AcDbVertex
100
AcDb2dVertex
 10
58.70511608775428
 20
109.4102036944357
 30
0.0
  0
VERTEX
  5
41D
330
41B
100
AcDbEntity
  8
BEMAßUNG
 62
     7
100
AcDbVertex
100
AcDb2dVertex
 10
62.20533310076812
 20
108.949077663735
 30
0.0
  0
VERTEX
  5
41E
330
41B
100
AcDbEntity
  8
BEMAßUNG
 62
     7
100
AcDbVertex
100
AcDb2dVertex
 10
62.20533310076812
 20
109.8708129608136
 30
0.0
  0
VERTEX
  5
41F
330
41B
100
AcDbEntity
  8
BEMAßUNG
 62
     7
100
AcDbVertex
100
AcDb2dVertex
 10
58.70511608775428
 20
109.4102036944357
 30
0.0
  0
SEQEND
  5
420
330
41B
100
AcDbEntity
  8
BEMAßUNG
  0
POLYLINE
  5
421
330
1F
100
AcDbEntity
  8
BEMAßUNG
 62
     7
100
AcDb2dPolyline
 66
     1
 10
0.0
 20
0.0
 30
0.0
  0
VERTEX
  5
422
330
421
100
AcDbEntity
  8
BEMAßUNG
 62
     7
100
AcDbVertex
100
AcDb2dVertex
 10
62.20533310076812
 20
108.9525227592202
 30
0.0
  0
VERTEX
  5
423
330
421
100
AcDbEntity
  8
BEMAßUNG
 62
     7
100
AcDbVertex
100
AcDb2dVertex
 10
62.17777233688611
 20
108.9525227592202
 30
0.0
  0
SEQEND
  5
424
330
421
100
AcDbEntity
  8
BEMAßUNG
  0
POLYLINE
  5
425
330
1F
100
AcDbEntity
  8
BEMAßUNG
 62
     7
100
AcDb2dPolyline
 66
     1
 10
0.0
 20
0.0
 30
0.0
  0
VERTEX
  5
426
330
425
100
AcDbEntity
  8
BEMAßUNG
 62
     7
100
AcDbVertex
100
AcDb2dVertex
 10
62.20533310076812
 20
108.9525227592202
 30
0.0
  0
VERTEX
  5
427
330
425
100
AcDbEntity
  8
BEMAßUNG
 62
     7
100
AcDbVertex
100
AcDb2dVertex
 10
62.17777233688611
 20
108.9525227592202
 30
0.0
  0
SEQEND
  5
428
330
425
100
AcDbEntity
  8
BEMAßUNG
  0
POLYLINE
  5
429
330
1F
100
AcDbEntity
  8
BEMAßUNG
 62
     7
100
AcDb2dPolyline
 66
     1
 10
0.0
 20
0.0
 30
0.0
  0
VERTEX
  5
42A
330
429
100
AcDbEntity
  8
BEMAßUNG
 62
     7
100
AcDbVertex
100
AcDb2dVertex
 10
62.20533310076812
 20
109.0033379176276
 30
0.0
  0
VERTEX
  5
42B
330
429
100
AcDbEntity
  8
BEMAßUNG
 62
     7
100
AcDbVertex
100
AcDb2dVertex
 10
61.79192164253814
 20
109.0033379176276
 30
0.0
  0
SEQEND
  5
42C
330
429
100
AcDbEntity
  8
BEMAßUNG
  0
POLYLINE
  5
42D
330
1F
100
AcDbEntity
  8
BEMAßUNG
 62
     7
100
AcDb2dPolyline
 66
     1
 10
0.0
 20
0.0
 30
0.0
  0
VERTEX
  5
42E
330
42D
100
AcDbEntity
  8
BEMAßUNG
 62
     7
100
AcDbVertex
100
AcDb2dVertex
 10
62.20533310076812
 20
109.0541530760351
 30
0.0
  0
VERTEX
  5
42F
330
42D
100
AcDbEntity
  8
BEMAßUNG
 62
     7
100
AcDbVertex
100
AcDb2dVertex
 10
61.40658771251294
 20
109.0541530760351
 30
0.0
  0
SEQEND
  5
430
330
42D
100
AcDbEntity
  8
BEMAßUNG
  0
POLYLINE
  5
431
330
1F
100
AcDbEntity
  8
BEMAßUNG
 62
     7
100
AcDb2dPolyline
 66
     1
 10
0.0
 20
0.0
 30
0.0
  0
VERTEX
  5
432
330
431
100
AcDbEntity
  8
BEMAßUNG
 62
     7
100
AcDbVertex
100
AcDb2dVertex
 10
62.20533310076812
 20
109.1049682344425
 30
0.0
  0
VERTEX
  5
433
330
431
100
AcDbEntity
  8
BEMAßUNG
 62
     7
100
AcDbVertex
100
AcDb2dVertex
 10
61.02073701816496
 20
109.1049682344425
 30
0.0
  0
SEQEND
  5
434
330
431
100
AcDbEntity
  8
BEMAßUNG
  0
POLYLINE
  5
435
330
1F
100
AcDbEntity
  8
BEMAßUNG
 62
     7
100
AcDb2dPolyline
 66
     1
 10
0.0
 20
0.0
 30
0.0
  0
VERTEX
  5
436
330
435
100
AcDbEntity
  8
BEMAßUNG
 62
     7
100
AcDbVertex
100
AcDb2dVertex
 10
62.20533310076812
 20
109.15578339285
 30
0.0
  0
VERTEX
  5
437
330
435
100
AcDbEntity
  8
BEMAßUNG
 62
     7
100
AcDbVertex
100
AcDb2dVertex
 10
60.63436955949419
 20
109.15578339285
 30
0.0
  0
SEQEND
  5
438
330
435
100
AcDbEntity
  8
BEMAßUNG
  0
POLYLINE
  5
439
330
1F
100
AcDbEntity
  8
BEMAßUNG
 62
     7
100
AcDb2dPolyline
 66
     1
 10
0.0
 20
0.0
 30
0.0
  0
VERTEX
  5
43A
330
439
100
AcDbEntity
  8
BEMAßUNG
 62
     7
100
AcDbVertex
100
AcDb2dVertex
 10
62.20533310076812
 20
109.2065985512574
 30
0.0
  0
VERTEX
  5
43B
330
439
100
AcDbEntity
  8
BEMAßUNG
 62
     7
100
AcDbVertex
100
AcDb2dVertex
 10
60.24851886514621
 20
109.2065985512574
 30
0.0
  0
SEQEND
  5
43C
330
439
100
AcDbEntity
  8
BEMAßUNG
  0
POLYLINE
  5
43D
330
1F
100
AcDbEntity
  8
BEMAßUNG
 62
     7
100
AcDb2dPolyline
 66
     1
 10
0.0
 20
0.0
 30
0.0
  0
VERTEX
  5
43E
330
43D
100
AcDbEntity
  8
BEMAßUNG
 62
     7
100
AcDbVertex
100
AcDb2dVertex
 10
62.20533310076812
 20
109.2574137096648
 30
0.0
  0
VERTEX
  5
43F
330
43D
100
AcDbEntity
  8
BEMAßUNG
 62
     7
100
AcDbVertex
100
AcDb2dVertex
 10
59.86249591602396
 20
109.2574137096648
 30
0.0
  0
SEQEND
  5
440
330
43D
100
AcDbEntity
  8
BEMAßUNG
  0
POLYLINE
  5
441
330
1F
100
AcDbEntity
  8
BEMAßUNG
 62
     7
100
AcDb2dPolyline
 66
     1
 10
0.0
 20
0.0
 30
0.0
  0
VERTEX
  5
442
330
441
100
AcDbEntity
  8
BEMAßUNG
 62
     7
100
AcDbVertex
100
AcDb2dVertex
 10
62.20533310076812
 20
109.3082288680722
 30
0.0
  0
VERTEX
  5
443
330
441
100
AcDbEntity
  8
BEMAßUNG
 62
     7
100
AcDbVertex
100
AcDb2dVertex
 10
59.47733424077303
 20
109.3082288680722
 30
0.0
  0
SEQEND
  5
444
330
441
100
AcDbEntity
  8
BEMAßUNG
  0
POLYLINE
  5
445
330
1F
100
AcDbEntity
  8
BEMAßUNG
 62
     7
100
AcDb2dPolyline
 66
     1
 10
0.0
 20
0.0
 30
0.0
  0
VERTEX
  5
446
330
445
100
AcDbEntity
  8
BEMAßUNG
 62
     7
100
AcDbVertex
100
AcDb2dVertex
 10
62.20533310076812
 20
109.3593885360282
 30
0.0
  0
VERTEX
  5
447
330
445
100
AcDbEntity
  8
BEMAßUNG
 62
     7
100
AcDbVertex
100
AcDb2dVertex
 10
59.09096678210226
 20
109.3593885360282
 30
0.0
  0
SEQEND
  5
448
330
445
100
AcDbEntity
  8
BEMAßUNG
  0
POLYLINE
  5
449
330
1F
100
AcDbEntity
  8
BEMAßUNG
 62
     7
100
AcDb2dPolyline
 66
     1
 10
0.0
 20
0.0
 30
0.0
  0
VERTEX
  5
44A
330
449
100
AcDbEntity
  8
BEMAßUNG
 62
     7
100
AcDbVertex
100
AcDb2dVertex
 10
62.20533310076812
 20
109.4102036944357
 30
0.0
  0
VERTEX
  5
44B
330
449
100
AcDbEntity
  8
BEMAßUNG
 62
     7
100
AcDbVertex
100
AcDb2dVertex
 10
58.70511608775428
 20
109.4102036944357
 30
0.0
  0
SEQEND
  5
44C
330
449
100
AcDbEntity
  8
BEMAßUNG
  0
POLYLINE
  5
44D
330
1F
100
AcDbEntity
  8
BEMAßUNG
 62
     7
100
AcDb2dPolyline
 66
     1
 10
0.0
 20
0.0
 30
0.0
  0
VERTEX
  5
44E
330
44D
100
AcDbEntity
  8
BEMAßUNG
 62
     7
100
AcDbVertex
100
AcDb2dVertex
 10
62.20533310076812
 20
109.8670233557798
 30
0.0
  0
VERTEX
  5
44F
330
44D
100
AcDbEntity
  8
BEMAßUNG
 62
     7
100
AcDbVertex
100
AcDb2dVertex
 10
62.17777233688611
 20
109.8670233557798
 30
0.0
  0
SEQEND
  5
450
330
44D
100
AcDbEntity
  8
BEMAßUNG
  0
POLYLINE
  5
451
330
1F
100
AcDbEntity
  8
BEMAßUNG
 62
     7
100
AcDb2dPolyline
 66
     1
 10
0.0
 20
0.0
 30
0.0
  0
VERTEX
  5
452
330
451
100
AcDbEntity
  8
BEMAßUNG
 62
     7
100
AcDbVertex
100
AcDb2dVertex
 10
62.20533310076812
 20
109.8670233557798
 30
0.0
  0
VERTEX
  5
453
330
451
100
AcDbEntity
  8
BEMAßUNG
 62
     7
100
AcDbVertex
100
AcDb2dVertex
 10
62.17777233688611
 20
109.8670233557798
 30
0.0
  0
SEQEND
  5
454
330
451
100
AcDbEntity
  8
BEMAßUNG
  0
POLYLINE
  5
455
330
1F
100
AcDbEntity
  8
BEMAßUNG
 62
     7
100
AcDb2dPolyline
 66
     1
 10
0.0
 20
0.0
 30
0.0
  0
VERTEX
  5
456
330
455
100
AcDbEntity
  8
BEMAßUNG
 62
     7
100
AcDbVertex
100
AcDb2dVertex
 10
62.20533310076812
 20
109.8165527069209
 30
0.0
  0
VERTEX
  5
457
330
455
100
AcDbEntity
  8
BEMAßUNG
 62
     7
100
AcDbVertex
100
AcDb2dVertex
 10
61.79192164253814
 20
109.8165527069209
 30
0.0
  0
SEQEND
  5
458
330
455
100
AcDbEntity
  8
BEMAßUNG
  0
POLYLINE
  5
459
330
1F
100
AcDbEntity
  8
BEMAßUNG
 62
     7
100
AcDb2dPolyline
 66
     1
 10
0.0
 20
0.0
 30
0.0
  0
VERTEX
  5
45A
330
459
100
AcDbEntity
  8
BEMAßUNG
 62
     7
100
AcDbVertex
100
AcDb2dVertex
 10
62.20533310076812
 20
109.7657375485134
 30
0.0
  0
VERTEX
  5
45B
330
459
100
AcDbEntity
  8
BEMAßUNG
 62
     7
100
AcDbVertex
100
AcDb2dVertex
 10
61.40658771251294
 20
109.7657375485134
 30
0.0
  0
SEQEND
  5
45C
330
459
100
AcDbEntity
  8
BEMAßUNG
  0
POLYLINE
  5
45D
330
1F
100
AcDbEntity
  8
BEMAßUNG
 62
     7
100
AcDb2dPolyline
 66
     1
 10
0.0
 20
0.0
 30
0.0
  0
VERTEX
  5
45E
330
45D
100
AcDbEntity
  8
BEMAßUNG
 62
     7
100
AcDbVertex
100
AcDb2dVertex
 10
62.20533310076812
 20
109.714922390106
 30
0.0
  0
VERTEX
  5
45F
330
45D
100
AcDbEntity
  8
BEMAßUNG
 62
     7
100
AcDbVertex
100
AcDb2dVertex
 10
61.02073701816496
 20
109.714922390106
 30
0.0
  0
SEQEND
  5
460
330
45D
100
AcDbEntity
  8
BEMAßUNG
  0
POLYLINE
  5
461
330
1F
100
AcDbEntity
  8
BEMAßUNG
 62
     7
100
AcDb2dPolyline
 66
     1
 10
0.0
 20
0.0
 30
0.0
  0
VERTEX
  5
462
330
461
100
AcDbEntity
  8
BEMAßUNG
 62
     7
100
AcDbVertex
100
AcDb2dVertex
 10
62.20533310076812
 20
109.6641072316986
 30
0.0
  0
VERTEX
  5
463
330
461
100
AcDbEntity
  8
BEMAßUNG
 62
     7
100
AcDbVertex
100
AcDb2dVertex
 10
60.63436955949419
 20
109.6641072316986
 30
0.0
  0
SEQEND
  5
464
330
461
100
AcDbEntity
  8
BEMAßUNG
  0
POLYLINE
  5
465
330
1F
100
AcDbEntity
  8
BEMAßUNG
 62
     7
100
AcDb2dPolyline
 66
     1
 10
0.0
 20
0.0
 30
0.0
  0
VERTEX
  5
466
330
465
100
AcDbEntity
  8
BEMAßUNG
 62
     7
100
AcDbVertex
100
AcDb2dVertex
 10
62.20533310076812
 20
109.6132920732911
 30
0.0
  0
VERTEX
  5
467
330
465
100
AcDbEntity
  8
BEMAßUNG
 62
     7
100
AcDbVertex
100
AcDb2dVertex
 10
60.24851886514621
 20
109.6132920732911
 30
0.0
  0
SEQEND
  5
468
330
465
100
AcDbEntity
  8
BEMAßUNG
  0
POLYLINE
  5
469
330
1F
100
AcDbEntity
  8
BEMAßUNG
 62
     7
100
AcDb2dPolyline
 66
     1
 10
0.0
 20
0.0
 30
0.0
  0
VERTEX
  5
46A
330
469
100
AcDbEntity
  8
BEMAßUNG
 62
     7
100
AcDbVertex
100
AcDb2dVertex
 10
62.20533310076812
 20
109.562649169658
 30
0.0
  0
VERTEX
  5
46B
330
469
100
AcDbEntity
  8
BEMAßUNG
 62
     7
100
AcDbVertex
100
AcDb2dVertex
 10
59.86249591602396
 20
109.562649169658
 30
0.0
  0
SEQEND
  5
46C
330
469
100
AcDbEntity
  8
BEMAßUNG
  0
POLYLINE
  5
46D
330
1F
100
AcDbEntity
  8
BEMAßUNG
 62
     7
100
AcDb2dPolyline
 66
     1
 10
0.0
 20
0.0
 30
0.0
  0
VERTEX
  5
46E
330
46D
100
AcDbEntity
  8
BEMAßUNG
 62
     7
100
AcDbVertex
100
AcDb2dVertex
 10
62.20533310076812
 20
109.5116617564763
 30
0.0
  0
VERTEX
  5
46F
330
46D
100
AcDbEntity
  8
BEMAßUNG
 62
     7
100
AcDbVertex
100
AcDb2dVertex
 10
59.47733424077303
 20
109.5116617564763
 30
0.0
  0
SEQEND
  5
470
330
46D
100
AcDbEntity
  8
BEMAßUNG
  0
POLYLINE
  5
471
330
1F
100
AcDbEntity
  8
BEMAßUNG
 62
     7
100
AcDb2dPolyline
 66
     1
 10
0.0
 20
0.0
 30
0.0
  0
VERTEX
  5
472
330
471
100
AcDbEntity
  8
BEMAßUNG
 62
     7
100
AcDbVertex
100
AcDb2dVertex
 10
62.20533310076812
 20
109.4610188528431
 30
0.0
  0
VERTEX
  5
473
330
471
100
AcDbEntity
  8
BEMAßUNG
 62
     7
100
AcDbVertex
100
AcDb2dVertex
 10
59.09096678210226
 20
109.4610188528431
 30
0.0
  0
SEQEND
  5
474
330
471
100
AcDbEntity
  8
BEMAßUNG
  0
POLYLINE
  5
475
330
1F
100
AcDbEntity
  8
BEMAßUNG
 62
     7
100
AcDb2dPolyline
 66
     1
 10
0.0
 20
0.0
 30
0.0
  0
VERTEX
  5
476
330
475
100
AcDbEntity
  8
BEMAßUNG
 62
     7
100
AcDbVertex
100
AcDb2dVertex
 10
62.20533310076812
 20
109.4102036944357
 30
0.0
  0
VERTEX
  5
477
330
475
100
AcDbEntity
  8
BEMAßUNG
 62
     7
100
AcDbVertex
100
AcDb2dVertex
 10
58.70511608775428
 20
109.4102036944357
 30
0.0
  0
SEQEND
  5
478
330
475
100
AcDbEntity
  8
BEMAßUNG
  0
POLYLINE
  5
479
330
1F
100
AcDbEntity
  8
BEMAßUNG
 62
     7
100
AcDb2dPolyline
 66
     1
 10
0.0
 20
0.0
 30
0.0
  0
VERTEX
  5
47A
330
479
100
AcDbEntity
  8
BEMAßUNG
 62
     7
100
AcDbVertex
100
AcDb2dVertex
 10
152.7052354218931
 20
127.5391574116916
 30
0.0
  0
VERTEX
  5
47B
330
479
100
AcDbEntity
  8
BEMAßUNG
 62
     7
100
AcDbVertex
100
AcDb2dVertex
 10
161.570155124538
 20
127.5391574116916
 30
0.0
  0
SEQEND
  5
47C
330
479
100
AcDbEntity
  8
BEMAßUNG
  0
POLYLINE
  5
47D
330
1F
100
AcDbEntity
  8
BEMAßUNG
 62
     7
100
AcDb2dPolyline
 66
     1
 10
0.0
 20
0.0
 30
0.0
  0
VERTEX
  5
47E
330
47D
100
AcDbEntity
  8
BEMAßUNG
 62
     7
100
AcDbVertex
100
AcDb2dVertex
 10
152.7052354218931
 20
130.5391465602472
 30
0.0
  0
VERTEX
  5
47F
330
47D
100
AcDbEntity
  8
BEMAßUNG
 62
     7
100
AcDbVertex
100
AcDb2dVertex
 10
161.570155124538
 20
130.5391465602472
 30
0.0
  0
SEQEND
  5
480
330
47D
100
AcDbEntity
  8
BEMAßUNG
  0
POLYLINE
  5
481
330
1F
100
AcDbEntity
  8
BEMAßUNG
 62
     7
100
AcDb2dPolyline
 66
     1
 10
0.0
 20
0.0
 30
0.0
  0
VERTEX
  5
482
330
481
100
AcDbEntity
  8
BEMAßUNG
 62
     7
100
AcDbVertex
100
AcDb2dVertex
 10
159.569932685802
 20
139.2890000736847
 30
0.0
  0
VERTEX
  5
483
330
481
100
AcDbEntity
  8
BEMAßUNG
 62
     7
100
AcDbVertex
100
AcDb2dVertex
 10
159.569932685802
 20
102.2276963720125
 30
0.0
  0
SEQEND
  5
484
330
481
100
AcDbEntity
  8
BEMAßUNG
  0
POLYLINE
  5
485
330
1F
100
AcDbEntity
  8
BEMAßUNG
 62
     7
100
AcDb2dPolyline
 66
     1
 10
0.0
 20
0.0
 30
0.0
  0
VERTEX
  5
486
330
485
100
AcDbEntity
  8
BEMAßUNG
 62
     7
100
AcDbVertex
100
AcDb2dVertex
 10
159.569932685802
 20
127.5391574116916
 30
0.0
  0
VERTEX
  5
487
330
485
100
AcDbEntity
  8
BEMAßUNG
 62
     7
100
AcDbVertex
100
AcDb2dVertex
 10
159.1094956741983
 20
124.038423634355
 30
0.0
  0
VERTEX
  5
488
330
485
100
AcDbEntity
  8
BEMAßUNG
 62
     7
100
AcDbVertex
100
AcDb2dVertex
 10
160.0305419521799
 20
124.038423634355
 30
0.0
  0
VERTEX
  5
489
330
485
100
AcDbEntity
  8
BEMAßUNG
 62
     7
100
AcDbVertex
100
AcDb2dVertex
 10
159.569932685802
 20
127.5391574116916
 30
0.0
  0
SEQEND
  5
48A
330
485
100
AcDbEntity
  8
BEMAßUNG
  0
POLYLINE
  5
48B
330
1F
100
AcDbEntity
  8
BEMAßUNG
 62
     7
100
AcDb2dPolyline
 66
     1
 10
0.0
 20
0.0
 30
0.0
  0
VERTEX
  5
48C
330
48B
100
AcDbEntity
  8
BEMAßUNG
 62
     7
100
AcDbVertex
100
AcDb2dVertex
 10
159.1125962601351
 20
124.038423634355
 30
0.0
  0
VERTEX
  5
48D
330
48B
100
AcDbEntity
  8
BEMAßUNG
 62
     7
100
AcDbVertex
100
AcDb2dVertex
 10
159.1125962601351
 20
124.065984398237
 30
0.0
  0
SEQEND
  5
48E
330
48B
100
AcDbEntity
  8
BEMAßUNG
  0
POLYLINE
  5
48F
330
1F
100
AcDbEntity
  8
BEMAßUNG
 62
     7
100
AcDb2dPolyline
 66
     1
 10
0.0
 20
0.0
 30
0.0
  0
VERTEX
  5
490
330
48F
100
AcDbEntity
  8
BEMAßUNG
 62
     7
100
AcDbVertex
100
AcDb2dVertex
 10
159.1125962601351
 20
124.038423634355
 30
0.0
  0
VERTEX
  5
491
330
48F
100
AcDbEntity
  8
BEMAßUNG
 62
     7
100
AcDbVertex
100
AcDb2dVertex
 10
159.1125962601351
 20
124.065984398237
 30
0.0
  0
SEQEND
  5
492
330
48F
100
AcDbEntity
  8
BEMAßUNG
  0
POLYLINE
  5
493
330
1F
100
AcDbEntity
  8
BEMAßUNG
 62
     7
100
AcDb2dPolyline
 66
     1
 10
0.0
 20
0.0
 30
0.0
  0
VERTEX
  5
494
330
493
100
AcDbEntity
  8
BEMAßUNG
 62
     7
100
AcDbVertex
100
AcDb2dVertex
 10
159.163755928091
 20
124.038423634355
 30
0.0
  0
VERTEX
  5
495
330
493
100
AcDbEntity
  8
BEMAßUNG
 62
     7
100
AcDbVertex
100
AcDb2dVertex
 10
159.163755928091
 20
124.4520073473592
 30
0.0
  0
SEQEND
  5
496
330
493
100
AcDbEntity
  8
BEMAßUNG
  0
POLYLINE
  5
497
330
1F
100
AcDbEntity
  8
BEMAßUNG
 62
     7
100
AcDb2dPolyline
 66
     1
 10
0.0
 20
0.0
 30
0.0
  0
VERTEX
  5
498
330
497
100
AcDbEntity
  8
BEMAßUNG
 62
     7
100
AcDbVertex
100
AcDb2dVertex
 10
159.2145710864984
 20
124.038423634355
 30
0.0
  0
VERTEX
  5
499
330
497
100
AcDbEntity
  8
BEMAßUNG
 62
     7
100
AcDbVertex
100
AcDb2dVertex
 10
159.2145710864984
 20
124.8375135321587
 30
0.0
  0
SEQEND
  5
49A
330
497
100
AcDbEntity
  8
BEMAßUNG
  0
POLYLINE
  5
49B
330
1F
100
AcDbEntity
  8
BEMAßUNG
 62
     7
100
AcDb2dPolyline
 66
     1
 10
0.0
 20
0.0
 30
0.0
  0
VERTEX
  5
49C
330
49B
100
AcDbEntity
  8
BEMAßUNG
 62
     7
100
AcDbVertex
100
AcDb2dVertex
 10
159.2653862449059
 20
124.038423634355
 30
0.0
  0
VERTEX
  5
49D
330
49B
100
AcDbEntity
  8
BEMAßUNG
 62
     7
100
AcDbVertex
100
AcDb2dVertex
 10
159.2653862449059
 20
125.2237087360552
 30
0.0
  0
SEQEND
  5
49E
330
49B
100
AcDbEntity
  8
BEMAßUNG
  0
POLYLINE
  5
49F
330
1F
100
AcDbEntity
  8
BEMAßUNG
 62
     7
100
AcDb2dPolyline
 66
     1
 10
0.0
 20
0.0
 30
0.0
  0
VERTEX
  5
4A0
330
49F
100
AcDbEntity
  8
BEMAßUNG
 62
     7
100
AcDbVertex
100
AcDb2dVertex
 10
159.3162014033133
 20
124.038423634355
 30
0.0
  0
VERTEX
  5
4A1
330
49F
100
AcDbEntity
  8
BEMAßUNG
 62
     7
100
AcDbVertex
100
AcDb2dVertex
 10
159.3162014033133
 20
125.6093871756289
 30
0.0
  0
SEQEND
  5
4A2
330
49F
100
AcDbEntity
  8
BEMAßUNG
  0
POLYLINE
  5
4A3
330
1F
100
AcDbEntity
  8
BEMAßUNG
 62
     7
100
AcDb2dPolyline
 66
     1
 10
0.0
 20
0.0
 30
0.0
  0
VERTEX
  5
4A4
330
4A3
100
AcDbEntity
  8
BEMAßUNG
 62
     7
100
AcDbVertex
100
AcDb2dVertex
 10
159.3670165617208
 20
124.038423634355
 30
0.0
  0
VERTEX
  5
4A5
330
4A3
100
AcDbEntity
  8
BEMAßUNG
 62
     7
100
AcDbVertex
100
AcDb2dVertex
 10
159.3670165617208
 20
125.9954101247512
 30
0.0
  0
SEQEND
  5
4A6
330
4A3
100
AcDbEntity
  8
BEMAßUNG
  0
POLYLINE
  5
4A7
330
1F
100
AcDbEntity
  8
BEMAßUNG
 62
     7
100
AcDb2dPolyline
 66
     1
 10
0.0
 20
0.0
 30
0.0
  0
VERTEX
  5
4A8
330
4A7
100
AcDbEntity
  8
BEMAßUNG
 62
     7
100
AcDbVertex
100
AcDb2dVertex
 10
159.4174872105797
 20
124.038423634355
 30
0.0
  0
VERTEX
  5
4A9
330
4A7
100
AcDbEntity
  8
BEMAßUNG
 62
     7
100
AcDbVertex
100
AcDb2dVertex
 10
159.4174872105797
 20
126.3809163095506
 30
0.0
  0
SEQEND
  5
4AA
330
4A7
100
AcDbEntity
  8
BEMAßUNG
  0
POLYLINE
  5
4AB
330
1F
100
AcDbEntity
  8
BEMAßUNG
 62
     7
100
AcDb2dPolyline
 66
     1
 10
0.0
 20
0.0
 30
0.0
  0
VERTEX
  5
4AC
330
4AB
100
AcDbEntity
  8
BEMAßUNG
 62
     7
100
AcDbVertex
100
AcDb2dVertex
 10
159.4683023689871
 20
124.038423634355
 30
0.0
  0
VERTEX
  5
4AD
330
4AB
100
AcDbEntity
  8
BEMAßUNG
 62
     7
100
AcDbVertex
100
AcDb2dVertex
 10
159.4683023689871
 20
126.7671115134471
 30
0.0
  0
SEQEND
  5
4AE
330
4AB
100
AcDbEntity
  8
BEMAßUNG
  0
POLYLINE
  5
4AF
330
1F
100
AcDbEntity
  8
BEMAßUNG
 62
     7
100
AcDb2dPolyline
 66
     1
 10
0.0
 20
0.0
 30
0.0
  0
VERTEX
  5
4B0
330
4AF
100
AcDbEntity
  8
BEMAßUNG
 62
     7
100
AcDbVertex
100
AcDb2dVertex
 10
159.5191175273945
 20
124.038423634355
 30
0.0
  0
VERTEX
  5
4B1
330
4AF
100
AcDbEntity
  8
BEMAßUNG
 62
     7
100
AcDbVertex
100
AcDb2dVertex
 10
159.5191175273945
 20
127.1527899530208
 30
0.0
  0
SEQEND
  5
4B2
330
4AF
100
AcDbEntity
  8
BEMAßUNG
  0
POLYLINE
  5
4B3
330
1F
100
AcDbEntity
  8
BEMAßUNG
 62
     7
100
AcDb2dPolyline
 66
     1
 10
0.0
 20
0.0
 30
0.0
  0
VERTEX
  5
4B4
330
4B3
100
AcDbEntity
  8
BEMAßUNG
 62
     7
100
AcDbVertex
100
AcDb2dVertex
 10
159.569932685802
 20
124.038423634355
 30
0.0
  0
VERTEX
  5
4B5
330
4B3
100
AcDbEntity
  8
BEMAßUNG
 62
     7
100
AcDbVertex
100
AcDb2dVertex
 10
159.569932685802
 20
127.5391574116916
 30
0.0
  0
SEQEND
  5
4B6
330
4B3
100
AcDbEntity
  8
BEMAßUNG
  0
POLYLINE
  5
4B7
330
1F
100
AcDbEntity
  8
BEMAßUNG
 62
     7
100
AcDb2dPolyline
 66
     1
 10
0.0
 20
0.0
 30
0.0
  0
VERTEX
  5
4B8
330
4B7
100
AcDbEntity
  8
BEMAßUNG
 62
     7
100
AcDbVertex
100
AcDb2dVertex
 10
160.0270968566946
 20
124.038423634355
 30
0.0
  0
VERTEX
  5
4B9
330
4B7
100
AcDbEntity
  8
BEMAßUNG
 62
     7
100
AcDbVertex
100
AcDb2dVertex
 10
160.0270968566946
 20
124.065984398237
 30
0.0
  0
SEQEND
  5
4BA
330
4B7
100
AcDbEntity
  8
BEMAßUNG
  0
POLYLINE
  5
4BB
330
1F
100
AcDbEntity
  8
BEMAßUNG
 62
     7
100
AcDb2dPolyline
 66
     1
 10
0.0
 20
0.0
 30
0.0
  0
VERTEX
  5
4BC
330
4BB
100
AcDbEntity
  8
BEMAßUNG
 62
     7
100
AcDbVertex
100
AcDb2dVertex
 10
160.0270968566946
 20
124.038423634355
 30
0.0
  0
VERTEX
  5
4BD
330
4BB
100
AcDbEntity
  8
BEMAßUNG
 62
     7
100
AcDbVertex
100
AcDb2dVertex
 10
160.0270968566946
 20
124.065984398237
 30
0.0
  0
SEQEND
  5
4BE
330
4BB
100
AcDbEntity
  8
BEMAßUNG
  0
POLYLINE
  5
4BF
330
1F
100
AcDbEntity
  8
BEMAßUNG
 62
     7
100
AcDb2dPolyline
 66
     1
 10
0.0
 20
0.0
 30
0.0
  0
VERTEX
  5
4C0
330
4BF
100
AcDbEntity
  8
BEMAßUNG
 62
     7
100
AcDbVertex
100
AcDb2dVertex
 10
159.9762816982872
 20
124.038423634355
 30
0.0
  0
VERTEX
  5
4C1
330
4BF
100
AcDbEntity
  8
BEMAßUNG
 62
     7
100
AcDbVertex
100
AcDb2dVertex
 10
159.9762816982872
 20
124.4520073473592
 30
0.0
  0
SEQEND
  5
4C2
330
4BF
100
AcDbEntity
  8
BEMAßUNG
  0
POLYLINE
  5
4C3
330
1F
100
AcDbEntity
  8
BEMAßUNG
 62
     7
100
AcDb2dPolyline
 66
     1
 10
0.0
 20
0.0
 30
0.0
  0
VERTEX
  5
4C4
330
4C3
100
AcDbEntity
  8
BEMAßUNG
 62
     7
100
AcDbVertex
100
AcDb2dVertex
 10
159.9258110494283
 20
124.038423634355
 30
0.0
  0
VERTEX
  5
4C5
330
4C3
100
AcDbEntity
  8
BEMAßUNG
 62
     7
100
AcDbVertex
100
AcDb2dVertex
 10
159.9258110494283
 20
124.8375135321587
 30
0.0
  0
SEQEND
  5
4C6
330
4C3
100
AcDbEntity
  8
BEMAßUNG
  0
POLYLINE
  5
4C7
330
1F
100
AcDbEntity
  8
BEMAßUNG
 62
     7
100
AcDb2dPolyline
 66
     1
 10
0.0
 20
0.0
 30
0.0
  0
VERTEX
  5
4C8
330
4C7
100
AcDbEntity
  8
BEMAßUNG
 62
     7
100
AcDbVertex
100
AcDb2dVertex
 10
159.8749958910208
 20
124.038423634355
 30
0.0
  0
VERTEX
  5
4C9
330
4C7
100
AcDbEntity
  8
BEMAßUNG
 62
     7
100
AcDbVertex
100
AcDb2dVertex
 10
159.8749958910208
 20
125.2237087360552
 30
0.0
  0
SEQEND
  5
4CA
330
4C7
100
AcDbEntity
  8
BEMAßUNG
  0
POLYLINE
  5
4CB
330
1F
100
AcDbEntity
  8
BEMAßUNG
 62
     7
100
AcDb2dPolyline
 66
     1
 10
0.0
 20
0.0
 30
0.0
  0
VERTEX
  5
4CC
330
4CB
100
AcDbEntity
  8
BEMAßUNG
 62
     7
100
AcDbVertex
100
AcDb2dVertex
 10
159.8241807326134
 20
124.038423634355
 30
0.0
  0
VERTEX
  5
4CD
330
4CB
100
AcDbEntity
  8
BEMAßUNG
 62
     7
100
AcDbVertex
100
AcDb2dVertex
 10
159.8241807326134
 20
125.6093871756289
 30
0.0
  0
SEQEND
  5
4CE
330
4CB
100
AcDbEntity
  8
BEMAßUNG
  0
POLYLINE
  5
4CF
330
1F
100
AcDbEntity
  8
BEMAßUNG
 62
     7
100
AcDb2dPolyline
 66
     1
 10
0.0
 20
0.0
 30
0.0
  0
VERTEX
  5
4D0
330
4CF
100
AcDbEntity
  8
BEMAßUNG
 62
     7
100
AcDbVertex
100
AcDb2dVertex
 10
159.773365574206
 20
124.038423634355
 30
0.0
  0
VERTEX
  5
4D1
330
4CF
100
AcDbEntity
  8
BEMAßUNG
 62
     7
100
AcDbVertex
100
AcDb2dVertex
 10
159.773365574206
 20
125.9954101247512
 30
0.0
  0
SEQEND
  5
4D2
330
4CF
100
AcDbEntity
  8
BEMAßUNG
  0
POLYLINE
  5
4D3
330
1F
100
AcDbEntity
  8
BEMAßUNG
 62
     7
100
AcDb2dPolyline
 66
     1
 10
0.0
 20
0.0
 30
0.0
  0
VERTEX
  5
4D4
330
4D3
100
AcDbEntity
  8
BEMAßUNG
 62
     7
100
AcDbVertex
100
AcDb2dVertex
 10
159.7225504157985
 20
124.038423634355
 30
0.0
  0
VERTEX
  5
4D5
330
4D3
100
AcDbEntity
  8
BEMAßUNG
 62
     7
100
AcDbVertex
100
AcDb2dVertex
 10
159.7225504157985
 20
126.3809163095506
 30
0.0
  0
SEQEND
  5
4D6
330
4D3
100
AcDbEntity
  8
BEMAßUNG
  0
POLYLINE
  5
4D7
330
1F
100
AcDbEntity
  8
BEMAßUNG
 62
     7
100
AcDb2dPolyline
 66
     1
 10
0.0
 20
0.0
 30
0.0
  0
VERTEX
  5
4D8
330
4D7
100
AcDbEntity
  8
BEMAßUNG
 62
     7
100
AcDbVertex
100
AcDb2dVertex
 10
159.6713907478426
 20
124.038423634355
 30
0.0
  0
VERTEX
  5
4D9
330
4D7
100
AcDbEntity
  8
BEMAßUNG
 62
     7
100
AcDbVertex
100
AcDb2dVertex
 10
159.6713907478426
 20
126.7671115134471
 30
0.0
  0
SEQEND
  5
4DA
330
4D7
100
AcDbEntity
  8
BEMAßUNG
  0
POLYLINE
  5
4DB
330
1F
100
AcDbEntity
  8
BEMAßUNG
 62
     7
100
AcDb2dPolyline
 66
     1
 10
0.0
 20
0.0
 30
0.0
  0
VERTEX
  5
4DC
330
4DB
100
AcDbEntity
  8
BEMAßUNG
 62
     7
100
AcDbVertex
100
AcDb2dVertex
 10
159.6205755894351
 20
124.038423634355
 30
0.0
  0
VERTEX
  5
4DD
330
4DB
100
AcDbEntity
  8
BEMAßUNG
 62
     7
100
AcDbVertex
100
AcDb2dVertex
 10
159.6205755894351
 20
127.1527899530208
 30
0.0
  0
SEQEND
  5
4DE
330
4DB
100
AcDbEntity
  8
BEMAßUNG
  0
POLYLINE
  5
4DF
330
1F
100
AcDbEntity
  8
BEMAßUNG
 62
     7
100
AcDb2dPolyline
 66
     1
 10
0.0
 20
0.0
 30
0.0
  0
VERTEX
  5
4E0
330
4DF
100
AcDbEntity
  8
BEMAßUNG
 62
     7
100
AcDbVertex
100
AcDb2dVertex
 10
159.569932685802
 20
124.038423634355
 30
0.0
  0
VERTEX
  5
4E1
330
4DF
100
AcDbEntity
  8
BEMAßUNG
 62
     7
100
AcDbVertex
100
AcDb2dVertex
 10
159.569932685802
 20
127.5391574116916
 30
0.0
  0
SEQEND
  5
4E2
330
4DF
100
AcDbEntity
  8
BEMAßUNG
  0
POLYLINE
  5
4E3
330
1F
100
AcDbEntity
  8
BEMAßUNG
 62
     7
100
AcDb2dPolyline
 66
     1
 10
0.0
 20
0.0
 30
0.0
  0
VERTEX
  5
4E4
330
4E3
100
AcDbEntity
  8
BEMAßUNG
 62
     7
100
AcDbVertex
100
AcDb2dVertex
 10
159.569932685802
 20
130.5391465602472
 30
0.0
  0
VERTEX
  5
4E5
330
4E3
100
AcDbEntity
  8
BEMAßUNG
 62
     7
100
AcDbVertex
100
AcDb2dVertex
 10
160.0305419521799
 20
134.0386745541639
 30
0.0
  0
VERTEX
  5
4E6
330
4E3
100
AcDbEntity
  8
BEMAßUNG
 62
     7
100
AcDbVertex
100
AcDb2dVertex
 10
159.1094956741983
 20
134.0386745541639
 30
0.0
  0
VERTEX
  5
4E7
330
4E3
100
AcDbEntity
  8
BEMAßUNG
 62
     7
100
AcDbVertex
100
AcDb2dVertex
 10
159.569932685802
 20
130.5391465602472
 30
0.0
  0
SEQEND
  5
4E8
330
4E3
100
AcDbEntity
  8
BEMAßUNG
  0
POLYLINE
  5
4E9
330
1F
100
AcDbEntity
  8
BEMAßUNG
 62
     7
100
AcDb2dPolyline
 66
     1
 10
0.0
 20
0.0
 30
0.0
  0
VERTEX
  5
4EA
330
4E9
100
AcDbEntity
  8
BEMAßUNG
 62
     7
100
AcDbVertex
100
AcDb2dVertex
 10
160.0270968566946
 20
134.0386745541639
 30
0.0
  0
VERTEX
  5
4EB
330
4E9
100
AcDbEntity
  8
BEMAßUNG
 62
     7
100
AcDbVertex
100
AcDb2dVertex
 10
160.0270968566946
 20
134.0114582998305
 30
0.0
  0
SEQEND
  5
4EC
330
4E9
100
AcDbEntity
  8
BEMAßUNG
  0
POLYLINE
  5
4ED
330
1F
100
AcDbEntity
  8
BEMAßUNG
 62
     7
100
AcDb2dPolyline
 66
     1
 10
0.0
 20
0.0
 30
0.0
  0
VERTEX
  5
4EE
330
4ED
100
AcDbEntity
  8
BEMAßUNG
 62
     7
100
AcDbVertex
100
AcDb2dVertex
 10
160.0270968566946
 20
134.0386745541639
 30
0.0
  0
VERTEX
  5
4EF
330
4ED
100
AcDbEntity
  8
BEMAßUNG
 62
     7
100
AcDbVertex
100
AcDb2dVertex
 10
160.0270968566946
 20
134.0114582998305
 30
0.0
  0
SEQEND
  5
4F0
330
4ED
100
AcDbEntity
  8
BEMAßUNG
  0
POLYLINE
  5
4F1
330
1F
100
AcDbEntity
  8
BEMAßUNG
 62
     7
100
AcDb2dPolyline
 66
     1
 10
0.0
 20
0.0
 30
0.0
  0
VERTEX
  5
4F2
330
4F1
100
AcDbEntity
  8
BEMAßUNG
 62
     7
100
AcDbVertex
100
AcDb2dVertex
 10
159.9762816982872
 20
134.0386745541639
 30
0.0
  0
VERTEX
  5
4F3
330
4F1
100
AcDbEntity
  8
BEMAßUNG
 62
     7
100
AcDbVertex
100
AcDb2dVertex
 10
159.9762816982872
 20
133.625952115031
 30
0.0
  0
SEQEND
  5
4F4
330
4F1
100
AcDbEntity
  8
BEMAßUNG
  0
POLYLINE
  5
4F5
330
1F
100
AcDbEntity
  8
BEMAßUNG
 62
     7
100
AcDb2dPolyline
 66
     1
 10
0.0
 20
0.0
 30
0.0
  0
VERTEX
  5
4F6
330
4F5
100
AcDbEntity
  8
BEMAßUNG
 62
     7
100
AcDbVertex
100
AcDb2dVertex
 10
159.9258110494283
 20
134.0386745541639
 30
0.0
  0
VERTEX
  5
4F7
330
4F5
100
AcDbEntity
  8
BEMAßUNG
 62
     7
100
AcDbVertex
100
AcDb2dVertex
 10
159.9258110494283
 20
133.2395846563603
 30
0.0
  0
SEQEND
  5
4F8
330
4F5
100
AcDbEntity
  8
BEMAßUNG
  0
POLYLINE
  5
4F9
330
1F
100
AcDbEntity
  8
BEMAßUNG
 62
     7
100
AcDb2dPolyline
 66
     1
 10
0.0
 20
0.0
 30
0.0
  0
VERTEX
  5
4FA
330
4F9
100
AcDbEntity
  8
BEMAßUNG
 62
     7
100
AcDbVertex
100
AcDb2dVertex
 10
159.8749958910208
 20
134.0386745541639
 30
0.0
  0
VERTEX
  5
4FB
330
4F9
100
AcDbEntity
  8
BEMAßUNG
 62
     7
100
AcDbVertex
100
AcDb2dVertex
 10
159.8749958910208
 20
132.8539062167865
 30
0.0
  0
SEQEND
  5
4FC
330
4F9
100
AcDbEntity
  8
BEMAßUNG
  0
POLYLINE
  5
4FD
330
1F
100
AcDbEntity
  8
BEMAßUNG
 62
     7
100
AcDb2dPolyline
 66
     1
 10
0.0
 20
0.0
 30
0.0
  0
VERTEX
  5
4FE
330
4FD
100
AcDbEntity
  8
BEMAßUNG
 62
     7
100
AcDbVertex
100
AcDb2dVertex
 10
159.8241807326134
 20
134.0386745541639
 30
0.0
  0
VERTEX
  5
4FF
330
4FD
100
AcDbEntity
  8
BEMAßUNG
 62
     7
100
AcDbVertex
100
AcDb2dVertex
 10
159.8241807326134
 20
132.4680555224386
 30
0.0
  0
SEQEND
  5
500
330
4FD
100
AcDbEntity
  8
BEMAßUNG
  0
POLYLINE
  5
501
330
1F
100
AcDbEntity
  8
BEMAßUNG
 62
     7
100
AcDb2dPolyline
 66
     1
 10
0.0
 20
0.0
 30
0.0
  0
VERTEX
  5
502
330
501
100
AcDbEntity
  8
BEMAßUNG
 62
     7
100
AcDbVertex
100
AcDb2dVertex
 10
159.773365574206
 20
134.0386745541639
 30
0.0
  0
VERTEX
  5
503
330
501
100
AcDbEntity
  8
BEMAßUNG
 62
     7
100
AcDbVertex
100
AcDb2dVertex
 10
159.773365574206
 20
132.0825493376391
 30
0.0
  0
SEQEND
  5
504
330
501
100
AcDbEntity
  8
BEMAßUNG
  0
POLYLINE
  5
505
330
1F
100
AcDbEntity
  8
BEMAßUNG
 62
     7
100
AcDb2dPolyline
 66
     1
 10
0.0
 20
0.0
 30
0.0
  0
VERTEX
  5
506
330
505
100
AcDbEntity
  8
BEMAßUNG
 62
     7
100
AcDbVertex
100
AcDb2dVertex
 10
159.7225504157985
 20
134.0386745541639
 30
0.0
  0
VERTEX
  5
507
330
505
100
AcDbEntity
  8
BEMAßUNG
 62
     7
100
AcDbVertex
100
AcDb2dVertex
 10
159.7225504157985
 20
131.6961818789683
 30
0.0
  0
SEQEND
  5
508
330
505
100
AcDbEntity
  8
BEMAßUNG
  0
POLYLINE
  5
509
330
1F
100
AcDbEntity
  8
BEMAßUNG
 62
     7
100
AcDb2dPolyline
 66
     1
 10
0.0
 20
0.0
 30
0.0
  0
VERTEX
  5
50A
330
509
100
AcDbEntity
  8
BEMAßUNG
 62
     7
100
AcDbVertex
100
AcDb2dVertex
 10
159.6713907478426
 20
134.0386745541639
 30
0.0
  0
VERTEX
  5
50B
330
509
100
AcDbEntity
  8
BEMAßUNG
 62
     7
100
AcDbVertex
100
AcDb2dVertex
 10
159.6713907478426
 20
131.3105034393946
 30
0.0
  0
SEQEND
  5
50C
330
509
100
AcDbEntity
  8
BEMAßUNG
  0
POLYLINE
  5
50D
330
1F
100
AcDbEntity
  8
BEMAßUNG
 62
     7
100
AcDb2dPolyline
 66
     1
 10
0.0
 20
0.0
 30
0.0
  0
VERTEX
  5
50E
330
50D
100
AcDbEntity
  8
BEMAßUNG
 62
     7
100
AcDbVertex
100
AcDb2dVertex
 10
159.6205755894351
 20
134.0386745541639
 30
0.0
  0
VERTEX
  5
50F
330
50D
100
AcDbEntity
  8
BEMAßUNG
 62
     7
100
AcDbVertex
100
AcDb2dVertex
 10
159.6205755894351
 20
130.9246527450466
 30
0.0
  0
SEQEND
  5
510
330
50D
100
AcDbEntity
  8
BEMAßUNG
  0
POLYLINE
  5
511
330
1F
100
AcDbEntity
  8
BEMAßUNG
 62
     7
100
AcDb2dPolyline
 66
     1
 10
0.0
 20
0.0
 30
0.0
  0
VERTEX
  5
512
330
511
100
AcDbEntity
  8
BEMAßUNG
 62
     7
100
AcDbVertex
100
AcDb2dVertex
 10
159.569932685802
 20
134.0386745541639
 30
0.0
  0
VERTEX
  5
513
330
511
100
AcDbEntity
  8
BEMAßUNG
 62
     7
100
AcDbVertex
100
AcDb2dVertex
 10
159.569932685802
 20
130.5391465602472
 30
0.0
  0
SEQEND
  5
514
330
511
100
AcDbEntity
  8
BEMAßUNG
  0
POLYLINE
  5
515
330
1F
100
AcDbEntity
  8
BEMAßUNG
 62
     7
100
AcDb2dPolyline
 66
     1
 10
0.0
 20
0.0
 30
0.0
  0
VERTEX
  5
516
330
515
100
AcDbEntity
  8
BEMAßUNG
 62
     7
100
AcDbVertex
100
AcDb2dVertex
 10
159.1125962601351
 20
134.0386745541639
 30
0.0
  0
VERTEX
  5
517
330
515
100
AcDbEntity
  8
BEMAßUNG
 62
     7
100
AcDbVertex
100
AcDb2dVertex
 10
159.1125962601351
 20
134.0114582998305
 30
0.0
  0
SEQEND
  5
518
330
515
100
AcDbEntity
  8
BEMAßUNG
  0
POLYLINE
  5
519
330
1F
100
AcDbEntity
  8
BEMAßUNG
 62
     7
100
AcDb2dPolyline
 66
     1
 10
0.0
 20
0.0
 30
0.0
  0
VERTEX
  5
51A
330
519
100
AcDbEntity
  8
BEMAßUNG
 62
     7
100
AcDbVertex
100
AcDb2dVertex
 10
159.1125962601351
 20
134.0386745541639
 30
0.0
  0
VERTEX
  5
51B
330
519
100
AcDbEntity
  8
BEMAßUNG
 62
     7
100
AcDbVertex
100
AcDb2dVertex
 10
159.1125962601351
 20
134.0114582998305
 30
0.0
  0
SEQEND
  5
51C
330
519
100
AcDbEntity
  8
BEMAßUNG
  0
POLYLINE
  5
51D
330
1F
100
AcDbEntity
  8
BEMAßUNG
 62
     7
100
AcDb2dPolyline
 66
     1
 10
0.0
 20
0.0
 30
0.0
  0
VERTEX
  5
51E
330
51D
100
AcDbEntity
  8
BEMAßUNG
 62
     7
100
AcDbVertex
100
AcDb2dVertex
 10
159.163755928091
 20
134.0386745541639
 30
0.0
  0
VERTEX
  5
51F
330
51D
100
AcDbEntity
  8
BEMAßUNG
 62
     7
100
AcDbVertex
100
AcDb2dVertex
 10
159.163755928091
 20
133.625952115031
 30
0.0
  0
SEQEND
  5
520
330
51D
100
AcDbEntity
  8
BEMAßUNG
  0
POLYLINE
  5
521
330
1F
100
AcDbEntity
  8
BEMAßUNG
 62
     7
100
AcDb2dPolyline
 66
     1
 10
0.0
 20
0.0
 30
0.0
  0
VERTEX
  5
522
330
521
100
AcDbEntity
  8
BEMAßUNG
 62
     7
100
AcDbVertex
100
AcDb2dVertex
 10
159.2145710864984
 20
134.0386745541639
 30
0.0
  0
VERTEX
  5
523
330
521
100
AcDbEntity
  8
BEMAßUNG
 62
     7
100
AcDbVertex
100
AcDb2dVertex
 10
159.2145710864984
 20
133.2395846563603
 30
0.0
  0
SEQEND
  5
524
330
521
100
AcDbEntity
  8
BEMAßUNG
  0
POLYLINE
  5
525
330
1F
100
AcDbEntity
  8
BEMAßUNG
 62
     7
100
AcDb2dPolyline
 66
     1
 10
0.0
 20
0.0
 30
0.0
  0
VERTEX
  5
526
330
525
100
AcDbEntity
  8
BEMAßUNG
 62
     7
100
AcDbVertex
100
AcDb2dVertex
 10
159.2653862449059
 20
134.0386745541639
 30
0.0
  0
VERTEX
  5
527
330
525
100
AcDbEntity
  8
BEMAßUNG
 62
     7
100
AcDbVertex
100
AcDb2dVertex
 10
159.2653862449059
 20
132.8539062167865
 30
0.0
  0
SEQEND
  5
528
330
525
100
AcDbEntity
  8
BEMAßUNG
  0
POLYLINE
  5
529
330
1F
100
AcDbEntity
  8
BEMAßUNG
 62
     7
100
AcDb2dPolyline
 66
     1
 10
0.0
 20
0.0
 30
0.0
  0
VERTEX
  5
52A
330
529
100
AcDbEntity
  8
BEMAßUNG
 62
     7
100
AcDbVertex
100
AcDb2dVertex
 10
159.3162014033133
 20
134.0386745541639
 30
0.0
  0
VERTEX
  5
52B
330
529
100
AcDbEntity
  8
BEMAßUNG
 62
     7
100
AcDbVertex
100
AcDb2dVertex
 10
159.3162014033133
 20
132.4680555224386
 30
0.0
  0
SEQEND
  5
52C
330
529
100
AcDbEntity
  8
BEMAßUNG
  0
POLYLINE
  5
52D
330
1F
100
AcDbEntity
  8
BEMAßUNG
 62
     7
100
AcDb2dPolyline
 66
     1
 10
0.0
 20
0.0
 30
0.0
  0
VERTEX
  5
52E
330
52D
100
AcDbEntity
  8
BEMAßUNG
 62
     7
100
AcDbVertex
100
AcDb2dVertex
 10
159.3670165617208
 20
134.0386745541639
 30
0.0
  0
VERTEX
  5
52F
330
52D
100
AcDbEntity
  8
BEMAßUNG
 62
     7
100
AcDbVertex
100
AcDb2dVertex
 10
159.3670165617208
 20
132.0825493376391
 30
0.0
  0
SEQEND
  5
530
330
52D
100
AcDbEntity
  8
BEMAßUNG
  0
POLYLINE
  5
531
330
1F
100
AcDbEntity
  8
BEMAßUNG
 62
     7
100
AcDb2dPolyline
 66
     1
 10
0.0
 20
0.0
 30
0.0
  0
VERTEX
  5
532
330
531
100
AcDbEntity
  8
BEMAßUNG
 62
     7
100
AcDbVertex
100
AcDb2dVertex
 10
159.4174872105797
 20
134.0386745541639
 30
0.0
  0
VERTEX
  5
533
330
531
100
AcDbEntity
  8
BEMAßUNG
 62
     7
100
AcDbVertex
100
AcDb2dVertex
 10
159.4174872105797
 20
131.6961818789683
 30
0.0
  0
SEQEND
  5
534
330
531
100
AcDbEntity
  8
BEMAßUNG
  0
POLYLINE
  5
535
330
1F
100
AcDbEntity
  8
BEMAßUNG
 62
     7
100
AcDb2dPolyline
 66
     1
 10
0.0
 20
0.0
 30
0.0
  0
VERTEX
  5
536
330
535
100
AcDbEntity
  8
BEMAßUNG
 62
     7
100
AcDbVertex
100
AcDb2dVertex
 10
159.4683023689871
 20
134.0386745541639
 30
0.0
  0
VERTEX
  5
537
330
535
100
AcDbEntity
  8
BEMAßUNG
 62
     7
100
AcDbVertex
100
AcDb2dVertex
 10
159.4683023689871
 20
131.3105034393946
 30
0.0
  0
SEQEND
  5
538
330
535
100
AcDbEntity
  8
BEMAßUNG
  0
POLYLINE
  5
539
330
1F
100
AcDbEntity
  8
BEMAßUNG
 62
     7
100
AcDb2dPolyline
 66
     1
 10
0.0
 20
0.0
 30
0.0
  0
VERTEX
  5
53A
330
539
100
AcDbEntity
  8
BEMAßUNG
 62
     7
100
AcDbVertex
100
AcDb2dVertex
 10
159.5191175273945
 20
134.0386745541639
 30
0.0
  0
VERTEX
  5
53B
330
539
100
AcDbEntity
  8
BEMAßUNG
 62
     7
100
AcDbVertex
100
AcDb2dVertex
 10
159.5191175273945
 20
130.9246527450466
 30
0.0
  0
SEQEND
  5
53C
330
539
100
AcDbEntity
  8
BEMAßUNG
  0
POLYLINE
  5
53D
330
1F
100
AcDbEntity
  8
BEMAßUNG
 62
     7
100
AcDb2dPolyline
 66
     1
 10
0.0
 20
0.0
 30
0.0
  0
VERTEX
  5
53E
330
53D
100
AcDbEntity
  8
BEMAßUNG
 62
     7
100
AcDbVertex
100
AcDb2dVertex
 10
159.569932685802
 20
134.0386745541639
 30
0.0
  0
VERTEX
  5
53F
330
53D
100
AcDbEntity
  8
BEMAßUNG
 62
     7
100
AcDbVertex
100
AcDb2dVertex
 10
159.569932685802
 20
130.5391465602472
 30
0.0
  0
SEQEND
  5
540
330
53D
100
AcDbEntity
  8
BEMAßUNG
  0
MTEXT
  5
542
330
1F
100
AcDbEntity
  8
TEXT
 62
     7
100
AcDbMText
 10
43.55496418181959
 20
137.6141669035305
 30
0.0
 40
3.311186211711877
 41
0.0
 71
     7
 72
     1
  1
\fINDEX Univers 45 Light|b0|i0|c0|p34;\W1;M5
 11
-4.371139000186241E-8
 21
0.999999999999999
 31
0.0
  0
MTEXT
  5
543
330
1F
100
AcDbEntity
  8
TEXT
 62
     7
100
AcDbMText
 10
100.2682983147767
 20
146.677007341803
 30
0.0
 40
3.311186211711877
 41
0.0
 71
     7
 72
     1
  1
\fINDEX Univers 45 Light|b0|i0|c0|p34;\W1;100
  0
MTEXT
  5
544
330
1F
100
AcDbEntity
  8
TEXT
 62
     7
100
AcDbMText
 10
55.10929767502476
 20
111.1656520989447
 30
0.0
 40
3.311186211711877
 41
0.0
 71
     7
 72
     1
  1
\fINDEX Univers 45 Light|b0|i0|c0|p34;\W1;6
  0
MTEXT
  5
545
330
1F
100
AcDbEntity
  8
TEXT
 62
     7
100
AcDbMText
 10
156.9392577732652
 20
110.1026678869709
 30
0.0
 40
3.311186211711877
 41
0.0
 71
     7
 72
     1
  1
\fINDEX Univers 45 Light|b0|i0|c0|p34;\W1;ø3
 11
-4.371139000186241E-8
 21
0.999999999999999
 31
0.0
  0
ENDSEC
  0
SECTION
  2
OBJECTS
  0
DICTIONARY
  5
C
330
0
100
AcDbDictionary
  3
ACAD_GROUP
350
D
  3
ACAD_LAYOUT
350
1A
  3
ACAD_MLINESTYLE
350
17
  3
ACAD_PLOTSETTINGS
350
19
  3
ACAD_TABLESTYLE
350
566
  3
ACAD_VISUALSTYLE
350
2A
  3
ACDBHEADERROUNDTRIPXREC
350
546
  0
DICTIONARY
  5
D
102
{ACAD_REACTORS
330
C
102
}
330
C
100
AcDbDictionary
  0
DICTIONARY
  5
1A
102
{ACAD_REACTORS
330
C
102
}
330
C
100
AcDbDictionary
  0
DICTIONARY
  5
17
102
{ACAD_REACTORS
330
C
102
}
330
C
100
AcDbDictionary
  3
STANDARD
350
18
  0
DICTIONARY
  5
19
102
{ACAD_REACTORS
330
C
102
}
330
C
100
AcDbDictionary
  0
DICTIONARY
  5
566
102
{ACAD_REACTORS
330
C
102
}
330
C
100
AcDbDictionary
  0
DICTIONARY
  5
2A
102
{ACAD_REACTORS
330
C
102
}
330
C
100
AcDbDictionary
  3
2DWIREFRAME
350
2F
  3
3D_HIDDEN
350
31
  3
3DWIREFRAME
350
30
  3
BASIC
350
32
  3
BRIGHTEN
350
36
  3
COLORCHANGE
350
3A
  3
CONCEPTUAL
350
34
  3
DIM
350
35
  3
FACEPATTERN
350
39
  3
FLAT
350
2B
  3
FLATWITHEDGES
350
2C
  3
GOURAUD
350
2D
  3
GOURAUDWITHEDGES
350
2E
  3
LINEPATTERN
350
38
  3
REALISTIC
350
33
  3
THICKEN
350
37
  0
DICTIONARY
  5
546
102
{ACAD_REACTORS
330
C
102
}
330
C
100
AcDbDictionary
  3
CEPSNTYPE
350
54F
  3
DIMSTYLEDATA
350
565
  3
FINGERPRINTGUID
350
550
  3
HYPERLINKBASE
350
549
  3
INSUNITS
350
54E
  3
LAYOUTDICT
350
54B
  3
LWETCUNION
350
54D
  3
PLOTSETDICT
350
54C
  3
PSVPSCALE
350
552
  3
PUCSBASE
350
555
  3
PUCSORGBACK
350
55B
  3
PUCSORGBOTTOM
350
557
  3
PUCSORGFRONT
350
55A
  3
PUCSORGLEFT
350
558
  3
PUCSORGRIGHT
350
559
  3
PUCSORGTOP
350
556
  3
PUCSORTHOREF
350
553
  3
PUCSORTHOVIEW
350
554
  3
STYLESHEET
350
54A
  3
TSTACKALIGN
350
547
  3
TSTACKSIZE
350
548
  3
UCSBASE
350
55E
  3
UCSORGBACK
350
564
  3
UCSORGBOTTOM
350
560
  3
UCSORGFRONT
350
563
  3
UCSORGLEFT
350
561
  3
UCSORGRIGHT
350
562
  3
UCSORGTOP
350
55F
  3
UCSORTHOREF
350
55C
  3
UCSORTHOVIEW
350
55D
  3
VERSIONGUID
350
551
  0
MLINESTYLE
  5
18
102
{ACAD_REACTORS
330
17
102
}
330
17
100
AcDbMlineStyle
  2
Standard
 70
     0
  3

 62
   256
 51
90.0
 52
90.0
 71
     2
 49
0.5
 62
   256
  6
BYLAYER
 49
-0.5
 62
   256
  6
BYLAYER
  0
VISUALSTYLE
  5
2F
102
{ACAD_REACTORS
330
2A
102
}
330
2A
100
AcDbVisualStyle
  2
2dWireframe
 70
     4
 71
     0
 72
     2
 73
     0
 90
        0
 40
-0.6
 41
-30.0
 62
     5
 63
     7
 74
     1
 91
        4
 64
     7
 65
   257
 75
     1
175
     1
 42
1.0
 92
        0
 66
   257
 43
1.0
 76
     1
 77
     6
 78
     2
 67
     7
 79
     5
170
     0
171
     0
290
     0
174
     0
 93
        1
 44
0.0
173
     0
291
     0
 45
0.0
1001
ACAD
1000
AcDbSavedByObjectVersion
1070
     0
  0
VISUALSTYLE
  5
31
102
{ACAD_REACTORS
330
2A
102
}
330
2A
100
AcDbVisualStyle
  2
3D Hidden
 70
     6
 71
     1
 72
     2
 73
     2
 90
        0
 40
-0.6
 41
-30.0
 62
     5
 63
     7
 74
     2
 91
        2
 64
     7
 65
   257
 75
     2
175
     1
 42
40.0
 92
        0
 66
   257
 43
1.0
 76
     1
 77
     6
 78
     2
 67
     7
 79
     3
170
     0
171
     0
290
     0
174
     0
 93
        1
 44
0.0
173
     0
291
     0
 45
0.0
1001
ACAD
1000
AcDbSavedByObjectVersion
1070
     0
  0
VISUALSTYLE
  5
30
102
{ACAD_REACTORS
330
2A
102
}
330
2A
100
AcDbVisualStyle
  2
3dWireframe
 70
     5
 71
     0
 72
     2
 73
     0
 90
        0
 40
-0.6
 41
-30.0
 62
     5
 63
     7
 74
     1
 91
        4
 64
     7
 65
   257
 75
     1
175
     1
 42
1.0
 92
        0
 66
   257
 43
1.0
 76
     1
 77
     6
 78
     2
 67
     7
 79
     5
170
     0
171
     0
290
     0
174
     0
 93
        1
 44
0.0
173
     0
291
     0
 45
0.0
1001
ACAD
1000
AcDbSavedByObjectVersion
1070
     0
  0
VISUALSTYLE
  5
32
102
{ACAD_REACTORS
330
2A
102
}
330
2A
100
AcDbVisualStyle
  2
Basic
 70
     7
 71
     1
 72
     0
 73
     1
 90
        0
 40
-0.6
 41
-30.0
 62
     5
 63
     7
 74
     0
 91
        4
 64
     7
 65
   257
 75
     1
175
     1
 42
1.0
 92
        8
 66
     7
 43
1.0
 76
     1
 77
     6
 78
     2
 67
     7
 79
     5
170
     0
171
     0
290
     0
174
     0
 93
        1
 44
0.0
173
     0
291
     1
 45
0.0
1001
ACAD
1000
AcDbSavedByObjectVersion
1070
     0
  0
VISUALSTYLE
  5
36
102
{ACAD_REACTORS
330
2A
102
}
330
2A
100
AcDbVisualStyle
  2
Brighten
 70
    12
 71
     2
 72
     2
 73
     0
 90
        0
 40
-0.6
 41
-30.0
 62
     5
 63
     7
 74
     1
 91
        4
 64
     7
 65
   257
 75
     1
175
     1
 42
1.0
 92
        8
 66
     7
 43
1.0
 76
     1
 77
     6
 78
     2
 67
     7
 79
     5
170
     0
171
     0
290
     0
174
     0
 93
        1
 44
50.0
173
     0
291
     1
 45
0.0
1001
ACAD
1000
AcDbSavedByObjectVersion
1070
     0
  0
VISUALSTYLE
  5
3A
102
{ACAD_REACTORS
330
2A
102
}
330
2A
100
AcDbVisualStyle
  2
ColorChange
 70
    16
 71
     2
 72
     2
 73
     3
 90
        0
 40
-0.6
 41
-30.0
 62
     5
 63
     8
 74
     1
 91
        4
 64
     7
 65
   257
 75
     1
175
     1
 42
1.0
 92
        8
 66
     8
 43
1.0
 76
     1
 77
     6
 78
     2
 67
     7
 79
     5
170
     0
171
     0
290
     0
174
     0
 93
        1
 44
0.0
173
     0
291
     1
 45
0.0
1001
ACAD
1000
AcDbSavedByObjectVersion
1070
     0
  0
VISUALSTYLE
  5
34
102
{ACAD_REACTORS
330
2A
102
}
330
2A
100
AcDbVisualStyle
  2
Conceptual
 70
     9
 71
     3
 72
     2
 73
     0
 90
        0
 40
-0.6
 41
-30.0
 62
     5
 63
     7
 74
     2
 91
        2
 64
     7
 65
   257
 75
     1
175
     1
 42
40.0
 92
        8
 66
     7
 43
1.0
 76
     1
 77
     6
 78
     2
 67
     7
 79
     3
170
     0
171
     0
290
     0
174
     0
 93
        1
 44
0.0
173
     0
291
     0
 45
0.0
1001
ACAD
1000
AcDbSavedByObjectVersion
1070
     0
  0
VISUALSTYLE
  5
35
102
{ACAD_REACTORS
330
2A
102
}
330
2A
100
AcDbVisualStyle
  2
Dim
 70
    11
 71
     2
 72
     2
 73
     0
 90
        0
 40
-0.6
 41
-30.0
 62
     5
 63
     7
 74
     1
 91
        4
 64
     7
 65
   257
 75
     1
175
     1
 42
1.0
 92
        8
 66
     7
 43
1.0
 76
     1
 77
     6
 78
     2
 67
     7
 79
     5
170
     0
171
     0
290
     0
174
     0
 93
        1
 44
-50.0
173
     0
291
     1
 45
0.0
1001
ACAD
1000
AcDbSavedByObjectVersion
1070
     0
  0
VISUALSTYLE
  5
39
102
{ACAD_REACTORS
330
2A
102
}
330
2A
100
AcDbVisualStyle
  2
Facepattern
 70
    15
 71
     2
 72
     2
 73
     0
 90
        0
 40
-0.6
 41
-30.0
 62
     5
 63
     7
 74
     1
 91
        4
 64
     7
 65
   257
 75
     1
175
     1
 42
1.0
 92
        8
 66
     7
 43
1.0
 76
     1
 77
     6
 78
     2
 67
     7
 79
     5
170
     0
171
     0
290
     0
174
     0
 93
        1
 44
0.0
173
     0
291
     1
 45
0.0
1001
ACAD
1000
AcDbSavedByObjectVersion
1070
     0
  0
VISUALSTYLE
  5
2B
102
{ACAD_REACTORS
330
2A
102
}
330
2A
100
AcDbVisualStyle
  2
Flat
 70
     0
 71
     2
 72
     1
 73
     1
 90
        2
 40
-0.6
 41
30.0
 62
     5
 63
     7
 74
     0
 91
        4
 64
     7
 65
   257
 75
     1
175
     1
 42
1.0
 92
        8
 66
     7
 43
1.0
 76
     1
 77
     6
 78
     2
 67
     7
 79
     5
170
     0
171
     0
290
     0
174
     0
 93
       13
 44
0.0
173
     0
291
     1
 45
0.0
1001
ACAD
1000
AcDbSavedByObjectVersion
1070
     0
  0
VISUALSTYLE
  5
2C
102
{ACAD_REACTORS
330
2A
102
}
330
2A
100
AcDbVisualStyle
  2
FlatWithEdges
 70
     1
 71
     2
 72
     1
 73
     1
 90
        2
 40
-0.6
 41
30.0
 62
     5
 63
     7
 74
     1
 91
        4
 64
     7
 65
   257
 75
     1
175
     1
 42
1.0
 92
        0
 66
   257
 43
1.0
 76
     1
 77
     6
 78
     2
 67
     7
 79
     5
170
     0
171
     0
290
     0
174
     0
 93
       13
 44
0.0
173
     0
291
     1
 45
0.0
1001
ACAD
1000
AcDbSavedByObjectVersion
1070
     0
  0
VISUALSTYLE
  5
2D
102
{ACAD_REACTORS
330
2A
102
}
330
2A
100
AcDbVisualStyle
  2
Gouraud
 70
     2
 71
     2
 72
     2
 73
     1
 90
        2
 40
-0.6
 41
30.0
 62
     5
 63
     7
 74
     0
 91
        4
 64
     7
 65
   257
 75
     1
175
     1
 42
1.0
 92
        0
 66
     7
 43
1.0
 76
     1
 77
     6
 78
     2
 67
     7
 79
     5
170
     0
171
     0
290
     0
174
     0
 93
       13
 44
0.0
173
     0
291
     1
 45
0.0
1001
ACAD
1000
AcDbSavedByObjectVersion
1070
     0
  0
VISUALSTYLE
  5
2E
102
{ACAD_REACTORS
330
2A
102
}
330
2A
100
AcDbVisualStyle
  2
GouraudWithEdges
 70
     3
 71
     2
 72
     2
 73
     1
 90
        2
 40
-0.6
 41
30.0
 62
     5
 63
     7
 74
     1
 91
        4
 64
     7
 65
   257
 75
     1
175
     1
 42
1.0
 92
        0
 66
   257
 43
1.0
 76
     1
 77
     6
 78
     2
 67
     7
 79
     5
170
     0
171
     0
290
     0
174
     0
 93
       13
 44
0.0
173
     0
291
     1
 45
0.0
1001
ACAD
1000
AcDbSavedByObjectVersion
1070
     0
  0
VISUALSTYLE
  5
38
102
{ACAD_REACTORS
330
2A
102
}
330
2A
100
AcDbVisualStyle
  2
Linepattern
 70
    14
 71
     2
 72
     2
 73
     0
 90
        0
 40
-0.6
 41
-30.0
 62
     5
 63
     7
 74
     1
 91
        4
 64
     7
 65
   257
 75
     7
175
     7
 42
1.0
 92
        8
 66
     7
 43
1.0
 76
     1
 77
     6
 78
     2
 67
     7
 79
     5
170
     0
171
     0
290
     0
174
     0
 93
        1
 44
0.0
173
     0
291
     1
 45
0.0
1001
ACAD
1000
AcDbSavedByObjectVersion
1070
     0
  0
VISUALSTYLE
  5
33
102
{ACAD_REACTORS
330
2A
102
}
330
2A
100
AcDbVisualStyle
  2
Realistic
 70
     8
 71
     2
 72
     2
 73
     0
 90
        0
 40
-0.6
 41
-30.0
 62
     5
 63
     7
 74
     1
 91
        0
 64
     7
 65
   257
 75
     1
175
     1
 42
1.0
 92
        8
 66
     8
 43
1.0
 76
     1
 77
     6
 78
     2
 67
     7
 79
     5
170
     0
171
     0
290
     0
174
     0
 93
       13
 44
0.0
173
     0
291
     0
 45
0.0
1001
ACAD
1000
AcDbSavedByObjectVersion
1070
     0
  0
VISUALSTYLE
  5
37
102
{ACAD_REACTORS
330
2A
102
}
330
2A
100
AcDbVisualStyle
  2
Thicken
 70
    13
 71
     2
 72
     2
 73
     0
 90
        0
 40
-0.6
 41
-30.0
 62
     5
 63
     7
 74
     1
 91
        4
 64
     7
 65
   257
 75
     1
175
     1
 42
1.0
 92
       12
 66
     7
 43
1.0
 76
     1
 77
     6
 78
     2
 67
     7
 79
     5
170
     0
171
     0
290
     0
174
     0
 93
        1
 44
0.0
173
     0
291
     1
 45
0.0
1001
ACAD
1000
AcDbSavedByObjectVersion
1070
     0
  0
XRECORD
  5
54F
102
{ACAD_REACTORS
330
546
102
}
330
546
100
AcDbXrecord
 90
        0
  0
XRECORD
  5
565
102
{ACAD_REACTORS
330
546
102
}
330
546
100
AcDbXrecord
1000
DSTYLE
1002
{
1070
   340
340
11
1002
}
  0
XRECORD
  5
550
102
{ACAD_REACTORS
330
546
102
}
330
546
100
AcDbXrecord
  1
{D3F89E84-CC0D-4F15-87D9-E467E7000D27}
  0
XRECORD
  5
549
102
{ACAD_REACTORS
330
546
102
}
330
546
100
AcDbXrecord
  1

  0
XRECORD
  5
54E
102
{ACAD_REACTORS
330
546
102
}
330
546
100
AcDbXrecord
 90
        1
  0
XRECORD
  5
54B
102
{ACAD_REACTORS
330
546
102
}
330
546
100
AcDbXrecord
340
1A
  0
XRECORD
  5
54D
102
{ACAD_REACTORS
330
546
102
}
330
546
100
AcDbXrecord
 90
    10269
  0
XRECORD
  5
54C
102
{ACAD_REACTORS
330
546
102
}
330
546
100
AcDbXrecord
340
19
  0
XRECORD
  5
552
102
{ACAD_REACTORS
330
546
102
}
330
546
100
AcDbXrecord
 40
0.0
  0
XRECORD
  5
555
102
{ACAD_REACTORS
330
546
102
}
330
546
100
AcDbXrecord
340
0
  0
XRECORD
  5
55B
102
{ACAD_REACTORS
330
546
102
}
330
546
100
AcDbXrecord
 10
0.0
 20
0.0
 30
0.0
  0
XRECORD
  5
557
102
{ACAD_REACTORS
330
546
102
}
330
546
100
AcDbXrecord
 10
0.0
 20
0.0
 30
0.0
  0
XRECORD
  5
55A
102
{ACAD_REACTORS
330
546
102
}
330
546
100
AcDbXrecord
 10
0.0
 20
0.0
 30
0.0
  0
XRECORD
  5
558
102
{ACAD_REACTORS
330
546
102
}
330
546
100
AcDbXrecord
 10
0.0
 20
0.0
 30
0.0
  0
XRECORD
  5
559
102
{ACAD_REACTORS
330
546
102
}
330
546
100
AcDbXrecord
 10
0.0
 20
0.0
 30
0.0
  0
XRECORD
  5
556
102
{ACAD_REACTORS
330
546
102
}
330
546
100
AcDbXrecord
 10
0.0
 20
0.0
 30
0.0
  0
XRECORD
  5
553
102
{ACAD_REACTORS
330
546
102
}
330
546
100
AcDbXrecord
340
0
  0
XRECORD
  5
554
102
{ACAD_REACTORS
330
546
102
}
330
546
100
AcDbXrecord
 70
     0
  0
XRECORD
  5
54A
102
{ACAD_REACTORS
330
546
102
}
330
546
100
AcDbXrecord
  1

  0
XRECORD
  5
547
102
{ACAD_REACTORS
330
546
102
}
330
546
100
AcDbXrecord
 90
        1
  0
XRECORD
  5
548
102
{ACAD_REACTORS
330
546
102
}
330
546
100
AcDbXrecord
 90
       70
  0
XRECORD
  5
55E
102
{ACAD_REACTORS
330
546
102
}
330
546
100
AcDbXrecord
340
0
  0
XRECORD
  5
564
102
{ACAD_REACTORS
330
546
102
}
330
546
100
AcDbXrecord
 10
0.0
 20
0.0
 30
0.0
  0
XRECORD
  5
560
102
{ACAD_REACTORS
330
546
102
}
330
546
100
AcDbXrecord
 10
0.0
 20
0.0
 30
0.0
  0
XRECORD
  5
563
102
{ACAD_REACTORS
330
546
102
}
330
546
100
AcDbXrecord
 10
0.0
 20
0.0
 30
0.0
  0
XRECORD
  5
561
102
{ACAD_REACTORS
330
546
102
}
330
546
100
AcDbXrecord
 10
0.0
 20
0.0
 30
0.0
  0
XRECORD
  5
562
102
{ACAD_REACTORS
330
546
102
}
330
546
100
AcDbXrecord
 10
0.0
 20
0.0
 30
0.0
  0
XRECORD
  5
55F
102
{ACAD_REACTORS
330
546
102
}
330
546
100
AcDbXrecord
 10
0.0
 20
0.0
 30
0.0
  0
XRECORD
  5
55C
102
{ACAD_REACTORS
330
546
102
}
330
546
100
AcDbXrecord
340
0
  0
XRECORD
  5
55D
102
{ACAD_REACTORS
330
546
102
}
330
546
100
AcDbXrecord
 70
     0
  0
XRECORD
  5
551
102
{ACAD_REACTORS
330
546
102
}
330
546
100
AcDbXrecord
  1
{FAEB1C32-E019-11D5-929B-00C0DF256EC4}
  0
ENDSEC
  0
EOF
