  0
SECTION
  2
HEADER
  9
$ACADVER
  1
AC1024
  9
$ACADMAINTVER
 70
     6
  9
$DWGCODEPAGE
  3
ANSI_1252
  9
$INSBASE
 10
0.0
 20
0.0
 30
0.0
  9
$EXTMIN
 10
1.000000000000000E+20
 20
1.000000000000000E+20
 30
1.000000000000000E+20
  9
$EXTMAX
 10
-1.000000000000000E+20
 20
-1.000000000000000E+20
 30
-1.000000000000000E+20
  9
$LIMMIN
 10
0.0
 20
0.0
  9
$LIMMAX
 10
12.0
 20
9.0
  9
$ORTHOMODE
 70
     0
  9
$REGENMODE
 70
     1
  9
$FILLMODE
 70
     1
  9
$QTEXTMODE
 70
     0
  9
$MIRRTEXT
 70
     1
  9
$LTSCALE
 40
1.0
  9
$ATTMODE
 70
     1
  9
$TEXTSIZE
 40
0.2
  9
$TRACEWID
 40
0.05
  9
$TEXTSTYLE
  7
Standard
  9
$CLAYER
  8
0
  9
$CELTYPE
  6
ByLayer
  9
$CECOLOR
 62
   256
  9
$CELTSCALE
 40
1.0
  9
$DISPSILH
 70
     0
  9
$DIMSCALE
 40
1.0
  9
$DIMASZ
 40
0.18
  9
$DIMEXO
 40
0.0625
  9
$DIMDLI
 40
0.38
  9
$DIMRND
 40
0.0
  9
$DIMDLE
 40
0.0
  9
$DIMEXE
 40
0.18
  9
$DIMTP
 40
0.0
  9
$DIMTM
 40
0.0
  9
$DIMTXT
 40
0.18
  9
$DIMCEN
 40
0.09
  9
$DIMTSZ
 40
0.0
  9
$DIMTOL
 70
     0
  9
$DIMLIM
 70
     0
  9
$DIMTIH
 70
     1
  9
$DIMTOH
 70
     1
  9
$DIMSE1
 70
     0
  9
$DIMSE2
 70
     0
  9
$DIMTAD
 70
     0
  9
$DIMZIN
 70
     0
  9
$DIMBLK
  1

  9
$DIMASO
 70
     1
  9
$DIMSHO
 70
     1
  9
$DIMPOST
  1

  9
$DIMAPOST
  1

  9
$DIMALT
 70
     0
  9
$DIMALTD
 70
     2
  9
$DIMALTF
 40
25.4
  9
$DIMLFAC
 40
1.0
  9
$DIMTOFL
 70
     0
  9
$DIMTVP
 40
0.0
  9
$DIMTIX
 70
     0
  9
$DIMSOXD
 70
     0
  9
$DIMSAH
 70
     0
  9
$DIMBLK1
  1

  9
$DIMBLK2
  1

  9
$DIMSTYLE
  2
Standard
  9
$DIMCLRD
 70
     0
  9
$DIMCLRE
 70
     0
  9
$DIMCLRT
 70
     0
  9
$DIMTFAC
 40
1.0
  9
$DIMGAP
 40
0.09
  9
$DIMJUST
 70
     0
  9
$DIMSD1
 70
     0
  9
$DIMSD2
 70
     0
  9
$DIMTOLJ
 70
     1
  9
$DIMTZIN
 70
     0
  9
$DIMALTZ
 70
     0
  9
$DIMALTTZ
 70
     0
  9
$DIMUPT
 70
     0
  9
$DIMDEC
 70
     4
  9
$DIMTDEC
 70
     4
  9
$DIMALTU
 70
     2
  9
$DIMALTTD
 70
     2
  9
$DIMTXSTY
  7
Standard
  9
$DIMAUNIT
 70
     0
  9
$DIMADEC
 70
     0
  9
$DIMALTRND
 40
0.0
  9
$DIMAZIN
 70
     0
  9
$DIMDSEP
 70
    46
  9
$DIMATFIT
 70
     3
  9
$DIMFRAC
 70
     0
  9
$DIMLDRBLK
  1

  9
$DIMLUNIT
 70
     2
  9
$DIMLWD
 70
    -2
  9
$DIMLWE
 70
    -2
  9
$DIMTMOVE
 70
     0
  9
$DIMFXL
 40
1.0
  9
$DIMFXLON
 70
     0
  9
$DIMJOGANG
 40
0.7853981633974483
  9
$DIMTFILL
 70
     0
  9
$DIMTFILLCLR
 70
     0
  9
$DIMARCSYM
 70
     0
  9
$DIMLTYPE
  6

  9
$DIMLTEX1
  6

  9
$DIMLTEX2
  6

  9
$DIMTXTDIRECTION
 70
     0
  9
$LUNITS
 70
     2
  9
$LUPREC
 70
     4
  9
$SKETCHINC
 40
0.1
  9
$FILLETRAD
 40
0.5
  9
$AUNITS
 70
     0
  9
$AUPREC
 70
     0
  9
$MENU
  1
.
  9
$ELEVATION
 40
0.0
  9
$PELEVATION
 40
0.0
  9
$THICKNESS
 40
0.0
  9
$LIMCHECK
 70
     0
  9
$CHAMFERA
 40
0.5
  9
$CHAMFERB
 40
0.5
  9
$CHAMFERC
 40
1.0
  9
$CHAMFERD
 40
0.0
  9
$SKPOLY
 70
     0
  9
$TDCREATE
 40
2458737.463737488
  9
$TDUCREATE
 40
2458737.380404155
  9
$TDUPDATE
 40
2458737.463737778
  9
$TDUUPDATE
 40
2458737.380404444
  9
$TDINDWG
 40
0.0000000116
  9
$TDUSRTIMER
 40
0.0000000116
  9
$USRTIMER
 70
     1
  9
$ANGBASE
 50
0.0
  9
$ANGDIR
 70
     0
  9
$PDMODE
 70
     0
  9
$PDSIZE
 40
0.0
  9
$PLINEWID
 40
0.0
  9
$SPLFRAME
 70
     0
  9
$SPLINETYPE
 70
     6
  9
$SPLINESEGS
 70
     8
  9
$HANDSEED
  5
775
  9
$SURFTAB1
 70
     6
  9
$SURFTAB2
 70
     6
  9
$SURFTYPE
 70
     6
  9
$SURFU
 70
     6
  9
$SURFV
 70
     6
  9
$UCSBASE
  2

  9
$UCSNAME
  2

  9
$UCSORG
 10
0.0
 20
0.0
 30
0.0
  9
$UCSXDIR
 10
1.0
 20
0.0
 30
0.0
  9
$UCSYDIR
 10
0.0
 20
1.0
 30
0.0
  9
$UCSORTHOREF
  2

  9
$UCSORTHOVIEW
 70
     0
  9
$UCSORGTOP
 10
0.0
 20
0.0
 30
0.0
  9
$UCSORGBOTTOM
 10
0.0
 20
0.0
 30
0.0
  9
$UCSORGLEFT
 10
0.0
 20
0.0
 30
0.0
  9
$UCSORGRIGHT
 10
0.0
 20
0.0
 30
0.0
  9
$UCSORGFRONT
 10
0.0
 20
0.0
 30
0.0
  9
$UCSORGBACK
 10
0.0
 20
0.0
 30
0.0
  9
$PUCSBASE
  2

  9
$PUCSNAME
  2

  9
$PUCSORG
 10
0.0
 20
0.0
 30
0.0
  9
$PUCSXDIR
 10
1.0
 20
0.0
 30
0.0
  9
$PUCSYDIR
 10
0.0
 20
1.0
 30
0.0
  9
$PUCSORTHOREF
  2

  9
$PUCSORTHOVIEW
 70
     0
  9
$PUCSORGTOP
 10
0.0
 20
0.0
 30
0.0
  9
$PUCSORGBOTTOM
 10
0.0
 20
0.0
 30
0.0
  9
$PUCSORGLEFT
 10
0.0
 20
0.0
 30
0.0
  9
$PUCSORGRIGHT
 10
0.0
 20
0.0
 30
0.0
  9
$PUCSORGFRONT
 10
0.0
 20
0.0
 30
0.0
  9
$PUCSORGBACK
 10
0.0
 20
0.0
 30
0.0
  9
$USERI1
 70
     0
  9
$USERI2
 70
     0
  9
$USERI3
 70
     0
  9
$USERI4
 70
     0
  9
$USERI5
 70
     0
  9
$USERR1
 40
0.0
  9
$USERR2
 40
0.0
  9
$USERR3
 40
0.0
  9
$USERR4
 40
0.0
  9
$USERR5
 40
0.0
  9
$WORLDVIEW
 70
     1
  9
$SHADEDGE
 70
     3
  9
$SHADEDIF
 70
    70
  9
$TILEMODE
 70
     1
  9
$MAXACTVP
 70
    64
  9
$PINSBASE
 10
0.0
 20
0.0
 30
0.0
  9
$PLIMCHECK
 70
     0
  9
$PEXTMIN
 10
1.000000000000000E+20
 20
1.000000000000000E+20
 30
1.000000000000000E+20
  9
$PEXTMAX
 10
-1.000000000000000E+20
 20
-1.000000000000000E+20
 30
-1.000000000000000E+20
  9
$PLIMMIN
 10
0.0
 20
0.0
  9
$PLIMMAX
 10
12.0
 20
9.0
  9
$UNITMODE
 70
     0
  9
$VISRETAIN
 70
     1
  9
$PLINEGEN
 70
     0
  9
$PSLTSCALE
 70
     1
  9
$TREEDEPTH
 70
  3020
  9
$CMLSTYLE
  2
Standard
  9
$CMLJUST
 70
     0
  9
$CMLSCALE
 40
1.0
  9
$PROXYGRAPHICS
 70
     1
  9
$MEASUREMENT
 70
     0
  9
$CELWEIGHT
370
    -1
  9
$ENDCAPS
280
     0
  9
$JOINSTYLE
280
     0
  9
$LWDISPLAY
290
     1
  9
$INSUNITS
 70
     1
  9
$HYPERLINKBASE
  1

  9
$STYLESHEET
  1

  9
$XEDIT
290
     1
  9
$CEPSNTYPE
380
     0
  9
$PSTYLEMODE
290
     1
  9
$FINGERPRINTGUID
  2
{D953AB45-4EE7-43BF-99D7-8EC439FB4086}
  9
$VERSIONGUID
  2
{FAEB1C32-E019-11D5-929B-00C0DF256EC4}
  9
$EXTNAMES
290
     1
  9
$PSVPSCALE
 40
0.0
  9
$OLESTARTUP
290
     0
  9
$SORTENTS
280
   127
  9
$INDEXCTL
280
     0
  9
$HIDETEXT
280
     1
  9
$XCLIPFRAME
280
     2
  9
$HALOGAP
280
     0
  9
$OBSCOLOR
 70
   257
  9
$OBSLTYPE
280
     0
  9
$INTERSECTIONDISPLAY
280
     0
  9
$INTERSECTIONCOLOR
 70
   257
  9
$DIMASSOC
280
     2
  9
$PROJECTNAME
  1

  9
$CAMERADISPLAY
290
     0
  9
$LENSLENGTH
 40
50.0
  9
$CAMERAHEIGHT
 40
0.0
  9
$STEPSPERSEC
 40
2.0
  9
$STEPSIZE
 40
6.0
  9
$3DDWFPREC
 40
2.0
  9
$PSOLWIDTH
 40
0.25
  9
$PSOLHEIGHT
 40
4.0
  9
$LOFTANG1
 40
1.570796326794897
  9
$LOFTANG2
 40
1.570796326794897
  9
$LOFTMAG1
 40
0.0
  9
$LOFTMAG2
 40
0.0
  9
$LOFTPARAM
 70
     7
  9
$LOFTNORMALS
280
     1
  9
$LATITUDE
 40
37.795
  9
$LONGITUDE
 40
-122.394
  9
$NORTHDIRECTION
 40
0.0
  9
$TIMEZONE
 70
 -8000
  9
$LIGHTGLYPHDISPLAY
280
     1
  9
$TILEMODELIGHTSYNCH
280
     1
  9
$CMATERIAL
347
3C
  9
$SOLIDHIST
280
     1
  9
$SHOWHIST
280
     1
  9
$DWFFRAME
280
     2
  9
$DGNFRAME
280
     2
  9
$REALWORLDSCALE
290
     1
  9
$INTERFERECOLOR
 62
   256
  9
$CSHADOW
280
     0
  9
$SHADOWPLANELOCATION
 40
0.0
  0
ENDSEC
  0
SECTION
  2
CLASSES
  0
CLASS
  1
ACDBDICTIONARYWDFLT
  2
AcDbDictionaryWithDefault
  3
ObjectDBX Classes
 90
        0
 91
        4
280
     0
281
     0
  0
CLASS
  1
VISUALSTYLE
  2
AcDbVisualStyle
  3
ObjectDBX Classes
 90
     4095
 91
        4
280
     0
281
     0
  0
CLASS
  1
MATERIAL
  2
AcDbMaterial
  3
ObjectDBX Classes
 90
     1153
 91
        4
280
     0
281
     0
  0
CLASS
  1
SUN
  2
AcDbSun
  3
SCENEOE
 90
     1024
 91
        4
280
     0
281
     0
  0
ENDSEC
  0
SECTION
  2
TABLES
  0
TABLE
  2
VPORT
  5
8
330
0
100
AcDbSymbolTable
 70
     1
  0
VPORT
  5
29
330
8
100
AcDbSymbolTableRecord
100
AcDbViewportTableRecord
  2
*Active
 70
     0
 10
0.0
 20
0.0
 11
1.0
 21
1.0
 12
0.0
 22
0.0
 13
0.0
 23
0.0
 14
0.5
 24
0.5
 15
0.5
 25
0.5
 16
0.0
 26
0.0
 36
1.0
 17
99.8363333083708
 27
127.0002221904687
 37
0.0
 40
361.243999909696
 41
1.250002768212024
 42
50.0
 43
0.0
 44
0.0
 50
0.0
 51
0.0
 71
     0
 72
   100
 73
     1
 74
     3
 75
     0
 76
     0
 77
     0
 78
     0
281
     0
 65
     1
110
0.0
120
0.0
130
0.0
111
1.0
121
0.0
131
0.0
112
0.0
122
1.0
132
0.0
 79
     0
146
0.0
 60
     3
 61
     5
292
     1
282
     1
141
0.0
142
0.0
 63
   250
361
3F
  0
ENDTAB
  0
TABLE
  2
LTYPE
  5
5
330
0
100
AcDbSymbolTable
 70
     7
  0
LTYPE
  5
14
330
5
100
AcDbSymbolTableRecord
100
AcDbLinetypeTableRecord
  2
ByBlock
 70
     0
  3

 72
    65
 73
     0
 40
0.0
  0
LTYPE
  5
15
330
5
100
AcDbSymbolTableRecord
100
AcDbLinetypeTableRecord
  2
ByLayer
 70
     0
  3

 72
    65
 73
     0
 40
0.0
  0
LTYPE
  5
16
330
5
100
AcDbSymbolTableRecord
100
AcDbLinetypeTableRecord
  2
Continuous
 70
     0
  3
Solid line
 72
    65
 73
     0
 40
0.0
  0
LTYPE
  5
367
330
5
100
AcDbSymbolTableRecord
100
AcDbLinetypeTableRecord
  2
AI-Linetype-1
 70
     0
  3
Adobe Illustrator Linetype No. 1
 72
    65
 73
     4
 40
6.349999998412502
 49
4.233333332275
 74
     0
 49
-0.7055555553791667
 74
     0
 49
0.7055555553791667
 74
     0
 49
-0.7055555553791667
 74
     0
  0
LTYPE
  5
36C
330
5
100
AcDbSymbolTableRecord
100
AcDbLinetypeTableRecord
  2
AI-Linetype-2
 70
     0
  3
Adobe Illustrator Linetype No. 2
 72
    65
 73
     4
 40
6.349999998412502
 49
4.233333332275
 74
     0
 49
-0.7055555553791667
 74
     0
 49
0.7055555553791667
 74
     0
 49
-0.7055555553791667
 74
     0
  0
LTYPE
  5
371
330
5
100
AcDbSymbolTableRecord
100
AcDbLinetypeTableRecord
  2
AI-Linetype-3
 70
     0
  3
Adobe Illustrator Linetype No. 3
 72
    65
 73
     4
 40
6.349999998412502
 49
4.233333332275
 74
     0
 49
-0.7055555553791667
 74
     0
 49
0.7055555553791667
 74
     0
 49
-0.7055555553791667
 74
     0
  0
LTYPE
  5
376
330
5
100
AcDbSymbolTableRecord
100
AcDbLinetypeTableRecord
  2
AI-Linetype-4
 70
     0
  3
Adobe Illustrator Linetype No. 4
 72
    65
 73
     4
 40
6.349999998412502
 49
4.233333332275
 74
     0
 49
-0.7055555553791667
 74
     0
 49
0.7055555553791667
 74
     0
 49
-0.7055555553791667
 74
     0
  0
LTYPE
  5
380
330
5
100
AcDbSymbolTableRecord
100
AcDbLinetypeTableRecord
  2
AI-Linetype-5
 70
     0
  3
Adobe Illustrator Linetype No. 5
 72
    65
 73
     4
 40
4.938888887654167
 49
1.763888888447917
 74
     0
 49
-0.7055555553791667
 74
     0
 49
1.763888888447917
 74
     0
 49
-0.7055555553791667
 74
     0
  0
LTYPE
  5
386
330
5
100
AcDbSymbolTableRecord
100
AcDbLinetypeTableRecord
  2
AI-Linetype-6
 70
     0
  3
Adobe Illustrator Linetype No. 6
 72
    65
 73
     4
 40
4.938888887654167
 49
1.763888888447917
 74
     0
 49
-0.7055555553791667
 74
     0
 49
1.763888888447917
 74
     0
 49
-0.7055555553791667
 74
     0
  0
ENDTAB
  0
TABLE
  2
LAYER
  5
2
330
0
100
AcDbSymbolTable
 70
     5
  0
LAYER
  5
10
330
2
100
AcDbSymbolTableRecord
100
AcDbLayerTableRecord
  2
0
 70
     0
 62
     7
  6
Continuous
370
    -3
390
F
347
3E
  0
LAYER
  5
40
330
2
100
AcDbSymbolTableRecord
100
AcDbLayerTableRecord
  2
grau 10%
 70
     0
 62
     7
  6
Continuous
370
    -3
390
F
347
3E
  0
LAYER
  5
378
330
2
100
AcDbSymbolTableRecord
100
AcDbLayerTableRecord
  2
Standardebene
 70
     0
 62
     7
  6
Continuous
370
    -3
390
F
347
3E
  0
LAYER
  5
38C
330
2
100
AcDbSymbolTableRecord
100
AcDbLayerTableRecord
  2
Bema_U+00DFung
 70
     1
 62
     7
  6
Continuous
370
    -3
390
F
347
3E
  0
LAYER
  5
76D
330
2
100
AcDbSymbolTableRecord
100
AcDbLayerTableRecord
  2
Text
 70
     1
 62
     7
  6
Continuous
370
    -3
390
F
347
3E
  0
ENDTAB
  0
TABLE
  2
STYLE
  5
3
330
0
100
AcDbSymbolTable
 70
     1
  0
STYLE
  5
11
330
3
100
AcDbSymbolTableRecord
100
AcDbTextStyleTableRecord
  2
Standard
 70
     0
 40
0.0
 41
1.0
 50
0.0
 71
     0
 42
0.2
  3
txt
  4

  0
ENDTAB
  0
TABLE
  2
VIEW
  5
6
330
0
100
AcDbSymbolTable
 70
     0
  0
ENDTAB
  0
TABLE
  2
UCS
  5
7
330
0
100
AcDbSymbolTable
 70
     0
  0
ENDTAB
  0
TABLE
  2
APPID
  5
9
330
0
100
AcDbSymbolTable
 70
     1
  0
APPID
  5
12
330
9
100
AcDbSymbolTableRecord
100
AcDbRegAppTableRecord
  2
ACAD
 70
     0
  0
ENDTAB
  0
TABLE
  2
DIMSTYLE
  5
A
330
0
100
AcDbSymbolTable
 70
     1
100
AcDbDimStyleTable
  0
DIMSTYLE
105
27
330
A
100
AcDbSymbolTableRecord
100
AcDbDimStyleTableRecord
  2
Standard
 70
     0
178
     0
340
11
  0
ENDTAB
  0
TABLE
  2
BLOCK_RECORD
  5
1
330
0
100
AcDbSymbolTable
 70
     1
  0
BLOCK_RECORD
  5
1F
330
1
100
AcDbSymbolTableRecord
100
AcDbBlockTableRecord
  2
*Model_Space
340
22
 70
     0
280
     1
281
     0
  0
BLOCK_RECORD
  5
1B
330
1
100
AcDbSymbolTableRecord
100
AcDbBlockTableRecord
  2
*Paper_Space
340
1E
 70
     0
280
     1
281
     0
  0
BLOCK_RECORD
  5
23
330
1
100
AcDbSymbolTableRecord
100
AcDbBlockTableRecord
  2
*Paper_Space0
340
26
 70
     0
280
     1
281
     0
  0
ENDTAB
  0
ENDSEC
  0
SECTION
  2
BLOCKS
  0
BLOCK
  5
20
330
1F
100
AcDbEntity
  8
0
100
AcDbBlockBegin
  2
*Model_Space
 70
     0
 10
0.0
 20
0.0
 30
0.0
  3
*Model_Space
  1

  0
ENDBLK
  5
21
330
1F
100
AcDbEntity
  8
0
100
AcDbBlockEnd
  0
BLOCK
  5
1C
330
1B
100
AcDbEntity
 67
     1
  8
0
100
AcDbBlockBegin
  2
*Paper_Space
 70
     0
 10
0.0
 20
0.0
 30
0.0
  3
*Paper_Space
  1

  0
ENDBLK
  5
1D
330
1B
100
AcDbEntity
 67
     1
  8
0
100
AcDbBlockEnd
  0
BLOCK
  5
24
330
23
100
AcDbEntity
  8
0
100
AcDbBlockBegin
  2
*Paper_Space0
 70
     0
 10
0.0
 20
0.0
 30
0.0
  3
*Paper_Space0
  1

  0
ENDBLK
  5
25
330
23
100
AcDbEntity
  8
0
100
AcDbBlockEnd
  0
ENDSEC
  0
SECTION
  2
ENTITIES
  0
SPLINE
  5
41
330
1F
100
AcDbEntity
  8
grau 10%
 62
     7
420
 16777215
370
    35
100
AcDbSpline
210
0.0
220
0.0
230
1.0
 70
     8
 71
     3
 72
    14
 73
    10
 74
     0
 42
0.0000000001
 43
0.0000000001
 12
1.0
 22
0.0
 32
0.0
 13
1.0
 23
0.0
 33
0.0
 40
0.0
 40
0.0
 40
0.0
 40
0.0
 40
1.0
 40
1.0
 40
1.0
 40
2.0
 40
2.0
 40
2.0
 40
3.0
 40
3.0
 40
3.0
 40
3.0
 10
178.7726082886407
 20
202.2845416160951
 30
0.0
 10
178.7726082886407
 20
212.2254666136103
 30
0.0
 10
170.7133999573224
 20
220.2839693893733
 30
0.0
 10
160.7728277375853
 20
220.2839693893733
 30
0.0
 10
150.8319027400705
 20
220.2839693893733
 30
0.0
 10
142.7726944087519
 20
212.2254666136103
 30
0.0
 10
142.7726944087519
 20
202.2845416160951
 30
0.0
 10
142.7726944087519
 20
194.4627527291622
 30
0.0
 10
147.7613249630602
 20
187.8058360641595
 30
0.0
 10
154.8567444057309
 20
185.2841805092346
 30
0.0
  0
SPLINE
  5
42
330
1F
100
AcDbEntity
  8
grau 10%
 62
     7
420
 16777215
370
    35
100
AcDbSpline
210
0.0
220
0.0
230
1.0
 70
     8
 71
     3
 72
     8
 73
     4
 74
     0
 42
0.0000000001
 43
0.0000000001
 12
1.0
 22
0.0
 32
0.0
 13
1.0
 23
0.0
 33
0.0
 40
0.0
 40
0.0
 40
0.0
 40
0.0
 40
1.0
 40
1.0
 40
1.0
 40
1.0
 10
166.6885582916617
 20
185.2841805092346
 30
0.0
 10
174.075372178704
 20
187.8548721752587
 30
0.0
 10
178.7225138442088
 20
194.7544999513112
 30
0.0
 10
178.7726082886407
 20
202.2845416160951
 30
0.0
  0
SPLINE
  5
43
330
1F
100
AcDbEntity
  8
grau 10%
 62
     7
420
 16777215
370
    35
100
AcDbSpline
210
0.0
220
0.0
230
1.0
 70
    11
 71
     3
 72
    17
 73
    13
 74
     0
 42
0.0000000001
 43
0.0000000001
 12
1.0
 22
0.0
 32
0.0
 13
1.0
 23
0.0
 33
0.0
 40
0.0
 40
0.0
 40
0.0
 40
0.0
 40
1.0
 40
1.0
 40
1.0
 40
2.0
 40
2.0
 40
2.0
 40
3.0
 40
3.0
 40
3.0
 40
4.0
 40
4.0
 40
4.0
 40
4.0
 10
167.6368249580914
 20
202.2845416160951
 30
0.0
 10
167.6368249580914
 20
206.0751388373701
 30
0.0
 10
164.5634249588599
 20
209.1485388366016
 30
0.0
 10
160.7728277375853
 20
209.1485388366016
 30
0.0
 10
156.9818777385331
 20
209.1485388366016
 30
0.0
 10
153.908830517079
 20
206.0751388373701
 30
0.0
 10
153.908830517079
 20
202.2845416160951
 30
0.0
 10
153.908830517079
 20
198.4935916170432
 30
0.0
 10
156.9818777385331
 20
195.4205443955894
 30
0.0
 10
160.7728277375853
 20
195.4205443955894
 30
0.0
 10
164.5634249588599
 20
195.4205443955894
 30
0.0
 10
167.6368249580914
 20
198.4935916170432
 30
0.0
 10
167.6368249580914
 20
202.2845416160951
 30
0.0
  0
SPLINE
  5
44
330
1F
100
AcDbEntity
  8
grau 10%
 62
     7
420
 16777215
370
    35
100
AcDbSpline
210
0.0
220
0.0
230
1.0
 70
     8
 71
     3
 72
    14
 73
    10
 74
     0
 42
0.0000000001
 43
0.0000000001
 12
1.0
 22
0.0
 32
0.0
 13
1.0
 23
0.0
 33
0.0
 40
0.0
 40
0.0
 40
0.0
 40
0.0
 40
1.0
 40
1.0
 40
1.0
 40
2.0
 40
2.0
 40
2.0
 40
3.0
 40
3.0
 40
3.0
 40
3.0
 10
178.2727221776547
 20
202.2845416160951
 30
0.0
 10
178.2727221776547
 20
211.9488888359016
 30
0.0
 10
170.4371749573913
 20
219.784436056165
 30
0.0
 10
160.7728277375853
 20
219.784436056165
 30
0.0
 10
151.1074221844461
 20
219.784436056165
 30
0.0
 10
143.2725805197382
 20
211.9488888359016
 30
0.0
 10
143.2725805197382
 20
202.2845416160951
 30
0.0
 10
143.2725805197382
 20
194.093394395921
 30
0.0
 10
148.899386073887
 20
187.2170499531956
 30
0.0
 10
156.6192221830681
 20
185.2841805092346
 30
0.0
  0
SPLINE
  5
45
330
1F
100
AcDbEntity
  8
grau 10%
 62
     7
420
 16777215
370
    35
100
AcDbSpline
210
0.0
220
0.0
230
1.0
 70
     8
 71
     3
 72
     8
 73
     4
 74
     0
 42
0.0000000001
 43
0.0000000001
 12
1.0
 22
0.0
 32
0.0
 13
1.0
 23
0.0
 33
0.0
 40
0.0
 40
0.0
 40
0.0
 40
0.0
 40
1.0
 40
1.0
 40
1.0
 40
1.0
 10
164.9260805143246
 20
185.2841805092346
 30
0.0
 10
172.8826305123355
 20
187.2279860643042
 30
0.0
 10
178.226861066555
 20
194.3265805069738
 30
0.0
 10
178.2727221776547
 20
202.2845416160951
 30
0.0
  0
POLYLINE
  5
46
330
1F
100
AcDbEntity
  8
grau 10%
 62
     7
420
 16777215
370
    35
100
AcDb2dPolyline
 66
     1
 10
0.0
 20
0.0
 30
0.0
  0
VERTEX
  5
47
330
46
100
AcDbEntity
  8
grau 10%
 62
     7
420
 16777215
370
    35
100
AcDbVertex
100
AcDb2dVertex
 10
154.8567444057309
 20
185.2841805092346
 30
0.0
  0
VERTEX
  5
48
330
46
100
AcDbEntity
  8
grau 10%
 62
     7
420
 16777215
370
    35
100
AcDbVertex
100
AcDb2dVertex
 10
156.6192221830681
 20
185.2841805092346
 30
0.0
  0
SEQEND
  5
49
330
46
100
AcDbEntity
  8
grau 10%
 62
     7
420
 16777215
370
    35
  0
POLYLINE
  5
4A
330
1F
100
AcDbEntity
  8
grau 10%
 62
     7
420
 16777215
370
    35
100
AcDb2dPolyline
 66
     1
 10
0.0
 20
0.0
 30
0.0
  0
VERTEX
  5
4B
330
4A
100
AcDbEntity
  8
grau 10%
 62
     7
420
 16777215
370
    35
100
AcDbVertex
100
AcDb2dVertex
 10
164.9260805143246
 20
185.2841805092346
 30
0.0
  0
VERTEX
  5
4C
330
4A
100
AcDbEntity
  8
grau 10%
 62
     7
420
 16777215
370
    35
100
AcDbVertex
100
AcDb2dVertex
 10
166.6885582916617
 20
185.2841805092346
 30
0.0
  0
SEQEND
  5
4D
330
4A
100
AcDbEntity
  8
grau 10%
 62
     7
420
 16777215
370
    35
  0
SPLINE
  5
4E
330
1F
100
AcDbEntity
  8
grau 10%
 62
     7
420
 16777215
370
    35
100
AcDbSpline
210
0.0
220
0.0
230
1.0
 70
    11
 71
     3
 72
    17
 73
    13
 74
     0
 42
0.0000000001
 43
0.0000000001
 12
1.0
 22
0.0
 32
0.0
 13
1.0
 23
0.0
 33
0.0
 40
0.0
 40
0.0
 40
0.0
 40
0.0
 40
1.0
 40
1.0
 40
1.0
 40
2.0
 40
2.0
 40
2.0
 40
3.0
 40
3.0
 40
3.0
 40
4.0
 40
4.0
 40
4.0
 40
4.0
 10
167.2724055137382
 20
202.2845416160951
 30
0.0
 10
167.2724055137382
 20
205.8737027263093
 30
0.0
 10
164.3619888477992
 20
208.7841193922483
 30
0.0
 10
160.7728277375853
 20
208.7841193922483
 30
0.0
 10
157.1826082940383
 20
208.7841193922483
 30
0.0
 10
154.2721916280992
 20
205.8737027263093
 30
0.0
 10
154.2721916280992
 20
202.2845416160951
 30
0.0
 10
154.2721916280992
 20
198.6943221725483
 30
0.0
 10
157.1826082940383
 20
195.7839055066093
 30
0.0
 10
160.7728277375853
 20
195.7839055066093
 30
0.0
 10
164.3619888477992
 20
195.7839055066093
 30
0.0
 10
167.2724055137382
 20
198.6943221725483
 30
0.0
 10
167.2724055137382
 20
202.2845416160951
 30
0.0
  0
POLYLINE
  5
4F
330
1F
100
AcDbEntity
  8
grau 10%
 62
     7
420
 16777215
370
    35
100
AcDb2dPolyline
 66
     1
 10
0.0
 20
0.0
 30
0.0
  0
VERTEX
  5
50
330
4F
100
AcDbEntity
  8
grau 10%
 62
     7
420
 16777215
370
    35
100
AcDbVertex
100
AcDb2dVertex
 10
156.6192221830681
 20
185.2841805092346
 30
0.0
  0
VERTEX
  5
51
330
4F
100
AcDbEntity
  8
grau 10%
 62
     7
420
 16777215
370
    35
100
AcDbVertex
100
AcDb2dVertex
 10
164.9260805143246
 20
185.2841805092346
 30
0.0
  0
SEQEND
  5
52
330
4F
100
AcDbEntity
  8
grau 10%
 62
     7
420
 16777215
370
    35
  0
POLYLINE
  5
53
330
1F
100
AcDbEntity
  8
grau 10%
 62
     7
420
 16777215
370
    35
100
AcDb2dPolyline
 66
     1
 10
0.0
 20
0.0
 30
0.0
  0
VERTEX
  5
54
330
53
100
AcDbEntity
  8
grau 10%
 62
     7
420
 16777215
370
    35
100
AcDbVertex
100
AcDb2dVertex
 10
36.81871110190657
 20
154.8694444057271
 30
0.0
  0
VERTEX
  5
55
330
53
100
AcDbEntity
  8
grau 10%
 62
     7
420
 16777215
370
    35
100
AcDbVertex
100
AcDb2dVertex
 10
-2.681111110440641
 20
154.8694444057271
 30
0.0
  0
SEQEND
  5
56
330
53
100
AcDbEntity
  8
grau 10%
 62
     7
420
 16777215
370
    35
  0
POLYLINE
  5
57
330
1F
100
AcDbEntity
  8
grau 10%
 62
     7
420
 16777215
370
    35
100
AcDb2dPolyline
 66
     1
 10
0.0
 20
0.0
 30
0.0
  0
VERTEX
  5
58
330
57
100
AcDbEntity
  8
grau 10%
 62
     7
420
 16777215
370
    35
100
AcDbVertex
100
AcDb2dVertex
 10
38.31872221264283
 20
124.8699277465601
 30
0.0
  0
VERTEX
  5
59
330
57
100
AcDbEntity
  8
grau 10%
 62
     7
420
 16777215
370
    35
100
AcDbVertex
100
AcDb2dVertex
 10
94.81925830962868
 20
124.8699277465601
 30
0.0
  0
SEQEND
  5
5A
330
57
100
AcDbEntity
  8
grau 10%
 62
     7
420
 16777215
370
    35
  0
POLYLINE
  5
5B
330
1F
100
AcDbEntity
  8
grau 10%
 62
     7
420
 16777215
370
    35
100
AcDb2dPolyline
 66
     1
 10
0.0
 20
0.0
 30
0.0
  0
VERTEX
  5
5C
330
5B
100
AcDbEntity
  8
grau 10%
 62
     7
420
 16777215
370
    35
100
AcDbVertex
100
AcDb2dVertex
 10
96.81880275357344
 20
148.1419721851862
 30
0.0
  0
VERTEX
  5
5D
330
5B
100
AcDbEntity
  8
grau 10%
 62
     7
420
 16777215
370
    35
100
AcDbVertex
100
AcDb2dVertex
 10
94.81925830962868
 20
148.8697527405598
 30
0.0
  0
SEQEND
  5
5E
330
5B
100
AcDbEntity
  8
grau 10%
 62
     7
420
 16777215
370
    35
  0
POLYLINE
  5
5F
330
1F
100
AcDbEntity
  8
grau 10%
 62
     7
420
 16777215
370
    35
100
AcDb2dPolyline
 66
     1
 10
0.0
 20
0.0
 30
0.0
  0
VERTEX
  5
60
330
5F
100
AcDbEntity
  8
grau 10%
 62
     7
420
 16777215
370
    35
100
AcDbVertex
100
AcDb2dVertex
 10
37.25015832402092
 20
125.156383302044
 30
0.0
  0
VERTEX
  5
61
330
5F
100
AcDbEntity
  8
grau 10%
 62
     7
420
 16777215
370
    35
100
AcDbVertex
100
AcDb2dVertex
 10
38.31872221264283
 20
124.8699277465601
 30
0.0
  0
SEQEND
  5
62
330
5F
100
AcDbEntity
  8
grau 10%
 62
     7
420
 16777215
370
    35
  0
POLYLINE
  5
63
330
1F
100
AcDbEntity
  8
grau 10%
 62
     7
420
 16777215
370
    35
100
AcDb2dPolyline
 66
     1
 10
0.0
 20
0.0
 30
0.0
  0
VERTEX
  5
64
330
63
100
AcDbEntity
  8
grau 10%
 62
     7
420
 16777215
370
    35
100
AcDbVertex
100
AcDb2dVertex
 10
-2.681111110440641
 20
118.8698833036158
 30
0.0
  0
VERTEX
  5
65
330
63
100
AcDbEntity
  8
grau 10%
 62
     7
420
 16777215
370
    35
100
AcDbVertex
100
AcDb2dVertex
 10
36.81871110190657
 20
118.8698833036158
 30
0.0
  0
SEQEND
  5
66
330
63
100
AcDbEntity
  8
grau 10%
 62
     7
420
 16777215
370
    35
  0
POLYLINE
  5
67
330
1F
100
AcDbEntity
  8
grau 10%
 62
     7
420
 16777215
370
    35
100
AcDb2dPolyline
 66
     1
 10
0.0
 20
0.0
 30
0.0
  0
VERTEX
  5
68
330
67
100
AcDbEntity
  8
grau 10%
 62
     7
420
 16777215
370
    35
100
AcDbVertex
100
AcDb2dVertex
 10
-3.18099722142659
 20
119.369416636824
 30
0.0
  0
VERTEX
  5
69
330
67
100
AcDbEntity
  8
grau 10%
 62
     7
420
 16777215
370
    35
100
AcDbVertex
100
AcDb2dVertex
 10
-2.681111110440641
 20
118.8698833036158
 30
0.0
  0
SEQEND
  5
6A
330
67
100
AcDbEntity
  8
grau 10%
 62
     7
420
 16777215
370
    35
  0
POLYLINE
  5
6B
330
1F
100
AcDbEntity
  8
grau 10%
 62
     7
420
 16777215
370
    35
100
AcDb2dPolyline
 66
     1
 10
0.0
 20
0.0
 30
0.0
  0
VERTEX
  5
6C
330
6B
100
AcDbEntity
  8
grau 10%
 62
     7
420
 16777215
370
    35
100
AcDbVertex
100
AcDb2dVertex
 10
94.81925830962868
 20
148.8697527405598
 30
0.0
  0
VERTEX
  5
6D
330
6B
100
AcDbEntity
  8
grau 10%
 62
     7
420
 16777215
370
    35
100
AcDbVertex
100
AcDb2dVertex
 10
38.31872221264283
 20
148.8697527405598
 30
0.0
  0
SEQEND
  5
6E
330
6B
100
AcDbEntity
  8
grau 10%
 62
     7
420
 16777215
370
    35
  0
POLYLINE
  5
6F
330
1F
100
AcDbEntity
  8
grau 10%
 62
     7
420
 16777215
370
    35
100
AcDb2dPolyline
 66
     1
 10
0.0
 20
0.0
 30
0.0
  0
VERTEX
  5
70
330
6F
100
AcDbEntity
  8
grau 10%
 62
     7
420
 16777215
370
    35
100
AcDbVertex
100
AcDb2dVertex
 10
-2.681111110440641
 20
154.8694444057271
 30
0.0
  0
VERTEX
  5
71
330
6F
100
AcDbEntity
  8
grau 10%
 62
     7
420
 16777215
370
    35
100
AcDbVertex
100
AcDb2dVertex
 10
-3.18099722142659
 20
154.3699110725182
 30
0.0
  0
SEQEND
  5
72
330
6F
100
AcDbEntity
  8
grau 10%
 62
     7
420
 16777215
370
    35
  0
POLYLINE
  5
73
330
1F
100
AcDbEntity
  8
grau 10%
 62
     7
420
 16777215
370
    35
100
AcDb2dPolyline
 66
     1
 10
0.0
 20
0.0
 30
0.0
  0
VERTEX
  5
74
330
73
100
AcDbEntity
  8
grau 10%
 62
     7
420
 16777215
370
    35
100
AcDbVertex
100
AcDb2dVertex
 10
38.31872221264283
 20
148.8697527405598
 30
0.0
  0
VERTEX
  5
75
330
73
100
AcDbEntity
  8
grau 10%
 62
     7
420
 16777215
370
    35
100
AcDbVertex
100
AcDb2dVertex
 10
37.25015832402092
 20
148.5832971850759
 30
0.0
  0
SEQEND
  5
76
330
73
100
AcDbEntity
  8
grau 10%
 62
     7
420
 16777215
370
    35
  0
POLYLINE
  5
77
330
1F
100
AcDbEntity
  8
grau 10%
 62
     7
420
 16777215
370
    35
100
AcDb2dPolyline
 66
     1
 10
0.0
 20
0.0
 30
0.0
  0
VERTEX
  5
78
330
77
100
AcDbEntity
  8
grau 10%
 62
     7
420
 16777215
370
    35
100
AcDbVertex
100
AcDb2dVertex
 10
94.81925830962868
 20
124.8699277465601
 30
0.0
  0
VERTEX
  5
79
330
77
100
AcDbEntity
  8
grau 10%
 62
     7
420
 16777215
370
    35
100
AcDbVertex
100
AcDb2dVertex
 10
96.81880275357344
 20
125.597355524156
 30
0.0
  0
SEQEND
  5
7A
330
77
100
AcDbEntity
  8
grau 10%
 62
     7
420
 16777215
370
    35
  0
POLYLINE
  5
7B
330
1F
100
AcDbEntity
  8
grau 10%
 62
     7
420
 16777215
370
    35
100
AcDb2dPolyline
 66
     1
 10
0.0
 20
0.0
 30
0.0
  0
VERTEX
  5
7C
330
7B
100
AcDbEntity
  8
grau 10%
 62
     7
420
 16777215
370
    35
100
AcDbVertex
100
AcDb2dVertex
 10
37.14679443515799
 20
148.5695388517464
 30
0.0
  0
VERTEX
  5
7D
330
7B
100
AcDbEntity
  8
grau 10%
 62
     7
420
 16777215
370
    35
100
AcDbVertex
100
AcDb2dVertex
 10
36.88750276855626
 20
148.5695388517464
 30
0.0
  0
SEQEND
  5
7E
330
7B
100
AcDbEntity
  8
grau 10%
 62
     7
420
 16777215
370
    35
  0
POLYLINE
  5
7F
330
1F
100
AcDbEntity
  8
grau 10%
 62
     7
420
 16777215
370
    35
100
AcDb2dPolyline
 66
     1
 10
0.0
 20
0.0
 30
0.0
  0
VERTEX
  5
80
330
7F
100
AcDbEntity
  8
grau 10%
 62
     7
420
 16777215
370
    35
100
AcDbVertex
100
AcDb2dVertex
 10
36.88750276855626
 20
125.1694360798187
 30
0.0
  0
VERTEX
  5
81
330
7F
100
AcDbEntity
  8
grau 10%
 62
     7
420
 16777215
370
    35
100
AcDbVertex
100
AcDb2dVertex
 10
37.14679443515799
 20
125.1694360798187
 30
0.0
  0
SEQEND
  5
82
330
7F
100
AcDbEntity
  8
grau 10%
 62
     7
420
 16777215
370
    35
  0
SPLINE
  5
83
330
1F
100
AcDbEntity
  8
grau 10%
 62
     7
420
 16777215
370
    35
100
AcDbSpline
210
0.0
220
0.0
230
1.0
 70
     8
 71
     3
 72
     8
 73
     4
 74
     0
 42
0.0000000001
 43
0.0000000001
 12
1.0
 22
0.0
 32
0.0
 13
1.0
 23
0.0
 33
0.0
 40
0.0
 40
0.0
 40
0.0
 40
0.0
 40
1.0
 40
1.0
 40
1.0
 40
1.0
 10
36.88750276855626
 20
125.1694360798187
 30
0.0
 10
36.86280832411777
 20
125.1694360798187
 30
0.0
 10
36.83917221301257
 20
125.1676721909298
 30
0.0
 10
36.81871110190657
 20
125.1641444131529
 30
0.0
  0
SPLINE
  5
84
330
1F
100
AcDbEntity
  8
grau 10%
 62
     7
420
 16777215
370
    35
100
AcDbSpline
210
0.0
220
0.0
230
1.0
 70
     8
 71
     3
 72
     8
 73
     4
 74
     0
 42
0.0000000001
 43
0.0000000001
 12
1.0
 22
0.0
 32
0.0
 13
1.0
 23
0.0
 33
0.0
 40
0.0
 40
0.0
 40
0.0
 40
0.0
 40
1.0
 40
1.0
 40
1.0
 40
1.0
 10
36.81871110190657
 20
148.5755360739671
 30
0.0
 10
36.8430527685673
 20
148.5713027406346
 30
0.0
 10
36.86633610189475
 20
148.5695388517464
 30
0.0
 10
36.88750276855626
 20
148.5695388517464
 30
0.0
  0
SPLINE
  5
85
330
1F
100
AcDbEntity
  8
grau 10%
 62
     7
420
 16777215
370
    35
100
AcDbSpline
210
0.0
220
0.0
230
1.0
 70
     8
 71
     3
 72
     8
 73
     4
 74
     0
 42
0.0000000001
 43
0.0000000001
 12
1.0
 22
0.0
 32
0.0
 13
1.0
 23
0.0
 33
0.0
 40
0.0
 40
0.0
 40
0.0
 40
0.0
 40
1.0
 40
1.0
 40
1.0
 40
1.0
 10
37.25015832402092
 20
125.156383302044
 30
0.0
 10
37.21452776847439
 20
125.1659083020417
 30
0.0
 10
37.17889721292786
 20
125.1701416353735
 30
0.0
 10
37.14679443515799
 20
125.1694360798187
 30
0.0
  0
SPLINE
  5
86
330
1F
100
AcDbEntity
  8
grau 10%
 62
     7
420
 16777215
370
    35
100
AcDbSpline
210
0.0
220
0.0
230
1.0
 70
     8
 71
     3
 72
     8
 73
     4
 74
     0
 42
0.0000000001
 43
0.0000000001
 12
1.0
 22
0.0
 32
0.0
 13
1.0
 23
0.0
 33
0.0
 40
0.0
 40
0.0
 40
0.0
 40
0.0
 40
1.0
 40
1.0
 40
1.0
 40
1.0
 10
37.14679443515799
 20
148.5695388517464
 30
0.0
 10
37.1834833240378
 20
148.5695388517464
 30
0.0
 10
37.21911387958433
 20
148.5744777406338
 30
0.0
 10
37.25015832402092
 20
148.5832971850759
 30
0.0
  0
POLYLINE
  5
87
330
1F
100
AcDbEntity
  8
grau 10%
 62
     7
420
 16777215
370
    35
100
AcDb2dPolyline
 66
     1
 10
0.0
 20
0.0
 30
0.0
  0
VERTEX
  5
88
330
87
100
AcDbEntity
  8
grau 10%
 62
     7
420
 16777215
370
    35
100
AcDbVertex
100
AcDb2dVertex
 10
36.81871110190657
 20
118.8698833036158
 30
0.0
  0
VERTEX
  5
89
330
87
100
AcDbEntity
  8
grau 10%
 62
     7
420
 16777215
370
    35
100
AcDbVertex
100
AcDb2dVertex
 10
36.81871110190657
 20
118.9753638591446
 30
0.0
  0
VERTEX
  5
8A
330
87
100
AcDbEntity
  8
grau 10%
 62
     7
420
 16777215
370
    35
100
AcDbVertex
100
AcDb2dVertex
 10
36.81871110190657
 20
119.2907471923992
 30
0.0
  0
VERTEX
  5
8B
330
87
100
AcDbEntity
  8
grau 10%
 62
     7
420
 16777215
370
    35
100
AcDbVertex
100
AcDb2dVertex
 10
36.81871110190657
 20
119.8121527478247
 30
0.0
  0
VERTEX
  5
8C
330
87
100
AcDbEntity
  8
grau 10%
 62
     7
420
 16777215
370
    35
100
AcDbVertex
100
AcDb2dVertex
 10
36.81871110190657
 20
120.5332305254222
 30
0.0
  0
VERTEX
  5
8D
330
87
100
AcDbEntity
  8
grau 10%
 62
     7
420
 16777215
370
    35
100
AcDbVertex
100
AcDb2dVertex
 10
36.81871110190657
 20
121.4462194140828
 30
0.0
  0
VERTEX
  5
8E
330
87
100
AcDbEntity
  8
grau 10%
 62
     7
420
 16777215
370
    35
100
AcDbVertex
100
AcDb2dVertex
 10
36.81871110190657
 20
122.5401833026977
 30
0.0
  0
VERTEX
  5
8F
330
87
100
AcDbEntity
  8
grau 10%
 62
     7
420
 16777215
370
    35
100
AcDbVertex
100
AcDb2dVertex
 10
36.81871110190657
 20
123.8020694134938
 30
0.0
  0
VERTEX
  5
90
330
87
100
AcDbEntity
  8
grau 10%
 62
     7
420
 16777215
370
    35
100
AcDbVertex
100
AcDb2dVertex
 10
36.81871110190657
 20
125.2167083020291
 30
0.0
  0
VERTEX
  5
91
330
87
100
AcDbEntity
  8
grau 10%
 62
     7
420
 16777215
370
    35
100
AcDbVertex
100
AcDb2dVertex
 10
36.81871110190657
 20
126.7685777460853
 30
0.0
  0
VERTEX
  5
92
330
87
100
AcDbEntity
  8
grau 10%
 62
     7
420
 16777215
370
    35
100
AcDbVertex
100
AcDb2dVertex
 10
36.81871110190657
 20
128.4382749678902
 30
0.0
  0
VERTEX
  5
93
330
87
100
AcDbEntity
  8
grau 10%
 62
     7
420
 16777215
370
    35
100
AcDbVertex
100
AcDb2dVertex
 10
36.81871110190657
 20
130.2074555230033
 30
0.0
  0
VERTEX
  5
94
330
87
100
AcDbEntity
  8
grau 10%
 62
     7
420
 16777215
370
    35
100
AcDbVertex
100
AcDb2dVertex
 10
36.81871110190657
 20
132.0542471892084
 30
0.0
  0
VERTEX
  5
95
330
87
100
AcDbEntity
  8
grau 10%
 62
     7
420
 16777215
370
    35
100
AcDbVertex
100
AcDb2dVertex
 10
36.81871110190657
 20
133.9574832998439
 30
0.0
  0
VERTEX
  5
96
330
87
100
AcDbEntity
  8
grau 10%
 62
     7
420
 16777215
370
    35
100
AcDbVertex
100
AcDb2dVertex
 10
36.81871110190657
 20
135.8949388549152
 30
0.0
  0
VERTEX
  5
97
330
87
100
AcDbEntity
  8
grau 10%
 62
     7
420
 16777215
370
    35
100
AcDbVertex
100
AcDb2dVertex
 10
36.81871110190657
 20
137.8443888544277
 30
0.0
  0
VERTEX
  5
98
330
87
100
AcDbEntity
  8
grau 10%
 62
     7
420
 16777215
370
    35
100
AcDbVertex
100
AcDb2dVertex
 10
36.81871110190657
 20
139.7814916317212
 30
0.0
  0
VERTEX
  5
99
330
87
100
AcDbEntity
  8
grau 10%
 62
     7
420
 16777215
370
    35
100
AcDbVertex
100
AcDb2dVertex
 10
36.81871110190657
 20
141.6854332979115
 30
0.0
  0
VERTEX
  5
9A
330
87
100
AcDbEntity
  8
grau 10%
 62
     7
420
 16777215
370
    35
100
AcDbVertex
100
AcDb2dVertex
 10
36.81871110190657
 20
143.5322249641167
 30
0.0
  0
VERTEX
  5
9B
330
87
100
AcDbEntity
  8
grau 10%
 62
     7
420
 16777215
370
    35
100
AcDbVertex
100
AcDb2dVertex
 10
36.81871110190657
 20
145.3014055192298
 30
0.0
  0
VERTEX
  5
9C
330
87
100
AcDbEntity
  8
grau 10%
 62
     7
420
 16777215
370
    35
100
AcDbVertex
100
AcDb2dVertex
 10
36.81871110190657
 20
146.9711027410347
 30
0.0
  0
VERTEX
  5
9D
330
87
100
AcDbEntity
  8
grau 10%
 62
     7
420
 16777215
370
    35
100
AcDbVertex
100
AcDb2dVertex
 10
36.81871110190657
 20
148.5229721850909
 30
0.0
  0
VERTEX
  5
9E
330
87
100
AcDbEntity
  8
grau 10%
 62
     7
420
 16777215
370
    35
100
AcDbVertex
100
AcDb2dVertex
 10
36.81871110190657
 20
149.9376110736262
 30
0.0
  0
VERTEX
  5
9F
330
87
100
AcDbEntity
  8
grau 10%
 62
     7
420
 16777215
370
    35
100
AcDbVertex
100
AcDb2dVertex
 10
36.81871110190657
 20
151.1991444066445
 30
0.0
  0
VERTEX
  5
A0
330
87
100
AcDbEntity
  8
grau 10%
 62
     7
420
 16777215
370
    35
100
AcDbVertex
100
AcDb2dVertex
 10
36.81871110190657
 20
152.2931082952595
 30
0.0
  0
VERTEX
  5
A1
330
87
100
AcDbEntity
  8
grau 10%
 62
     7
420
 16777215
370
    35
100
AcDbVertex
100
AcDb2dVertex
 10
36.81871110190657
 20
153.2057444061429
 30
0.0
  0
VERTEX
  5
A2
330
87
100
AcDbEntity
  8
grau 10%
 62
     7
420
 16777215
370
    35
100
AcDbVertex
100
AcDb2dVertex
 10
36.81871110190657
 20
153.9275277392959
 30
0.0
  0
VERTEX
  5
A3
330
87
100
AcDbEntity
  8
grau 10%
 62
     7
420
 16777215
370
    35
100
AcDbVertex
100
AcDb2dVertex
 10
36.81871110190657
 20
154.4489332947208
 30
0.0
  0
VERTEX
  5
A4
330
87
100
AcDbEntity
  8
grau 10%
 62
     7
420
 16777215
370
    35
100
AcDbVertex
100
AcDb2dVertex
 10
36.81871110190657
 20
154.7643166279753
 30
0.0
  0
VERTEX
  5
A5
330
87
100
AcDbEntity
  8
grau 10%
 62
     7
420
 16777215
370
    35
100
AcDbVertex
100
AcDb2dVertex
 10
36.81871110190657
 20
154.8694444057271
 30
0.0
  0
SEQEND
  5
A6
330
87
100
AcDbEntity
  8
grau 10%
 62
     7
420
 16777215
370
    35
  0
POLYLINE
  5
A7
330
1F
100
AcDbEntity
  8
grau 10%
 62
     7
420
 16777215
370
    35
100
AcDb2dPolyline
 66
     1
 10
0.0
 20
0.0
 30
0.0
  0
VERTEX
  5
A8
330
A7
100
AcDbEntity
  8
grau 10%
 62
     7
420
 16777215
370
    35
100
AcDbVertex
100
AcDb2dVertex
 10
-2.681111110440641
 20
154.8694444057271
 30
0.0
  0
VERTEX
  5
A9
330
A7
100
AcDbEntity
  8
grau 10%
 62
     7
420
 16777215
370
    35
100
AcDbVertex
100
AcDb2dVertex
 10
-2.681111110440641
 20
154.7643166279753
 30
0.0
  0
VERTEX
  5
AA
330
A7
100
AcDbEntity
  8
grau 10%
 62
     7
420
 16777215
370
    35
100
AcDbVertex
100
AcDb2dVertex
 10
-2.681111110440641
 20
154.4489332947208
 30
0.0
  0
VERTEX
  5
AB
330
A7
100
AcDbEntity
  8
grau 10%
 62
     7
420
 16777215
370
    35
100
AcDbVertex
100
AcDb2dVertex
 10
-2.681111110440641
 20
153.9275277392959
 30
0.0
  0
VERTEX
  5
AC
330
A7
100
AcDbEntity
  8
grau 10%
 62
     7
420
 16777215
370
    35
100
AcDbVertex
100
AcDb2dVertex
 10
-2.681111110440641
 20
153.2057444061429
 30
0.0
  0
VERTEX
  5
AD
330
A7
100
AcDbEntity
  8
grau 10%
 62
     7
420
 16777215
370
    35
100
AcDbVertex
100
AcDb2dVertex
 10
-2.681111110440641
 20
152.2931082952595
 30
0.0
  0
VERTEX
  5
AE
330
A7
100
AcDbEntity
  8
grau 10%
 62
     7
420
 16777215
370
    35
100
AcDbVertex
100
AcDb2dVertex
 10
-2.681111110440641
 20
151.1991444066445
 30
0.0
  0
VERTEX
  5
AF
330
A7
100
AcDbEntity
  8
grau 10%
 62
     7
420
 16777215
370
    35
100
AcDbVertex
100
AcDb2dVertex
 10
-2.681111110440641
 20
149.9372582958485
 30
0.0
  0
VERTEX
  5
B0
330
A7
100
AcDbEntity
  8
grau 10%
 62
     7
420
 16777215
370
    35
100
AcDbVertex
100
AcDb2dVertex
 10
-2.681111110440641
 20
148.522266629536
 30
0.0
  0
VERTEX
  5
B1
330
A7
100
AcDbEntity
  8
grau 10%
 62
     7
420
 16777215
370
    35
100
AcDbVertex
100
AcDb2dVertex
 10
-2.681111110440641
 20
146.9711027410347
 30
0.0
  0
VERTEX
  5
B2
330
A7
100
AcDbEntity
  8
grau 10%
 62
     7
420
 16777215
370
    35
100
AcDbVertex
100
AcDb2dVertex
 10
-2.681111110440641
 20
145.301052741452
 30
0.0
  0
VERTEX
  5
B3
330
A7
100
AcDbEntity
  8
grau 10%
 62
     7
420
 16777215
370
    35
100
AcDbVertex
100
AcDb2dVertex
 10
-2.681111110440641
 20
143.5322249641167
 30
0.0
  0
VERTEX
  5
B4
330
A7
100
AcDbEntity
  8
grau 10%
 62
     7
420
 16777215
370
    35
100
AcDbVertex
100
AcDb2dVertex
 10
-2.681111110440641
 20
141.6854332979115
 30
0.0
  0
VERTEX
  5
B5
330
A7
100
AcDbEntity
  8
grau 10%
 62
     7
420
 16777215
370
    35
100
AcDbVertex
100
AcDb2dVertex
 10
-2.681111110440641
 20
139.7814916317212
 30
0.0
  0
VERTEX
  5
B6
330
A7
100
AcDbEntity
  8
grau 10%
 62
     7
420
 16777215
370
    35
100
AcDbVertex
100
AcDb2dVertex
 10
-2.681111110440641
 20
137.8443888544277
 30
0.0
  0
VERTEX
  5
B7
330
A7
100
AcDbEntity
  8
grau 10%
 62
     7
420
 16777215
370
    35
100
AcDbVertex
100
AcDb2dVertex
 10
-2.681111110440641
 20
135.8949388549152
 30
0.0
  0
VERTEX
  5
B8
330
A7
100
AcDbEntity
  8
grau 10%
 62
     7
420
 16777215
370
    35
100
AcDbVertex
100
AcDb2dVertex
 10
-2.681111110440641
 20
133.9574832998439
 30
0.0
  0
VERTEX
  5
B9
330
A7
100
AcDbEntity
  8
grau 10%
 62
     7
420
 16777215
370
    35
100
AcDbVertex
100
AcDb2dVertex
 10
-2.681111110440641
 20
132.0542471892084
 30
0.0
  0
VERTEX
  5
BA
330
A7
100
AcDbEntity
  8
grau 10%
 62
     7
420
 16777215
370
    35
100
AcDbVertex
100
AcDb2dVertex
 10
-2.681111110440641
 20
130.2074555230033
 30
0.0
  0
VERTEX
  5
BB
330
A7
100
AcDbEntity
  8
grau 10%
 62
     7
420
 16777215
370
    35
100
AcDbVertex
100
AcDb2dVertex
 10
-2.681111110440641
 20
128.4382749678902
 30
0.0
  0
VERTEX
  5
BC
330
A7
100
AcDbEntity
  8
grau 10%
 62
     7
420
 16777215
370
    35
100
AcDbVertex
100
AcDb2dVertex
 10
-2.681111110440641
 20
126.7685777460853
 30
0.0
  0
VERTEX
  5
BD
330
A7
100
AcDbEntity
  8
grau 10%
 62
     7
420
 16777215
370
    35
100
AcDbVertex
100
AcDb2dVertex
 10
-2.681111110440641
 20
125.2167083020291
 30
0.0
  0
VERTEX
  5
BE
330
A7
100
AcDbEntity
  8
grau 10%
 62
     7
420
 16777215
370
    35
100
AcDbVertex
100
AcDb2dVertex
 10
-2.681111110440641
 20
123.8020694134938
 30
0.0
  0
VERTEX
  5
BF
330
A7
100
AcDbEntity
  8
grau 10%
 62
     7
420
 16777215
370
    35
100
AcDbVertex
100
AcDb2dVertex
 10
-2.681111110440641
 20
122.5401833026977
 30
0.0
  0
VERTEX
  5
C0
330
A7
100
AcDbEntity
  8
grau 10%
 62
     7
420
 16777215
370
    35
100
AcDbVertex
100
AcDb2dVertex
 10
-2.681111110440641
 20
121.4462194140828
 30
0.0
  0
VERTEX
  5
C1
330
A7
100
AcDbEntity
  8
grau 10%
 62
     7
420
 16777215
370
    35
100
AcDbVertex
100
AcDb2dVertex
 10
-2.681111110440641
 20
120.5332305254222
 30
0.0
  0
VERTEX
  5
C2
330
A7
100
AcDbEntity
  8
grau 10%
 62
     7
420
 16777215
370
    35
100
AcDbVertex
100
AcDb2dVertex
 10
-2.681111110440641
 20
119.8121527478247
 30
0.0
  0
VERTEX
  5
C3
330
A7
100
AcDbEntity
  8
grau 10%
 62
     7
420
 16777215
370
    35
100
AcDbVertex
100
AcDb2dVertex
 10
-2.681111110440641
 20
119.2907471923992
 30
0.0
  0
VERTEX
  5
C4
330
A7
100
AcDbEntity
  8
grau 10%
 62
     7
420
 16777215
370
    35
100
AcDbVertex
100
AcDb2dVertex
 10
-2.681111110440641
 20
118.9753638591446
 30
0.0
  0
VERTEX
  5
C5
330
A7
100
AcDbEntity
  8
grau 10%
 62
     7
420
 16777215
370
    35
100
AcDbVertex
100
AcDb2dVertex
 10
-2.681111110440641
 20
118.8698833036158
 30
0.0
  0
SEQEND
  5
C6
330
A7
100
AcDbEntity
  8
grau 10%
 62
     7
420
 16777215
370
    35
  0
POLYLINE
  5
C7
330
1F
100
AcDbEntity
  8
grau 10%
 62
     7
420
 16777215
370
    35
100
AcDb2dPolyline
 66
     1
 10
0.0
 20
0.0
 30
0.0
  0
VERTEX
  5
C8
330
C7
100
AcDbEntity
  8
grau 10%
 62
     7
420
 16777215
370
    35
100
AcDbVertex
100
AcDb2dVertex
 10
-3.18099722142659
 20
119.369416636824
 30
0.0
  0
VERTEX
  5
C9
330
C7
100
AcDbEntity
  8
grau 10%
 62
     7
420
 16777215
370
    35
100
AcDbVertex
100
AcDb2dVertex
 10
-3.18099722142659
 20
119.4720749701314
 30
0.0
  0
VERTEX
  5
CA
330
C7
100
AcDbEntity
  8
grau 10%
 62
     7
420
 16777215
370
    35
100
AcDbVertex
100
AcDb2dVertex
 10
-3.18099722142659
 20
119.7789916367216
 30
0.0
  0
VERTEX
  5
CB
330
C7
100
AcDbEntity
  8
grau 10%
 62
     7
420
 16777215
370
    35
100
AcDbVertex
100
AcDb2dVertex
 10
-3.18099722142659
 20
120.2855805254837
 30
0.0
  0
VERTEX
  5
CC
330
C7
100
AcDbEntity
  8
grau 10%
 62
     7
420
 16777215
370
    35
100
AcDbVertex
100
AcDb2dVertex
 10
-3.18099722142659
 20
120.986902747531
 30
0.0
  0
VERTEX
  5
CD
330
C7
100
AcDbEntity
  8
grau 10%
 62
     7
420
 16777215
370
    35
100
AcDbVertex
100
AcDb2dVertex
 10
-3.18099722142659
 20
121.8744916361979
 30
0.0
  0
VERTEX
  5
CE
330
C7
100
AcDbEntity
  8
grau 10%
 62
     7
420
 16777215
370
    35
100
AcDbVertex
100
AcDb2dVertex
 10
-3.18099722142659
 20
122.9381166359318
 30
0.0
  0
VERTEX
  5
CF
330
C7
100
AcDbEntity
  8
grau 10%
 62
     7
420
 16777215
370
    35
100
AcDbVertex
100
AcDb2dVertex
 10
-3.18099722142659
 20
124.1650777467365
 30
0.0
  0
VERTEX
  5
D0
330
C7
100
AcDbEntity
  8
grau 10%
 62
     7
420
 16777215
370
    35
100
AcDbVertex
100
AcDb2dVertex
 10
-3.18099722142659
 20
125.540558301948
 30
0.0
  0
VERTEX
  5
D1
330
C7
100
AcDbEntity
  8
grau 10%
 62
     7
420
 16777215
370
    35
100
AcDbVertex
100
AcDb2dVertex
 10
-3.18099722142659
 20
127.0490360793486
 30
0.0
  0
VERTEX
  5
D2
330
C7
100
AcDbEntity
  8
grau 10%
 62
     7
420
 16777215
370
    35
100
AcDbVertex
100
AcDb2dVertex
 10
-3.18099722142659
 20
128.6725194122763
 30
0.0
  0
VERTEX
  5
D3
330
C7
100
AcDbEntity
  8
grau 10%
 62
     7
420
 16777215
370
    35
100
AcDbVertex
100
AcDb2dVertex
 10
-3.18099722142659
 20
130.392311078513
 30
0.0
  0
VERTEX
  5
D4
330
C7
100
AcDbEntity
  8
grau 10%
 62
     7
420
 16777215
370
    35
100
AcDbVertex
100
AcDb2dVertex
 10
-3.18099722142659
 20
132.1883027447302
 30
0.0
  0
VERTEX
  5
D5
330
C7
100
AcDbEntity
  8
grau 10%
 62
     7
420
 16777215
370
    35
100
AcDbVertex
100
AcDb2dVertex
 10
-3.18099722142659
 20
134.0386221887123
 30
0.0
  0
VERTEX
  5
D6
330
C7
100
AcDbEntity
  8
grau 10%
 62
     7
420
 16777215
370
    35
100
AcDbVertex
100
AcDb2dVertex
 10
-3.18099722142659
 20
135.922102743797
 30
0.0
  0
VERTEX
  5
D7
330
C7
100
AcDbEntity
  8
grau 10%
 62
     7
420
 16777215
370
    35
100
AcDbVertex
100
AcDb2dVertex
 10
-3.18099722142659
 20
137.8172249655452
 30
0.0
  0
VERTEX
  5
D8
330
C7
100
AcDbEntity
  8
grau 10%
 62
     7
420
 16777215
370
    35
100
AcDbVertex
100
AcDb2dVertex
 10
-3.18099722142659
 20
139.7010582984076
 30
0.0
  0
VERTEX
  5
D9
330
C7
100
AcDbEntity
  8
grau 10%
 62
     7
420
 16777215
370
    35
100
AcDbVertex
100
AcDb2dVertex
 10
-3.18099722142659
 20
141.5513777423898
 30
0.0
  0
VERTEX
  5
DA
330
C7
100
AcDbEntity
  8
grau 10%
 62
     7
420
 16777215
370
    35
100
AcDbVertex
100
AcDb2dVertex
 10
-3.18099722142659
 20
143.3473694086076
 30
0.0
  0
VERTEX
  5
DB
330
C7
100
AcDbEntity
  8
grau 10%
 62
     7
420
 16777215
370
    35
100
AcDbVertex
100
AcDb2dVertex
 10
-3.18099722142659
 20
145.0671610748443
 30
0.0
  0
VERTEX
  5
DC
330
C7
100
AcDbEntity
  8
grau 10%
 62
     7
420
 16777215
370
    35
100
AcDbVertex
100
AcDb2dVertex
 10
-3.18099722142659
 20
146.6902916299937
 30
0.0
  0
VERTEX
  5
DD
330
C7
100
AcDbEntity
  8
grau 10%
 62
     7
420
 16777215
370
    35
100
AcDbVertex
100
AcDb2dVertex
 10
-3.18099722142659
 20
148.199122185172
 30
0.0
  0
VERTEX
  5
DE
330
C7
100
AcDbEntity
  8
grau 10%
 62
     7
420
 16777215
370
    35
100
AcDbVertex
100
AcDb2dVertex
 10
-3.18099722142659
 20
149.5746027403841
 30
0.0
  0
VERTEX
  5
DF
330
C7
100
AcDbEntity
  8
grau 10%
 62
     7
420
 16777215
370
    35
100
AcDbVertex
100
AcDb2dVertex
 10
-3.18099722142659
 20
150.8015638511882
 30
0.0
  0
VERTEX
  5
E0
330
C7
100
AcDbEntity
  8
grau 10%
 62
     7
420
 16777215
370
    35
100
AcDbVertex
100
AcDb2dVertex
 10
-3.18099722142659
 20
151.8648360731443
 30
0.0
  0
VERTEX
  5
E1
330
C7
100
AcDbEntity
  8
grau 10%
 62
     7
420
 16777215
370
    35
100
AcDbVertex
100
AcDb2dVertex
 10
-3.18099722142659
 20
152.7520721840341
 30
0.0
  0
VERTEX
  5
E2
330
C7
100
AcDbEntity
  8
grau 10%
 62
     7
420
 16777215
370
    35
100
AcDbVertex
100
AcDb2dVertex
 10
-3.18099722142659
 20
153.4533944060807
 30
0.0
  0
VERTEX
  5
E3
330
C7
100
AcDbEntity
  8
grau 10%
 62
     7
420
 16777215
370
    35
100
AcDbVertex
100
AcDb2dVertex
 10
-3.18099722142659
 20
153.9603360726206
 30
0.0
  0
VERTEX
  5
E4
330
C7
100
AcDbEntity
  8
grau 10%
 62
     7
420
 16777215
370
    35
100
AcDbVertex
100
AcDb2dVertex
 10
-3.18099722142659
 20
154.2672527392108
 30
0.0
  0
VERTEX
  5
E5
330
C7
100
AcDbEntity
  8
grau 10%
 62
     7
420
 16777215
370
    35
100
AcDbVertex
100
AcDb2dVertex
 10
-3.18099722142659
 20
154.3699110725182
 30
0.0
  0
SEQEND
  5
E6
330
C7
100
AcDbEntity
  8
grau 10%
 62
     7
420
 16777215
370
    35
  0
POLYLINE
  5
E7
330
1F
100
AcDbEntity
  8
grau 10%
 62
     7
420
 16777215
370
    35
100
AcDb2dPolyline
 66
     1
 10
0.0
 20
0.0
 30
0.0
  0
VERTEX
  5
E8
330
E7
100
AcDbEntity
  8
grau 10%
 62
     7
420
 16777215
370
    35
100
AcDbVertex
100
AcDb2dVertex
 10
38.31872221264283
 20
148.8697527405598
 30
0.0
  0
VERTEX
  5
E9
330
E7
100
AcDbEntity
  8
grau 10%
 62
     7
420
 16777215
370
    35
100
AcDbVertex
100
AcDb2dVertex
 10
38.31872221264283
 20
148.7670944072524
 30
0.0
  0
VERTEX
  5
EA
330
E7
100
AcDbEntity
  8
grau 10%
 62
     7
420
 16777215
370
    35
100
AcDbVertex
100
AcDb2dVertex
 10
38.31872221264283
 20
148.4608832962177
 30
0.0
  0
VERTEX
  5
EB
330
E7
100
AcDbEntity
  8
grau 10%
 62
     7
420
 16777215
370
    35
100
AcDbVertex
100
AcDb2dVertex
 10
38.31872221264283
 20
147.9564110741215
 30
0.0
  0
VERTEX
  5
EC
330
E7
100
AcDbEntity
  8
grau 10%
 62
     7
420
 16777215
370
    35
100
AcDbVertex
100
AcDb2dVertex
 10
38.31872221264283
 20
147.261791629851
 30
0.0
  0
VERTEX
  5
ED
330
E7
100
AcDbEntity
  8
grau 10%
 62
     7
420
 16777215
370
    35
100
AcDbVertex
100
AcDb2dVertex
 10
38.31872221264283
 20
146.3900777411802
 30
0.0
  0
VERTEX
  5
EE
330
E7
100
AcDbEntity
  8
grau 10%
 62
     7
420
 16777215
370
    35
100
AcDbVertex
100
AcDb2dVertex
 10
38.31872221264283
 20
145.3546749636609
 30
0.0
  0
VERTEX
  5
EF
330
E7
100
AcDbEntity
  8
grau 10%
 62
     7
420
 16777215
370
    35
100
AcDbVertex
100
AcDb2dVertex
 10
38.31872221264283
 20
144.1749860750672
 30
0.0
  0
VERTEX
  5
F0
330
E7
100
AcDbEntity
  8
grau 10%
 62
     7
420
 16777215
370
    35
100
AcDbVertex
100
AcDb2dVertex
 10
38.31872221264283
 20
142.8700610753932
 30
0.0
  0
VERTEX
  5
F1
330
E7
100
AcDbEntity
  8
grau 10%
 62
     7
420
 16777215
370
    35
100
AcDbVertex
100
AcDb2dVertex
 10
38.31872221264283
 20
141.4621249646341
 30
0.0
  0
VERTEX
  5
F2
330
E7
100
AcDbEntity
  8
grau 10%
 62
     7
420
 16777215
370
    35
100
AcDbVertex
100
AcDb2dVertex
 10
38.31872221264283
 20
139.9755194094502
 30
0.0
  0
VERTEX
  5
F3
330
E7
100
AcDbEntity
  8
grau 10%
 62
     7
420
 16777215
370
    35
100
AcDbVertex
100
AcDb2dVertex
 10
38.31872221264283
 20
138.4363499653908
 30
0.0
  0
VERTEX
  5
F4
330
E7
100
AcDbEntity
  8
grau 10%
 62
     7
420
 16777215
370
    35
100
AcDbVertex
100
AcDb2dVertex
 10
38.31872221264283
 20
136.8700166324489
 30
0.0
  0
VERTEX
  5
F5
330
E7
100
AcDbEntity
  8
grau 10%
 62
     7
420
 16777215
370
    35
100
AcDbVertex
100
AcDb2dVertex
 10
38.31872221264283
 20
135.3036832995069
 30
0.0
  0
VERTEX
  5
F6
330
E7
100
AcDbEntity
  8
grau 10%
 62
     7
420
 16777215
370
    35
100
AcDbVertex
100
AcDb2dVertex
 10
38.31872221264283
 20
133.763808299892
 30
0.0
  0
VERTEX
  5
F7
330
E7
100
AcDbEntity
  8
grau 10%
 62
     7
420
 16777215
370
    35
100
AcDbVertex
100
AcDb2dVertex
 10
38.31872221264283
 20
132.2772027447081
 30
0.0
  0
VERTEX
  5
F8
330
E7
100
AcDbEntity
  8
grau 10%
 62
     7
420
 16777215
370
    35
100
AcDbVertex
100
AcDb2dVertex
 10
38.31872221264283
 20
130.8696194117267
 30
0.0
  0
VERTEX
  5
F9
330
E7
100
AcDbEntity
  8
grau 10%
 62
     7
420
 16777215
370
    35
100
AcDbVertex
100
AcDb2dVertex
 10
38.31872221264283
 20
129.564341634275
 30
0.0
  0
VERTEX
  5
FA
330
E7
100
AcDbEntity
  8
grau 10%
 62
     7
420
 16777215
370
    35
100
AcDbVertex
100
AcDb2dVertex
 10
38.31872221264283
 20
128.3846527456814
 30
0.0
  0
VERTEX
  5
FB
330
E7
100
AcDbEntity
  8
grau 10%
 62
     7
420
 16777215
370
    35
100
AcDbVertex
100
AcDb2dVertex
 10
38.31872221264283
 20
127.3496027459404
 30
0.0
  0
VERTEX
  5
FC
330
E7
100
AcDbEntity
  8
grau 10%
 62
     7
420
 16777215
370
    35
100
AcDbVertex
100
AcDb2dVertex
 10
38.31872221264283
 20
126.4775360794912
 30
0.0
  0
VERTEX
  5
FD
330
E7
100
AcDbEntity
  8
grau 10%
 62
     7
420
 16777215
370
    35
100
AcDbVertex
100
AcDb2dVertex
 10
38.31872221264283
 20
125.7832694129985
 30
0.0
  0
VERTEX
  5
FE
330
E7
100
AcDbEntity
  8
grau 10%
 62
     7
420
 16777215
370
    35
100
AcDbVertex
100
AcDb2dVertex
 10
38.31872221264283
 20
125.2784444131245
 30
0.0
  0
VERTEX
  5
FF
330
E7
100
AcDbEntity
  8
grau 10%
 62
     7
420
 16777215
370
    35
100
AcDbVertex
100
AcDb2dVertex
 10
38.31872221264283
 20
124.9725860798675
 30
0.0
  0
VERTEX
  5
100
330
E7
100
AcDbEntity
  8
grau 10%
 62
     7
420
 16777215
370
    35
100
AcDbVertex
100
AcDb2dVertex
 10
38.31872221264283
 20
124.8699277465601
 30
0.0
  0
SEQEND
  5
101
330
E7
100
AcDbEntity
  8
grau 10%
 62
     7
420
 16777215
370
    35
  0
POLYLINE
  5
102
330
1F
100
AcDbEntity
  8
grau 10%
 62
     7
420
 16777215
370
    35
100
AcDb2dPolyline
 66
     1
 10
0.0
 20
0.0
 30
0.0
  0
VERTEX
  5
103
330
102
100
AcDbEntity
  8
grau 10%
 62
     7
420
 16777215
370
    35
100
AcDbVertex
100
AcDb2dVertex
 10
96.81880275357344
 20
148.1419721851862
 30
0.0
  0
VERTEX
  5
104
330
102
100
AcDbEntity
  8
grau 10%
 62
     7
420
 16777215
370
    35
100
AcDbVertex
100
AcDb2dVertex
 10
96.81880275357344
 20
148.0368444074351
 30
0.0
  0
VERTEX
  5
105
330
102
100
AcDbEntity
  8
grau 10%
 62
     7
420
 16777215
370
    35
100
AcDbVertex
100
AcDb2dVertex
 10
96.81880275357344
 20
147.7239305186242
 30
0.0
  0
VERTEX
  5
106
330
102
100
AcDbEntity
  8
grau 10%
 62
     7
420
 16777215
370
    35
100
AcDbVertex
100
AcDb2dVertex
 10
96.81880275357344
 20
147.20852218542
 30
0.0
  0
VERTEX
  5
107
330
102
100
AcDbEntity
  8
grau 10%
 62
     7
420
 16777215
370
    35
100
AcDbVertex
100
AcDb2dVertex
 10
96.81880275357344
 20
146.5004971855965
 30
0.0
  0
VERTEX
  5
108
330
102
100
AcDbEntity
  8
grau 10%
 62
     7
420
 16777215
370
    35
100
AcDbVertex
100
AcDb2dVertex
 10
96.81880275357344
 20
145.6132610747074
 30
0.0
  0
VERTEX
  5
109
330
102
100
AcDbEntity
  8
grau 10%
 62
     7
420
 16777215
370
    35
100
AcDbVertex
100
AcDb2dVertex
 10
96.81880275357344
 20
144.563394408303
 30
0.0
  0
VERTEX
  5
10A
330
102
100
AcDbEntity
  8
grau 10%
 62
     7
420
 16777215
370
    35
100
AcDbVertex
100
AcDb2dVertex
 10
96.81880275357344
 20
143.3702999641569
 30
0.0
  0
VERTEX
  5
10B
330
102
100
AcDbEntity
  8
grau 10%
 62
     7
420
 16777215
370
    35
100
AcDbVertex
100
AcDb2dVertex
 10
96.81880275357344
 20
142.055849964486
 30
0.0
  0
VERTEX
  5
10C
330
102
100
AcDbEntity
  8
grau 10%
 62
     7
420
 16777215
370
    35
100
AcDbVertex
100
AcDb2dVertex
 10
96.81880275357344
 20
140.6447388537277
 30
0.0
  0
VERTEX
  5
10D
330
102
100
AcDbEntity
  8
grau 10%
 62
     7
420
 16777215
370
    35
100
AcDbVertex
100
AcDb2dVertex
 10
96.81880275357344
 20
139.1634249652089
 30
0.0
  0
VERTEX
  5
10E
330
102
100
AcDbEntity
  8
grau 10%
 62
     7
420
 16777215
370
    35
100
AcDbVertex
100
AcDb2dVertex
 10
96.81880275357344
 20
137.6387194100345
 30
0.0
  0
VERTEX
  5
10F
330
102
100
AcDbEntity
  8
grau 10%
 62
     7
420
 16777215
370
    35
100
AcDbVertex
100
AcDb2dVertex
 10
96.81880275357344
 20
136.10025552153
 30
0.0
  0
VERTEX
  5
110
330
102
100
AcDbEntity
  8
grau 10%
 62
     7
420
 16777215
370
    35
100
AcDbVertex
100
AcDb2dVertex
 10
96.81880275357344
 20
134.5762555219111
 30
0.0
  0
VERTEX
  5
111
330
102
100
AcDbEntity
  8
grau 10%
 62
     7
420
 16777215
370
    35
100
AcDbVertex
100
AcDb2dVertex
 10
96.81880275357344
 20
133.0949416333923
 30
0.0
  0
VERTEX
  5
112
330
102
100
AcDbEntity
  8
grau 10%
 62
     7
420
 16777215
370
    35
100
AcDbVertex
100
AcDb2dVertex
 10
96.81880275357344
 20
131.683830522634
 30
0.0
  0
VERTEX
  5
113
330
102
100
AcDbEntity
  8
grau 10%
 62
     7
420
 16777215
370
    35
100
AcDbVertex
100
AcDb2dVertex
 10
96.81880275357344
 20
130.369380522963
 30
0.0
  0
VERTEX
  5
114
330
102
100
AcDbEntity
  8
grau 10%
 62
     7
420
 16777215
370
    35
100
AcDbVertex
100
AcDb2dVertex
 10
96.81880275357344
 20
129.1759333010392
 30
0.0
  0
VERTEX
  5
115
330
102
100
AcDbEntity
  8
grau 10%
 62
     7
420
 16777215
370
    35
100
AcDbVertex
100
AcDb2dVertex
 10
96.81880275357344
 20
128.1260666346348
 30
0.0
  0
VERTEX
  5
116
330
102
100
AcDbEntity
  8
grau 10%
 62
     7
420
 16777215
370
    35
100
AcDbVertex
100
AcDb2dVertex
 10
96.81880275357344
 20
127.238477745968
 30
0.0
  0
VERTEX
  5
117
330
102
100
AcDbEntity
  8
grau 10%
 62
     7
420
 16777215
370
    35
100
AcDbVertex
100
AcDb2dVertex
 10
96.81880275357344
 20
126.5311583017
 30
0.0
  0
VERTEX
  5
118
330
102
100
AcDbEntity
  8
grau 10%
 62
     7
420
 16777215
370
    35
100
AcDbVertex
100
AcDb2dVertex
 10
96.81880275357344
 20
126.015397190718
 30
0.0
  0
VERTEX
  5
119
330
102
100
AcDbEntity
  8
grau 10%
 62
     7
420
 16777215
370
    35
100
AcDbVertex
100
AcDb2dVertex
 10
96.81880275357344
 20
125.7024833019071
 30
0.0
  0
VERTEX
  5
11A
330
102
100
AcDbEntity
  8
grau 10%
 62
     7
420
 16777215
370
    35
100
AcDbVertex
100
AcDb2dVertex
 10
96.81880275357344
 20
125.597355524156
 30
0.0
  0
SEQEND
  5
11B
330
102
100
AcDbEntity
  8
grau 10%
 62
     7
420
 16777215
370
    35
  0
POLYLINE
  5
11C
330
1F
100
AcDbEntity
  8
grau 10%
 62
     7
420
 16777215
370
    35
100
AcDb2dPolyline
 66
     1
 10
0.0
 20
0.0
 30
0.0
  0
VERTEX
  5
11D
330
11C
100
AcDbEntity
  8
grau 10%
 62
     7
420
 16777215
370
    35
100
AcDbVertex
100
AcDb2dVertex
 10
94.81925830962868
 20
124.8699277465601
 30
0.0
  0
VERTEX
  5
11E
330
11C
100
AcDbEntity
  8
grau 10%
 62
     7
420
 16777215
370
    35
100
AcDbVertex
100
AcDb2dVertex
 10
94.81925830962868
 20
124.9725860798675
 30
0.0
  0
VERTEX
  5
11F
330
11C
100
AcDbEntity
  8
grau 10%
 62
     7
420
 16777215
370
    35
100
AcDbVertex
100
AcDb2dVertex
 10
94.81925830962868
 20
125.2784444131245
 30
0.0
  0
VERTEX
  5
120
330
11C
100
AcDbEntity
  8
grau 10%
 62
     7
420
 16777215
370
    35
100
AcDbVertex
100
AcDb2dVertex
 10
94.81925830962868
 20
125.7832694129985
 30
0.0
  0
VERTEX
  5
121
330
11C
100
AcDbEntity
  8
grau 10%
 62
     7
420
 16777215
370
    35
100
AcDbVertex
100
AcDb2dVertex
 10
94.81925830962868
 20
126.4775360794912
 30
0.0
  0
VERTEX
  5
122
330
11C
100
AcDbEntity
  8
grau 10%
 62
     7
420
 16777215
370
    35
100
AcDbVertex
100
AcDb2dVertex
 10
94.81925830962868
 20
127.3496027459404
 30
0.0
  0
VERTEX
  5
123
330
11C
100
AcDbEntity
  8
grau 10%
 62
     7
420
 16777215
370
    35
100
AcDbVertex
100
AcDb2dVertex
 10
94.81925830962868
 20
128.3846527456814
 30
0.0
  0
VERTEX
  5
124
330
11C
100
AcDbEntity
  8
grau 10%
 62
     7
420
 16777215
370
    35
100
AcDbVertex
100
AcDb2dVertex
 10
94.81925830962868
 20
129.564341634275
 30
0.0
  0
VERTEX
  5
125
330
11C
100
AcDbEntity
  8
grau 10%
 62
     7
420
 16777215
370
    35
100
AcDbVertex
100
AcDb2dVertex
 10
94.81925830962868
 20
130.8696194117267
 30
0.0
  0
VERTEX
  5
126
330
11C
100
AcDbEntity
  8
grau 10%
 62
     7
420
 16777215
370
    35
100
AcDbVertex
100
AcDb2dVertex
 10
94.81925830962868
 20
132.2772027447081
 30
0.0
  0
VERTEX
  5
127
330
11C
100
AcDbEntity
  8
grau 10%
 62
     7
420
 16777215
370
    35
100
AcDbVertex
100
AcDb2dVertex
 10
94.81925830962868
 20
133.763808299892
 30
0.0
  0
VERTEX
  5
128
330
11C
100
AcDbEntity
  8
grau 10%
 62
     7
420
 16777215
370
    35
100
AcDbVertex
100
AcDb2dVertex
 10
94.81925830962868
 20
135.3036832995069
 30
0.0
  0
VERTEX
  5
129
330
11C
100
AcDbEntity
  8
grau 10%
 62
     7
420
 16777215
370
    35
100
AcDbVertex
100
AcDb2dVertex
 10
94.81925830962868
 20
136.8700166324489
 30
0.0
  0
VERTEX
  5
12A
330
11C
100
AcDbEntity
  8
grau 10%
 62
     7
420
 16777215
370
    35
100
AcDbVertex
100
AcDb2dVertex
 10
94.81925830962868
 20
138.4363499653908
 30
0.0
  0
VERTEX
  5
12B
330
11C
100
AcDbEntity
  8
grau 10%
 62
     7
420
 16777215
370
    35
100
AcDbVertex
100
AcDb2dVertex
 10
94.81925830962868
 20
139.9755194094502
 30
0.0
  0
VERTEX
  5
12C
330
11C
100
AcDbEntity
  8
grau 10%
 62
     7
420
 16777215
370
    35
100
AcDbVertex
100
AcDb2dVertex
 10
94.81925830962868
 20
141.4621249646341
 30
0.0
  0
VERTEX
  5
12D
330
11C
100
AcDbEntity
  8
grau 10%
 62
     7
420
 16777215
370
    35
100
AcDbVertex
100
AcDb2dVertex
 10
94.81925830962868
 20
142.8700610753932
 30
0.0
  0
VERTEX
  5
12E
330
11C
100
AcDbEntity
  8
grau 10%
 62
     7
420
 16777215
370
    35
100
AcDbVertex
100
AcDb2dVertex
 10
94.81925830962868
 20
144.1749860750672
 30
0.0
  0
VERTEX
  5
12F
330
11C
100
AcDbEntity
  8
grau 10%
 62
     7
420
 16777215
370
    35
100
AcDbVertex
100
AcDb2dVertex
 10
94.81925830962868
 20
145.3546749636609
 30
0.0
  0
VERTEX
  5
130
330
11C
100
AcDbEntity
  8
grau 10%
 62
     7
420
 16777215
370
    35
100
AcDbVertex
100
AcDb2dVertex
 10
94.81925830962868
 20
146.3900777411802
 30
0.0
  0
VERTEX
  5
131
330
11C
100
AcDbEntity
  8
grau 10%
 62
     7
420
 16777215
370
    35
100
AcDbVertex
100
AcDb2dVertex
 10
94.81925830962868
 20
147.261791629851
 30
0.0
  0
VERTEX
  5
132
330
11C
100
AcDbEntity
  8
grau 10%
 62
     7
420
 16777215
370
    35
100
AcDbVertex
100
AcDb2dVertex
 10
94.81925830962868
 20
147.9564110741215
 30
0.0
  0
VERTEX
  5
133
330
11C
100
AcDbEntity
  8
grau 10%
 62
     7
420
 16777215
370
    35
100
AcDbVertex
100
AcDb2dVertex
 10
94.81925830962868
 20
148.4608832962177
 30
0.0
  0
VERTEX
  5
134
330
11C
100
AcDbEntity
  8
grau 10%
 62
     7
420
 16777215
370
    35
100
AcDbVertex
100
AcDb2dVertex
 10
94.81925830962868
 20
148.7670944072524
 30
0.0
  0
VERTEX
  5
135
330
11C
100
AcDbEntity
  8
grau 10%
 62
     7
420
 16777215
370
    35
100
AcDbVertex
100
AcDb2dVertex
 10
94.81925830962868
 20
148.8697527405598
 30
0.0
  0
SEQEND
  5
136
330
11C
100
AcDbEntity
  8
grau 10%
 62
     7
420
 16777215
370
    35
  0
POLYLINE
  5
137
330
1F
100
AcDbEntity
  8
grau 10%
 62
     7
420
 16777215
370
    35
100
AcDb2dPolyline
 66
     1
 10
0.0
 20
0.0
 30
0.0
  0
VERTEX
  5
138
330
137
100
AcDbEntity
  8
grau 10%
 62
     7
420
 16777215
370
    35
100
AcDbVertex
100
AcDb2dVertex
 10
88.68974442227217
 20
139.9402416316811
 30
0.0
  0
VERTEX
  5
139
330
137
100
AcDbEntity
  8
grau 10%
 62
     7
420
 16777215
370
    35
100
AcDbVertex
100
AcDb2dVertex
 10
89.24078331102326
 20
139.3362860762767
 30
0.0
  0
VERTEX
  5
13A
330
137
100
AcDbEntity
  8
grau 10%
 62
     7
420
 16777215
370
    35
100
AcDbVertex
100
AcDb2dVertex
 10
89.66517497758399
 20
138.6272027431206
 30
0.0
  0
VERTEX
  5
13B
330
137
100
AcDbEntity
  8
grau 10%
 62
     7
420
 16777215
370
    35
100
AcDbVertex
100
AcDb2dVertex
 10
89.94880831084645
 20
137.8345110766523
 30
0.0
  0
VERTEX
  5
13C
330
137
100
AcDbEntity
  8
grau 10%
 62
     7
420
 16777215
370
    35
100
AcDbVertex
100
AcDb2dVertex
 10
90.06204997748476
 20
137.0111277435246
 30
0.0
  0
VERTEX
  5
13D
330
137
100
AcDbEntity
  8
grau 10%
 62
     7
420
 16777215
370
    35
100
AcDbVertex
100
AcDb2dVertex
 10
90.00419442194377
 20
136.179983299288
 30
0.0
  0
VERTEX
  5
13E
330
137
100
AcDbEntity
  8
grau 10%
 62
     7
420
 16777215
370
    35
100
AcDbVertex
100
AcDb2dVertex
 10
89.77347775533461
 20
135.3650666328252
 30
0.0
  0
VERTEX
  5
13F
330
137
100
AcDbEntity
  8
grau 10%
 62
     7
420
 16777215
370
    35
100
AcDbVertex
100
AcDb2dVertex
 10
89.39424164431837
 20
134.6231749663437
 30
0.0
  0
VERTEX
  5
140
330
137
100
AcDbEntity
  8
grau 10%
 62
     7
420
 16777215
370
    35
100
AcDbVertex
100
AcDb2dVertex
 10
88.8798916444471
 20
133.9818249665043
 30
0.0
  0
VERTEX
  5
141
330
137
100
AcDbEntity
  8
grau 10%
 62
     7
420
 16777215
370
    35
100
AcDbVertex
100
AcDb2dVertex
 10
88.25653331126934
 20
133.4586555221906
 30
0.0
  0
VERTEX
  5
142
330
137
100
AcDbEntity
  8
grau 10%
 62
     7
420
 16777215
370
    35
100
AcDbVertex
100
AcDb2dVertex
 10
87.53968886700406
 20
133.063544411178
 30
0.0
  0
VERTEX
  5
143
330
137
100
AcDbEntity
  8
grau 10%
 62
     7
420
 16777215
370
    35
100
AcDbVertex
100
AcDb2dVertex
 10
86.75793331164414
 20
132.8067221890202
 30
0.0
  0
VERTEX
  5
144
330
137
100
AcDbEntity
  8
grau 10%
 62
     7
420
 16777215
370
    35
100
AcDbVertex
100
AcDb2dVertex
 10
85.95324720073421
 20
132.7047694112677
 30
0.0
  0
VERTEX
  5
145
330
137
100
AcDbEntity
  8
grau 10%
 62
     7
420
 16777215
370
    35
100
AcDbVertex
100
AcDb2dVertex
 10
85.14397497871435
 20
132.7566277445884
 30
0.0
  0
VERTEX
  5
146
330
137
100
AcDbEntity
  8
grau 10%
 62
     7
420
 16777215
370
    35
100
AcDbVertex
100
AcDb2dVertex
 10
84.34634442335806
 20
132.9644138556475
 30
0.0
  0
VERTEX
  5
147
330
137
100
AcDbEntity
  8
grau 10%
 62
     7
420
 16777215
370
    35
100
AcDbVertex
100
AcDb2dVertex
 10
83.60656942354309
 20
133.3136638555601
 30
0.0
  0
VERTEX
  5
148
330
137
100
AcDbEntity
  8
grau 10%
 62
     7
420
 16777215
370
    35
100
AcDbVertex
100
AcDb2dVertex
 10
82.95287220148427
 20
133.7944999665508
 30
0.0
  0
VERTEX
  5
149
330
137
100
AcDbEntity
  8
grau 10%
 62
     7
420
 16777215
370
    35
100
AcDbVertex
100
AcDb2dVertex
 10
82.40148053495541
 20
134.3991610775107
 30
0.0
  0
VERTEX
  5
14A
330
137
100
AcDbEntity
  8
grau 10%
 62
     7
420
 16777215
370
    35
100
AcDbVertex
100
AcDb2dVertex
 10
81.97567775728396
 20
135.1103610773334
 30
0.0
  0
VERTEX
  5
14B
330
137
100
AcDbEntity
  8
grau 10%
 62
     7
420
 16777215
370
    35
100
AcDbVertex
100
AcDb2dVertex
 10
81.69098609068855
 20
135.9051694104677
 30
0.0
  0
VERTEX
  5
14C
330
137
100
AcDbEntity
  8
grau 10%
 62
     7
420
 16777215
370
    35
100
AcDbVertex
100
AcDb2dVertex
 10
81.57562775738397
 20
136.7296110769287
 30
0.0
  0
VERTEX
  5
14D
330
137
100
AcDbEntity
  8
grau 10%
 62
     7
420
 16777215
370
    35
100
AcDbVertex
100
AcDb2dVertex
 10
81.63313053514754
 20
137.5604027433875
 30
0.0
  0
VERTEX
  5
14E
330
137
100
AcDbEntity
  8
grau 10%
 62
     7
420
 16777215
370
    35
100
AcDbVertex
100
AcDb2dVertex
 10
81.86314164620117
 20
138.3746138542948
 30
0.0
  0
VERTEX
  5
14F
330
137
100
AcDbEntity
  8
grau 10%
 62
     7
420
 16777215
370
    35
100
AcDbVertex
100
AcDb2dVertex
 10
82.2423777572174
 20
139.1150944096652
 30
0.0
  0
VERTEX
  5
150
330
137
100
AcDbEntity
  8
grau 10%
 62
     7
420
 16777215
370
    35
100
AcDbVertex
100
AcDb2dVertex
 10
82.75672775708901
 20
139.7567971872824
 30
0.0
  0
VERTEX
  5
151
330
137
100
AcDbEntity
  8
grau 10%
 62
     7
420
 16777215
370
    35
100
AcDbVertex
100
AcDb2dVertex
 10
83.38043886804388
 20
140.2799666315961
 30
0.0
  0
VERTEX
  5
152
330
137
100
AcDbEntity
  8
grau 10%
 62
     7
420
 16777215
370
    35
100
AcDbVertex
100
AcDb2dVertex
 10
84.09763609008692
 20
140.6754305203865
 30
0.0
  0
VERTEX
  5
153
330
137
100
AcDbEntity
  8
grau 10%
 62
     7
420
 16777215
370
    35
100
AcDbVertex
100
AcDb2dVertex
 10
84.88044997878013
 20
140.9329582980997
 30
0.0
  0
VERTEX
  5
154
330
137
100
AcDbEntity
  8
grau 10%
 62
     7
420
 16777215
370
    35
100
AcDbVertex
100
AcDb2dVertex
 10
85.68619442302301
 20
141.0349110758523
 30
0.0
  0
VERTEX
  5
155
330
137
100
AcDbEntity
  8
grau 10%
 62
     7
420
 16777215
370
    35
100
AcDbVertex
100
AcDb2dVertex
 10
86.49687775615392
 20
140.9823471869761
 30
0.0
  0
VERTEX
  5
156
330
137
100
AcDbEntity
  8
grau 10%
 62
     7
420
 16777215
370
    35
100
AcDbVertex
100
AcDb2dVertex
 10
87.29556664484318
 20
140.7727971870288
 30
0.0
  0
VERTEX
  5
157
330
137
100
AcDbEntity
  8
grau 10%
 62
     7
420
 16777215
370
    35
100
AcDbVertex
100
AcDb2dVertex
 10
88.03569442243591
 20
140.4231944093384
 30
0.0
  0
VERTEX
  5
158
330
137
100
AcDbEntity
  8
grau 10%
 62
     7
420
 16777215
370
    35
100
AcDbVertex
100
AcDb2dVertex
 10
88.68974442227217
 20
139.9402416316811
 30
0.0
  0
SEQEND
  5
159
330
137
100
AcDbEntity
  8
grau 10%
 62
     7
420
 16777215
370
    35
  0
POLYLINE
  5
15A
330
1F
100
AcDbEntity
  8
grau 10%
 62
     7
420
 16777215
370
    35
100
AcDb2dPolyline
 66
     1
 10
0.0
 20
0.0
 30
0.0
  0
VERTEX
  5
15B
330
15A
100
AcDbEntity
  8
grau 10%
 62
     7
420
 16777215
370
    35
100
AcDbVertex
100
AcDb2dVertex
 10
73.6899860926887
 20
139.9402416316811
 30
0.0
  0
VERTEX
  5
15C
330
15A
100
AcDbEntity
  8
grau 10%
 62
     7
420
 16777215
370
    35
100
AcDbVertex
100
AcDb2dVertex
 10
74.2410249814401
 20
139.3362860762767
 30
0.0
  0
VERTEX
  5
15D
330
15A
100
AcDbEntity
  8
grau 10%
 62
     7
420
 16777215
370
    35
100
AcDbVertex
100
AcDb2dVertex
 10
74.66506387022275
 20
138.6272027431206
 30
0.0
  0
VERTEX
  5
15E
330
15A
100
AcDbEntity
  8
grau 10%
 62
     7
420
 16777215
370
    35
100
AcDbVertex
100
AcDb2dVertex
 10
74.94834442570776
 20
137.8345110766523
 30
0.0
  0
VERTEX
  5
15F
330
15A
100
AcDbEntity
  8
grau 10%
 62
     7
420
 16777215
370
    35
100
AcDbVertex
100
AcDb2dVertex
 10
75.06193887012353
 20
137.0111277435246
 30
0.0
  0
VERTEX
  5
160
330
15A
100
AcDbEntity
  8
grau 10%
 62
     7
420
 16777215
370
    35
100
AcDbVertex
100
AcDb2dVertex
 10
75.00443609236028
 20
136.179983299288
 30
0.0
  0
VERTEX
  5
161
330
15A
100
AcDbEntity
  8
grau 10%
 62
     7
420
 16777215
370
    35
100
AcDbVertex
100
AcDb2dVertex
 10
74.77301387019594
 20
135.3650666328252
 30
0.0
  0
VERTEX
  5
162
330
15A
100
AcDbEntity
  8
grau 10%
 62
     7
420
 16777215
370
    35
100
AcDbVertex
100
AcDb2dVertex
 10
74.3937777591797
 20
134.6231749663437
 30
0.0
  0
VERTEX
  5
163
330
15A
100
AcDbEntity
  8
grau 10%
 62
     7
420
 16777215
370
    35
100
AcDbVertex
100
AcDb2dVertex
 10
73.88048609264138
 20
133.9818249665043
 30
0.0
  0
VERTEX
  5
164
330
15A
100
AcDbEntity
  8
grau 10%
 62
     7
420
 16777215
370
    35
100
AcDbVertex
100
AcDb2dVertex
 10
73.25712775946363
 20
133.4586555221906
 30
0.0
  0
VERTEX
  5
165
330
15A
100
AcDbEntity
  8
grau 10%
 62
     7
420
 16777215
370
    35
100
AcDbVertex
100
AcDb2dVertex
 10
72.5399305374209
 20
133.063544411178
 30
0.0
  0
VERTEX
  5
166
330
15A
100
AcDbEntity
  8
grau 10%
 62
     7
420
 16777215
370
    35
100
AcDbVertex
100
AcDb2dVertex
 10
71.75817498206065
 20
132.8067221890202
 30
0.0
  0
VERTEX
  5
167
330
15A
100
AcDbEntity
  8
grau 10%
 62
     7
420
 16777215
370
    35
100
AcDbVertex
100
AcDb2dVertex
 10
70.95313609337298
 20
132.7047694112677
 30
0.0
  0
VERTEX
  5
168
330
15A
100
AcDbEntity
  8
grau 10%
 62
     7
420
 16777215
370
    35
100
AcDbVertex
100
AcDb2dVertex
 10
70.14351109357536
 20
132.7566277445884
 30
0.0
  0
VERTEX
  5
169
330
15A
100
AcDbEntity
  8
grau 10%
 62
     7
420
 16777215
370
    35
100
AcDbVertex
100
AcDb2dVertex
 10
69.34623331599714
 20
132.9644138556475
 30
0.0
  0
VERTEX
  5
16A
330
15A
100
AcDbEntity
  8
grau 10%
 62
     7
420
 16777215
370
    35
100
AcDbVertex
100
AcDb2dVertex
 10
68.6068110939596
 20
133.3136638555601
 30
0.0
  0
VERTEX
  5
16B
330
15A
100
AcDbEntity
  8
grau 10%
 62
     7
420
 16777215
370
    35
100
AcDbVertex
100
AcDb2dVertex
 10
67.9531138719008
 20
133.7944999665508
 30
0.0
  0
VERTEX
  5
16C
330
15A
100
AcDbEntity
  8
grau 10%
 62
     7
420
 16777215
370
    35
100
AcDbVertex
100
AcDb2dVertex
 10
67.40101664981674
 20
134.3991610775107
 30
0.0
  0
VERTEX
  5
16D
330
15A
100
AcDbEntity
  8
grau 10%
 62
     7
420
 16777215
370
    35
100
AcDbVertex
100
AcDb2dVertex
 10
66.97591942770082
 20
135.1103610773334
 30
0.0
  0
VERTEX
  5
16E
330
15A
100
AcDbEntity
  8
grau 10%
 62
     7
420
 16777215
370
    35
100
AcDbVertex
100
AcDb2dVertex
 10
66.69052220554987
 20
135.9051694104677
 30
0.0
  0
VERTEX
  5
16F
330
15A
100
AcDbEntity
  8
grau 10%
 62
     7
420
 16777215
370
    35
100
AcDbVertex
100
AcDb2dVertex
 10
66.57586942780082
 20
136.7296110769287
 30
0.0
  0
VERTEX
  5
170
330
15A
100
AcDbEntity
  8
grau 10%
 62
     7
420
 16777215
370
    35
100
AcDbVertex
100
AcDb2dVertex
 10
66.63266665000886
 20
137.5604027433875
 30
0.0
  0
VERTEX
  5
171
330
15A
100
AcDbEntity
  8
grau 10%
 62
     7
420
 16777215
370
    35
100
AcDbVertex
100
AcDb2dVertex
 10
66.86338331661769
 20
138.3746138542948
 30
0.0
  0
VERTEX
  5
172
330
15A
100
AcDbEntity
  8
grau 10%
 62
     7
420
 16777215
370
    35
100
AcDbVertex
100
AcDb2dVertex
 10
67.24226664985649
 20
139.1150944096652
 30
0.0
  0
VERTEX
  5
173
330
15A
100
AcDbEntity
  8
grau 10%
 62
     7
420
 16777215
370
    35
100
AcDbVertex
100
AcDb2dVertex
 10
67.75626387195001
 20
139.7567971872824
 30
0.0
  0
VERTEX
  5
174
330
15A
100
AcDbEntity
  8
grau 10%
 62
     7
420
 16777215
370
    35
100
AcDbVertex
100
AcDb2dVertex
 10
68.38032776068296
 20
140.2799666315961
 30
0.0
  0
VERTEX
  5
175
330
15A
100
AcDbEntity
  8
grau 10%
 62
     7
420
 16777215
370
    35
100
AcDbVertex
100
AcDb2dVertex
 10
69.09787776050345
 20
140.6754305203865
 30
0.0
  0
VERTEX
  5
176
330
15A
100
AcDbEntity
  8
grau 10%
 62
     7
420
 16777215
370
    35
100
AcDbVertex
100
AcDb2dVertex
 10
69.88069164919665
 20
140.9329582980997
 30
0.0
  0
VERTEX
  5
177
330
15A
100
AcDbEntity
  8
grau 10%
 62
     7
420
 16777215
370
    35
100
AcDbVertex
100
AcDb2dVertex
 10
70.6860833156621
 20
141.0349110758523
 30
0.0
  0
VERTEX
  5
178
330
15A
100
AcDbEntity
  8
grau 10%
 62
     7
420
 16777215
370
    35
100
AcDbVertex
100
AcDb2dVertex
 10
71.49676664879269
 20
140.9823471869761
 30
0.0
  0
VERTEX
  5
179
330
15A
100
AcDbEntity
  8
grau 10%
 62
     7
420
 16777215
370
    35
100
AcDbVertex
100
AcDb2dVertex
 10
72.29510275970418
 20
140.7727971870288
 30
0.0
  0
VERTEX
  5
17A
330
15A
100
AcDbEntity
  8
grau 10%
 62
     7
420
 16777215
370
    35
100
AcDbVertex
100
AcDb2dVertex
 10
73.03523053729691
 20
140.4231944093384
 30
0.0
  0
VERTEX
  5
17B
330
15A
100
AcDbEntity
  8
grau 10%
 62
     7
420
 16777215
370
    35
100
AcDbVertex
100
AcDb2dVertex
 10
73.6899860926887
 20
139.9402416316811
 30
0.0
  0
SEQEND
  5
17C
330
15A
100
AcDbEntity
  8
grau 10%
 62
     7
420
 16777215
370
    35
  0
POLYLINE
  5
17D
330
1F
100
AcDbEntity
  8
grau 10%
 62
     7
420
 16777215
370
    35
100
AcDb2dPolyline
 66
     1
 10
0.0
 20
0.0
 30
0.0
  0
VERTEX
  5
17E
330
17D
100
AcDbEntity
  8
grau 10%
 62
     7
420
 16777215
370
    35
100
AcDbVertex
100
AcDb2dVertex
 10
58.48984998537778
 20
139.9402416316811
 30
0.0
  0
VERTEX
  5
17F
330
17D
100
AcDbEntity
  8
grau 10%
 62
     7
420
 16777215
370
    35
100
AcDbVertex
100
AcDb2dVertex
 10
59.04124165190664
 20
139.3362860762767
 30
0.0
  0
VERTEX
  5
180
330
17D
100
AcDbEntity
  8
grau 10%
 62
     7
420
 16777215
370
    35
100
AcDbVertex
100
AcDb2dVertex
 10
59.4652805406896
 20
138.6272027431206
 30
0.0
  0
VERTEX
  5
181
330
17D
100
AcDbEntity
  8
grau 10%
 62
     7
420
 16777215
370
    35
100
AcDbVertex
100
AcDb2dVertex
 10
59.74820831839653
 20
137.8345110766523
 30
0.0
  0
VERTEX
  5
182
330
17D
100
AcDbEntity
  8
grau 10%
 62
     7
420
 16777215
370
    35
100
AcDbVertex
100
AcDb2dVertex
 10
59.86215554059038
 20
137.0111277435246
 30
0.0
  0
VERTEX
  5
183
330
17D
100
AcDbEntity
  8
grau 10%
 62
     7
420
 16777215
370
    35
100
AcDbVertex
100
AcDb2dVertex
 10
59.80429998504905
 20
136.179983299288
 30
0.0
  0
VERTEX
  5
184
330
17D
100
AcDbEntity
  8
grau 10%
 62
     7
420
 16777215
370
    35
100
AcDbVertex
100
AcDb2dVertex
 10
59.5728777628847
 20
135.3650666328252
 30
0.0
  0
VERTEX
  5
185
330
17D
100
AcDbEntity
  8
grau 10%
 62
     7
420
 16777215
370
    35
100
AcDbVertex
100
AcDb2dVertex
 10
59.19399442964622
 20
134.6231749663437
 30
0.0
  0
VERTEX
  5
186
330
17D
100
AcDbEntity
  8
grau 10%
 62
     7
420
 16777215
370
    35
100
AcDbVertex
100
AcDb2dVertex
 10
58.67999720755238
 20
133.9818249665043
 30
0.0
  0
VERTEX
  5
187
330
17D
100
AcDbEntity
  8
grau 10%
 62
     7
420
 16777215
370
    35
100
AcDbVertex
100
AcDb2dVertex
 10
58.05663887437495
 20
133.4586555221906
 30
0.0
  0
VERTEX
  5
188
330
17D
100
AcDbEntity
  8
grau 10%
 62
     7
420
 16777215
370
    35
100
AcDbVertex
100
AcDb2dVertex
 10
57.33979443010966
 20
133.063544411178
 30
0.0
  0
VERTEX
  5
189
330
17D
100
AcDbEntity
  8
grau 10%
 62
     7
420
 16777215
370
    35
100
AcDbVertex
100
AcDb2dVertex
 10
56.55803887474974
 20
132.8067221890202
 30
0.0
  0
VERTEX
  5
18A
330
17D
100
AcDbEntity
  8
grau 10%
 62
     7
420
 16777215
370
    35
100
AcDbVertex
100
AcDb2dVertex
 10
55.75335276383982
 20
132.7047694112677
 30
0.0
  0
VERTEX
  5
18B
330
17D
100
AcDbEntity
  8
grau 10%
 62
     7
420
 16777215
370
    35
100
AcDbVertex
100
AcDb2dVertex
 10
54.94408054181964
 20
132.7566277445884
 30
0.0
  0
VERTEX
  5
18C
330
17D
100
AcDbEntity
  8
grau 10%
 62
     7
420
 16777215
370
    35
100
AcDbVertex
100
AcDb2dVertex
 10
54.14644998646367
 20
132.9644138556475
 30
0.0
  0
VERTEX
  5
18D
330
17D
100
AcDbEntity
  8
grau 10%
 62
     7
420
 16777215
370
    35
100
AcDbVertex
100
AcDb2dVertex
 10
53.4066749866487
 20
133.3136638555601
 30
0.0
  0
VERTEX
  5
18E
330
17D
100
AcDbEntity
  8
grau 10%
 62
     7
420
 16777215
370
    35
100
AcDbVertex
100
AcDb2dVertex
 10
52.75297776458988
 20
133.7944999665508
 30
0.0
  0
VERTEX
  5
18F
330
17D
100
AcDbEntity
  8
grau 10%
 62
     7
420
 16777215
370
    35
100
AcDbVertex
100
AcDb2dVertex
 10
52.20158609806102
 20
134.3991610775107
 30
0.0
  0
VERTEX
  5
190
330
17D
100
AcDbEntity
  8
grau 10%
 62
     7
420
 16777215
370
    35
100
AcDbVertex
100
AcDb2dVertex
 10
51.77543054261182
 20
135.1103610773334
 30
0.0
  0
VERTEX
  5
191
330
17D
100
AcDbEntity
  8
grau 10%
 62
     7
420
 16777215
370
    35
100
AcDbVertex
100
AcDb2dVertex
 10
51.49109165379416
 20
135.9051694104677
 30
0.0
  0
VERTEX
  5
192
330
17D
100
AcDbEntity
  8
grau 10%
 62
     7
420
 16777215
370
    35
100
AcDbVertex
100
AcDb2dVertex
 10
51.37573332048959
 20
136.7296110769287
 30
0.0
  0
VERTEX
  5
193
330
17D
100
AcDbEntity
  8
grau 10%
 62
     7
420
 16777215
370
    35
100
AcDbVertex
100
AcDb2dVertex
 10
51.43253054269763
 20
137.5604027433875
 30
0.0
  0
VERTEX
  5
194
330
17D
100
AcDbEntity
  8
grau 10%
 62
     7
420
 16777215
370
    35
100
AcDbVertex
100
AcDb2dVertex
 10
51.66324720930677
 20
138.3746138542948
 30
0.0
  0
VERTEX
  5
195
330
17D
100
AcDbEntity
  8
grau 10%
 62
     7
420
 16777215
370
    35
100
AcDbVertex
100
AcDb2dVertex
 10
52.04248332032302
 20
139.1150944096652
 30
0.0
  0
VERTEX
  5
196
330
17D
100
AcDbEntity
  8
grau 10%
 62
     7
420
 16777215
370
    35
100
AcDbVertex
100
AcDb2dVertex
 10
52.55612776463909
 20
139.7567971872824
 30
0.0
  0
VERTEX
  5
197
330
17D
100
AcDbEntity
  8
grau 10%
 62
     7
420
 16777215
370
    35
100
AcDbVertex
100
AcDb2dVertex
 10
53.18054443114949
 20
140.2799666315961
 30
0.0
  0
VERTEX
  5
198
330
17D
100
AcDbEntity
  8
grau 10%
 62
     7
420
 16777215
370
    35
100
AcDbVertex
100
AcDb2dVertex
 10
53.89774165319254
 20
140.6754305203865
 30
0.0
  0
VERTEX
  5
199
330
17D
100
AcDbEntity
  8
grau 10%
 62
     7
420
 16777215
370
    35
100
AcDbVertex
100
AcDb2dVertex
 10
54.68055554188574
 20
140.9329582980997
 30
0.0
  0
VERTEX
  5
19A
330
17D
100
AcDbEntity
  8
grau 10%
 62
     7
420
 16777215
370
    35
100
AcDbVertex
100
AcDb2dVertex
 10
55.48629998612863
 20
141.0349110758523
 30
0.0
  0
VERTEX
  5
19B
330
17D
100
AcDbEntity
  8
grau 10%
 62
     7
420
 16777215
370
    35
100
AcDbVertex
100
AcDb2dVertex
 10
56.296277763704
 20
140.9823471869761
 30
0.0
  0
VERTEX
  5
19C
330
17D
100
AcDbEntity
  8
grau 10%
 62
     7
420
 16777215
370
    35
100
AcDbVertex
100
AcDb2dVertex
 10
57.09496665239327
 20
140.7727971870288
 30
0.0
  0
VERTEX
  5
19D
330
17D
100
AcDbEntity
  8
grau 10%
 62
     7
420
 16777215
370
    35
100
AcDbVertex
100
AcDb2dVertex
 10
57.83544720776376
 20
140.4231944093384
 30
0.0
  0
VERTEX
  5
19E
330
17D
100
AcDbEntity
  8
grau 10%
 62
     7
420
 16777215
370
    35
100
AcDbVertex
100
AcDb2dVertex
 10
58.48984998537778
 20
139.9402416316811
 30
0.0
  0
SEQEND
  5
19F
330
17D
100
AcDbEntity
  8
grau 10%
 62
     7
420
 16777215
370
    35
  0
SPLINE
  5
1A0
330
1F
100
AcDbEntity
  8
grau 10%
 62
     7
420
 16777215
370
    35
100
AcDbSpline
210
0.0
220
0.0
230
1.0
 70
    11
 71
     3
 72
    17
 73
    13
 74
     0
 42
0.0000000001
 43
0.0000000001
 12
1.0
 22
0.0
 32
0.0
 13
1.0
 23
0.0
 33
0.0
 40
0.0
 40
0.0
 40
0.0
 40
0.0
 40
1.0
 40
1.0
 40
1.0
 40
2.0
 40
2.0
 40
2.0
 40
3.0
 40
3.0
 40
3.0
 40
4.0
 40
4.0
 40
4.0
 40
4.0
 10
58.36884720763031
 20
136.8700166324489
 30
0.0
 10
58.36884720763031
 20
138.3883721876249
 30
0.0
 10
57.13800554127118
 20
139.6195666317614
 30
0.0
 10
55.61929720831774
 20
139.6195666317614
 30
0.0
 10
54.10058887536398
 20
139.6195666317614
 30
0.0
 10
52.86904165344965
 20
138.3883721876249
 30
0.0
 10
52.86904165344965
 20
136.8700166324489
 30
0.0
 10
52.86904165344965
 20
135.3513082994951
 30
0.0
 10
54.10058887536398
 20
134.119408299803
 30
0.0
 10
55.61929720831774
 20
134.119408299803
 30
0.0
 10
57.13800554127118
 20
134.119408299803
 30
0.0
 10
58.36884720763031
 20
135.3513082994951
 30
0.0
 10
58.36884720763031
 20
136.8700166324489
 30
0.0
  0
POLYLINE
  5
1A1
330
1F
100
AcDbEntity
  8
grau 10%
 62
     7
420
 16777215
370
    35
100
AcDb2dPolyline
 66
     1
 10
0.0
 20
0.0
 30
0.0
  0
VERTEX
  5
1A2
330
1A1
100
AcDbEntity
  8
grau 10%
 62
     7
420
 16777215
370
    35
100
AcDbVertex
100
AcDb2dVertex
 10
73.44409998163934
 20
139.5998110762106
 30
0.0
  0
VERTEX
  5
1A3
330
1A1
100
AcDbEntity
  8
grau 10%
 62
     7
420
 16777215
370
    35
100
AcDbVertex
100
AcDb2dVertex
 10
72.73854442626016
 20
140.0869971872004
 30
0.0
  0
VERTEX
  5
1A4
330
1A1
100
AcDbEntity
  8
grau 10%
 62
     7
420
 16777215
370
    35
100
AcDbVertex
100
AcDb2dVertex
 10
72.02346387088336
 20
140.386858298236
 30
0.0
  0
VERTEX
  5
1A5
330
1A1
100
AcDbEntity
  8
grau 10%
 62
     7
420
 16777215
370
    35
100
AcDbVertex
100
AcDb2dVertex
 10
71.3433083154979
 20
140.5336138537553
 30
0.0
  0
VERTEX
  5
1A6
330
1A1
100
AcDbEntity
  8
grau 10%
 62
     7
420
 16777215
370
    35
100
AcDbVertex
100
AcDb2dVertex
 10
70.71994998232014
 20
140.5657166315251
 30
0.0
  0
VERTEX
  5
1A7
330
1A1
100
AcDbEntity
  8
grau 10%
 62
     7
420
 16777215
370
    35
100
AcDbVertex
100
AcDb2dVertex
 10
70.06695831581685
 20
140.4979832982084
 30
0.0
  0
VERTEX
  5
1A8
330
1A1
100
AcDbEntity
  8
grau 10%
 62
     7
420
 16777215
370
    35
100
AcDbVertex
100
AcDb2dVertex
 10
69.35999164932694
 20
140.2986638538136
 30
0.0
  0
VERTEX
  5
1A9
330
1A1
100
AcDbEntity
  8
grau 10%
 62
     7
420
 16777215
370
    35
100
AcDbVertex
100
AcDb2dVertex
 10
68.6322110939533
 20
139.9282471872398
 30
0.0
  0
VERTEX
  5
1AA
330
1A1
100
AcDbEntity
  8
grau 10%
 62
     7
420
 16777215
370
    35
100
AcDbVertex
100
AcDb2dVertex
 10
68.22157776072271
 20
139.6227416317606
 30
0.0
  0
VERTEX
  5
1AB
330
1A1
100
AcDbEntity
  8
grau 10%
 62
     7
420
 16777215
370
    35
100
AcDbVertex
100
AcDb2dVertex
 10
67.81553053860206
 20
139.220222187417
 30
0.0
  0
VERTEX
  5
1AC
330
1A1
100
AcDbEntity
  8
grau 10%
 62
     7
420
 16777215
370
    35
100
AcDbVertex
100
AcDb2dVertex
 10
67.58904720532509
 20
138.9309444097116
 30
0.0
  0
VERTEX
  5
1AD
330
1A1
100
AcDbEntity
  8
grau 10%
 62
     7
420
 16777215
370
    35
100
AcDbVertex
100
AcDb2dVertex
 10
67.52907498311784
 20
138.8438082986219
 30
0.0
  0
VERTEX
  5
1AE
330
1A1
100
AcDbEntity
  8
grau 10%
 62
     7
420
 16777215
370
    35
100
AcDbVertex
100
AcDb2dVertex
 10
67.4747472053538
 20
138.759847187532
 30
0.0
  0
VERTEX
  5
1AF
330
1A1
100
AcDbEntity
  8
grau 10%
 62
     7
420
 16777215
370
    35
100
AcDbVertex
100
AcDb2dVertex
 10
67.31035276095032
 20
138.4680999653829
 30
0.0
  0
VERTEX
  5
1B0
330
1A1
100
AcDbEntity
  8
grau 10%
 62
     7
420
 16777215
370
    35
100
AcDbVertex
100
AcDb2dVertex
 10
67.17947220542746
 20
138.1770582987888
 30
0.0
  0
VERTEX
  5
1B1
330
1A1
100
AcDbEntity
  8
grau 10%
 62
     7
420
 16777215
370
    35
100
AcDbVertex
100
AcDb2dVertex
 10
66.98544442769844
 20
137.5036055211795
 30
0.0
  0
VERTEX
  5
1B2
330
1A1
100
AcDbEntity
  8
grau 10%
 62
     7
420
 16777215
370
    35
100
AcDbVertex
100
AcDb2dVertex
 10
66.9293527610456
 20
136.8125138546853
 30
0.0
  0
VERTEX
  5
1B3
330
1A1
100
AcDbEntity
  8
grau 10%
 62
     7
420
 16777215
370
    35
100
AcDbVertex
100
AcDb2dVertex
 10
67.02036942768945
 20
136.0748555215363
 30
0.0
  0
VERTEX
  5
1B4
330
1A1
100
AcDbEntity
  8
grau 10%
 62
     7
420
 16777215
370
    35
100
AcDbVertex
100
AcDb2dVertex
 10
67.28213053873519
 20
135.3301416328339
 30
0.0
  0
VERTEX
  5
1B5
330
1A1
100
AcDbEntity
  8
grau 10%
 62
     7
420
 16777215
370
    35
100
AcDbVertex
100
AcDb2dVertex
 10
67.5033222053467
 20
134.9350305218213
 30
0.0
  0
VERTEX
  5
1B6
330
1A1
100
AcDbEntity
  8
grau 10%
 62
     7
420
 16777215
370
    35
100
AcDbVertex
100
AcDb2dVertex
 10
67.75449998306152
 20
134.5914249663516
 30
0.0
  0
VERTEX
  5
1B7
330
1A1
100
AcDbEntity
  8
grau 10%
 62
     7
420
 16777215
370
    35
100
AcDbVertex
100
AcDb2dVertex
 10
68.16231109407066
 20
134.1673860775689
 30
0.0
  0
VERTEX
  5
1B8
330
1A1
100
AcDbEntity
  8
grau 10%
 62
     7
420
 16777215
370
    35
100
AcDbVertex
100
AcDb2dVertex
 10
68.62303887173343
 20
133.8167249665453
 30
0.0
  0
VERTEX
  5
1B9
330
1A1
100
AcDbEntity
  8
grau 10%
 62
     7
420
 16777215
370
    35
100
AcDbVertex
100
AcDb2dVertex
 10
69.05554442718073
 20
133.5729555221622
 30
0.0
  0
VERTEX
  5
1BA
330
1A1
100
AcDbEntity
  8
grau 10%
 62
     7
420
 16777215
370
    35
100
AcDbVertex
100
AcDb2dVertex
 10
69.47499720485376
 20
133.3993888555388
 30
0.0
  0
VERTEX
  5
1BB
330
1A1
100
AcDbEntity
  8
grau 10%
 62
     7
420
 16777215
370
    35
100
AcDbVertex
100
AcDb2dVertex
 10
70.20948053800328
 20
133.2170027444734
 30
0.0
  0
VERTEX
  5
1BC
330
1A1
100
AcDbEntity
  8
grau 10%
 62
     7
420
 16777215
370
    35
100
AcDbVertex
100
AcDb2dVertex
 10
70.95489998226147
 20
133.1736110778177
 30
0.0
  0
VERTEX
  5
1BD
330
1A1
100
AcDbEntity
  8
grau 10%
 62
     7
420
 16777215
370
    35
100
AcDbVertex
100
AcDb2dVertex
 10
71.68691387096729
 20
133.2653333000164
 30
0.0
  0
VERTEX
  5
1BE
330
1A1
100
AcDbEntity
  8
grau 10%
 62
     7
420
 16777215
370
    35
100
AcDbVertex
100
AcDb2dVertex
 10
72.35578053746696
 20
133.4724138555207
 30
0.0
  0
VERTEX
  5
1BF
330
1A1
100
AcDbEntity
  8
grau 10%
 62
     7
420
 16777215
370
    35
100
AcDbVertex
100
AcDb2dVertex
 10
72.80204442624408
 20
133.6883138554664
 30
0.0
  0
VERTEX
  5
1C0
330
1A1
100
AcDbEntity
  8
grau 10%
 62
     7
420
 16777215
370
    35
100
AcDbVertex
100
AcDb2dVertex
 10
73.24548609280006
 20
133.9793555220606
 30
0.0
  0
VERTEX
  5
1C1
330
1A1
100
AcDbEntity
  8
grau 10%
 62
     7
420
 16777215
370
    35
100
AcDbVertex
100
AcDb2dVertex
 10
73.61766664826236
 20
134.3007360775358
 30
0.0
  0
VERTEX
  5
1C2
330
1A1
100
AcDbEntity
  8
grau 10%
 62
     7
420
 16777215
370
    35
100
AcDbVertex
100
AcDb2dVertex
 10
74.09426942592118
 20
134.8729416329481
 30
0.0
  0
VERTEX
  5
1C3
330
1A1
100
AcDbEntity
  8
grau 10%
 62
     7
420
 16777215
370
    35
100
AcDbVertex
100
AcDb2dVertex
 10
74.4590416480521
 20
135.5601527438875
 30
0.0
  0
VERTEX
  5
1C4
330
1A1
100
AcDbEntity
  8
grau 10%
 62
     7
420
 16777215
370
    35
100
AcDbVertex
100
AcDb2dVertex
 10
74.66259442577906
 20
136.2882860770389
 30
0.0
  0
VERTEX
  5
1C5
330
1A1
100
AcDbEntity
  8
grau 10%
 62
     7
420
 16777215
370
    35
100
AcDbVertex
100
AcDb2dVertex
 10
74.70739720354545
 20
137.0160666324126
 30
0.0
  0
VERTEX
  5
1C6
330
1A1
100
AcDbEntity
  8
grau 10%
 62
     7
420
 16777215
370
    35
100
AcDbVertex
100
AcDb2dVertex
 10
74.62519998134404
 20
137.6376610767012
 30
0.0
  0
VERTEX
  5
1C7
330
1A1
100
AcDbEntity
  8
grau 10%
 62
     7
420
 16777215
370
    35
100
AcDbVertex
100
AcDb2dVertex
 10
74.42517498139405
 20
138.255022187658
 30
0.0
  0
VERTEX
  5
1C8
330
1A1
100
AcDbEntity
  8
grau 10%
 62
     7
420
 16777215
370
    35
100
AcDbVertex
100
AcDb2dVertex
 10
74.04699720371077
 20
138.9334138541553
 30
0.0
  0
VERTEX
  5
1C9
330
1A1
100
AcDbEntity
  8
grau 10%
 62
     7
420
 16777215
370
    35
100
AcDbVertex
100
AcDb2dVertex
 10
73.44409998163934
 20
139.5998110762106
 30
0.0
  0
SEQEND
  5
1CA
330
1A1
100
AcDbEntity
  8
grau 10%
 62
     7
420
 16777215
370
    35
  0
SPLINE
  5
1CB
330
1F
100
AcDbEntity
  8
grau 10%
 62
     7
420
 16777215
370
    35
100
AcDbSpline
210
0.0
220
0.0
230
1.0
 70
    11
 71
     3
 72
    17
 73
    13
 74
     0
 42
0.0000000001
 43
0.0000000001
 12
1.0
 22
0.0
 32
0.0
 13
1.0
 23
0.0
 33
0.0
 40
0.0
 40
0.0
 40
0.0
 40
0.0
 40
1.0
 40
1.0
 40
1.0
 40
2.0
 40
2.0
 40
2.0
 40
3.0
 40
3.0
 40
3.0
 40
4.0
 40
4.0
 40
4.0
 40
4.0
 10
73.56933609271898
 20
136.8700166324489
 30
0.0
 10
73.56933609271898
 20
138.3883721876249
 30
0.0
 10
72.3374360930269
 20
139.6195666317614
 30
0.0
 10
70.8190805378509
 20
139.6195666317614
 30
0.0
 10
69.30037220489746
 20
139.6195666317614
 30
0.0
 10
68.06917776076088
 20
138.3883721876249
 30
0.0
 10
68.06917776076088
 20
136.8700166324489
 30
0.0
 10
68.06917776076088
 20
135.3513082994951
 30
0.0
 10
69.30037220489746
 20
134.119408299803
 30
0.0
 10
70.8190805378509
 20
134.119408299803
 30
0.0
 10
72.3374360930269
 20
134.119408299803
 30
0.0
 10
73.56933609271898
 20
135.3513082994951
 30
0.0
 10
73.56933609271898
 20
136.8700166324489
 30
0.0
  0
POLYLINE
  5
1CC
330
1F
100
AcDbEntity
  8
grau 10%
 62
     7
420
 16777215
370
    35
100
AcDb2dPolyline
 66
     1
 10
0.0
 20
0.0
 30
0.0
  0
VERTEX
  5
1CD
330
1CC
100
AcDbEntity
  8
grau 10%
 62
     7
420
 16777215
370
    35
100
AcDbVertex
100
AcDb2dVertex
 10
88.44456386677801
 20
139.5998110762106
 30
0.0
  0
VERTEX
  5
1CE
330
1CC
100
AcDbEntity
  8
grau 10%
 62
     7
420
 16777215
370
    35
100
AcDbVertex
100
AcDb2dVertex
 10
87.73830275584332
 20
140.0869971872004
 30
0.0
  0
VERTEX
  5
1CF
330
1CC
100
AcDbEntity
  8
grau 10%
 62
     7
420
 16777215
370
    35
100
AcDbVertex
100
AcDb2dVertex
 10
87.02322220046652
 20
140.386858298236
 30
0.0
  0
VERTEX
  5
1D0
330
1CC
100
AcDbEntity
  8
grau 10%
 62
     7
420
 16777215
370
    35
100
AcDbVertex
100
AcDb2dVertex
 10
86.34306664508105
 20
140.5336138537553
 30
0.0
  0
VERTEX
  5
1D1
330
1CC
100
AcDbEntity
  8
grau 10%
 62
     7
420
 16777215
370
    35
100
AcDbVertex
100
AcDb2dVertex
 10
85.72006108968138
 20
140.5657166315251
 30
0.0
  0
VERTEX
  5
1D2
330
1CC
100
AcDbEntity
  8
grau 10%
 62
     7
420
 16777215
370
    35
100
AcDbVertex
100
AcDb2dVertex
 10
85.06706942317776
 20
140.4979832982084
 30
0.0
  0
VERTEX
  5
1D3
330
1CC
100
AcDbEntity
  8
grau 10%
 62
     7
420
 16777215
370
    35
100
AcDbVertex
100
AcDb2dVertex
 10
84.36045553446563
 20
140.2986638538136
 30
0.0
  0
VERTEX
  5
1D4
330
1CC
100
AcDbEntity
  8
grau 10%
 62
     7
420
 16777215
370
    35
100
AcDbVertex
100
AcDb2dVertex
 10
83.63232220131454
 20
139.9282471872398
 30
0.0
  0
VERTEX
  5
1D5
330
1CC
100
AcDbEntity
  8
grau 10%
 62
     7
420
 16777215
370
    35
100
AcDbVertex
100
AcDb2dVertex
 10
83.22168886808363
 20
139.6227416317606
 30
0.0
  0
VERTEX
  5
1D6
330
1CC
100
AcDbEntity
  8
grau 10%
 62
     7
420
 16777215
370
    35
100
AcDbVertex
100
AcDb2dVertex
 10
82.81564164596297
 20
139.220222187417
 30
0.0
  0
VERTEX
  5
1D7
330
1CC
100
AcDbEntity
  8
grau 10%
 62
     7
420
 16777215
370
    35
100
AcDbVertex
100
AcDb2dVertex
 10
82.58915831268632
 20
138.9309444097116
 30
0.0
  0
VERTEX
  5
1D8
330
1CC
100
AcDbEntity
  8
grau 10%
 62
     7
420
 16777215
370
    35
100
AcDbVertex
100
AcDb2dVertex
 10
82.52883331270131
 20
138.8438082986219
 30
0.0
  0
VERTEX
  5
1D9
330
1CC
100
AcDbEntity
  8
grau 10%
 62
     7
420
 16777215
370
    35
100
AcDbVertex
100
AcDb2dVertex
 10
82.47450553493728
 20
138.759847187532
 30
0.0
  0
VERTEX
  5
1DA
330
1CC
100
AcDbEntity
  8
grau 10%
 62
     7
420
 16777215
370
    35
100
AcDbVertex
100
AcDb2dVertex
 10
82.31081664608932
 20
138.4680999653829
 30
0.0
  0
VERTEX
  5
1DB
330
1CC
100
AcDbEntity
  8
grau 10%
 62
     7
420
 16777215
370
    35
100
AcDbVertex
100
AcDb2dVertex
 10
82.1795833127887
 20
138.1770582987888
 30
0.0
  0
VERTEX
  5
1DC
330
1CC
100
AcDbEntity
  8
grau 10%
 62
     7
420
 16777215
370
    35
100
AcDbVertex
100
AcDb2dVertex
 10
81.98590831283713
 20
137.5036055211795
 30
0.0
  0
VERTEX
  5
1DD
330
1CC
100
AcDbEntity
  8
grau 10%
 62
     7
420
 16777215
370
    35
100
AcDbVertex
100
AcDb2dVertex
 10
81.92911109062908
 20
136.8125138546853
 30
0.0
  0
VERTEX
  5
1DE
330
1CC
100
AcDbEntity
  8
grau 10%
 62
     7
420
 16777215
370
    35
100
AcDbVertex
100
AcDb2dVertex
 10
82.02012775727293
 20
136.0748555215363
 30
0.0
  0
VERTEX
  5
1DF
330
1CC
100
AcDbEntity
  8
grau 10%
 62
     7
420
 16777215
370
    35
100
AcDbVertex
100
AcDb2dVertex
 10
82.28188886831866
 20
135.3301416328339
 30
0.0
  0
VERTEX
  5
1E0
330
1CC
100
AcDbEntity
  8
grau 10%
 62
     7
420
 16777215
370
    35
100
AcDbVertex
100
AcDb2dVertex
 10
82.50272775715241
 20
134.9350305218213
 30
0.0
  0
VERTEX
  5
1E1
330
1CC
100
AcDbEntity
  8
grau 10%
 62
     7
420
 16777215
370
    35
100
AcDbVertex
100
AcDb2dVertex
 10
82.75425831264499
 20
134.5914249663516
 30
0.0
  0
VERTEX
  5
1E2
330
1CC
100
AcDbEntity
  8
grau 10%
 62
     7
420
 16777215
370
    35
100
AcDbVertex
100
AcDb2dVertex
 10
83.1624222014319
 20
134.1673860775689
 30
0.0
  0
VERTEX
  5
1E3
330
1CC
100
AcDbEntity
  8
grau 10%
 62
     7
420
 16777215
370
    35
100
AcDbVertex
100
AcDb2dVertex
 10
83.62350275687211
 20
133.8167249665453
 30
0.0
  0
VERTEX
  5
1E4
330
1CC
100
AcDbEntity
  8
grau 10%
 62
     7
420
 16777215
370
    35
100
AcDbVertex
100
AcDb2dVertex
 10
84.05600831231942
 20
133.5729555221622
 30
0.0
  0
VERTEX
  5
1E5
330
1CC
100
AcDbEntity
  8
grau 10%
 62
     7
420
 16777215
370
    35
100
AcDbVertex
100
AcDb2dVertex
 10
84.47510831221467
 20
133.3993888555388
 30
0.0
  0
VERTEX
  5
1E6
330
1CC
100
AcDbEntity
  8
grau 10%
 62
     7
420
 16777215
370
    35
100
AcDbVertex
100
AcDb2dVertex
 10
85.20959164536451
 20
133.2170027444734
 30
0.0
  0
VERTEX
  5
1E7
330
1CC
100
AcDbEntity
  8
grau 10%
 62
     7
420
 16777215
370
    35
100
AcDbVertex
100
AcDb2dVertex
 10
85.95465831184494
 20
133.1736110778177
 30
0.0
  0
VERTEX
  5
1E8
330
1CC
100
AcDbEntity
  8
grau 10%
 62
     7
420
 16777215
370
    35
100
AcDbVertex
100
AcDb2dVertex
 10
86.68667220055076
 20
133.2653333000164
 30
0.0
  0
VERTEX
  5
1E9
330
1CC
100
AcDbEntity
  8
grau 10%
 62
     7
420
 16777215
370
    35
100
AcDbVertex
100
AcDb2dVertex
 10
87.35589164482788
 20
133.4724138555207
 30
0.0
  0
VERTEX
  5
1EA
330
1CC
100
AcDbEntity
  8
grau 10%
 62
     7
420
 16777215
370
    35
100
AcDbVertex
100
AcDb2dVertex
 10
87.80180275582755
 20
133.6883138554664
 30
0.0
  0
VERTEX
  5
1EB
330
1CC
100
AcDbEntity
  8
grau 10%
 62
     7
420
 16777215
370
    35
100
AcDbVertex
100
AcDb2dVertex
 10
88.24594997793874
 20
133.9793555220606
 30
0.0
  0
VERTEX
  5
1EC
330
1CC
100
AcDbEntity
  8
grau 10%
 62
     7
420
 16777215
370
    35
100
AcDbVertex
100
AcDb2dVertex
 10
88.61777775562359
 20
134.3007360775358
 30
0.0
  0
VERTEX
  5
1ED
330
1CC
100
AcDbEntity
  8
grau 10%
 62
     7
420
 16777215
370
    35
100
AcDbVertex
100
AcDb2dVertex
 10
89.0943805332821
 20
134.8729416329481
 30
0.0
  0
VERTEX
  5
1EE
330
1CC
100
AcDbEntity
  8
grau 10%
 62
     7
420
 16777215
370
    35
100
AcDbVertex
100
AcDb2dVertex
 10
89.45950553319109
 20
135.5601527438875
 30
0.0
  0
VERTEX
  5
1EF
330
1CC
100
AcDbEntity
  8
grau 10%
 62
     7
420
 16777215
370
    35
100
AcDbVertex
100
AcDb2dVertex
 10
89.66235275536253
 20
136.2882860770389
 30
0.0
  0
VERTEX
  5
1F0
330
1CC
100
AcDbEntity
  8
grau 10%
 62
     7
420
 16777215
370
    35
100
AcDbVertex
100
AcDb2dVertex
 10
89.70750831090669
 20
137.0160666324126
 30
0.0
  0
VERTEX
  5
1F1
330
1CC
100
AcDbEntity
  8
grau 10%
 62
     7
420
 16777215
370
    35
100
AcDbVertex
100
AcDb2dVertex
 10
89.6249583109272
 20
137.6376610767012
 30
0.0
  0
VERTEX
  5
1F2
330
1CC
100
AcDbEntity
  8
grau 10%
 62
     7
420
 16777215
370
    35
100
AcDbVertex
100
AcDb2dVertex
 10
89.42493331097721
 20
138.255022187658
 30
0.0
  0
VERTEX
  5
1F3
330
1CC
100
AcDbEntity
  8
grau 10%
 62
     7
420
 16777215
370
    35
100
AcDbVertex
100
AcDb2dVertex
 10
89.04746108884946
 20
138.9334138541553
 30
0.0
  0
VERTEX
  5
1F4
330
1CC
100
AcDbEntity
  8
grau 10%
 62
     7
420
 16777215
370
    35
100
AcDbVertex
100
AcDb2dVertex
 10
88.44456386677801
 20
139.5998110762106
 30
0.0
  0
SEQEND
  5
1F5
330
1CC
100
AcDbEntity
  8
grau 10%
 62
     7
420
 16777215
370
    35
  0
POLYLINE
  5
1F6
330
1F
100
AcDbEntity
  8
grau 10%
 62
     7
420
 16777215
370
    35
100
AcDb2dPolyline
 66
     1
 10
0.0
 20
0.0
 30
0.0
  0
VERTEX
  5
1F7
330
1F6
100
AcDbEntity
  8
grau 10%
 62
     7
420
 16777215
370
    35
100
AcDbVertex
100
AcDb2dVertex
 10
58.24466942988362
 20
139.5998110762106
 30
0.0
  0
VERTEX
  5
1F8
330
1F6
100
AcDbEntity
  8
grau 10%
 62
     7
420
 16777215
370
    35
100
AcDbVertex
100
AcDb2dVertex
 10
57.53840831894893
 20
140.0869971872004
 30
0.0
  0
VERTEX
  5
1F9
330
1F6
100
AcDbEntity
  8
grau 10%
 62
     7
420
 16777215
370
    35
100
AcDbVertex
100
AcDb2dVertex
 10
56.82368054134989
 20
140.386858298236
 30
0.0
  0
VERTEX
  5
1FA
330
1F6
100
AcDbEntity
  8
grau 10%
 62
     7
420
 16777215
370
    35
100
AcDbVertex
100
AcDb2dVertex
 10
56.14352498596442
 20
140.5336138537553
 30
0.0
  0
VERTEX
  5
1FB
330
1F6
100
AcDbEntity
  8
grau 10%
 62
     7
420
 16777215
370
    35
100
AcDbVertex
100
AcDb2dVertex
 10
55.52016665278699
 20
140.5657166315251
 30
0.0
  0
VERTEX
  5
1FC
330
1F6
100
AcDbEntity
  8
grau 10%
 62
     7
420
 16777215
370
    35
100
AcDbVertex
100
AcDb2dVertex
 10
54.86717498628337
 20
140.4979832982084
 30
0.0
  0
VERTEX
  5
1FD
330
1F6
100
AcDbEntity
  8
grau 10%
 62
     7
420
 16777215
370
    35
100
AcDbVertex
100
AcDb2dVertex
 10
54.15985554201571
 20
140.2986638538136
 30
0.0
  0
VERTEX
  5
1FE
330
1F6
100
AcDbEntity
  8
grau 10%
 62
     7
420
 16777215
370
    35
100
AcDbVertex
100
AcDb2dVertex
 10
53.43242776441983
 20
139.9282471872398
 30
0.0
  0
VERTEX
  5
1FF
330
1F6
100
AcDbEntity
  8
grau 10%
 62
     7
420
 16777215
370
    35
100
AcDbVertex
100
AcDb2dVertex
 10
53.02179443118924
 20
139.6227416317606
 30
0.0
  0
VERTEX
  5
200
330
1F6
100
AcDbEntity
  8
grau 10%
 62
     7
420
 16777215
370
    35
100
AcDbVertex
100
AcDb2dVertex
 10
52.61574720906859
 20
139.220222187417
 30
0.0
  0
VERTEX
  5
201
330
1F6
100
AcDbEntity
  8
grau 10%
 62
     7
420
 16777215
370
    35
100
AcDbVertex
100
AcDb2dVertex
 10
52.38855832023641
 20
138.9309444097116
 30
0.0
  0
VERTEX
  5
202
330
1F6
100
AcDbEntity
  8
grau 10%
 62
     7
420
 16777215
370
    35
100
AcDbVertex
100
AcDb2dVertex
 10
52.32893887580692
 20
138.8438082986219
 30
0.0
  0
VERTEX
  5
203
330
1F6
100
AcDbEntity
  8
grau 10%
 62
     7
420
 16777215
370
    35
100
AcDbVertex
100
AcDb2dVertex
 10
52.27461109804256
 20
138.759847187532
 30
0.0
  0
VERTEX
  5
204
330
1F6
100
AcDbEntity
  8
grau 10%
 62
     7
420
 16777215
370
    35
100
AcDbVertex
100
AcDb2dVertex
 10
52.11021665363941
 20
138.4680999653829
 30
0.0
  0
VERTEX
  5
205
330
1F6
100
AcDbEntity
  8
grau 10%
 62
     7
420
 16777215
370
    35
100
AcDbVertex
100
AcDb2dVertex
 10
51.97968887589431
 20
138.1770582987888
 30
0.0
  0
VERTEX
  5
206
330
1F6
100
AcDbEntity
  8
grau 10%
 62
     7
420
 16777215
370
    35
100
AcDbVertex
100
AcDb2dVertex
 10
51.78566109816497
 20
137.5036055211795
 30
0.0
  0
VERTEX
  5
207
330
1F6
100
AcDbEntity
  8
grau 10%
 62
     7
420
 16777215
370
    35
100
AcDbVertex
100
AcDb2dVertex
 10
51.72956943151213
 20
136.8125138546853
 30
0.0
  0
VERTEX
  5
208
330
1F6
100
AcDbEntity
  8
grau 10%
 62
     7
420
 16777215
370
    35
100
AcDbVertex
100
AcDb2dVertex
 10
51.82023332037853
 20
136.0748555215363
 30
0.0
  0
VERTEX
  5
209
330
1F6
100
AcDbEntity
  8
grau 10%
 62
     7
420
 16777215
370
    35
100
AcDbVertex
100
AcDb2dVertex
 10
52.08199443142428
 20
135.3301416328339
 30
0.0
  0
VERTEX
  5
20A
330
1F6
100
AcDbEntity
  8
grau 10%
 62
     7
420
 16777215
370
    35
100
AcDbVertex
100
AcDb2dVertex
 10
52.3028333202577
 20
134.9350305218213
 30
0.0
  0
VERTEX
  5
20B
330
1F6
100
AcDbEntity
  8
grau 10%
 62
     7
420
 16777215
370
    35
100
AcDbVertex
100
AcDb2dVertex
 10
52.5543638757506
 20
134.5914249663516
 30
0.0
  0
VERTEX
  5
20C
330
1F6
100
AcDbEntity
  8
grau 10%
 62
     7
420
 16777215
370
    35
100
AcDbVertex
100
AcDb2dVertex
 10
52.9625277645375
 20
134.1673860775689
 30
0.0
  0
VERTEX
  5
20D
330
1F6
100
AcDbEntity
  8
grau 10%
 62
     7
420
 16777215
370
    35
100
AcDbVertex
100
AcDb2dVertex
 10
53.42360831997772
 20
133.8167249665453
 30
0.0
  0
VERTEX
  5
20E
330
1F6
100
AcDbEntity
  8
grau 10%
 62
     7
420
 16777215
370
    35
100
AcDbVertex
100
AcDb2dVertex
 10
53.85611387542502
 20
133.5729555221622
 30
0.0
  0
VERTEX
  5
20F
330
1F6
100
AcDbEntity
  8
grau 10%
 62
     7
420
 16777215
370
    35
100
AcDbVertex
100
AcDb2dVertex
 10
54.27450831976508
 20
133.3993888555388
 30
0.0
  0
VERTEX
  5
210
330
1F6
100
AcDbEntity
  8
grau 10%
 62
     7
420
 16777215
370
    35
100
AcDbVertex
100
AcDb2dVertex
 10
55.00969720847012
 20
133.2170027444734
 30
0.0
  0
VERTEX
  5
211
330
1F6
100
AcDbEntity
  8
grau 10%
 62
     7
420
 16777215
370
    35
100
AcDbVertex
100
AcDb2dVertex
 10
55.75441109717278
 20
133.1736110778177
 30
0.0
  0
VERTEX
  5
212
330
1F6
100
AcDbEntity
  8
grau 10%
 62
     7
420
 16777215
370
    35
100
AcDbVertex
100
AcDb2dVertex
 10
56.48677776365637
 20
133.2653333000164
 30
0.0
  0
VERTEX
  5
213
330
1F6
100
AcDbEntity
  8
grau 10%
 62
     7
420
 16777215
370
    35
100
AcDbVertex
100
AcDb2dVertex
 10
57.15599720793348
 20
133.4724138555207
 30
0.0
  0
VERTEX
  5
214
330
1F6
100
AcDbEntity
  8
grau 10%
 62
     7
420
 16777215
370
    35
100
AcDbVertex
100
AcDb2dVertex
 10
57.60190831893316
 20
133.6883138554664
 30
0.0
  0
VERTEX
  5
215
330
1F6
100
AcDbEntity
  8
grau 10%
 62
     7
420
 16777215
370
    35
100
AcDbVertex
100
AcDb2dVertex
 10
58.04570276326659
 20
133.9793555220606
 30
0.0
  0
VERTEX
  5
216
330
1F6
100
AcDbEntity
  8
grau 10%
 62
     7
420
 16777215
370
    35
100
AcDbVertex
100
AcDb2dVertex
 10
58.41717776317368
 20
134.3007360775358
 30
0.0
  0
VERTEX
  5
217
330
1F6
100
AcDbEntity
  8
grau 10%
 62
     7
420
 16777215
370
    35
100
AcDbVertex
100
AcDb2dVertex
 10
58.89448609638771
 20
134.8729416329481
 30
0.0
  0
VERTEX
  5
218
330
1F6
100
AcDbEntity
  8
grau 10%
 62
     7
420
 16777215
370
    35
100
AcDbVertex
100
AcDb2dVertex
 10
59.25925831851862
 20
135.5601527438875
 30
0.0
  0
VERTEX
  5
219
330
1F6
100
AcDbEntity
  8
grau 10%
 62
     7
420
 16777215
370
    35
100
AcDbVertex
100
AcDb2dVertex
 10
59.46245831846782
 20
136.2882860770389
 30
0.0
  0
VERTEX
  5
21A
330
1F6
100
AcDbEntity
  8
grau 10%
 62
     7
420
 16777215
370
    35
100
AcDbVertex
100
AcDb2dVertex
 10
59.50761387401231
 20
137.0160666324126
 30
0.0
  0
VERTEX
  5
21B
330
1F6
100
AcDbEntity
  8
grau 10%
 62
     7
420
 16777215
370
    35
100
AcDbVertex
100
AcDb2dVertex
 10
59.42506387403281
 20
137.6376610767012
 30
0.0
  0
VERTEX
  5
21C
330
1F6
100
AcDbEntity
  8
grau 10%
 62
     7
420
 16777215
370
    35
100
AcDbVertex
100
AcDb2dVertex
 10
59.22503887408281
 20
138.255022187658
 30
0.0
  0
VERTEX
  5
21D
330
1F6
100
AcDbEntity
  8
grau 10%
 62
     7
420
 16777215
370
    35
100
AcDbVertex
100
AcDb2dVertex
 10
58.84686109639954
 20
138.9334138541553
 30
0.0
  0
VERTEX
  5
21E
330
1F6
100
AcDbEntity
  8
grau 10%
 62
     7
420
 16777215
370
    35
100
AcDbVertex
100
AcDb2dVertex
 10
58.24466942988362
 20
139.5998110762106
 30
0.0
  0
SEQEND
  5
21F
330
1F6
100
AcDbEntity
  8
grau 10%
 62
     7
420
 16777215
370
    35
  0
SPLINE
  5
220
330
1F
100
AcDbEntity
  8
grau 10%
 62
     7
420
 16777215
370
    35
100
AcDbSpline
210
0.0
220
0.0
230
1.0
 70
    11
 71
     3
 72
    17
 73
    13
 74
     0
 42
0.0000000001
 43
0.0000000001
 12
1.0
 22
0.0
 32
0.0
 13
1.0
 23
0.0
 33
0.0
 40
0.0
 40
0.0
 40
0.0
 40
0.0
 40
1.0
 40
1.0
 40
1.0
 40
2.0
 40
2.0
 40
2.0
 40
3.0
 40
3.0
 40
3.0
 40
4.0
 40
4.0
 40
4.0
 40
4.0
 10
88.56909442230246
 20
136.8700166324489
 30
0.0
 10
88.56909442230246
 20
138.3883721876249
 30
0.0
 10
87.3378999781659
 20
139.6195666317614
 30
0.0
 10
85.81919164521213
 20
139.6195666317614
 30
0.0
 10
84.30048331225838
 20
139.6195666317614
 30
0.0
 10
83.06893609034404
 20
138.3883721876249
 30
0.0
 10
83.06893609034404
 20
136.8700166324489
 30
0.0
 10
83.06893609034404
 20
135.3513082994951
 30
0.0
 10
84.30048331225838
 20
134.119408299803
 30
0.0
 10
85.81919164521213
 20
134.119408299803
 30
0.0
 10
87.3378999781659
 20
134.119408299803
 30
0.0
 10
88.56909442230246
 20
135.3513082994951
 30
0.0
 10
88.56909442230246
 20
136.8700166324489
 30
0.0
  0
POLYLINE
  5
221
330
1F
100
AcDbEntity
  8
grau 10%
 62
     7
420
 16777215
370
    35
100
AcDb2dPolyline
 66
     1
 10
0.0
 20
0.0
 30
0.0
  0
VERTEX
  5
222
330
221
100
AcDbEntity
  8
grau 10%
 62
     7
420
 16777215
370
    35
100
AcDbVertex
100
AcDb2dVertex
 10
36.81871110190657
 20
220.2839693893733
 30
0.0
  0
VERTEX
  5
223
330
221
100
AcDbEntity
  8
grau 10%
 62
     7
420
 16777215
370
    35
100
AcDbVertex
100
AcDb2dVertex
 10
-2.681111110440641
 20
220.2839693893733
 30
0.0
  0
VERTEX
  5
224
330
221
100
AcDbEntity
  8
grau 10%
 62
     7
420
 16777215
370
    35
100
AcDbVertex
100
AcDb2dVertex
 10
-3.18099722142659
 20
219.784436056165
 30
0.0
  0
SEQEND
  5
225
330
221
100
AcDbEntity
  8
grau 10%
 62
     7
420
 16777215
370
    35
  0
POLYLINE
  5
226
330
1F
100
AcDbEntity
  8
grau 10%
 62
     7
420
 16777215
370
    35
100
AcDb2dPolyline
 66
     1
 10
0.0
 20
0.0
 30
0.0
  0
VERTEX
  5
227
330
226
100
AcDbEntity
  8
grau 10%
 62
     7
420
 16777215
370
    35
100
AcDbVertex
100
AcDb2dVertex
 10
38.31872221264283
 20
190.2840999524286
 30
0.0
  0
VERTEX
  5
228
330
226
100
AcDbEntity
  8
grau 10%
 62
     7
420
 16777215
370
    35
100
AcDbVertex
100
AcDb2dVertex
 10
94.81925830962868
 20
190.2840999524286
 30
0.0
  0
SEQEND
  5
229
330
226
100
AcDbEntity
  8
grau 10%
 62
     7
420
 16777215
370
    35
  0
POLYLINE
  5
22A
330
1F
100
AcDbEntity
  8
grau 10%
 62
     7
420
 16777215
370
    35
100
AcDb2dPolyline
 66
     1
 10
0.0
 20
0.0
 30
0.0
  0
VERTEX
  5
22B
330
22A
100
AcDbEntity
  8
grau 10%
 62
     7
420
 16777215
370
    35
100
AcDbVertex
100
AcDb2dVertex
 10
38.31872221264283
 20
214.2842777242066
 30
0.0
  0
VERTEX
  5
22C
330
22A
100
AcDbEntity
  8
grau 10%
 62
     7
420
 16777215
370
    35
100
AcDbVertex
100
AcDb2dVertex
 10
37.25015832402092
 20
213.9978221687227
 30
0.0
  0
SEQEND
  5
22D
330
22A
100
AcDbEntity
  8
grau 10%
 62
     7
420
 16777215
370
    35
  0
POLYLINE
  5
22E
330
1F
100
AcDbEntity
  8
grau 10%
 62
     7
420
 16777215
370
    35
100
AcDb2dPolyline
 66
     1
 10
0.0
 20
0.0
 30
0.0
  0
VERTEX
  5
22F
330
22E
100
AcDbEntity
  8
grau 10%
 62
     7
420
 16777215
370
    35
100
AcDbVertex
100
AcDb2dVertex
 10
94.81925830962868
 20
190.2840999524286
 30
0.0
  0
VERTEX
  5
230
330
22E
100
AcDbEntity
  8
grau 10%
 62
     7
420
 16777215
370
    35
100
AcDbVertex
100
AcDb2dVertex
 10
96.81880275357344
 20
191.0118805078023
 30
0.0
  0
SEQEND
  5
231
330
22E
100
AcDbEntity
  8
grau 10%
 62
     7
420
 16777215
370
    35
  0
POLYLINE
  5
232
330
1F
100
AcDbEntity
  8
grau 10%
 62
     7
420
 16777215
370
    35
100
AcDb2dPolyline
 66
     1
 10
0.0
 20
0.0
 30
0.0
  0
VERTEX
  5
233
330
232
100
AcDbEntity
  8
grau 10%
 62
     7
420
 16777215
370
    35
100
AcDbVertex
100
AcDb2dVertex
 10
37.25015832402092
 20
190.5705555079125
 30
0.0
  0
VERTEX
  5
234
330
232
100
AcDbEntity
  8
grau 10%
 62
     7
420
 16777215
370
    35
100
AcDbVertex
100
AcDb2dVertex
 10
38.31872221264283
 20
190.2840999524286
 30
0.0
  0
SEQEND
  5
235
330
232
100
AcDbEntity
  8
grau 10%
 62
     7
420
 16777215
370
    35
  0
POLYLINE
  5
236
330
1F
100
AcDbEntity
  8
grau 10%
 62
     7
420
 16777215
370
    35
100
AcDb2dPolyline
 66
     1
 10
0.0
 20
0.0
 30
0.0
  0
VERTEX
  5
237
330
236
100
AcDbEntity
  8
grau 10%
 62
     7
420
 16777215
370
    35
100
AcDbVertex
100
AcDb2dVertex
 10
96.81880275357344
 20
213.5564971688329
 30
0.0
  0
VERTEX
  5
238
330
236
100
AcDbEntity
  8
grau 10%
 62
     7
420
 16777215
370
    35
100
AcDbVertex
100
AcDb2dVertex
 10
94.81925830962868
 20
214.2842777242066
 30
0.0
  0
SEQEND
  5
239
330
236
100
AcDbEntity
  8
grau 10%
 62
     7
420
 16777215
370
    35
  0
POLYLINE
  5
23A
330
1F
100
AcDbEntity
  8
grau 10%
 62
     7
420
 16777215
370
    35
100
AcDb2dPolyline
 66
     1
 10
0.0
 20
0.0
 30
0.0
  0
VERTEX
  5
23B
330
23A
100
AcDbEntity
  8
grau 10%
 62
     7
420
 16777215
370
    35
100
AcDbVertex
100
AcDb2dVertex
 10
51.38525832048722
 20
214.2842777242066
 30
0.0
  0
VERTEX
  5
23C
330
23A
100
AcDbEntity
  8
grau 10%
 62
     7
420
 16777215
370
    35
100
AcDbVertex
100
AcDb2dVertex
 10
38.31872221264283
 20
214.2842777242066
 30
0.0
  0
SEQEND
  5
23D
330
23A
100
AcDbEntity
  8
grau 10%
 62
     7
420
 16777215
370
    35
  0
POLYLINE
  5
23E
330
1F
100
AcDbEntity
  8
grau 10%
 62
     7
420
 16777215
370
    35
100
AcDb2dPolyline
 66
     1
 10
0.0
 20
0.0
 30
0.0
  0
VERTEX
  5
23F
330
23E
100
AcDbEntity
  8
grau 10%
 62
     7
420
 16777215
370
    35
100
AcDbVertex
100
AcDb2dVertex
 10
66.5857472055759
 20
214.2842777242066
 30
0.0
  0
VERTEX
  5
240
330
23E
100
AcDbEntity
  8
grau 10%
 62
     7
420
 16777215
370
    35
100
AcDbVertex
100
AcDb2dVertex
 10
59.85263054059274
 20
214.2842777242066
 30
0.0
  0
SEQEND
  5
241
330
23E
100
AcDbEntity
  8
grau 10%
 62
     7
420
 16777215
370
    35
  0
POLYLINE
  5
242
330
1F
100
AcDbEntity
  8
grau 10%
 62
     7
420
 16777215
370
    35
100
AcDb2dPolyline
 66
     1
 10
0.0
 20
0.0
 30
0.0
  0
VERTEX
  5
243
330
242
100
AcDbEntity
  8
grau 10%
 62
     7
420
 16777215
370
    35
100
AcDbVertex
100
AcDb2dVertex
 10
81.5851527573816
 20
214.2842777242066
 30
0.0
  0
VERTEX
  5
244
330
242
100
AcDbEntity
  8
grau 10%
 62
     7
420
 16777215
370
    35
100
AcDbVertex
100
AcDb2dVertex
 10
75.05241387012589
 20
214.2842777242066
 30
0.0
  0
SEQEND
  5
245
330
242
100
AcDbEntity
  8
grau 10%
 62
     7
420
 16777215
370
    35
  0
POLYLINE
  5
246
330
1F
100
AcDbEntity
  8
grau 10%
 62
     7
420
 16777215
370
    35
100
AcDb2dPolyline
 66
     1
 10
0.0
 20
0.0
 30
0.0
  0
VERTEX
  5
247
330
246
100
AcDbEntity
  8
grau 10%
 62
     7
420
 16777215
370
    35
100
AcDbVertex
100
AcDb2dVertex
 10
94.81925830962868
 20
214.2842777242066
 30
0.0
  0
VERTEX
  5
248
330
246
100
AcDbEntity
  8
grau 10%
 62
     7
420
 16777215
370
    35
100
AcDbVertex
100
AcDb2dVertex
 10
90.05252497748714
 20
214.2842777242066
 30
0.0
  0
SEQEND
  5
249
330
246
100
AcDbEntity
  8
grau 10%
 62
     7
420
 16777215
370
    35
  0
POLYLINE
  5
24A
330
1F
100
AcDbEntity
  8
grau 10%
 62
     7
420
 16777215
370
    35
100
AcDb2dPolyline
 66
     1
 10
0.0
 20
0.0
 30
0.0
  0
VERTEX
  5
24B
330
24A
100
AcDbEntity
  8
grau 10%
 62
     7
420
 16777215
370
    35
100
AcDbVertex
100
AcDb2dVertex
 10
37.14679443515799
 20
213.9840638353929
 30
0.0
  0
VERTEX
  5
24C
330
24A
100
AcDbEntity
  8
grau 10%
 62
     7
420
 16777215
370
    35
100
AcDbVertex
100
AcDb2dVertex
 10
36.88750276855626
 20
213.9840638353929
 30
0.0
  0
SEQEND
  5
24D
330
24A
100
AcDbEntity
  8
grau 10%
 62
     7
420
 16777215
370
    35
  0
POLYLINE
  5
24E
330
1F
100
AcDbEntity
  8
grau 10%
 62
     7
420
 16777215
370
    35
100
AcDb2dPolyline
 66
     1
 10
0.0
 20
0.0
 30
0.0
  0
VERTEX
  5
24F
330
24E
100
AcDbEntity
  8
grau 10%
 62
     7
420
 16777215
370
    35
100
AcDbVertex
100
AcDb2dVertex
 10
36.88750276855626
 20
190.5839610634649
 30
0.0
  0
VERTEX
  5
250
330
24E
100
AcDbEntity
  8
grau 10%
 62
     7
420
 16777215
370
    35
100
AcDbVertex
100
AcDb2dVertex
 10
37.14679443515799
 20
190.5839610634649
 30
0.0
  0
SEQEND
  5
251
330
24E
100
AcDbEntity
  8
grau 10%
 62
     7
420
 16777215
370
    35
  0
SPLINE
  5
252
330
1F
100
AcDbEntity
  8
grau 10%
 62
     7
420
 16777215
370
    35
100
AcDbSpline
210
0.0
220
0.0
230
1.0
 70
     8
 71
     3
 72
     8
 73
     4
 74
     0
 42
0.0000000001
 43
0.0000000001
 12
1.0
 22
0.0
 32
0.0
 13
1.0
 23
0.0
 33
0.0
 40
0.0
 40
0.0
 40
0.0
 40
0.0
 40
1.0
 40
1.0
 40
1.0
 40
1.0
 10
36.88750276855626
 20
190.5839610634649
 30
0.0
 10
36.86280832411777
 20
190.5839610634649
 30
0.0
 10
36.83917221301257
 20
190.5821971745767
 30
0.0
 10
36.81871110190657
 20
190.5786693967998
 30
0.0
  0
SPLINE
  5
253
330
1F
100
AcDbEntity
  8
grau 10%
 62
     7
420
 16777215
370
    35
100
AcDbSpline
210
0.0
220
0.0
230
1.0
 70
     8
 71
     3
 72
     8
 73
     4
 74
     0
 42
0.0000000001
 43
0.0000000001
 12
1.0
 22
0.0
 32
0.0
 13
1.0
 23
0.0
 33
0.0
 40
0.0
 40
0.0
 40
0.0
 40
0.0
 40
1.0
 40
1.0
 40
1.0
 40
1.0
 10
36.81871110190657
 20
213.9904138353913
 30
0.0
 10
36.8430527685673
 20
213.9858277242812
 30
0.0
 10
36.86633610189475
 20
213.9840638353929
 30
0.0
 10
36.88750276855626
 20
213.9840638353929
 30
0.0
  0
SPLINE
  5
254
330
1F
100
AcDbEntity
  8
grau 10%
 62
     7
420
 16777215
370
    35
100
AcDbSpline
210
0.0
220
0.0
230
1.0
 70
     8
 71
     3
 72
     8
 73
     4
 74
     0
 42
0.0000000001
 43
0.0000000001
 12
1.0
 22
0.0
 32
0.0
 13
1.0
 23
0.0
 33
0.0
 40
0.0
 40
0.0
 40
0.0
 40
0.0
 40
1.0
 40
1.0
 40
1.0
 40
1.0
 10
37.25015832402092
 20
190.5705555079125
 30
0.0
 10
37.21452776847439
 20
190.5804332856879
 30
0.0
 10
37.17889721292786
 20
190.5843138412427
 30
0.0
 10
37.14679443515799
 20
190.5839610634649
 30
0.0
  0
SPLINE
  5
255
330
1F
100
AcDbEntity
  8
grau 10%
 62
     7
420
 16777215
370
    35
100
AcDbSpline
210
0.0
220
0.0
230
1.0
 70
     8
 71
     3
 72
     8
 73
     4
 74
     0
 42
0.0000000001
 43
0.0000000001
 12
1.0
 22
0.0
 32
0.0
 13
1.0
 23
0.0
 33
0.0
 40
0.0
 40
0.0
 40
0.0
 40
0.0
 40
1.0
 40
1.0
 40
1.0
 40
1.0
 10
37.14679443515799
 20
213.9840638353929
 30
0.0
 10
37.1834833240378
 20
213.9840638353929
 30
0.0
 10
37.21911387958433
 20
213.9893555020582
 30
0.0
 10
37.25015832402092
 20
213.9978221687227
 30
0.0
  0
POLYLINE
  5
256
330
1F
100
AcDbEntity
  8
grau 10%
 62
     7
420
 16777215
370
    35
100
AcDb2dPolyline
 66
     1
 10
0.0
 20
0.0
 30
0.0
  0
VERTEX
  5
257
330
256
100
AcDbEntity
  8
grau 10%
 62
     7
420
 16777215
370
    35
100
AcDbVertex
100
AcDb2dVertex
 10
36.81871110190657
 20
190.9706055078125
 30
0.0
  0
VERTEX
  5
258
330
256
100
AcDbEntity
  8
grau 10%
 62
     7
420
 16777215
370
    35
100
AcDbVertex
100
AcDb2dVertex
 10
36.81871110190657
 20
191.8557249520357
 30
0.0
  0
SEQEND
  5
259
330
256
100
AcDbEntity
  8
grau 10%
 62
     7
420
 16777215
370
    35
  0
POLYLINE
  5
25A
330
1F
100
AcDbEntity
  8
grau 10%
 62
     7
420
 16777215
370
    35
100
AcDb2dPolyline
 66
     1
 10
0.0
 20
0.0
 30
0.0
  0
VERTEX
  5
25B
330
25A
100
AcDbEntity
  8
grau 10%
 62
     7
420
 16777215
370
    35
100
AcDbVertex
100
AcDb2dVertex
 10
36.81871110190657
 20
187.6128666197631
 30
0.0
  0
VERTEX
  5
25C
330
25A
100
AcDbEntity
  8
grau 10%
 62
     7
420
 16777215
370
    35
100
AcDbVertex
100
AcDb2dVertex
 10
36.81871110190657
 20
190.9706055078125
 30
0.0
  0
SEQEND
  5
25D
330
25A
100
AcDbEntity
  8
grau 10%
 62
     7
420
 16777215
370
    35
  0
POLYLINE
  5
25E
330
1F
100
AcDbEntity
  8
grau 10%
 62
     7
420
 16777215
370
    35
100
AcDb2dPolyline
 66
     1
 10
0.0
 20
0.0
 30
0.0
  0
VERTEX
  5
25F
330
25E
100
AcDbEntity
  8
grau 10%
 62
     7
420
 16777215
370
    35
100
AcDbVertex
100
AcDb2dVertex
 10
36.81871110190657
 20
185.2841805092346
 30
0.0
  0
VERTEX
  5
260
330
25E
100
AcDbEntity
  8
grau 10%
 62
     7
420
 16777215
370
    35
100
AcDbVertex
100
AcDb2dVertex
 10
36.81871110190657
 20
186.2888916200945
 30
0.0
  0
VERTEX
  5
261
330
25E
100
AcDbEntity
  8
grau 10%
 62
     7
420
 16777215
370
    35
100
AcDbVertex
100
AcDb2dVertex
 10
36.81871110190657
 20
187.6128666197631
 30
0.0
  0
SEQEND
  5
262
330
25E
100
AcDbEntity
  8
grau 10%
 62
     7
420
 16777215
370
    35
  0
POLYLINE
  5
263
330
1F
100
AcDbEntity
  8
grau 10%
 62
     7
420
 16777215
370
    35
100
AcDb2dPolyline
 66
     1
 10
0.0
 20
0.0
 30
0.0
  0
VERTEX
  5
264
330
263
100
AcDbEntity
  8
grau 10%
 62
     7
420
 16777215
370
    35
100
AcDbVertex
100
AcDb2dVertex
 10
31.81879165871219
 20
187.6128666197631
 30
0.0
  0
VERTEX
  5
265
330
263
100
AcDbEntity
  8
grau 10%
 62
     7
420
 16777215
370
    35
100
AcDbVertex
100
AcDb2dVertex
 10
30.8341888811805
 20
187.7112916197386
 30
0.0
  0
VERTEX
  5
266
330
263
100
AcDbEntity
  8
grau 10%
 62
     7
420
 16777215
370
    35
100
AcDbVertex
100
AcDb2dVertex
 10
29.96000554806569
 20
188.0009221752217
 30
0.0
  0
VERTEX
  5
267
330
263
100
AcDbEntity
  8
grau 10%
 62
     7
420
 16777215
370
    35
100
AcDbVertex
100
AcDb2dVertex
 10
29.2865527704564
 20
188.4694110639933
 30
0.0
  0
VERTEX
  5
268
330
263
100
AcDbEntity
  8
grau 10%
 62
     7
420
 16777215
370
    35
100
AcDbVertex
100
AcDb2dVertex
 10
28.89567499277628
 20
189.0878305082834
 30
0.0
  0
VERTEX
  5
269
330
263
100
AcDbEntity
  8
grau 10%
 62
     7
420
 16777215
370
    35
100
AcDbVertex
100
AcDb2dVertex
 10
28.81912221501777
 20
189.5559666192772
 30
0.0
  0
VERTEX
  5
26A
330
263
100
AcDbEntity
  8
grau 10%
 62
     7
420
 16777215
370
    35
100
AcDbVertex
100
AcDb2dVertex
 10
28.98563332608716
 20
190.2717527302096
 30
0.0
  0
VERTEX
  5
26B
330
263
100
AcDbEntity
  8
grau 10%
 62
     7
420
 16777215
370
    35
100
AcDbVertex
100
AcDb2dVertex
 10
29.46470554818968
 20
190.9388555078204
 30
0.0
  0
VERTEX
  5
26C
330
263
100
AcDbEntity
  8
grau 10%
 62
     7
420
 16777215
370
    35
100
AcDbVertex
100
AcDb2dVertex
 10
30.21012499244755
 20
191.4736666187983
 30
0.0
  0
VERTEX
  5
26D
330
263
100
AcDbEntity
  8
grau 10%
 62
     7
420
 16777215
370
    35
100
AcDbVertex
100
AcDb2dVertex
 10
31.14428054776961
 20
191.7918721742743
 30
0.0
  0
VERTEX
  5
26E
330
263
100
AcDbEntity
  8
grau 10%
 62
     7
420
 16777215
370
    35
100
AcDbVertex
100
AcDb2dVertex
 10
31.81879165871219
 20
191.8557249520357
 30
0.0
  0
SEQEND
  5
26F
330
263
100
AcDbEntity
  8
grau 10%
 62
     7
420
 16777215
370
    35
  0
POLYLINE
  5
270
330
1F
100
AcDbEntity
  8
grau 10%
 62
     7
420
 16777215
370
    35
100
AcDb2dPolyline
 66
     1
 10
0.0
 20
0.0
 30
0.0
  0
VERTEX
  5
271
330
270
100
AcDbEntity
  8
grau 10%
 62
     7
420
 16777215
370
    35
100
AcDbVertex
100
AcDb2dVertex
 10
36.81871110190657
 20
191.8557249520357
 30
0.0
  0
VERTEX
  5
272
330
270
100
AcDbEntity
  8
grau 10%
 62
     7
420
 16777215
370
    35
100
AcDbVertex
100
AcDb2dVertex
 10
36.81871110190657
 20
193.5201305071754
 30
0.0
  0
VERTEX
  5
273
330
270
100
AcDbEntity
  8
grau 10%
 62
     7
420
 16777215
370
    35
100
AcDbVertex
100
AcDb2dVertex
 10
36.81871110190657
 20
195.2903693956218
 30
0.0
  0
VERTEX
  5
274
330
270
100
AcDbEntity
  8
grau 10%
 62
     7
420
 16777215
370
    35
100
AcDbVertex
100
AcDb2dVertex
 10
36.81871110190657
 20
197.1435110618254
 30
0.0
  0
VERTEX
  5
275
330
270
100
AcDbEntity
  8
grau 10%
 62
     7
420
 16777215
370
    35
100
AcDbVertex
100
AcDb2dVertex
 10
36.81871110190657
 20
199.0583888391244
 30
0.0
  0
VERTEX
  5
276
330
270
100
AcDbEntity
  8
grau 10%
 62
     7
420
 16777215
370
    35
100
AcDbVertex
100
AcDb2dVertex
 10
36.81871110190657
 20
201.0117193941911
 30
0.0
  0
VERTEX
  5
277
330
270
100
AcDbEntity
  8
grau 10%
 62
     7
420
 16777215
370
    35
100
AcDbVertex
100
AcDb2dVertex
 10
36.81871110190657
 20
202.9802193936995
 30
0.0
  0
VERTEX
  5
278
330
270
100
AcDbEntity
  8
grau 10%
 62
     7
420
 16777215
370
    35
100
AcDbVertex
100
AcDb2dVertex
 10
36.81871110190657
 20
204.9409582820979
 30
0.0
  0
VERTEX
  5
279
330
270
100
AcDbEntity
  8
grau 10%
 62
     7
420
 16777215
370
    35
100
AcDbVertex
100
AcDb2dVertex
 10
36.81871110190657
 20
206.8692416149493
 30
0.0
  0
VERTEX
  5
27A
330
270
100
AcDbEntity
  8
grau 10%
 62
     7
420
 16777215
370
    35
100
AcDbVertex
100
AcDb2dVertex
 10
36.81871110190657
 20
208.7431971700364
 30
0.0
  0
VERTEX
  5
27B
330
270
100
AcDbEntity
  8
grau 10%
 62
     7
420
 16777215
370
    35
100
AcDbVertex
100
AcDb2dVertex
 10
36.81871110190657
 20
210.5395416140317
 30
0.0
  0
VERTEX
  5
27C
330
270
100
AcDbEntity
  8
grau 10%
 62
     7
420
 16777215
370
    35
100
AcDbVertex
100
AcDb2dVertex
 10
36.81871110190657
 20
212.237108280274
 30
0.0
  0
VERTEX
  5
27D
330
270
100
AcDbEntity
  8
grau 10%
 62
     7
420
 16777215
370
    35
100
AcDbVertex
100
AcDb2dVertex
 10
36.81871110190657
 20
213.8157888354348
 30
0.0
  0
VERTEX
  5
27E
330
270
100
AcDbEntity
  8
grau 10%
 62
     7
420
 16777215
370
    35
100
AcDbVertex
100
AcDb2dVertex
 10
36.81871110190657
 20
215.2561805017414
 30
0.0
  0
VERTEX
  5
27F
330
270
100
AcDbEntity
  8
grau 10%
 62
     7
420
 16777215
370
    35
100
AcDbVertex
100
AcDb2dVertex
 10
36.81871110190657
 20
216.5417027236423
 30
0.0
  0
VERTEX
  5
280
330
270
100
AcDbEntity
  8
grau 10%
 62
     7
420
 16777215
370
    35
100
AcDbVertex
100
AcDb2dVertex
 10
36.81871110190657
 20
217.6561277233636
 30
0.0
  0
VERTEX
  5
281
330
270
100
AcDbEntity
  8
grau 10%
 62
     7
420
 16777215
370
    35
100
AcDbVertex
100
AcDb2dVertex
 10
36.81871110190657
 20
218.5871082786865
 30
0.0
  0
VERTEX
  5
282
330
270
100
AcDbEntity
  8
grau 10%
 62
     7
420
 16777215
370
    35
100
AcDbVertex
100
AcDb2dVertex
 10
36.81871110190657
 20
219.3233555007246
 30
0.0
  0
VERTEX
  5
283
330
270
100
AcDbEntity
  8
grau 10%
 62
     7
420
 16777215
370
    35
100
AcDbVertex
100
AcDb2dVertex
 10
36.81871110190657
 20
219.8546388339251
 30
0.0
  0
VERTEX
  5
284
330
270
100
AcDbEntity
  8
grau 10%
 62
     7
420
 16777215
370
    35
100
AcDbVertex
100
AcDb2dVertex
 10
36.81871110190657
 20
220.1763721671781
 30
0.0
  0
VERTEX
  5
285
330
270
100
AcDbEntity
  8
grau 10%
 62
     7
420
 16777215
370
    35
100
AcDbVertex
100
AcDb2dVertex
 10
36.81871110190657
 20
220.2839693893733
 30
0.0
  0
SEQEND
  5
286
330
270
100
AcDbEntity
  8
grau 10%
 62
     7
420
 16777215
370
    35
  0
POLYLINE
  5
287
330
1F
100
AcDbEntity
  8
grau 10%
 62
     7
420
 16777215
370
    35
100
AcDb2dPolyline
 66
     1
 10
0.0
 20
0.0
 30
0.0
  0
VERTEX
  5
288
330
287
100
AcDbEntity
  8
grau 10%
 62
     7
420
 16777215
370
    35
100
AcDbVertex
100
AcDb2dVertex
 10
-2.681111110440641
 20
220.2839693893733
 30
0.0
  0
VERTEX
  5
289
330
287
100
AcDbEntity
  8
grau 10%
 62
     7
420
 16777215
370
    35
100
AcDbVertex
100
AcDb2dVertex
 10
-2.681111110440641
 20
220.1795471671773
 30
0.0
  0
VERTEX
  5
28A
330
287
100
AcDbEntity
  8
grau 10%
 62
     7
420
 16777215
370
    35
100
AcDbVertex
100
AcDb2dVertex
 10
-2.681111110440641
 20
219.866280500589
 30
0.0
  0
VERTEX
  5
28B
330
287
100
AcDbEntity
  8
grau 10%
 62
     7
420
 16777215
370
    35
100
AcDbVertex
100
AcDb2dVertex
 10
-2.681111110440641
 20
219.3487555007183
 30
0.0
  0
VERTEX
  5
28C
330
287
100
AcDbEntity
  8
grau 10%
 62
     7
420
 16777215
370
    35
100
AcDbVertex
100
AcDb2dVertex
 10
-2.681111110440641
 20
218.631911056453
 30
0.0
  0
VERTEX
  5
28D
330
287
100
AcDbEntity
  8
grau 10%
 62
     7
420
 16777215
370
    35
100
AcDbVertex
100
AcDb2dVertex
 10
-2.681111110440641
 20
217.7256249455685
 30
0.0
  0
VERTEX
  5
28E
330
287
100
AcDbEntity
  8
grau 10%
 62
     7
420
 16777215
370
    35
100
AcDbVertex
100
AcDb2dVertex
 10
-2.681111110440641
 20
216.6387166125069
 30
0.0
  0
VERTEX
  5
28F
330
287
100
AcDbEntity
  8
grau 10%
 62
     7
420
 16777215
370
    35
100
AcDbVertex
100
AcDb2dVertex
 10
-2.681111110440641
 20
215.3852971683758
 30
0.0
  0
VERTEX
  5
290
330
287
100
AcDbEntity
  8
grau 10%
 62
     7
420
 16777215
370
    35
100
AcDbVertex
100
AcDb2dVertex
 10
-2.681111110440641
 20
213.9791249465052
 30
0.0
  0
VERTEX
  5
291
330
287
100
AcDbEntity
  8
grau 10%
 62
     7
420
 16777215
370
    35
100
AcDbVertex
100
AcDb2dVertex
 10
-2.681111110440641
 20
212.4367805024462
 30
0.0
  0
VERTEX
  5
292
330
287
100
AcDbEntity
  8
grau 10%
 62
     7
420
 16777215
370
    35
100
AcDbVertex
100
AcDb2dVertex
 10
-2.681111110440641
 20
210.7759027250838
 30
0.0
  0
VERTEX
  5
293
330
287
100
AcDbEntity
  8
grau 10%
 62
     7
420
 16777215
370
    35
100
AcDbVertex
100
AcDb2dVertex
 10
-2.681111110440641
 20
209.0165999477458
 30
0.0
  0
VERTEX
  5
294
330
287
100
AcDbEntity
  8
grau 10%
 62
     7
420
 16777215
370
    35
100
AcDbVertex
100
AcDb2dVertex
 10
-2.681111110440641
 20
207.1789805037608
 30
0.0
  0
VERTEX
  5
295
330
287
100
AcDbEntity
  8
grau 10%
 62
     7
420
 16777215
370
    35
100
AcDbVertex
100
AcDb2dVertex
 10
-2.681111110440641
 20
205.2845638375676
 30
0.0
  0
VERTEX
  5
296
330
287
100
AcDbEntity
  8
grau 10%
 62
     7
420
 16777215
370
    35
100
AcDbVertex
100
AcDb2dVertex
 10
-2.681111110440641
 20
203.3548693936058
 30
0.0
  0
VERTEX
  5
297
330
287
100
AcDbEntity
  8
grau 10%
 62
     7
420
 16777215
370
    35
100
AcDbVertex
100
AcDb2dVertex
 10
-2.681111110440641
 20
201.4124749496466
 30
0.0
  0
VERTEX
  5
298
330
287
100
AcDbEntity
  8
grau 10%
 62
     7
420
 16777215
370
    35
100
AcDbVertex
100
AcDb2dVertex
 10
-2.681111110440641
 20
199.4806638390189
 30
0.0
  0
VERTEX
  5
299
330
287
100
AcDbEntity
  8
grau 10%
 62
     7
420
 16777215
370
    35
100
AcDbVertex
100
AcDb2dVertex
 10
-2.681111110440641
 20
197.5813082839381
 30
0.0
  0
VERTEX
  5
29A
330
287
100
AcDbEntity
  8
grau 10%
 62
     7
420
 16777215
370
    35
100
AcDbVertex
100
AcDb2dVertex
 10
-2.681111110440641
 20
195.7362805066211
 30
0.0
  0
VERTEX
  5
29B
330
287
100
AcDbEntity
  8
grau 10%
 62
     7
420
 16777215
370
    35
100
AcDbVertex
100
AcDb2dVertex
 10
-2.681111110440641
 20
193.9685110626191
 30
0.0
  0
VERTEX
  5
29C
330
287
100
AcDbEntity
  8
grau 10%
 62
     7
420
 16777215
370
    35
100
AcDbVertex
100
AcDb2dVertex
 10
-2.681111110440641
 20
192.2966971741477
 30
0.0
  0
VERTEX
  5
29D
330
287
100
AcDbEntity
  8
grau 10%
 62
     7
420
 16777215
370
    35
100
AcDbVertex
100
AcDb2dVertex
 10
-2.681111110440641
 20
190.7416527300922
 30
0.0
  0
VERTEX
  5
29E
330
287
100
AcDbEntity
  8
grau 10%
 62
     7
420
 16777215
370
    35
100
AcDbVertex
100
AcDb2dVertex
 10
-2.681111110440641
 20
189.3203110637807
 30
0.0
  0
VERTEX
  5
29F
330
287
100
AcDbEntity
  8
grau 10%
 62
     7
420
 16777215
370
    35
100
AcDbVertex
100
AcDb2dVertex
 10
-2.681111110440641
 20
188.0503110640981
 30
0.0
  0
VERTEX
  5
2A0
330
287
100
AcDbEntity
  8
grau 10%
 62
     7
420
 16777215
370
    35
100
AcDbVertex
100
AcDb2dVertex
 10
-2.681111110440641
 20
186.94611661993
 30
0.0
  0
VERTEX
  5
2A1
330
287
100
AcDbEntity
  8
grau 10%
 62
     7
420
 16777215
370
    35
100
AcDbVertex
100
AcDb2dVertex
 10
-2.681111110440641
 20
186.0204277312726
 30
0.0
  0
VERTEX
  5
2A2
330
287
100
AcDbEntity
  8
grau 10%
 62
     7
420
 16777215
370
    35
100
AcDbVertex
100
AcDb2dVertex
 10
-2.681111110440641
 20
185.2841805092346
 30
0.0
  0
VERTEX
  5
2A3
330
287
100
AcDbEntity
  8
grau 10%
 62
     7
420
 16777215
370
    35
100
AcDbVertex
100
AcDb2dVertex
 10
36.81871110190657
 20
185.2841805092346
 30
0.0
  0
SEQEND
  5
2A4
330
287
100
AcDbEntity
  8
grau 10%
 62
     7
420
 16777215
370
    35
  0
POLYLINE
  5
2A5
330
1F
100
AcDbEntity
  8
grau 10%
 62
     7
420
 16777215
370
    35
100
AcDb2dPolyline
 66
     1
 10
0.0
 20
0.0
 30
0.0
  0
VERTEX
  5
2A6
330
2A5
100
AcDbEntity
  8
grau 10%
 62
     7
420
 16777215
370
    35
100
AcDbVertex
100
AcDb2dVertex
 10
-3.18099722142659
 20
185.2841805092346
 30
0.0
  0
VERTEX
  5
2A7
330
2A5
100
AcDbEntity
  8
grau 10%
 62
     7
420
 16777215
370
    35
100
AcDbVertex
100
AcDb2dVertex
 10
-2.681111110440641
 20
185.2841805092346
 30
0.0
  0
SEQEND
  5
2A8
330
2A5
100
AcDbEntity
  8
grau 10%
 62
     7
420
 16777215
370
    35
  0
POLYLINE
  5
2A9
330
1F
100
AcDbEntity
  8
grau 10%
 62
     7
420
 16777215
370
    35
100
AcDb2dPolyline
 66
     1
 10
0.0
 20
0.0
 30
0.0
  0
VERTEX
  5
2AA
330
2A9
100
AcDbEntity
  8
grau 10%
 62
     7
420
 16777215
370
    35
100
AcDbVertex
100
AcDb2dVertex
 10
36.81871110190657
 20
191.8557249520357
 30
0.0
  0
VERTEX
  5
2AB
330
2A9
100
AcDbEntity
  8
grau 10%
 62
     7
420
 16777215
370
    35
100
AcDbVertex
100
AcDb2dVertex
 10
31.81879165871219
 20
191.8557249520357
 30
0.0
  0
SEQEND
  5
2AC
330
2A9
100
AcDbEntity
  8
grau 10%
 62
     7
420
 16777215
370
    35
  0
POLYLINE
  5
2AD
330
1F
100
AcDbEntity
  8
grau 10%
 62
     7
420
 16777215
370
    35
100
AcDb2dPolyline
 66
     1
 10
0.0
 20
0.0
 30
0.0
  0
VERTEX
  5
2AE
330
2AD
100
AcDbEntity
  8
grau 10%
 62
     7
420
 16777215
370
    35
100
AcDbVertex
100
AcDb2dVertex
 10
31.81879165871219
 20
187.6128666197631
 30
0.0
  0
VERTEX
  5
2AF
330
2AD
100
AcDbEntity
  8
grau 10%
 62
     7
420
 16777215
370
    35
100
AcDbVertex
100
AcDb2dVertex
 10
36.81871110190657
 20
187.6128666197631
 30
0.0
  0
SEQEND
  5
2B0
330
2AD
100
AcDbEntity
  8
grau 10%
 62
     7
420
 16777215
370
    35
  0
POLYLINE
  5
2B1
330
1F
100
AcDbEntity
  8
grau 10%
 62
     7
420
 16777215
370
    35
100
AcDb2dPolyline
 66
     1
 10
0.0
 20
0.0
 30
0.0
  0
VERTEX
  5
2B2
330
2B1
100
AcDbEntity
  8
grau 10%
 62
     7
420
 16777215
370
    35
100
AcDbVertex
100
AcDb2dVertex
 10
-3.18099722142659
 20
185.2841805092346
 30
0.0
  0
VERTEX
  5
2B3
330
2B1
100
AcDbEntity
  8
grau 10%
 62
     7
420
 16777215
370
    35
100
AcDbVertex
100
AcDb2dVertex
 10
-3.18099722142659
 20
185.8525055090921
 30
0.0
  0
VERTEX
  5
2B4
330
2B1
100
AcDbEntity
  8
grau 10%
 62
     7
420
 16777215
370
    35
100
AcDbVertex
100
AcDb2dVertex
 10
-3.18099722142659
 20
186.6254416200103
 30
0.0
  0
VERTEX
  5
2B5
330
2B1
100
AcDbEntity
  8
grau 10%
 62
     7
420
 16777215
370
    35
100
AcDbVertex
100
AcDb2dVertex
 10
-3.18099722142659
 20
187.5934638419907
 30
0.0
  0
VERTEX
  5
2B6
330
2B1
100
AcDbEntity
  8
grau 10%
 62
     7
420
 16777215
370
    35
100
AcDbVertex
100
AcDb2dVertex
 10
-3.18099722142659
 20
188.7435193972582
 30
0.0
  0
VERTEX
  5
2B7
330
2B1
100
AcDbEntity
  8
grau 10%
 62
     7
420
 16777215
370
    35
100
AcDbVertex
100
AcDb2dVertex
 10
-3.18099722142659
 20
190.0629082858178
 30
0.0
  0
VERTEX
  5
2B8
330
2B1
100
AcDbEntity
  8
grau 10%
 62
     7
420
 16777215
370
    35
100
AcDbVertex
100
AcDb2dVertex
 10
-3.18099722142659
 20
191.5339916187827
 30
0.0
  0
VERTEX
  5
2B9
330
2B1
100
AcDbEntity
  8
grau 10%
 62
     7
420
 16777215
370
    35
100
AcDbVertex
100
AcDb2dVertex
 10
-3.18099722142659
 20
193.1391305072707
 30
0.0
  0
VERTEX
  5
2BA
330
2B1
100
AcDbEntity
  8
grau 10%
 62
     7
420
 16777215
370
    35
100
AcDbVertex
100
AcDb2dVertex
 10
-3.18099722142659
 20
194.8578638401741
 30
0.0
  0
VERTEX
  5
2BB
330
2B1
100
AcDbEntity
  8
grau 10%
 62
     7
420
 16777215
370
    35
100
AcDbVertex
100
AcDb2dVertex
 10
-3.18099722142659
 20
196.6690249508325
 30
0.0
  0
VERTEX
  5
2BC
330
2B1
100
AcDbEntity
  8
grau 10%
 62
     7
420
 16777215
370
    35
100
AcDbVertex
100
AcDb2dVertex
 10
-3.18099722142659
 20
198.5500360614734
 30
0.0
  0
VERTEX
  5
2BD
330
2B1
100
AcDbEntity
  8
grau 10%
 62
     7
420
 16777215
370
    35
100
AcDbVertex
100
AcDb2dVertex
 10
-3.18099722142659
 20
200.4772610609915
 30
0.0
  0
VERTEX
  5
2BE
330
2B1
100
AcDbEntity
  8
grau 10%
 62
     7
420
 16777215
370
    35
100
AcDbVertex
100
AcDb2dVertex
 10
-3.18099722142659
 20
202.4274166160596
 30
0.0
  0
VERTEX
  5
2BF
330
2B1
100
AcDbEntity
  8
grau 10%
 62
     7
420
 16777215
370
    35
100
AcDbVertex
100
AcDb2dVertex
 10
-3.18099722142659
 20
204.3761610600167
 30
0.0
  0
VERTEX
  5
2C0
330
2B1
100
AcDbEntity
  8
grau 10%
 62
     7
420
 16777215
370
    35
100
AcDbVertex
100
AcDb2dVertex
 10
-3.18099722142659
 20
206.2977416150921
 30
0.0
  0
VERTEX
  5
2C1
330
2B1
100
AcDbEntity
  8
grau 10%
 62
     7
420
 16777215
370
    35
100
AcDbVertex
100
AcDb2dVertex
 10
-3.18099722142659
 20
208.1702860590684
 30
0.0
  0
VERTEX
  5
2C2
330
2B1
100
AcDbEntity
  8
grau 10%
 62
     7
420
 16777215
370
    35
100
AcDbVertex
100
AcDb2dVertex
 10
-3.18099722142659
 20
209.9694527252854
 30
0.0
  0
VERTEX
  5
2C3
330
2B1
100
AcDbEntity
  8
grau 10%
 62
     7
420
 16777215
370
    35
100
AcDbVertex
100
AcDb2dVertex
 10
-3.18099722142659
 20
211.6726638359707
 30
0.0
  0
VERTEX
  5
2C4
330
2B1
100
AcDbEntity
  8
grau 10%
 62
     7
420
 16777215
370
    35
100
AcDbVertex
100
AcDb2dVertex
 10
-3.18099722142659
 20
213.2594582800184
 30
0.0
  0
VERTEX
  5
2C5
330
2B1
100
AcDbEntity
  8
grau 10%
 62
     7
420
 16777215
370
    35
100
AcDbVertex
100
AcDb2dVertex
 10
-3.18099722142659
 20
214.7090221685449
 30
0.0
  0
VERTEX
  5
2C6
330
2B1
100
AcDbEntity
  8
grau 10%
 62
     7
420
 16777215
370
    35
100
AcDbVertex
100
AcDb2dVertex
 10
-3.18099722142659
 20
216.0044221682211
 30
0.0
  0
VERTEX
  5
2C7
330
2B1
100
AcDbEntity
  8
grau 10%
 62
     7
420
 16777215
370
    35
100
AcDbVertex
100
AcDb2dVertex
 10
-3.18099722142659
 20
217.1290777234955
 30
0.0
  0
VERTEX
  5
2C8
330
2B1
100
AcDbEntity
  8
grau 10%
 62
     7
420
 16777215
370
    35
100
AcDbVertex
100
AcDb2dVertex
 10
-3.18099722142659
 20
218.0688777232605
 30
0.0
  0
VERTEX
  5
2C9
330
2B1
100
AcDbEntity
  8
grau 10%
 62
     7
420
 16777215
370
    35
100
AcDbVertex
100
AcDb2dVertex
 10
-3.18099722142659
 20
218.8125332786302
 30
0.0
  0
VERTEX
  5
2CA
330
2B1
100
AcDbEntity
  8
grau 10%
 62
     7
420
 16777215
370
    35
100
AcDbVertex
100
AcDb2dVertex
 10
-3.18099722142659
 20
219.3501666118291
 30
0.0
  0
VERTEX
  5
2CB
330
2B1
100
AcDbEntity
  8
grau 10%
 62
     7
420
 16777215
370
    35
100
AcDbVertex
100
AcDb2dVertex
 10
-3.18099722142659
 20
219.6750749450811
 30
0.0
  0
VERTEX
  5
2CC
330
2B1
100
AcDbEntity
  8
grau 10%
 62
     7
420
 16777215
370
    35
100
AcDbVertex
100
AcDb2dVertex
 10
-3.18099722142659
 20
219.784436056165
 30
0.0
  0
SEQEND
  5
2CD
330
2B1
100
AcDbEntity
  8
grau 10%
 62
     7
420
 16777215
370
    35
  0
POLYLINE
  5
2CE
330
1F
100
AcDbEntity
  8
grau 10%
 62
     7
420
 16777215
370
    35
100
AcDb2dPolyline
 66
     1
 10
0.0
 20
0.0
 30
0.0
  0
VERTEX
  5
2CF
330
2CE
100
AcDbEntity
  8
grau 10%
 62
     7
420
 16777215
370
    35
100
AcDbVertex
100
AcDb2dVertex
 10
75.05241387012589
 20
214.280397168652
 30
0.0
  0
VERTEX
  5
2D0
330
2CE
100
AcDbEntity
  8
grau 10%
 62
     7
420
 16777215
370
    35
100
AcDbVertex
100
AcDb2dVertex
 10
75.00443609236028
 20
214.2641693908784
 30
0.0
  0
VERTEX
  5
2D1
330
2CE
100
AcDbEntity
  8
grau 10%
 62
     7
420
 16777215
370
    35
100
AcDbVertex
100
AcDb2dVertex
 10
74.77301387019594
 20
214.1893805020082
 30
0.0
  0
VERTEX
  5
2D2
330
2CE
100
AcDbEntity
  8
grau 10%
 62
     7
420
 16777215
370
    35
100
AcDbVertex
100
AcDb2dVertex
 10
74.3937777591797
 20
214.0722582798153
 30
0.0
  0
VERTEX
  5
2D3
330
2CE
100
AcDbEntity
  8
grau 10%
 62
     7
420
 16777215
370
    35
100
AcDbVertex
100
AcDb2dVertex
 10
73.88048609264138
 20
213.931499946517
 30
0.0
  0
VERTEX
  5
2D4
330
2CE
100
AcDbEntity
  8
grau 10%
 62
     7
420
 16777215
370
    35
100
AcDbVertex
100
AcDb2dVertex
 10
73.25712775946363
 20
213.7889777243304
 30
0.0
  0
VERTEX
  5
2D5
330
2CE
100
AcDbEntity
  8
grau 10%
 62
     7
420
 16777215
370
    35
100
AcDbVertex
100
AcDb2dVertex
 10
72.5399305374209
 20
213.6647999465837
 30
0.0
  0
VERTEX
  5
2D6
330
2CE
100
AcDbEntity
  8
grau 10%
 62
     7
420
 16777215
370
    35
100
AcDbVertex
100
AcDb2dVertex
 10
71.75817498206065
 20
213.5755471688282
 30
0.0
  0
VERTEX
  5
2D7
330
2CE
100
AcDbEntity
  8
grau 10%
 62
     7
420
 16777215
370
    35
100
AcDbVertex
100
AcDb2dVertex
 10
70.95313609337298
 20
213.5381527243932
 30
0.0
  0
VERTEX
  5
2D8
330
2CE
100
AcDbEntity
  8
grau 10%
 62
     7
420
 16777215
370
    35
100
AcDbVertex
100
AcDb2dVertex
 10
70.14351109357536
 20
213.5572027243884
 30
0.0
  0
VERTEX
  5
2D9
330
2CE
100
AcDbEntity
  8
grau 10%
 62
     7
420
 16777215
370
    35
100
AcDbVertex
100
AcDb2dVertex
 10
69.34623331599714
 20
213.6312860577033
 30
0.0
  0
VERTEX
  5
2DA
330
2CE
100
AcDbEntity
  8
grau 10%
 62
     7
420
 16777215
370
    35
100
AcDbVertex
100
AcDb2dVertex
 10
68.6068110939596
 20
213.7448805021192
 30
0.0
  0
VERTEX
  5
2DB
330
2CE
100
AcDbEntity
  8
grau 10%
 62
     7
420
 16777215
370
    35
100
AcDbVertex
100
AcDb2dVertex
 10
67.9531138719008
 20
213.883874946529
 30
0.0
  0
VERTEX
  5
2DC
330
2CE
100
AcDbEntity
  8
grau 10%
 62
     7
420
 16777215
370
    35
100
AcDbVertex
100
AcDb2dVertex
 10
67.40101664981674
 20
214.0271027242709
 30
0.0
  0
VERTEX
  5
2DD
330
2CE
100
AcDbEntity
  8
grau 10%
 62
     7
420
 16777215
370
    35
100
AcDbVertex
100
AcDb2dVertex
 10
66.97591942770082
 20
214.1544555020168
 30
0.0
  0
VERTEX
  5
2DE
330
2CE
100
AcDbEntity
  8
grau 10%
 62
     7
420
 16777215
370
    35
100
AcDbVertex
100
AcDb2dVertex
 10
66.69052220554987
 20
214.2454721686609
 30
0.0
  0
VERTEX
  5
2DF
330
2CE
100
AcDbEntity
  8
grau 10%
 62
     7
420
 16777215
370
    35
100
AcDbVertex
100
AcDb2dVertex
 10
66.5857472055759
 20
214.280397168652
 30
0.0
  0
SEQEND
  5
2E0
330
2CE
100
AcDbEntity
  8
grau 10%
 62
     7
420
 16777215
370
    35
  0
POLYLINE
  5
2E1
330
1F
100
AcDbEntity
  8
grau 10%
 62
     7
420
 16777215
370
    35
100
AcDb2dPolyline
 66
     1
 10
0.0
 20
0.0
 30
0.0
  0
VERTEX
  5
2E2
330
2E1
100
AcDbEntity
  8
grau 10%
 62
     7
420
 16777215
370
    35
100
AcDbVertex
100
AcDb2dVertex
 10
96.81880275357344
 20
213.5564971688329
 30
0.0
  0
VERTEX
  5
2E3
330
2E1
100
AcDbEntity
  8
grau 10%
 62
     7
420
 16777215
370
    35
100
AcDbVertex
100
AcDb2dVertex
 10
96.81880275357344
 20
213.4513693910815
 30
0.0
  0
VERTEX
  5
2E4
330
2E1
100
AcDbEntity
  8
grau 10%
 62
     7
420
 16777215
370
    35
100
AcDbVertex
100
AcDb2dVertex
 10
96.81880275357344
 20
213.1381027244932
 30
0.0
  0
VERTEX
  5
2E5
330
2E1
100
AcDbEntity
  8
grau 10%
 62
     7
420
 16777215
370
    35
100
AcDbVertex
100
AcDb2dVertex
 10
96.81880275357344
 20
212.6233999468442
 30
0.0
  0
VERTEX
  5
2E6
330
2E1
100
AcDbEntity
  8
grau 10%
 62
     7
420
 16777215
370
    35
100
AcDbVertex
100
AcDb2dVertex
 10
96.81880275357344
 20
211.9150221692434
 30
0.0
  0
VERTEX
  5
2E7
330
2E1
100
AcDbEntity
  8
grau 10%
 62
     7
420
 16777215
370
    35
100
AcDbVertex
100
AcDb2dVertex
 10
96.81880275357344
 20
211.0281388361317
 30
0.0
  0
VERTEX
  5
2E8
330
2E1
100
AcDbEntity
  8
grau 10%
 62
     7
420
 16777215
370
    35
100
AcDbVertex
100
AcDb2dVertex
 10
96.81880275357344
 20
209.9782721697275
 30
0.0
  0
VERTEX
  5
2E9
330
2E1
100
AcDbEntity
  8
grau 10%
 62
     7
420
 16777215
370
    35
100
AcDbVertex
100
AcDb2dVertex
 10
96.81880275357344
 20
208.7844721700259
 30
0.0
  0
VERTEX
  5
2EA
330
2E1
100
AcDbEntity
  8
grau 10%
 62
     7
420
 16777215
370
    35
100
AcDbVertex
100
AcDb2dVertex
 10
96.81880275357344
 20
207.4700221703547
 30
0.0
  0
VERTEX
  5
2EB
330
2E1
100
AcDbEntity
  8
grau 10%
 62
     7
420
 16777215
370
    35
100
AcDbVertex
100
AcDb2dVertex
 10
96.81880275357344
 20
206.0589110595963
 30
0.0
  0
VERTEX
  5
2EC
330
2E1
100
AcDbEntity
  8
grau 10%
 62
     7
420
 16777215
370
    35
100
AcDbVertex
100
AcDb2dVertex
 10
96.81880275357344
 20
204.5779499488552
 30
0.0
  0
VERTEX
  5
2ED
330
2E1
100
AcDbEntity
  8
grau 10%
 62
     7
420
 16777215
370
    35
100
AcDbVertex
100
AcDb2dVertex
 10
96.81880275357344
 20
203.0532443936808
 30
0.0
  0
VERTEX
  5
2EE
330
2E1
100
AcDbEntity
  8
grau 10%
 62
     7
420
 16777215
370
    35
100
AcDbVertex
100
AcDb2dVertex
 10
96.81880275357344
 20
201.5147805051768
 30
0.0
  0
VERTEX
  5
2EF
330
2E1
100
AcDbEntity
  8
grau 10%
 62
     7
420
 16777215
370
    35
100
AcDbVertex
100
AcDb2dVertex
 10
96.81880275357344
 20
199.9911332833357
 30
0.0
  0
VERTEX
  5
2F0
330
2E1
100
AcDbEntity
  8
grau 10%
 62
     7
420
 16777215
370
    35
100
AcDbVertex
100
AcDb2dVertex
 10
96.81880275357344
 20
198.5094666170392
 30
0.0
  0
VERTEX
  5
2F1
330
2E1
100
AcDbEntity
  8
grau 10%
 62
     7
420
 16777215
370
    35
100
AcDbVertex
100
AcDb2dVertex
 10
96.81880275357344
 20
197.0983555062809
 30
0.0
  0
VERTEX
  5
2F2
330
2E1
100
AcDbEntity
  8
grau 10%
 62
     7
420
 16777215
370
    35
100
AcDbVertex
100
AcDb2dVertex
 10
96.81880275357344
 20
195.7839055066093
 30
0.0
  0
VERTEX
  5
2F3
330
2E1
100
AcDbEntity
  8
grau 10%
 62
     7
420
 16777215
370
    35
100
AcDbVertex
100
AcDb2dVertex
 10
96.81880275357344
 20
194.5904582846855
 30
0.0
  0
VERTEX
  5
2F4
330
2E1
100
AcDbEntity
  8
grau 10%
 62
     7
420
 16777215
370
    35
100
AcDbVertex
100
AcDb2dVertex
 10
96.81880275357344
 20
193.540238840504
 30
0.0
  0
VERTEX
  5
2F5
330
2E1
100
AcDbEntity
  8
grau 10%
 62
     7
420
 16777215
370
    35
100
AcDbVertex
100
AcDb2dVertex
 10
96.81880275357344
 20
192.6530027296142
 30
0.0
  0
VERTEX
  5
2F6
330
2E1
100
AcDbEntity
  8
grau 10%
 62
     7
420
 16777215
370
    35
100
AcDbVertex
100
AcDb2dVertex
 10
96.81880275357344
 20
191.9456832853469
 30
0.0
  0
VERTEX
  5
2F7
330
2E1
100
AcDbEntity
  8
grau 10%
 62
     7
420
 16777215
370
    35
100
AcDbVertex
100
AcDb2dVertex
 10
96.81880275357344
 20
191.430274952142
 30
0.0
  0
VERTEX
  5
2F8
330
2E1
100
AcDbEntity
  8
grau 10%
 62
     7
420
 16777215
370
    35
100
AcDbVertex
100
AcDb2dVertex
 10
96.81880275357344
 20
191.117008285554
 30
0.0
  0
VERTEX
  5
2F9
330
2E1
100
AcDbEntity
  8
grau 10%
 62
     7
420
 16777215
370
    35
100
AcDbVertex
100
AcDb2dVertex
 10
96.81880275357344
 20
191.0118805078023
 30
0.0
  0
SEQEND
  5
2FA
330
2E1
100
AcDbEntity
  8
grau 10%
 62
     7
420
 16777215
370
    35
  0
POLYLINE
  5
2FB
330
1F
100
AcDbEntity
  8
grau 10%
 62
     7
420
 16777215
370
    35
100
AcDb2dPolyline
 66
     1
 10
0.0
 20
0.0
 30
0.0
  0
VERTEX
  5
2FC
330
2FB
100
AcDbEntity
  8
grau 10%
 62
     7
420
 16777215
370
    35
100
AcDbVertex
100
AcDb2dVertex
 10
90.05252497748714
 20
214.280397168652
 30
0.0
  0
VERTEX
  5
2FD
330
2FB
100
AcDbEntity
  8
grau 10%
 62
     7
420
 16777215
370
    35
100
AcDbVertex
100
AcDb2dVertex
 10
90.00419442194377
 20
214.2641693908784
 30
0.0
  0
VERTEX
  5
2FE
330
2FB
100
AcDbEntity
  8
grau 10%
 62
     7
420
 16777215
370
    35
100
AcDbVertex
100
AcDb2dVertex
 10
89.77347775533461
 20
214.1893805020082
 30
0.0
  0
VERTEX
  5
2FF
330
2FB
100
AcDbEntity
  8
grau 10%
 62
     7
420
 16777215
370
    35
100
AcDbVertex
100
AcDb2dVertex
 10
89.39424164431837
 20
214.0722582798153
 30
0.0
  0
VERTEX
  5
300
330
2FB
100
AcDbEntity
  8
grau 10%
 62
     7
420
 16777215
370
    35
100
AcDbVertex
100
AcDb2dVertex
 10
88.8798916444471
 20
213.931499946517
 30
0.0
  0
VERTEX
  5
301
330
2FB
100
AcDbEntity
  8
grau 10%
 62
     7
420
 16777215
370
    35
100
AcDbVertex
100
AcDb2dVertex
 10
88.25653331126934
 20
213.7889777243304
 30
0.0
  0
VERTEX
  5
302
330
2FB
100
AcDbEntity
  8
grau 10%
 62
     7
420
 16777215
370
    35
100
AcDbVertex
100
AcDb2dVertex
 10
87.53968886700406
 20
213.6647999465837
 30
0.0
  0
VERTEX
  5
303
330
2FB
100
AcDbEntity
  8
grau 10%
 62
     7
420
 16777215
370
    35
100
AcDbVertex
100
AcDb2dVertex
 10
86.75793331164414
 20
213.5755471688282
 30
0.0
  0
VERTEX
  5
304
330
2FB
100
AcDbEntity
  8
grau 10%
 62
     7
420
 16777215
370
    35
100
AcDbVertex
100
AcDb2dVertex
 10
85.95324720073421
 20
213.5381527243932
 30
0.0
  0
VERTEX
  5
305
330
2FB
100
AcDbEntity
  8
grau 10%
 62
     7
420
 16777215
370
    35
100
AcDbVertex
100
AcDb2dVertex
 10
85.14397497871435
 20
213.5572027243884
 30
0.0
  0
VERTEX
  5
306
330
2FB
100
AcDbEntity
  8
grau 10%
 62
     7
420
 16777215
370
    35
100
AcDbVertex
100
AcDb2dVertex
 10
84.34634442335806
 20
213.6312860577033
 30
0.0
  0
VERTEX
  5
307
330
2FB
100
AcDbEntity
  8
grau 10%
 62
     7
420
 16777215
370
    35
100
AcDbVertex
100
AcDb2dVertex
 10
83.60656942354309
 20
213.7448805021192
 30
0.0
  0
VERTEX
  5
308
330
2FB
100
AcDbEntity
  8
grau 10%
 62
     7
420
 16777215
370
    35
100
AcDbVertex
100
AcDb2dVertex
 10
82.95287220148427
 20
213.883874946529
 30
0.0
  0
VERTEX
  5
309
330
2FB
100
AcDbEntity
  8
grau 10%
 62
     7
420
 16777215
370
    35
100
AcDbVertex
100
AcDb2dVertex
 10
82.40148053495541
 20
214.0271027242709
 30
0.0
  0
VERTEX
  5
30A
330
2FB
100
AcDbEntity
  8
grau 10%
 62
     7
420
 16777215
370
    35
100
AcDbVertex
100
AcDb2dVertex
 10
81.97567775728396
 20
214.1544555020168
 30
0.0
  0
VERTEX
  5
30B
330
2FB
100
AcDbEntity
  8
grau 10%
 62
     7
420
 16777215
370
    35
100
AcDbVertex
100
AcDb2dVertex
 10
81.69098609068855
 20
214.2454721686609
 30
0.0
  0
VERTEX
  5
30C
330
2FB
100
AcDbEntity
  8
grau 10%
 62
     7
420
 16777215
370
    35
100
AcDbVertex
100
AcDb2dVertex
 10
81.5851527573816
 20
214.280397168652
 30
0.0
  0
SEQEND
  5
30D
330
2FB
100
AcDbEntity
  8
grau 10%
 62
     7
420
 16777215
370
    35
  0
POLYLINE
  5
30E
330
1F
100
AcDbEntity
  8
grau 10%
 62
     7
420
 16777215
370
    35
100
AcDb2dPolyline
 66
     1
 10
0.0
 20
0.0
 30
0.0
  0
VERTEX
  5
30F
330
30E
100
AcDbEntity
  8
grau 10%
 62
     7
420
 16777215
370
    35
100
AcDbVertex
100
AcDb2dVertex
 10
94.81925830962868
 20
202.2845416160951
 30
0.0
  0
VERTEX
  5
310
330
30E
100
AcDbEntity
  8
grau 10%
 62
     7
420
 16777215
370
    35
100
AcDbVertex
100
AcDb2dVertex
 10
94.81925830962868
 20
203.8505221712593
 30
0.0
  0
VERTEX
  5
311
330
30E
100
AcDbEntity
  8
grau 10%
 62
     7
420
 16777215
370
    35
100
AcDbVertex
100
AcDb2dVertex
 10
94.81925830962868
 20
205.3900443930965
 30
0.0
  0
VERTEX
  5
312
330
30E
100
AcDbEntity
  8
grau 10%
 62
     7
420
 16777215
370
    35
100
AcDbVertex
100
AcDb2dVertex
 10
94.81925830962868
 20
206.8762971705031
 30
0.0
  0
VERTEX
  5
313
330
30E
100
AcDbEntity
  8
grau 10%
 62
     7
420
 16777215
370
    35
100
AcDbVertex
100
AcDb2dVertex
 10
94.81925830962868
 20
208.2842332812622
 30
0.0
  0
VERTEX
  5
314
330
30E
100
AcDbEntity
  8
grau 10%
 62
     7
420
 16777215
370
    35
100
AcDbVertex
100
AcDb2dVertex
 10
94.81925830962868
 20
209.5895110587136
 30
0.0
  0
VERTEX
  5
315
330
30E
100
AcDbEntity
  8
grau 10%
 62
     7
420
 16777215
370
    35
100
AcDbVertex
100
AcDb2dVertex
 10
94.81925830962868
 20
210.7695527250854
 30
0.0
  0
VERTEX
  5
316
330
30E
100
AcDbEntity
  8
grau 10%
 62
     7
420
 16777215
370
    35
100
AcDbVertex
100
AcDb2dVertex
 10
94.81925830962868
 20
211.8046027248265
 30
0.0
  0
VERTEX
  5
317
330
30E
100
AcDbEntity
  8
grau 10%
 62
     7
420
 16777215
370
    35
100
AcDbVertex
100
AcDb2dVertex
 10
94.81925830962868
 20
212.6766693912752
 30
0.0
  0
VERTEX
  5
318
330
30E
100
AcDbEntity
  8
grau 10%
 62
     7
420
 16777215
370
    35
100
AcDbVertex
100
AcDb2dVertex
 10
94.81925830962868
 20
213.3705832799905
 30
0.0
  0
VERTEX
  5
319
330
30E
100
AcDbEntity
  8
grau 10%
 62
     7
420
 16777215
370
    35
100
AcDbVertex
100
AcDb2dVertex
 10
94.81925830962868
 20
213.8754082798645
 30
0.0
  0
VERTEX
  5
31A
330
30E
100
AcDbEntity
  8
grau 10%
 62
     7
420
 16777215
370
    35
100
AcDbVertex
100
AcDb2dVertex
 10
94.81925830962868
 20
214.1812666131213
 30
0.0
  0
VERTEX
  5
31B
330
30E
100
AcDbEntity
  8
grau 10%
 62
     7
420
 16777215
370
    35
100
AcDbVertex
100
AcDb2dVertex
 10
94.81925830962868
 20
214.2842777242066
 30
0.0
  0
SEQEND
  5
31C
330
30E
100
AcDbEntity
  8
grau 10%
 62
     7
420
 16777215
370
    35
  0
POLYLINE
  5
31D
330
1F
100
AcDbEntity
  8
grau 10%
 62
     7
420
 16777215
370
    35
100
AcDb2dPolyline
 66
     1
 10
0.0
 20
0.0
 30
0.0
  0
VERTEX
  5
31E
330
31D
100
AcDbEntity
  8
grau 10%
 62
     7
420
 16777215
370
    35
100
AcDbVertex
100
AcDb2dVertex
 10
94.81925830962868
 20
190.2840999524286
 30
0.0
  0
VERTEX
  5
31F
330
31D
100
AcDbEntity
  8
grau 10%
 62
     7
420
 16777215
370
    35
100
AcDbVertex
100
AcDb2dVertex
 10
94.81925830962868
 20
190.3871110635145
 30
0.0
  0
VERTEX
  5
320
330
31D
100
AcDbEntity
  8
grau 10%
 62
     7
420
 16777215
370
    35
100
AcDbVertex
100
AcDb2dVertex
 10
94.81925830962868
 20
190.6929693967707
 30
0.0
  0
VERTEX
  5
321
330
31D
100
AcDbEntity
  8
grau 10%
 62
     7
420
 16777215
370
    35
100
AcDbVertex
100
AcDb2dVertex
 10
94.81925830962868
 20
191.1977943966447
 30
0.0
  0
VERTEX
  5
322
330
31D
100
AcDbEntity
  8
grau 10%
 62
     7
420
 16777215
370
    35
100
AcDbVertex
100
AcDb2dVertex
 10
94.81925830962868
 20
191.8917082853603
 30
0.0
  0
VERTEX
  5
323
330
31D
100
AcDbEntity
  8
grau 10%
 62
     7
420
 16777215
370
    35
100
AcDbVertex
100
AcDb2dVertex
 10
94.81925830962868
 20
192.7637749518089
 30
0.0
  0
VERTEX
  5
324
330
31D
100
AcDbEntity
  8
grau 10%
 62
     7
420
 16777215
370
    35
100
AcDbVertex
100
AcDb2dVertex
 10
94.81925830962868
 20
193.7991777293276
 30
0.0
  0
VERTEX
  5
325
330
31D
100
AcDbEntity
  8
grau 10%
 62
     7
420
 16777215
370
    35
100
AcDbVertex
100
AcDb2dVertex
 10
94.81925830962868
 20
194.9788666179219
 30
0.0
  0
VERTEX
  5
326
330
31D
100
AcDbEntity
  8
grau 10%
 62
     7
420
 16777215
370
    35
100
AcDbVertex
100
AcDb2dVertex
 10
94.81925830962868
 20
196.284144395373
 30
0.0
  0
VERTEX
  5
327
330
31D
100
AcDbEntity
  8
grau 10%
 62
     7
420
 16777215
370
    35
100
AcDbVertex
100
AcDb2dVertex
 10
94.81925830962868
 20
197.6920805061321
 30
0.0
  0
VERTEX
  5
328
330
31D
100
AcDbEntity
  8
grau 10%
 62
     7
420
 16777215
370
    35
100
AcDbVertex
100
AcDb2dVertex
 10
94.81925830962868
 20
199.1783332835389
 30
0.0
  0
VERTEX
  5
329
330
31D
100
AcDbEntity
  8
grau 10%
 62
     7
420
 16777215
370
    35
100
AcDbVertex
100
AcDb2dVertex
 10
94.81925830962868
 20
200.7178555053761
 30
0.0
  0
VERTEX
  5
32A
330
31D
100
AcDbEntity
  8
grau 10%
 62
     7
420
 16777215
370
    35
100
AcDbVertex
100
AcDb2dVertex
 10
94.81925830962868
 20
202.2845416160951
 30
0.0
  0
SEQEND
  5
32B
330
31D
100
AcDbEntity
  8
grau 10%
 62
     7
420
 16777215
370
    35
  0
POLYLINE
  5
32C
330
1F
100
AcDbEntity
  8
grau 10%
 62
     7
420
 16777215
370
    35
100
AcDb2dPolyline
 66
     1
 10
0.0
 20
0.0
 30
0.0
  0
VERTEX
  5
32D
330
32C
100
AcDbEntity
  8
grau 10%
 62
     7
420
 16777215
370
    35
100
AcDbVertex
100
AcDb2dVertex
 10
38.31872221264283
 20
214.2842777242066
 30
0.0
  0
VERTEX
  5
32E
330
32C
100
AcDbEntity
  8
grau 10%
 62
     7
420
 16777215
370
    35
100
AcDbVertex
100
AcDb2dVertex
 10
38.31872221264283
 20
214.1812666131213
 30
0.0
  0
VERTEX
  5
32F
330
32C
100
AcDbEntity
  8
grau 10%
 62
     7
420
 16777215
370
    35
100
AcDbVertex
100
AcDb2dVertex
 10
38.31872221264283
 20
213.8754082798645
 30
0.0
  0
VERTEX
  5
330
330
32C
100
AcDbEntity
  8
grau 10%
 62
     7
420
 16777215
370
    35
100
AcDbVertex
100
AcDb2dVertex
 10
38.31872221264283
 20
213.3705832799905
 30
0.0
  0
VERTEX
  5
331
330
32C
100
AcDbEntity
  8
grau 10%
 62
     7
420
 16777215
370
    35
100
AcDbVertex
100
AcDb2dVertex
 10
38.31872221264283
 20
212.6766693912752
 30
0.0
  0
VERTEX
  5
332
330
32C
100
AcDbEntity
  8
grau 10%
 62
     7
420
 16777215
370
    35
100
AcDbVertex
100
AcDb2dVertex
 10
38.31872221264283
 20
211.8046027248265
 30
0.0
  0
VERTEX
  5
333
330
32C
100
AcDbEntity
  8
grau 10%
 62
     7
420
 16777215
370
    35
100
AcDbVertex
100
AcDb2dVertex
 10
38.31872221264283
 20
210.7695527250854
 30
0.0
  0
VERTEX
  5
334
330
32C
100
AcDbEntity
  8
grau 10%
 62
     7
420
 16777215
370
    35
100
AcDbVertex
100
AcDb2dVertex
 10
38.31872221264283
 20
209.5895110587136
 30
0.0
  0
VERTEX
  5
335
330
32C
100
AcDbEntity
  8
grau 10%
 62
     7
420
 16777215
370
    35
100
AcDbVertex
100
AcDb2dVertex
 10
38.31872221264283
 20
208.2842332812622
 30
0.0
  0
VERTEX
  5
336
330
32C
100
AcDbEntity
  8
grau 10%
 62
     7
420
 16777215
370
    35
100
AcDbVertex
100
AcDb2dVertex
 10
38.31872221264283
 20
206.8762971705031
 30
0.0
  0
VERTEX
  5
337
330
32C
100
AcDbEntity
  8
grau 10%
 62
     7
420
 16777215
370
    35
100
AcDbVertex
100
AcDb2dVertex
 10
38.31872221264283
 20
205.3900443930965
 30
0.0
  0
VERTEX
  5
338
330
32C
100
AcDbEntity
  8
grau 10%
 62
     7
420
 16777215
370
    35
100
AcDbVertex
100
AcDb2dVertex
 10
38.31872221264283
 20
203.8505221712593
 30
0.0
  0
VERTEX
  5
339
330
32C
100
AcDbEntity
  8
grau 10%
 62
     7
420
 16777215
370
    35
100
AcDbVertex
100
AcDb2dVertex
 10
38.31872221264283
 20
202.2845416160951
 30
0.0
  0
VERTEX
  5
33A
330
32C
100
AcDbEntity
  8
grau 10%
 62
     7
420
 16777215
370
    35
100
AcDbVertex
100
AcDb2dVertex
 10
38.31872221264283
 20
200.7178555053761
 30
0.0
  0
VERTEX
  5
33B
330
32C
100
AcDbEntity
  8
grau 10%
 62
     7
420
 16777215
370
    35
100
AcDbVertex
100
AcDb2dVertex
 10
38.31872221264283
 20
199.1783332835389
 30
0.0
  0
VERTEX
  5
33C
330
32C
100
AcDbEntity
  8
grau 10%
 62
     7
420
 16777215
370
    35
100
AcDbVertex
100
AcDb2dVertex
 10
38.31872221264283
 20
197.6920805061321
 30
0.0
  0
VERTEX
  5
33D
330
32C
100
AcDbEntity
  8
grau 10%
 62
     7
420
 16777215
370
    35
100
AcDbVertex
100
AcDb2dVertex
 10
38.31872221264283
 20
196.284144395373
 30
0.0
  0
VERTEX
  5
33E
330
32C
100
AcDbEntity
  8
grau 10%
 62
     7
420
 16777215
370
    35
100
AcDbVertex
100
AcDb2dVertex
 10
38.31872221264283
 20
194.9788666179219
 30
0.0
  0
VERTEX
  5
33F
330
32C
100
AcDbEntity
  8
grau 10%
 62
     7
420
 16777215
370
    35
100
AcDbVertex
100
AcDb2dVertex
 10
38.31872221264283
 20
193.7991777293276
 30
0.0
  0
VERTEX
  5
340
330
32C
100
AcDbEntity
  8
grau 10%
 62
     7
420
 16777215
370
    35
100
AcDbVertex
100
AcDb2dVertex
 10
38.31872221264283
 20
192.7637749518089
 30
0.0
  0
VERTEX
  5
341
330
32C
100
AcDbEntity
  8
grau 10%
 62
     7
420
 16777215
370
    35
100
AcDbVertex
100
AcDb2dVertex
 10
38.31872221264283
 20
191.8917082853603
 30
0.0
  0
VERTEX
  5
342
330
32C
100
AcDbEntity
  8
grau 10%
 62
     7
420
 16777215
370
    35
100
AcDbVertex
100
AcDb2dVertex
 10
38.31872221264283
 20
191.1977943966447
 30
0.0
  0
VERTEX
  5
343
330
32C
100
AcDbEntity
  8
grau 10%
 62
     7
420
 16777215
370
    35
100
AcDbVertex
100
AcDb2dVertex
 10
38.31872221264283
 20
190.6929693967707
 30
0.0
  0
VERTEX
  5
344
330
32C
100
AcDbEntity
  8
grau 10%
 62
     7
420
 16777215
370
    35
100
AcDbVertex
100
AcDb2dVertex
 10
38.31872221264283
 20
190.3871110635145
 30
0.0
  0
VERTEX
  5
345
330
32C
100
AcDbEntity
  8
grau 10%
 62
     7
420
 16777215
370
    35
100
AcDbVertex
100
AcDb2dVertex
 10
38.31872221264283
 20
190.2840999524286
 30
0.0
  0
SEQEND
  5
346
330
32C
100
AcDbEntity
  8
grau 10%
 62
     7
420
 16777215
370
    35
  0
POLYLINE
  5
347
330
1F
100
AcDbEntity
  8
grau 10%
 62
     7
420
 16777215
370
    35
100
AcDb2dPolyline
 66
     1
 10
0.0
 20
0.0
 30
0.0
  0
VERTEX
  5
348
330
347
100
AcDbEntity
  8
grau 10%
 62
     7
420
 16777215
370
    35
100
AcDbVertex
100
AcDb2dVertex
 10
59.85192498503722
 20
214.280397168652
 30
0.0
  0
VERTEX
  5
349
330
347
100
AcDbEntity
  8
grau 10%
 62
     7
420
 16777215
370
    35
100
AcDbVertex
100
AcDb2dVertex
 10
59.80429998504905
 20
214.2641693908784
 30
0.0
  0
VERTEX
  5
34A
330
347
100
AcDbEntity
  8
grau 10%
 62
     7
420
 16777215
370
    35
100
AcDbVertex
100
AcDb2dVertex
 10
59.5728777628847
 20
214.1893805020082
 30
0.0
  0
VERTEX
  5
34B
330
347
100
AcDbEntity
  8
grau 10%
 62
     7
420
 16777215
370
    35
100
AcDbVertex
100
AcDb2dVertex
 10
59.19399442964622
 20
214.0722582798153
 30
0.0
  0
VERTEX
  5
34C
330
347
100
AcDbEntity
  8
grau 10%
 62
     7
420
 16777215
370
    35
100
AcDbVertex
100
AcDb2dVertex
 10
58.67999720755238
 20
213.931499946517
 30
0.0
  0
VERTEX
  5
34D
330
347
100
AcDbEntity
  8
grau 10%
 62
     7
420
 16777215
370
    35
100
AcDbVertex
100
AcDb2dVertex
 10
58.05663887437495
 20
213.7889777243304
 30
0.0
  0
VERTEX
  5
34E
330
347
100
AcDbEntity
  8
grau 10%
 62
     7
420
 16777215
370
    35
100
AcDbVertex
100
AcDb2dVertex
 10
57.33979443010966
 20
213.6647999465837
 30
0.0
  0
VERTEX
  5
34F
330
347
100
AcDbEntity
  8
grau 10%
 62
     7
420
 16777215
370
    35
100
AcDbVertex
100
AcDb2dVertex
 10
56.55803887474974
 20
213.5755471688282
 30
0.0
  0
VERTEX
  5
350
330
347
100
AcDbEntity
  8
grau 10%
 62
     7
420
 16777215
370
    35
100
AcDbVertex
100
AcDb2dVertex
 10
55.75335276383982
 20
213.5381527243932
 30
0.0
  0
VERTEX
  5
351
330
347
100
AcDbEntity
  8
grau 10%
 62
     7
420
 16777215
370
    35
100
AcDbVertex
100
AcDb2dVertex
 10
54.94408054181964
 20
213.5572027243884
 30
0.0
  0
VERTEX
  5
352
330
347
100
AcDbEntity
  8
grau 10%
 62
     7
420
 16777215
370
    35
100
AcDbVertex
100
AcDb2dVertex
 10
54.14644998646367
 20
213.6312860577033
 30
0.0
  0
VERTEX
  5
353
330
347
100
AcDbEntity
  8
grau 10%
 62
     7
420
 16777215
370
    35
100
AcDbVertex
100
AcDb2dVertex
 10
53.4066749866487
 20
213.7448805021192
 30
0.0
  0
VERTEX
  5
354
330
347
100
AcDbEntity
  8
grau 10%
 62
     7
420
 16777215
370
    35
100
AcDbVertex
100
AcDb2dVertex
 10
52.75297776458988
 20
213.883874946529
 30
0.0
  0
VERTEX
  5
355
330
347
100
AcDbEntity
  8
grau 10%
 62
     7
420
 16777215
370
    35
100
AcDbVertex
100
AcDb2dVertex
 10
52.20158609806102
 20
214.0271027242709
 30
0.0
  0
VERTEX
  5
356
330
347
100
AcDbEntity
  8
grau 10%
 62
     7
420
 16777215
370
    35
100
AcDbVertex
100
AcDb2dVertex
 10
51.77543054261182
 20
214.1544555020168
 30
0.0
  0
VERTEX
  5
357
330
347
100
AcDbEntity
  8
grau 10%
 62
     7
420
 16777215
370
    35
100
AcDbVertex
100
AcDb2dVertex
 10
51.49109165379416
 20
214.2454721686609
 30
0.0
  0
VERTEX
  5
358
330
347
100
AcDbEntity
  8
grau 10%
 62
     7
420
 16777215
370
    35
100
AcDbVertex
100
AcDb2dVertex
 10
51.38525832048722
 20
214.280397168652
 30
0.0
  0
SEQEND
  5
359
330
347
100
AcDbEntity
  8
grau 10%
 62
     7
420
 16777215
370
    35
  0
POLYLINE
  5
35A
330
1F
100
AcDbEntity
  8
grau 10%
 62
     7
420
 16777215
370
    35
100
AcDb2dPolyline
 66
     1
 10
0.0
 20
0.0
 30
0.0
  0
VERTEX
  5
35B
330
35A
100
AcDbEntity
  8
grau 10%
 62
     7
420
 16777215
370
    35
100
AcDbVertex
100
AcDb2dVertex
 10
31.81879165871219
 20
190.9706055078125
 30
0.0
  0
VERTEX
  5
35C
330
35A
100
AcDbEntity
  8
grau 10%
 62
     7
420
 16777215
370
    35
100
AcDbVertex
100
AcDb2dVertex
 10
36.81871110190657
 20
190.9706055078125
 30
0.0
  0
SEQEND
  5
35D
330
35A
100
AcDbEntity
  8
grau 10%
 62
     7
420
 16777215
370
    35
  0
POLYLINE
  5
35E
330
1F
100
AcDbEntity
  8
grau 10%
 62
     7
420
 16777215
370
    35
100
AcDb2dPolyline
 66
     1
 10
0.0
 20
0.0
 30
0.0
  0
VERTEX
  5
35F
330
35E
100
AcDbEntity
  8
grau 10%
 62
     7
420
 16777215
370
    35
100
AcDbVertex
100
AcDb2dVertex
 10
30.05560832581979
 20
191.3755943966005
 30
0.0
  0
VERTEX
  5
360
330
35E
100
AcDbEntity
  8
grau 10%
 62
     7
420
 16777215
370
    35
100
AcDbVertex
100
AcDb2dVertex
 10
30.89204443672183
 20
191.0739693966761
 30
0.0
  0
VERTEX
  5
361
330
35E
100
AcDbEntity
  8
grau 10%
 62
     7
420
 16777215
370
    35
100
AcDbVertex
100
AcDb2dVertex
 10
31.81879165871219
 20
190.9706055078125
 30
0.0
  0
SEQEND
  5
362
330
35E
100
AcDbEntity
  8
grau 10%
 62
     7
420
 16777215
370
    35
  0
POLYLINE
  5
363
330
1F
100
AcDbEntity
  8
grau 10%
  6
AI-Linetype-1
 62
   250
420
  1842203
370
     9
100
AcDb2dPolyline
 66
     1
 10
0.0
 20
0.0
 30
0.0
  0
VERTEX
  5
364
330
363
100
AcDbEntity
  8
grau 10%
  6
AI-Linetype-1
 62
   250
420
  1842203
370
     9
100
AcDbVertex
100
AcDb2dVertex
 10
98.89537034564643
 20
136.8700166324489
 30
0.0
  0
VERTEX
  5
365
330
363
100
AcDbEntity
  8
grau 10%
  6
AI-Linetype-1
 62
   250
420
  1842203
370
     9
100
AcDbVertex
100
AcDb2dVertex
 10
36.81871110190657
 20
136.8700166324489
 30
0.0
  0
VERTEX
  5
366
330
363
100
AcDbEntity
  8
grau 10%
  6
AI-Linetype-1
 62
   250
420
  1842203
370
     9
100
AcDbVertex
100
AcDb2dVertex
 10
-7.878703701733761
 20
136.8700166324489
 30
0.0
  0
SEQEND
  5
368
330
363
100
AcDbEntity
  8
grau 10%
  6
AI-Linetype-1
 62
   250
420
  1842203
370
     9
  0
POLYLINE
  5
369
330
1F
100
AcDbEntity
  8
grau 10%
  6
AI-Linetype-2
 62
   250
420
  1842203
370
     9
100
AcDb2dPolyline
 66
     1
 10
0.0
 20
0.0
 30
0.0
  0
VERTEX
  5
36A
330
369
100
AcDbEntity
  8
grau 10%
  6
AI-Linetype-2
 62
   250
420
  1842203
370
     9
100
AcDbVertex
100
AcDb2dVertex
 10
98.89537034564643
 20
202.2845416160951
 30
0.0
  0
VERTEX
  5
36B
330
369
100
AcDbEntity
  8
grau 10%
  6
AI-Linetype-2
 62
   250
420
  1842203
370
     9
100
AcDbVertex
100
AcDb2dVertex
 10
-6.702777776102083
 20
202.2845416160951
 30
0.0
  0
SEQEND
  5
36D
330
369
100
AcDbEntity
  8
grau 10%
  6
AI-Linetype-2
 62
   250
420
  1842203
370
     9
  0
POLYLINE
  5
36E
330
1F
100
AcDbEntity
  8
grau 10%
  6
AI-Linetype-3
 62
   250
420
  1842203
370
     9
100
AcDb2dPolyline
 66
     1
 10
0.0
 20
0.0
 30
0.0
  0
VERTEX
  5
36F
330
36E
100
AcDbEntity
  8
grau 10%
  6
AI-Linetype-3
 62
   250
420
  1842203
370
     9
100
AcDbVertex
100
AcDb2dVertex
 10
160.7728277375853
 20
222.1618055000151
 30
0.0
  0
VERTEX
  5
370
330
36E
100
AcDbEntity
  8
grau 10%
  6
AI-Linetype-3
 62
   250
420
  1842203
370
     9
100
AcDbVertex
100
AcDb2dVertex
 10
160.7728277375853
 20
181.9451388434026
 30
0.0
  0
SEQEND
  5
372
330
36E
100
AcDbEntity
  8
grau 10%
  6
AI-Linetype-3
 62
   250
420
  1842203
370
     9
  0
POLYLINE
  5
373
330
1F
100
AcDbEntity
  8
grau 10%
  6
AI-Linetype-4
 62
   250
420
  1842203
370
     9
100
AcDb2dPolyline
 66
     1
 10
0.0
 20
0.0
 30
0.0
  0
VERTEX
  5
374
330
373
100
AcDbEntity
  8
grau 10%
  6
AI-Linetype-4
 62
   250
420
  1842203
370
     9
100
AcDbVertex
100
AcDb2dVertex
 10
140.2217582982783
 20
202.2845416160951
 30
0.0
  0
VERTEX
  5
375
330
373
100
AcDbEntity
  8
grau 10%
  6
AI-Linetype-4
 62
   250
420
  1842203
370
     9
100
AcDbVertex
100
AcDb2dVertex
 10
183.9662027317866
 20
202.2845416160951
 30
0.0
  0
SEQEND
  5
377
330
373
100
AcDbEntity
  8
grau 10%
  6
AI-Linetype-4
 62
   250
420
  1842203
370
     9
  0
POLYLINE
  5
379
330
1F
100
AcDbEntity
  8
Standardebene
 62
     7
420
 16777215
370
     9
100
AcDb2dPolyline
 66
     1
 10
0.0
 20
0.0
 30
0.0
  0
VERTEX
  5
37A
330
379
100
AcDbEntity
  8
Standardebene
 62
     7
420
 16777215
370
     9
100
AcDbVertex
100
AcDb2dVertex
 10
37.19935832403386
 20
145.5733971858287
 30
0.0
  0
VERTEX
  5
37B
330
379
100
AcDbEntity
  8
Standardebene
 62
     7
420
 16777215
370
     9
100
AcDbVertex
100
AcDb2dVertex
 10
37.19935832403386
 20
128.1662833012913
 30
0.0
  0
SEQEND
  5
37C
330
379
100
AcDbEntity
  8
Standardebene
 62
     7
420
 16777215
370
     9
  0
POLYLINE
  5
37D
330
1F
100
AcDbEntity
  8
Standardebene
  6
AI-Linetype-5
 62
     7
420
 16777215
370
     9
100
AcDb2dPolyline
 66
     1
 10
0.0
 20
0.0
 30
0.0
  0
VERTEX
  5
37E
330
37D
100
AcDbEntity
  8
Standardebene
  6
AI-Linetype-5
 62
     7
420
 16777215
370
     9
100
AcDbVertex
100
AcDb2dVertex
 10
-3.18099722142659
 20
208.7841193922483
 30
0.0
  0
VERTEX
  5
37F
330
37D
100
AcDbEntity
  8
Standardebene
  6
AI-Linetype-5
 62
     7
420
 16777215
370
     9
100
AcDbVertex
100
AcDb2dVertex
 10
28.81912221501777
 20
208.7841193922483
 30
0.0
  0
SEQEND
  5
381
330
37D
100
AcDbEntity
  8
Standardebene
  6
AI-Linetype-5
 62
     7
420
 16777215
370
     9
  0
POLYLINE
  5
382
330
1F
100
AcDbEntity
  8
Standardebene
  6
AI-Linetype-6
 62
     7
420
 16777215
370
     9
100
AcDb2dPolyline
 66
     1
 10
0.0
 20
0.0
 30
0.0
  0
VERTEX
  5
383
330
382
100
AcDbEntity
  8
Standardebene
  6
AI-Linetype-6
 62
     7
420
 16777215
370
     9
100
AcDbVertex
100
AcDb2dVertex
 10
-3.18099722142659
 20
195.7839055066093
 30
0.0
  0
VERTEX
  5
384
330
382
100
AcDbEntity
  8
Standardebene
  6
AI-Linetype-6
 62
     7
420
 16777215
370
     9
100
AcDbVertex
100
AcDb2dVertex
 10
28.81912221501777
 20
195.7839055066093
 30
0.0
  0
VERTEX
  5
385
330
382
100
AcDbEntity
  8
Standardebene
  6
AI-Linetype-6
 62
     7
420
 16777215
370
     9
100
AcDbVertex
100
AcDb2dVertex
 10
28.81912221501777
 20
208.7841193922483
 30
0.0
  0
SEQEND
  5
387
330
382
100
AcDbEntity
  8
Standardebene
  6
AI-Linetype-6
 62
     7
420
 16777215
370
     9
  0
POLYLINE
  5
388
330
1F
100
AcDbEntity
  8
Standardebene
 62
     7
420
 16777215
370
     9
100
AcDb2dPolyline
 66
     1
 10
0.0
 20
0.0
 30
0.0
  0
VERTEX
  5
389
330
388
100
AcDbEntity
  8
Standardebene
 62
     7
420
 16777215
370
     9
100
AcDbVertex
100
AcDb2dVertex
 10
37.19935832403386
 20
210.9875693916975
 30
0.0
  0
VERTEX
  5
38A
330
388
100
AcDbEntity
  8
Standardebene
 62
     7
420
 16777215
370
     9
100
AcDbVertex
100
AcDb2dVertex
 10
37.19935832403386
 20
193.5808082849382
 30
0.0
  0
SEQEND
  5
38B
330
388
100
AcDbEntity
  8
Standardebene
 62
     7
420
 16777215
370
     9
  0
POLYLINE
  5
38D
330
1F
100
AcDbEntity
  8
Bema_U+00DFung
 62
     7
420
 16777215
370
     9
100
AcDb2dPolyline
 66
     1
 10
0.0
 20
0.0
 30
0.0
  0
VERTEX
  5
38E
330
38D
100
AcDbEntity
  8
Bema_U+00DFung
 62
     7
420
 16777215
370
     9
100
AcDbVertex
100
AcDb2dVertex
 10
-3.18099722142659
 20
195.7839055066093
 30
0.0
  0
VERTEX
  5
38F
330
38D
100
AcDbEntity
  8
Bema_U+00DFung
 62
     7
420
 16777215
370
     9
100
AcDbVertex
100
AcDb2dVertex
 10
-15.18073332953788
 20
195.7839055066093
 30
0.0
  0
SEQEND
  5
390
330
38D
100
AcDbEntity
  8
Bema_U+00DFung
 62
     7
420
 16777215
370
     9
  0
POLYLINE
  5
391
330
1F
100
AcDbEntity
  8
Bema_U+00DFung
 62
     7
420
 16777215
370
     9
100
AcDb2dPolyline
 66
     1
 10
0.0
 20
0.0
 30
0.0
  0
VERTEX
  5
392
330
391
100
AcDbEntity
  8
Bema_U+00DFung
 62
     7
420
 16777215
370
     9
100
AcDbVertex
100
AcDb2dVertex
 10
-3.18099722142659
 20
208.7841193922483
 30
0.0
  0
VERTEX
  5
393
330
391
100
AcDbEntity
  8
Bema_U+00DFung
 62
     7
420
 16777215
370
     9
100
AcDbVertex
100
AcDb2dVertex
 10
-15.18073332953788
 20
208.7841193922483
 30
0.0
  0
SEQEND
  5
394
330
391
100
AcDbEntity
  8
Bema_U+00DFung
 62
     7
420
 16777215
370
     9
  0
POLYLINE
  5
395
330
1F
100
AcDbEntity
  8
Bema_U+00DFung
 62
     7
420
 16777215
370
     9
100
AcDb2dPolyline
 66
     1
 10
0.0
 20
0.0
 30
0.0
  0
VERTEX
  5
396
330
395
100
AcDbEntity
  8
Bema_U+00DFung
 62
     7
420
 16777215
370
     9
100
AcDbVertex
100
AcDb2dVertex
 10
-13.18083610781568
 20
195.7839055066093
 30
0.0
  0
VERTEX
  5
397
330
395
100
AcDbEntity
  8
Bema_U+00DFung
 62
     7
420
 16777215
370
     9
100
AcDbVertex
100
AcDb2dVertex
 10
-13.18083610781568
 20
222.9816610553656
 30
0.0
  0
SEQEND
  5
398
330
395
100
AcDbEntity
  8
Bema_U+00DFung
 62
     7
420
 16777215
370
     9
  0
POLYLINE
  5
399
330
1F
100
AcDbEntity
  8
Bema_U+00DFung
 62
     7
420
 16777215
370
     9
100
AcDb2dPolyline
 66
     1
 10
0.0
 20
0.0
 30
0.0
  0
VERTEX
  5
39A
330
399
100
AcDbEntity
  8
Bema_U+00DFung
 62
     7
420
 16777215
370
     9
100
AcDbVertex
100
AcDb2dVertex
 10
-13.18083610781568
 20
195.7839055066093
 30
0.0
  0
VERTEX
  5
39B
330
399
100
AcDbEntity
  8
Bema_U+00DFung
 62
     7
420
 16777215
370
     9
100
AcDbVertex
100
AcDb2dVertex
 10
-12.72046110793067
 20
199.2845193946233
 30
0.0
  0
VERTEX
  5
39C
330
399
100
AcDbEntity
  8
Bema_U+00DFung
 62
     7
420
 16777215
370
     9
100
AcDbVertex
100
AcDb2dVertex
 10
-13.64156388547813
 20
199.2845193946233
 30
0.0
  0
VERTEX
  5
39D
330
399
100
AcDbEntity
  8
Bema_U+00DFung
 62
     7
420
 16777215
370
     9
100
AcDbVertex
100
AcDb2dVertex
 10
-13.18083610781568
 20
195.7839055066093
 30
0.0
  0
SEQEND
  5
39E
330
399
100
AcDbEntity
  8
Bema_U+00DFung
 62
     7
420
 16777215
370
     9
  0
POLYLINE
  5
39F
330
1F
100
AcDbEntity
  8
Bema_U+00DFung
 62
     7
420
 16777215
370
     9
100
AcDb2dPolyline
 66
     1
 10
0.0
 20
0.0
 30
0.0
  0
VERTEX
  5
3A0
330
39F
100
AcDbEntity
  8
Bema_U+00DFung
 62
     7
420
 16777215
370
     9
100
AcDbVertex
100
AcDb2dVertex
 10
-12.72363610792988
 20
199.2845193946233
 30
0.0
  0
VERTEX
  5
3A1
330
39F
100
AcDbEntity
  8
Bema_U+00DFung
 62
     7
420
 16777215
370
     9
100
AcDbVertex
100
AcDb2dVertex
 10
-12.72363610792988
 20
199.2573555057408
 30
0.0
  0
SEQEND
  5
3A2
330
39F
100
AcDbEntity
  8
Bema_U+00DFung
 62
     7
420
 16777215
370
     9
  0
POLYLINE
  5
3A3
330
1F
100
AcDbEntity
  8
Bema_U+00DFung
 62
     7
420
 16777215
370
     9
100
AcDb2dPolyline
 66
     1
 10
0.0
 20
0.0
 30
0.0
  0
VERTEX
  5
3A4
330
3A3
100
AcDbEntity
  8
Bema_U+00DFung
 62
     7
420
 16777215
370
     9
100
AcDbVertex
100
AcDb2dVertex
 10
-12.72363610792988
 20
199.2845193946233
 30
0.0
  0
VERTEX
  5
3A5
330
3A3
100
AcDbEntity
  8
Bema_U+00DFung
 62
     7
420
 16777215
370
     9
100
AcDbVertex
100
AcDb2dVertex
 10
-12.72363610792988
 20
199.2573555057408
 30
0.0
  0
SEQEND
  5
3A6
330
3A3
100
AcDbEntity
  8
Bema_U+00DFung
 62
     7
420
 16777215
370
     9
  0
POLYLINE
  5
3A7
330
1F
100
AcDbEntity
  8
Bema_U+00DFung
 62
     7
420
 16777215
370
     9
100
AcDb2dPolyline
 66
     1
 10
0.0
 20
0.0
 30
0.0
  0
VERTEX
  5
3A8
330
3A7
100
AcDbEntity
  8
Bema_U+00DFung
 62
     7
420
 16777215
370
     9
100
AcDbVertex
100
AcDb2dVertex
 10
-12.77443610791727
 20
199.2845193946233
 30
0.0
  0
VERTEX
  5
3A9
330
3A7
100
AcDbEntity
  8
Bema_U+00DFung
 62
     7
420
 16777215
370
     9
100
AcDbVertex
100
AcDb2dVertex
 10
-12.77443610791727
 20
198.8710638391709
 30
0.0
  0
SEQEND
  5
3AA
330
3A7
100
AcDbEntity
  8
Bema_U+00DFung
 62
     7
420
 16777215
370
     9
  0
POLYLINE
  5
3AB
330
1F
100
AcDbEntity
  8
Bema_U+00DFung
 62
     7
420
 16777215
370
     9
100
AcDb2dPolyline
 66
     1
 10
0.0
 20
0.0
 30
0.0
  0
VERTEX
  5
3AC
330
3AB
100
AcDbEntity
  8
Bema_U+00DFung
 62
     7
420
 16777215
370
     9
100
AcDbVertex
100
AcDb2dVertex
 10
-12.82558888568241
 20
199.2845193946233
 30
0.0
  0
VERTEX
  5
3AD
330
3AB
100
AcDbEntity
  8
Bema_U+00DFung
 62
     7
420
 16777215
370
     9
100
AcDbVertex
100
AcDb2dVertex
 10
-12.82558888568241
 20
198.4854777281566
 30
0.0
  0
SEQEND
  5
3AE
330
3AB
100
AcDbEntity
  8
Bema_U+00DFung
 62
     7
420
 16777215
370
     9
  0
POLYLINE
  5
3AF
330
1F
100
AcDbEntity
  8
Bema_U+00DFung
 62
     7
420
 16777215
370
     9
100
AcDb2dPolyline
 66
     1
 10
0.0
 20
0.0
 30
0.0
  0
VERTEX
  5
3B0
330
3AF
100
AcDbEntity
  8
Bema_U+00DFung
 62
     7
420
 16777215
370
     9
100
AcDbVertex
100
AcDb2dVertex
 10
-12.87638888566947
 20
199.2845193946233
 30
0.0
  0
VERTEX
  5
3B1
330
3AF
100
AcDbEntity
  8
Bema_U+00DFung
 62
     7
420
 16777215
370
     9
100
AcDbVertex
100
AcDb2dVertex
 10
-12.87638888566947
 20
198.0991860615861
 30
0.0
  0
SEQEND
  5
3B2
330
3AF
100
AcDbEntity
  8
Bema_U+00DFung
 62
     7
420
 16777215
370
     9
  0
POLYLINE
  5
3B3
330
1F
100
AcDbEntity
  8
Bema_U+00DFung
 62
     7
420
 16777215
370
     9
100
AcDb2dPolyline
 66
     1
 10
0.0
 20
0.0
 30
0.0
  0
VERTEX
  5
3B4
330
3B3
100
AcDbEntity
  8
Bema_U+00DFung
 62
     7
420
 16777215
370
     9
100
AcDbVertex
100
AcDb2dVertex
 10
-12.92683610787909
 20
199.2845193946233
 30
0.0
  0
VERTEX
  5
3B5
330
3B3
100
AcDbEntity
  8
Bema_U+00DFung
 62
     7
420
 16777215
370
     9
100
AcDbVertex
100
AcDb2dVertex
 10
-12.92683610787909
 20
197.7135999505717
 30
0.0
  0
SEQEND
  5
3B6
330
3B3
100
AcDbEntity
  8
Bema_U+00DFung
 62
     7
420
 16777215
370
     9
  0
POLYLINE
  5
3B7
330
1F
100
AcDbEntity
  8
Bema_U+00DFung
 62
     7
420
 16777215
370
     9
100
AcDb2dPolyline
 66
     1
 10
0.0
 20
0.0
 30
0.0
  0
VERTEX
  5
3B8
330
3B7
100
AcDbEntity
  8
Bema_U+00DFung
 62
     7
420
 16777215
370
     9
100
AcDbVertex
100
AcDb2dVertex
 10
-12.97763610786647
 20
199.2845193946233
 30
0.0
  0
VERTEX
  5
3B9
330
3B7
100
AcDbEntity
  8
Bema_U+00DFung
 62
     7
420
 16777215
370
     9
100
AcDbVertex
100
AcDb2dVertex
 10
-12.97763610786647
 20
197.327661061779
 30
0.0
  0
SEQEND
  5
3BA
330
3B7
100
AcDbEntity
  8
Bema_U+00DFung
 62
     7
420
 16777215
370
     9
  0
POLYLINE
  5
3BB
330
1F
100
AcDbEntity
  8
Bema_U+00DFung
 62
     7
420
 16777215
370
     9
100
AcDb2dPolyline
 66
     1
 10
0.0
 20
0.0
 30
0.0
  0
VERTEX
  5
3BC
330
3BB
100
AcDbEntity
  8
Bema_U+00DFung
 62
     7
420
 16777215
370
     9
100
AcDbVertex
100
AcDb2dVertex
 10
-13.02843610785386
 20
199.2845193946233
 30
0.0
  0
VERTEX
  5
3BD
330
3BB
100
AcDbEntity
  8
Bema_U+00DFung
 62
     7
420
 16777215
370
     9
100
AcDbVertex
100
AcDb2dVertex
 10
-13.02843610785386
 20
196.9420749507646
 30
0.0
  0
SEQEND
  5
3BE
330
3BB
100
AcDbEntity
  8
Bema_U+00DFung
 62
     7
420
 16777215
370
     9
  0
POLYLINE
  5
3BF
330
1F
100
AcDbEntity
  8
Bema_U+00DFung
 62
     7
420
 16777215
370
     9
100
AcDb2dPolyline
 66
     1
 10
0.0
 20
0.0
 30
0.0
  0
VERTEX
  5
3C0
330
3BF
100
AcDbEntity
  8
Bema_U+00DFung
 62
     7
420
 16777215
370
     9
100
AcDbVertex
100
AcDb2dVertex
 10
-13.07958888561868
 20
199.2845193946233
 30
0.0
  0
VERTEX
  5
3C1
330
3BF
100
AcDbEntity
  8
Bema_U+00DFung
 62
     7
420
 16777215
370
     9
100
AcDbVertex
100
AcDb2dVertex
 10
-13.07958888561868
 20
196.5557832841941
 30
0.0
  0
SEQEND
  5
3C2
330
3BF
100
AcDbEntity
  8
Bema_U+00DFung
 62
     7
420
 16777215
370
     9
  0
POLYLINE
  5
3C3
330
1F
100
AcDbEntity
  8
Bema_U+00DFung
 62
     7
420
 16777215
370
     9
100
AcDb2dPolyline
 66
     1
 10
0.0
 20
0.0
 30
0.0
  0
VERTEX
  5
3C4
330
3C3
100
AcDbEntity
  8
Bema_U+00DFung
 62
     7
420
 16777215
370
     9
100
AcDbVertex
100
AcDb2dVertex
 10
-13.13038888560606
 20
199.2845193946233
 30
0.0
  0
VERTEX
  5
3C5
330
3C3
100
AcDbEntity
  8
Bema_U+00DFung
 62
     7
420
 16777215
370
     9
100
AcDbVertex
100
AcDb2dVertex
 10
-13.13038888560606
 20
196.1701971731798
 30
0.0
  0
SEQEND
  5
3C6
330
3C3
100
AcDbEntity
  8
Bema_U+00DFung
 62
     7
420
 16777215
370
     9
  0
POLYLINE
  5
3C7
330
1F
100
AcDbEntity
  8
Bema_U+00DFung
 62
     7
420
 16777215
370
     9
100
AcDb2dPolyline
 66
     1
 10
0.0
 20
0.0
 30
0.0
  0
VERTEX
  5
3C8
330
3C7
100
AcDbEntity
  8
Bema_U+00DFung
 62
     7
420
 16777215
370
     9
100
AcDbVertex
100
AcDb2dVertex
 10
-13.18083610781568
 20
199.2845193946233
 30
0.0
  0
VERTEX
  5
3C9
330
3C7
100
AcDbEntity
  8
Bema_U+00DFung
 62
     7
420
 16777215
370
     9
100
AcDbVertex
100
AcDb2dVertex
 10
-13.18083610781568
 20
195.7839055066093
 30
0.0
  0
SEQEND
  5
3CA
330
3C7
100
AcDbEntity
  8
Bema_U+00DFung
 62
     7
420
 16777215
370
     9
  0
POLYLINE
  5
3CB
330
1F
100
AcDbEntity
  8
Bema_U+00DFung
 62
     7
420
 16777215
370
     9
100
AcDb2dPolyline
 66
     1
 10
0.0
 20
0.0
 30
0.0
  0
VERTEX
  5
3CC
330
3CB
100
AcDbEntity
  8
Bema_U+00DFung
 62
     7
420
 16777215
370
     9
100
AcDbVertex
100
AcDb2dVertex
 10
-13.63838888547892
 20
199.2845193946233
 30
0.0
  0
VERTEX
  5
3CD
330
3CB
100
AcDbEntity
  8
Bema_U+00DFung
 62
     7
420
 16777215
370
     9
100
AcDbVertex
100
AcDb2dVertex
 10
-13.63838888547892
 20
199.2573555057408
 30
0.0
  0
SEQEND
  5
3CE
330
3CB
100
AcDbEntity
  8
Bema_U+00DFung
 62
     7
420
 16777215
370
     9
  0
POLYLINE
  5
3CF
330
1F
100
AcDbEntity
  8
Bema_U+00DFung
 62
     7
420
 16777215
370
     9
100
AcDb2dPolyline
 66
     1
 10
0.0
 20
0.0
 30
0.0
  0
VERTEX
  5
3D0
330
3CF
100
AcDbEntity
  8
Bema_U+00DFung
 62
     7
420
 16777215
370
     9
100
AcDbVertex
100
AcDb2dVertex
 10
-13.63838888547892
 20
199.2845193946233
 30
0.0
  0
VERTEX
  5
3D1
330
3CF
100
AcDbEntity
  8
Bema_U+00DFung
 62
     7
420
 16777215
370
     9
100
AcDbVertex
100
AcDb2dVertex
 10
-13.63838888547892
 20
199.2573555057408
 30
0.0
  0
SEQEND
  5
3D2
330
3CF
100
AcDbEntity
  8
Bema_U+00DFung
 62
     7
420
 16777215
370
     9
  0
POLYLINE
  5
3D3
330
1F
100
AcDbEntity
  8
Bema_U+00DFung
 62
     7
420
 16777215
370
     9
100
AcDb2dPolyline
 66
     1
 10
0.0
 20
0.0
 30
0.0
  0
VERTEX
  5
3D4
330
3D3
100
AcDbEntity
  8
Bema_U+00DFung
 62
     7
420
 16777215
370
     9
100
AcDbVertex
100
AcDb2dVertex
 10
-13.58758888549186
 20
199.2845193946233
 30
0.0
  0
VERTEX
  5
3D5
330
3D3
100
AcDbEntity
  8
Bema_U+00DFung
 62
     7
420
 16777215
370
     9
100
AcDbVertex
100
AcDb2dVertex
 10
-13.58758888549186
 20
198.8710638391709
 30
0.0
  0
SEQEND
  5
3D6
330
3D3
100
AcDbEntity
  8
Bema_U+00DFung
 62
     7
420
 16777215
370
     9
  0
POLYLINE
  5
3D7
330
1F
100
AcDbEntity
  8
Bema_U+00DFung
 62
     7
420
 16777215
370
     9
100
AcDb2dPolyline
 66
     1
 10
0.0
 20
0.0
 30
0.0
  0
VERTEX
  5
3D8
330
3D7
100
AcDbEntity
  8
Bema_U+00DFung
 62
     7
420
 16777215
370
     9
100
AcDbVertex
100
AcDb2dVertex
 10
-13.53643610772671
 20
199.2845193946233
 30
0.0
  0
VERTEX
  5
3D9
330
3D7
100
AcDbEntity
  8
Bema_U+00DFung
 62
     7
420
 16777215
370
     9
100
AcDbVertex
100
AcDb2dVertex
 10
-13.53643610772671
 20
198.4854777281566
 30
0.0
  0
SEQEND
  5
3DA
330
3D7
100
AcDbEntity
  8
Bema_U+00DFung
 62
     7
420
 16777215
370
     9
  0
POLYLINE
  5
3DB
330
1F
100
AcDbEntity
  8
Bema_U+00DFung
 62
     7
420
 16777215
370
     9
100
AcDb2dPolyline
 66
     1
 10
0.0
 20
0.0
 30
0.0
  0
VERTEX
  5
3DC
330
3DB
100
AcDbEntity
  8
Bema_U+00DFung
 62
     7
420
 16777215
370
     9
100
AcDbVertex
100
AcDb2dVertex
 10
-13.48563610773933
 20
199.2845193946233
 30
0.0
  0
VERTEX
  5
3DD
330
3DB
100
AcDbEntity
  8
Bema_U+00DFung
 62
     7
420
 16777215
370
     9
100
AcDbVertex
100
AcDb2dVertex
 10
-13.48563610773933
 20
198.0991860615861
 30
0.0
  0
SEQEND
  5
3DE
330
3DB
100
AcDbEntity
  8
Bema_U+00DFung
 62
     7
420
 16777215
370
     9
  0
POLYLINE
  5
3DF
330
1F
100
AcDbEntity
  8
Bema_U+00DFung
 62
     7
420
 16777215
370
     9
100
AcDb2dPolyline
 66
     1
 10
0.0
 20
0.0
 30
0.0
  0
VERTEX
  5
3E0
330
3DF
100
AcDbEntity
  8
Bema_U+00DFung
 62
     7
420
 16777215
370
     9
100
AcDbVertex
100
AcDb2dVertex
 10
-13.43518888552971
 20
199.2845193946233
 30
0.0
  0
VERTEX
  5
3E1
330
3DF
100
AcDbEntity
  8
Bema_U+00DFung
 62
     7
420
 16777215
370
     9
100
AcDbVertex
100
AcDb2dVertex
 10
-13.43518888552971
 20
197.7135999505717
 30
0.0
  0
SEQEND
  5
3E2
330
3DF
100
AcDbEntity
  8
Bema_U+00DFung
 62
     7
420
 16777215
370
     9
  0
POLYLINE
  5
3E3
330
1F
100
AcDbEntity
  8
Bema_U+00DFung
 62
     7
420
 16777215
370
     9
100
AcDb2dPolyline
 66
     1
 10
0.0
 20
0.0
 30
0.0
  0
VERTEX
  5
3E4
330
3E3
100
AcDbEntity
  8
Bema_U+00DFung
 62
     7
420
 16777215
370
     9
100
AcDbVertex
100
AcDb2dVertex
 10
-13.38438888554265
 20
199.2845193946233
 30
0.0
  0
VERTEX
  5
3E5
330
3E3
100
AcDbEntity
  8
Bema_U+00DFung
 62
     7
420
 16777215
370
     9
100
AcDbVertex
100
AcDb2dVertex
 10
-13.38438888554265
 20
197.327661061779
 30
0.0
  0
SEQEND
  5
3E6
330
3E3
100
AcDbEntity
  8
Bema_U+00DFung
 62
     7
420
 16777215
370
     9
  0
POLYLINE
  5
3E7
330
1F
100
AcDbEntity
  8
Bema_U+00DFung
 62
     7
420
 16777215
370
     9
100
AcDb2dPolyline
 66
     1
 10
0.0
 20
0.0
 30
0.0
  0
VERTEX
  5
3E8
330
3E7
100
AcDbEntity
  8
Bema_U+00DFung
 62
     7
420
 16777215
370
     9
100
AcDbVertex
100
AcDb2dVertex
 10
-13.33358888555527
 20
199.2845193946233
 30
0.0
  0
VERTEX
  5
3E9
330
3E7
100
AcDbEntity
  8
Bema_U+00DFung
 62
     7
420
 16777215
370
     9
100
AcDbVertex
100
AcDb2dVertex
 10
-13.33358888555527
 20
196.9420749507646
 30
0.0
  0
SEQEND
  5
3EA
330
3E7
100
AcDbEntity
  8
Bema_U+00DFung
 62
     7
420
 16777215
370
     9
  0
POLYLINE
  5
3EB
330
1F
100
AcDbEntity
  8
Bema_U+00DFung
 62
     7
420
 16777215
370
     9
100
AcDb2dPolyline
 66
     1
 10
0.0
 20
0.0
 30
0.0
  0
VERTEX
  5
3EC
330
3EB
100
AcDbEntity
  8
Bema_U+00DFung
 62
     7
420
 16777215
370
     9
100
AcDbVertex
100
AcDb2dVertex
 10
-13.28243610779013
 20
199.2845193946233
 30
0.0
  0
VERTEX
  5
3ED
330
3EB
100
AcDbEntity
  8
Bema_U+00DFung
 62
     7
420
 16777215
370
     9
100
AcDbVertex
100
AcDb2dVertex
 10
-13.28243610779013
 20
196.5557832841941
 30
0.0
  0
SEQEND
  5
3EE
330
3EB
100
AcDbEntity
  8
Bema_U+00DFung
 62
     7
420
 16777215
370
     9
  0
POLYLINE
  5
3EF
330
1F
100
AcDbEntity
  8
Bema_U+00DFung
 62
     7
420
 16777215
370
     9
100
AcDb2dPolyline
 66
     1
 10
0.0
 20
0.0
 30
0.0
  0
VERTEX
  5
3F0
330
3EF
100
AcDbEntity
  8
Bema_U+00DFung
 62
     7
420
 16777215
370
     9
100
AcDbVertex
100
AcDb2dVertex
 10
-13.23163610780306
 20
199.2845193946233
 30
0.0
  0
VERTEX
  5
3F1
330
3EF
100
AcDbEntity
  8
Bema_U+00DFung
 62
     7
420
 16777215
370
     9
100
AcDbVertex
100
AcDb2dVertex
 10
-13.23163610780306
 20
196.1701971731798
 30
0.0
  0
SEQEND
  5
3F2
330
3EF
100
AcDbEntity
  8
Bema_U+00DFung
 62
     7
420
 16777215
370
     9
  0
POLYLINE
  5
3F3
330
1F
100
AcDbEntity
  8
Bema_U+00DFung
 62
     7
420
 16777215
370
     9
100
AcDb2dPolyline
 66
     1
 10
0.0
 20
0.0
 30
0.0
  0
VERTEX
  5
3F4
330
3F3
100
AcDbEntity
  8
Bema_U+00DFung
 62
     7
420
 16777215
370
     9
100
AcDbVertex
100
AcDb2dVertex
 10
-13.18083610781568
 20
199.2845193946233
 30
0.0
  0
VERTEX
  5
3F5
330
3F3
100
AcDbEntity
  8
Bema_U+00DFung
 62
     7
420
 16777215
370
     9
100
AcDbVertex
100
AcDb2dVertex
 10
-13.18083610781568
 20
195.7839055066093
 30
0.0
  0
SEQEND
  5
3F6
330
3F3
100
AcDbEntity
  8
Bema_U+00DFung
 62
     7
420
 16777215
370
     9
  0
POLYLINE
  5
3F7
330
1F
100
AcDbEntity
  8
Bema_U+00DFung
 62
     7
420
 16777215
370
     9
100
AcDb2dPolyline
 66
     1
 10
0.0
 20
0.0
 30
0.0
  0
VERTEX
  5
3F8
330
3F7
100
AcDbEntity
  8
Bema_U+00DFung
 62
     7
420
 16777215
370
     9
100
AcDbVertex
100
AcDb2dVertex
 10
-13.18083610781568
 20
208.7841193922483
 30
0.0
  0
VERTEX
  5
3F9
330
3F7
100
AcDbEntity
  8
Bema_U+00DFung
 62
     7
420
 16777215
370
     9
100
AcDbVertex
100
AcDb2dVertex
 10
-13.64156388547813
 20
205.2845638375676
 30
0.0
  0
VERTEX
  5
3FA
330
3F7
100
AcDbEntity
  8
Bema_U+00DFung
 62
     7
420
 16777215
370
     9
100
AcDbVertex
100
AcDb2dVertex
 10
-12.72046110793067
 20
205.2845638375676
 30
0.0
  0
VERTEX
  5
3FB
330
3F7
100
AcDbEntity
  8
Bema_U+00DFung
 62
     7
420
 16777215
370
     9
100
AcDbVertex
100
AcDb2dVertex
 10
-13.18083610781568
 20
208.7841193922483
 30
0.0
  0
SEQEND
  5
3FC
330
3F7
100
AcDbEntity
  8
Bema_U+00DFung
 62
     7
420
 16777215
370
     9
  0
POLYLINE
  5
3FD
330
1F
100
AcDbEntity
  8
Bema_U+00DFung
 62
     7
420
 16777215
370
     9
100
AcDb2dPolyline
 66
     1
 10
0.0
 20
0.0
 30
0.0
  0
VERTEX
  5
3FE
330
3FD
100
AcDbEntity
  8
Bema_U+00DFung
 62
     7
420
 16777215
370
     9
100
AcDbVertex
100
AcDb2dVertex
 10
-13.63838888547892
 20
205.2845638375676
 30
0.0
  0
VERTEX
  5
3FF
330
3FD
100
AcDbEntity
  8
Bema_U+00DFung
 62
     7
420
 16777215
370
     9
100
AcDbVertex
100
AcDb2dVertex
 10
-13.63838888547892
 20
205.3117277264495
 30
0.0
  0
SEQEND
  5
400
330
3FD
100
AcDbEntity
  8
Bema_U+00DFung
 62
     7
420
 16777215
370
     9
  0
POLYLINE
  5
401
330
1F
100
AcDbEntity
  8
Bema_U+00DFung
 62
     7
420
 16777215
370
     9
100
AcDb2dPolyline
 66
     1
 10
0.0
 20
0.0
 30
0.0
  0
VERTEX
  5
402
330
401
100
AcDbEntity
  8
Bema_U+00DFung
 62
     7
420
 16777215
370
     9
100
AcDbVertex
100
AcDb2dVertex
 10
-13.63838888547892
 20
205.2845638375676
 30
0.0
  0
VERTEX
  5
403
330
401
100
AcDbEntity
  8
Bema_U+00DFung
 62
     7
420
 16777215
370
     9
100
AcDbVertex
100
AcDb2dVertex
 10
-13.63838888547892
 20
205.3117277264495
 30
0.0
  0
SEQEND
  5
404
330
401
100
AcDbEntity
  8
Bema_U+00DFung
 62
     7
420
 16777215
370
     9
  0
POLYLINE
  5
405
330
1F
100
AcDbEntity
  8
Bema_U+00DFung
 62
     7
420
 16777215
370
     9
100
AcDb2dPolyline
 66
     1
 10
0.0
 20
0.0
 30
0.0
  0
VERTEX
  5
406
330
405
100
AcDbEntity
  8
Bema_U+00DFung
 62
     7
420
 16777215
370
     9
100
AcDbVertex
100
AcDb2dVertex
 10
-13.58758888549186
 20
205.2845638375676
 30
0.0
  0
VERTEX
  5
407
330
405
100
AcDbEntity
  8
Bema_U+00DFung
 62
     7
420
 16777215
370
     9
100
AcDbVertex
100
AcDb2dVertex
 10
-13.58758888549186
 20
205.6973138374645
 30
0.0
  0
SEQEND
  5
408
330
405
100
AcDbEntity
  8
Bema_U+00DFung
 62
     7
420
 16777215
370
     9
  0
POLYLINE
  5
409
330
1F
100
AcDbEntity
  8
Bema_U+00DFung
 62
     7
420
 16777215
370
     9
100
AcDb2dPolyline
 66
     1
 10
0.0
 20
0.0
 30
0.0
  0
VERTEX
  5
40A
330
409
100
AcDbEntity
  8
Bema_U+00DFung
 62
     7
420
 16777215
370
     9
100
AcDbVertex
100
AcDb2dVertex
 10
-13.53643610772671
 20
205.2845638375676
 30
0.0
  0
VERTEX
  5
40B
330
409
100
AcDbEntity
  8
Bema_U+00DFung
 62
     7
420
 16777215
370
     9
100
AcDbVertex
100
AcDb2dVertex
 10
-13.53643610772671
 20
206.082899948479
 30
0.0
  0
SEQEND
  5
40C
330
409
100
AcDbEntity
  8
Bema_U+00DFung
 62
     7
420
 16777215
370
     9
  0
POLYLINE
  5
40D
330
1F
100
AcDbEntity
  8
Bema_U+00DFung
 62
     7
420
 16777215
370
     9
100
AcDb2dPolyline
 66
     1
 10
0.0
 20
0.0
 30
0.0
  0
VERTEX
  5
40E
330
40D
100
AcDbEntity
  8
Bema_U+00DFung
 62
     7
420
 16777215
370
     9
100
AcDbVertex
100
AcDb2dVertex
 10
-13.48563610773933
 20
205.2845638375676
 30
0.0
  0
VERTEX
  5
40F
330
40D
100
AcDbEntity
  8
Bema_U+00DFung
 62
     7
420
 16777215
370
     9
100
AcDbVertex
100
AcDb2dVertex
 10
-13.48563610773933
 20
206.4688388372717
 30
0.0
  0
SEQEND
  5
410
330
40D
100
AcDbEntity
  8
Bema_U+00DFung
 62
     7
420
 16777215
370
     9
  0
POLYLINE
  5
411
330
1F
100
AcDbEntity
  8
Bema_U+00DFung
 62
     7
420
 16777215
370
     9
100
AcDb2dPolyline
 66
     1
 10
0.0
 20
0.0
 30
0.0
  0
VERTEX
  5
412
330
411
100
AcDbEntity
  8
Bema_U+00DFung
 62
     7
420
 16777215
370
     9
100
AcDbVertex
100
AcDb2dVertex
 10
-13.43518888552971
 20
205.2845638375676
 30
0.0
  0
VERTEX
  5
413
330
411
100
AcDbEntity
  8
Bema_U+00DFung
 62
     7
420
 16777215
370
     9
100
AcDbVertex
100
AcDb2dVertex
 10
-13.43518888552971
 20
206.8551305038417
 30
0.0
  0
SEQEND
  5
414
330
411
100
AcDbEntity
  8
Bema_U+00DFung
 62
     7
420
 16777215
370
     9
  0
POLYLINE
  5
415
330
1F
100
AcDbEntity
  8
Bema_U+00DFung
 62
     7
420
 16777215
370
     9
100
AcDb2dPolyline
 66
     1
 10
0.0
 20
0.0
 30
0.0
  0
VERTEX
  5
416
330
415
100
AcDbEntity
  8
Bema_U+00DFung
 62
     7
420
 16777215
370
     9
100
AcDbVertex
100
AcDb2dVertex
 10
-13.38438888554265
 20
205.2845638375676
 30
0.0
  0
VERTEX
  5
417
330
415
100
AcDbEntity
  8
Bema_U+00DFung
 62
     7
420
 16777215
370
     9
100
AcDbVertex
100
AcDb2dVertex
 10
-13.38438888554265
 20
207.2407166148564
 30
0.0
  0
SEQEND
  5
418
330
415
100
AcDbEntity
  8
Bema_U+00DFung
 62
     7
420
 16777215
370
     9
  0
POLYLINE
  5
419
330
1F
100
AcDbEntity
  8
Bema_U+00DFung
 62
     7
420
 16777215
370
     9
100
AcDb2dPolyline
 66
     1
 10
0.0
 20
0.0
 30
0.0
  0
VERTEX
  5
41A
330
419
100
AcDbEntity
  8
Bema_U+00DFung
 62
     7
420
 16777215
370
     9
100
AcDbVertex
100
AcDb2dVertex
 10
-13.33358888555527
 20
205.2845638375676
 30
0.0
  0
VERTEX
  5
41B
330
419
100
AcDbEntity
  8
Bema_U+00DFung
 62
     7
420
 16777215
370
     9
100
AcDbVertex
100
AcDb2dVertex
 10
-13.33358888555527
 20
207.6270082814264
 30
0.0
  0
SEQEND
  5
41C
330
419
100
AcDbEntity
  8
Bema_U+00DFung
 62
     7
420
 16777215
370
     9
  0
POLYLINE
  5
41D
330
1F
100
AcDbEntity
  8
Bema_U+00DFung
 62
     7
420
 16777215
370
     9
100
AcDb2dPolyline
 66
     1
 10
0.0
 20
0.0
 30
0.0
  0
VERTEX
  5
41E
330
41D
100
AcDbEntity
  8
Bema_U+00DFung
 62
     7
420
 16777215
370
     9
100
AcDbVertex
100
AcDb2dVertex
 10
-13.28243610779013
 20
205.2845638375676
 30
0.0
  0
VERTEX
  5
41F
330
41D
100
AcDbEntity
  8
Bema_U+00DFung
 62
     7
420
 16777215
370
     9
100
AcDbVertex
100
AcDb2dVertex
 10
-13.28243610779013
 20
208.0122416146635
 30
0.0
  0
SEQEND
  5
420
330
41D
100
AcDbEntity
  8
Bema_U+00DFung
 62
     7
420
 16777215
370
     9
  0
POLYLINE
  5
421
330
1F
100
AcDbEntity
  8
Bema_U+00DFung
 62
     7
420
 16777215
370
     9
100
AcDb2dPolyline
 66
     1
 10
0.0
 20
0.0
 30
0.0
  0
VERTEX
  5
422
330
421
100
AcDbEntity
  8
Bema_U+00DFung
 62
     7
420
 16777215
370
     9
100
AcDbVertex
100
AcDb2dVertex
 10
-13.23163610780306
 20
205.2845638375676
 30
0.0
  0
VERTEX
  5
423
330
421
100
AcDbEntity
  8
Bema_U+00DFung
 62
     7
420
 16777215
370
     9
100
AcDbVertex
100
AcDb2dVertex
 10
-13.23163610780306
 20
208.3985332812337
 30
0.0
  0
SEQEND
  5
424
330
421
100
AcDbEntity
  8
Bema_U+00DFung
 62
     7
420
 16777215
370
     9
  0
POLYLINE
  5
425
330
1F
100
AcDbEntity
  8
Bema_U+00DFung
 62
     7
420
 16777215
370
     9
100
AcDb2dPolyline
 66
     1
 10
0.0
 20
0.0
 30
0.0
  0
VERTEX
  5
426
330
425
100
AcDbEntity
  8
Bema_U+00DFung
 62
     7
420
 16777215
370
     9
100
AcDbVertex
100
AcDb2dVertex
 10
-13.18083610781568
 20
205.2845638375676
 30
0.0
  0
VERTEX
  5
427
330
425
100
AcDbEntity
  8
Bema_U+00DFung
 62
     7
420
 16777215
370
     9
100
AcDbVertex
100
AcDb2dVertex
 10
-13.18083610781568
 20
208.7841193922483
 30
0.0
  0
SEQEND
  5
428
330
425
100
AcDbEntity
  8
Bema_U+00DFung
 62
     7
420
 16777215
370
     9
  0
POLYLINE
  5
429
330
1F
100
AcDbEntity
  8
Bema_U+00DFung
 62
     7
420
 16777215
370
     9
100
AcDb2dPolyline
 66
     1
 10
0.0
 20
0.0
 30
0.0
  0
VERTEX
  5
42A
330
429
100
AcDbEntity
  8
Bema_U+00DFung
 62
     7
420
 16777215
370
     9
100
AcDbVertex
100
AcDb2dVertex
 10
-12.72363610792988
 20
205.2845638375676
 30
0.0
  0
VERTEX
  5
42B
330
429
100
AcDbEntity
  8
Bema_U+00DFung
 62
     7
420
 16777215
370
     9
100
AcDbVertex
100
AcDb2dVertex
 10
-12.72363610792988
 20
205.3117277264495
 30
0.0
  0
SEQEND
  5
42C
330
429
100
AcDbEntity
  8
Bema_U+00DFung
 62
     7
420
 16777215
370
     9
  0
POLYLINE
  5
42D
330
1F
100
AcDbEntity
  8
Bema_U+00DFung
 62
     7
420
 16777215
370
     9
100
AcDb2dPolyline
 66
     1
 10
0.0
 20
0.0
 30
0.0
  0
VERTEX
  5
42E
330
42D
100
AcDbEntity
  8
Bema_U+00DFung
 62
     7
420
 16777215
370
     9
100
AcDbVertex
100
AcDb2dVertex
 10
-12.72363610792988
 20
205.2845638375676
 30
0.0
  0
VERTEX
  5
42F
330
42D
100
AcDbEntity
  8
Bema_U+00DFung
 62
     7
420
 16777215
370
     9
100
AcDbVertex
100
AcDb2dVertex
 10
-12.72363610792988
 20
205.3117277264495
 30
0.0
  0
SEQEND
  5
430
330
42D
100
AcDbEntity
  8
Bema_U+00DFung
 62
     7
420
 16777215
370
     9
  0
POLYLINE
  5
431
330
1F
100
AcDbEntity
  8
Bema_U+00DFung
 62
     7
420
 16777215
370
     9
100
AcDb2dPolyline
 66
     1
 10
0.0
 20
0.0
 30
0.0
  0
VERTEX
  5
432
330
431
100
AcDbEntity
  8
Bema_U+00DFung
 62
     7
420
 16777215
370
     9
100
AcDbVertex
100
AcDb2dVertex
 10
-12.77443610791727
 20
205.2845638375676
 30
0.0
  0
VERTEX
  5
433
330
431
100
AcDbEntity
  8
Bema_U+00DFung
 62
     7
420
 16777215
370
     9
100
AcDbVertex
100
AcDb2dVertex
 10
-12.77443610791727
 20
205.6973138374645
 30
0.0
  0
SEQEND
  5
434
330
431
100
AcDbEntity
  8
Bema_U+00DFung
 62
     7
420
 16777215
370
     9
  0
POLYLINE
  5
435
330
1F
100
AcDbEntity
  8
Bema_U+00DFung
 62
     7
420
 16777215
370
     9
100
AcDb2dPolyline
 66
     1
 10
0.0
 20
0.0
 30
0.0
  0
VERTEX
  5
436
330
435
100
AcDbEntity
  8
Bema_U+00DFung
 62
     7
420
 16777215
370
     9
100
AcDbVertex
100
AcDb2dVertex
 10
-12.82558888568241
 20
205.2845638375676
 30
0.0
  0
VERTEX
  5
437
330
435
100
AcDbEntity
  8
Bema_U+00DFung
 62
     7
420
 16777215
370
     9
100
AcDbVertex
100
AcDb2dVertex
 10
-12.82558888568241
 20
206.082899948479
 30
0.0
  0
SEQEND
  5
438
330
435
100
AcDbEntity
  8
Bema_U+00DFung
 62
     7
420
 16777215
370
     9
  0
POLYLINE
  5
439
330
1F
100
AcDbEntity
  8
Bema_U+00DFung
 62
     7
420
 16777215
370
     9
100
AcDb2dPolyline
 66
     1
 10
0.0
 20
0.0
 30
0.0
  0
VERTEX
  5
43A
330
439
100
AcDbEntity
  8
Bema_U+00DFung
 62
     7
420
 16777215
370
     9
100
AcDbVertex
100
AcDb2dVertex
 10
-12.87638888566947
 20
205.2845638375676
 30
0.0
  0
VERTEX
  5
43B
330
439
100
AcDbEntity
  8
Bema_U+00DFung
 62
     7
420
 16777215
370
     9
100
AcDbVertex
100
AcDb2dVertex
 10
-12.87638888566947
 20
206.4688388372717
 30
0.0
  0
SEQEND
  5
43C
330
439
100
AcDbEntity
  8
Bema_U+00DFung
 62
     7
420
 16777215
370
     9
  0
POLYLINE
  5
43D
330
1F
100
AcDbEntity
  8
Bema_U+00DFung
 62
     7
420
 16777215
370
     9
100
AcDb2dPolyline
 66
     1
 10
0.0
 20
0.0
 30
0.0
  0
VERTEX
  5
43E
330
43D
100
AcDbEntity
  8
Bema_U+00DFung
 62
     7
420
 16777215
370
     9
100
AcDbVertex
100
AcDb2dVertex
 10
-12.92683610787909
 20
205.2845638375676
 30
0.0
  0
VERTEX
  5
43F
330
43D
100
AcDbEntity
  8
Bema_U+00DFung
 62
     7
420
 16777215
370
     9
100
AcDbVertex
100
AcDb2dVertex
 10
-12.92683610787909
 20
206.8551305038417
 30
0.0
  0
SEQEND
  5
440
330
43D
100
AcDbEntity
  8
Bema_U+00DFung
 62
     7
420
 16777215
370
     9
  0
POLYLINE
  5
441
330
1F
100
AcDbEntity
  8
Bema_U+00DFung
 62
     7
420
 16777215
370
     9
100
AcDb2dPolyline
 66
     1
 10
0.0
 20
0.0
 30
0.0
  0
VERTEX
  5
442
330
441
100
AcDbEntity
  8
Bema_U+00DFung
 62
     7
420
 16777215
370
     9
100
AcDbVertex
100
AcDb2dVertex
 10
-12.97763610786647
 20
205.2845638375676
 30
0.0
  0
VERTEX
  5
443
330
441
100
AcDbEntity
  8
Bema_U+00DFung
 62
     7
420
 16777215
370
     9
100
AcDbVertex
100
AcDb2dVertex
 10
-12.97763610786647
 20
207.2407166148564
 30
0.0
  0
SEQEND
  5
444
330
441
100
AcDbEntity
  8
Bema_U+00DFung
 62
     7
420
 16777215
370
     9
  0
POLYLINE
  5
445
330
1F
100
AcDbEntity
  8
Bema_U+00DFung
 62
     7
420
 16777215
370
     9
100
AcDb2dPolyline
 66
     1
 10
0.0
 20
0.0
 30
0.0
  0
VERTEX
  5
446
330
445
100
AcDbEntity
  8
Bema_U+00DFung
 62
     7
420
 16777215
370
     9
100
AcDbVertex
100
AcDb2dVertex
 10
-13.02843610785386
 20
205.2845638375676
 30
0.0
  0
VERTEX
  5
447
330
445
100
AcDbEntity
  8
Bema_U+00DFung
 62
     7
420
 16777215
370
     9
100
AcDbVertex
100
AcDb2dVertex
 10
-13.02843610785386
 20
207.6270082814264
 30
0.0
  0
SEQEND
  5
448
330
445
100
AcDbEntity
  8
Bema_U+00DFung
 62
     7
420
 16777215
370
     9
  0
POLYLINE
  5
449
330
1F
100
AcDbEntity
  8
Bema_U+00DFung
 62
     7
420
 16777215
370
     9
100
AcDb2dPolyline
 66
     1
 10
0.0
 20
0.0
 30
0.0
  0
VERTEX
  5
44A
330
449
100
AcDbEntity
  8
Bema_U+00DFung
 62
     7
420
 16777215
370
     9
100
AcDbVertex
100
AcDb2dVertex
 10
-13.07958888561868
 20
205.2845638375676
 30
0.0
  0
VERTEX
  5
44B
330
449
100
AcDbEntity
  8
Bema_U+00DFung
 62
     7
420
 16777215
370
     9
100
AcDbVertex
100
AcDb2dVertex
 10
-13.07958888561868
 20
208.0122416146635
 30
0.0
  0
SEQEND
  5
44C
330
449
100
AcDbEntity
  8
Bema_U+00DFung
 62
     7
420
 16777215
370
     9
  0
POLYLINE
  5
44D
330
1F
100
AcDbEntity
  8
Bema_U+00DFung
 62
     7
420
 16777215
370
     9
100
AcDb2dPolyline
 66
     1
 10
0.0
 20
0.0
 30
0.0
  0
VERTEX
  5
44E
330
44D
100
AcDbEntity
  8
Bema_U+00DFung
 62
     7
420
 16777215
370
     9
100
AcDbVertex
100
AcDb2dVertex
 10
-13.13038888560606
 20
205.2845638375676
 30
0.0
  0
VERTEX
  5
44F
330
44D
100
AcDbEntity
  8
Bema_U+00DFung
 62
     7
420
 16777215
370
     9
100
AcDbVertex
100
AcDb2dVertex
 10
-13.13038888560606
 20
208.3985332812337
 30
0.0
  0
SEQEND
  5
450
330
44D
100
AcDbEntity
  8
Bema_U+00DFung
 62
     7
420
 16777215
370
     9
  0
POLYLINE
  5
451
330
1F
100
AcDbEntity
  8
Bema_U+00DFung
 62
     7
420
 16777215
370
     9
100
AcDb2dPolyline
 66
     1
 10
0.0
 20
0.0
 30
0.0
  0
VERTEX
  5
452
330
451
100
AcDbEntity
  8
Bema_U+00DFung
 62
     7
420
 16777215
370
     9
100
AcDbVertex
100
AcDb2dVertex
 10
-13.18083610781568
 20
205.2845638375676
 30
0.0
  0
VERTEX
  5
453
330
451
100
AcDbEntity
  8
Bema_U+00DFung
 62
     7
420
 16777215
370
     9
100
AcDbVertex
100
AcDb2dVertex
 10
-13.18083610781568
 20
208.7841193922483
 30
0.0
  0
SEQEND
  5
454
330
451
100
AcDbEntity
  8
Bema_U+00DFung
 62
     7
420
 16777215
370
     9
  0
POLYLINE
  5
455
330
1F
100
AcDbEntity
  8
Bema_U+00DFung
 62
     7
420
 16777215
370
     9
100
AcDb2dPolyline
 66
     1
 10
0.0
 20
0.0
 30
0.0
  0
VERTEX
  5
456
330
455
100
AcDbEntity
  8
Bema_U+00DFung
 62
     7
420
 16777215
370
     9
100
AcDbVertex
100
AcDb2dVertex
 10
28.81912221501777
 20
208.7841193922483
 30
0.0
  0
VERTEX
  5
457
330
455
100
AcDbEntity
  8
Bema_U+00DFung
 62
     7
420
 16777215
370
     9
100
AcDbVertex
100
AcDb2dVertex
 10
28.81912221501777
 20
234.1061554970289
 30
0.0
  0
SEQEND
  5
458
330
455
100
AcDbEntity
  8
Bema_U+00DFung
 62
     7
420
 16777215
370
     9
  0
POLYLINE
  5
459
330
1F
100
AcDbEntity
  8
Bema_U+00DFung
 62
     7
420
 16777215
370
     9
100
AcDb2dPolyline
 66
     1
 10
0.0
 20
0.0
 30
0.0
  0
VERTEX
  5
45A
330
459
100
AcDbEntity
  8
Bema_U+00DFung
 62
     7
420
 16777215
370
     9
100
AcDbVertex
100
AcDb2dVertex
 10
-3.18099722142659
 20
232.1066110530843
 30
0.0
  0
VERTEX
  5
45B
330
459
100
AcDbEntity
  8
Bema_U+00DFung
 62
     7
420
 16777215
370
     9
100
AcDbVertex
100
AcDb2dVertex
 10
28.81912221501777
 20
232.1066110530843
 30
0.0
  0
SEQEND
  5
45C
330
459
100
AcDbEntity
  8
Bema_U+00DFung
 62
     7
420
 16777215
370
     9
  0
POLYLINE
  5
45D
330
1F
100
AcDbEntity
  8
Bema_U+00DFung
 62
     7
420
 16777215
370
     9
100
AcDb2dPolyline
 66
     1
 10
0.0
 20
0.0
 30
0.0
  0
VERTEX
  5
45E
330
45D
100
AcDbEntity
  8
Bema_U+00DFung
 62
     7
420
 16777215
370
     9
100
AcDbVertex
100
AcDb2dVertex
 10
-3.18099722142659
 20
232.1066110530843
 30
0.0
  0
VERTEX
  5
45F
330
45D
100
AcDbEntity
  8
Bema_U+00DFung
 62
     7
420
 16777215
370
     9
100
AcDbVertex
100
AcDb2dVertex
 10
0.319263888809304
 20
231.6455304976441
 30
0.0
  0
VERTEX
  5
460
330
45D
100
AcDbEntity
  8
Bema_U+00DFung
 62
     7
420
 16777215
370
     9
100
AcDbVertex
100
AcDb2dVertex
 10
0.319263888809304
 20
232.5673388307469
 30
0.0
  0
VERTEX
  5
461
330
45D
100
AcDbEntity
  8
Bema_U+00DFung
 62
     7
420
 16777215
370
     9
100
AcDbVertex
100
AcDb2dVertex
 10
-3.18099722142659
 20
232.1066110530843
 30
0.0
  0
SEQEND
  5
462
330
45D
100
AcDbEntity
  8
Bema_U+00DFung
 62
     7
420
 16777215
370
     9
  0
POLYLINE
  5
463
330
1F
100
AcDbEntity
  8
Bema_U+00DFung
 62
     7
420
 16777215
370
     9
100
AcDb2dPolyline
 66
     1
 10
0.0
 20
0.0
 30
0.0
  0
VERTEX
  5
464
330
463
100
AcDbEntity
  8
Bema_U+00DFung
 62
     7
420
 16777215
370
     9
100
AcDbVertex
100
AcDb2dVertex
 10
0.319263888809304
 20
231.6490582754209
 30
0.0
  0
VERTEX
  5
465
330
463
100
AcDbEntity
  8
Bema_U+00DFung
 62
     7
420
 16777215
370
     9
100
AcDbVertex
100
AcDb2dVertex
 10
0.2917472221496858
 20
231.6490582754209
 30
0.0
  0
SEQEND
  5
466
330
463
100
AcDbEntity
  8
Bema_U+00DFung
 62
     7
420
 16777215
370
     9
  0
POLYLINE
  5
467
330
1F
100
AcDbEntity
  8
Bema_U+00DFung
 62
     7
420
 16777215
370
     9
100
AcDb2dPolyline
 66
     1
 10
0.0
 20
0.0
 30
0.0
  0
VERTEX
  5
468
330
467
100
AcDbEntity
  8
Bema_U+00DFung
 62
     7
420
 16777215
370
     9
100
AcDbVertex
100
AcDb2dVertex
 10
0.319263888809304
 20
231.6490582754209
 30
0.0
  0
VERTEX
  5
469
330
467
100
AcDbEntity
  8
Bema_U+00DFung
 62
     7
420
 16777215
370
     9
100
AcDbVertex
100
AcDb2dVertex
 10
0.2917472221496858
 20
231.6490582754209
 30
0.0
  0
SEQEND
  5
46A
330
467
100
AcDbEntity
  8
Bema_U+00DFung
 62
     7
420
 16777215
370
     9
  0
POLYLINE
  5
46B
330
1F
100
AcDbEntity
  8
Bema_U+00DFung
 62
     7
420
 16777215
370
     9
100
AcDb2dPolyline
 66
     1
 10
0.0
 20
0.0
 30
0.0
  0
VERTEX
  5
46C
330
46B
100
AcDbEntity
  8
Bema_U+00DFung
 62
     7
420
 16777215
370
     9
100
AcDbVertex
100
AcDb2dVertex
 10
0.319263888809304
 20
231.6998582754083
 30
0.0
  0
VERTEX
  5
46D
330
46B
100
AcDbEntity
  8
Bema_U+00DFung
 62
     7
420
 16777215
370
     9
100
AcDbVertex
100
AcDb2dVertex
 10
-0.0941916666427363
 20
231.6998582754083
 30
0.0
  0
SEQEND
  5
46E
330
46B
100
AcDbEntity
  8
Bema_U+00DFung
 62
     7
420
 16777215
370
     9
  0
POLYLINE
  5
46F
330
1F
100
AcDbEntity
  8
Bema_U+00DFung
 62
     7
420
 16777215
370
     9
100
AcDb2dPolyline
 66
     1
 10
0.0
 20
0.0
 30
0.0
  0
VERTEX
  5
470
330
46F
100
AcDbEntity
  8
Bema_U+00DFung
 62
     7
420
 16777215
370
     9
100
AcDbVertex
100
AcDb2dVertex
 10
0.319263888809304
 20
231.7506582753955
 30
0.0
  0
VERTEX
  5
471
330
46F
100
AcDbEntity
  8
Bema_U+00DFung
 62
     7
420
 16777215
370
     9
100
AcDbVertex
100
AcDb2dVertex
 10
-0.4801305554351585
 20
231.7506582753955
 30
0.0
  0
SEQEND
  5
472
330
46F
100
AcDbEntity
  8
Bema_U+00DFung
 62
     7
420
 16777215
370
     9
  0
POLYLINE
  5
473
330
1F
100
AcDbEntity
  8
Bema_U+00DFung
 62
     7
420
 16777215
370
     9
100
AcDb2dPolyline
 66
     1
 10
0.0
 20
0.0
 30
0.0
  0
VERTEX
  5
474
330
473
100
AcDbEntity
  8
Bema_U+00DFung
 62
     7
420
 16777215
370
     9
100
AcDbVertex
100
AcDb2dVertex
 10
0.319263888809304
 20
231.8014582753829
 30
0.0
  0
VERTEX
  5
475
330
473
100
AcDbEntity
  8
Bema_U+00DFung
 62
     7
420
 16777215
370
     9
100
AcDbVertex
100
AcDb2dVertex
 10
-0.86571666645014
 20
231.8014582753829
 30
0.0
  0
SEQEND
  5
476
330
473
100
AcDbEntity
  8
Bema_U+00DFung
 62
     7
420
 16777215
370
     9
  0
POLYLINE
  5
477
330
1F
100
AcDbEntity
  8
Bema_U+00DFung
 62
     7
420
 16777215
370
     9
100
AcDb2dPolyline
 66
     1
 10
0.0
 20
0.0
 30
0.0
  0
VERTEX
  5
478
330
477
100
AcDbEntity
  8
Bema_U+00DFung
 62
     7
420
 16777215
370
     9
100
AcDbVertex
100
AcDb2dVertex
 10
0.319263888809304
 20
231.8522582753701
 30
0.0
  0
VERTEX
  5
479
330
477
100
AcDbEntity
  8
Bema_U+00DFung
 62
     7
420
 16777215
370
     9
100
AcDbVertex
100
AcDb2dVertex
 10
-1.251655555242241
 20
231.8522582753701
 30
0.0
  0
SEQEND
  5
47A
330
477
100
AcDbEntity
  8
Bema_U+00DFung
 62
     7
420
 16777215
370
     9
  0
POLYLINE
  5
47B
330
1F
100
AcDbEntity
  8
Bema_U+00DFung
 62
     7
420
 16777215
370
     9
100
AcDb2dPolyline
 66
     1
 10
0.0
 20
0.0
 30
0.0
  0
VERTEX
  5
47C
330
47B
100
AcDbEntity
  8
Bema_U+00DFung
 62
     7
420
 16777215
370
     9
100
AcDbVertex
100
AcDb2dVertex
 10
0.319263888809304
 20
231.9030582753575
 30
0.0
  0
VERTEX
  5
47D
330
47B
100
AcDbEntity
  8
Bema_U+00DFung
 62
     7
420
 16777215
370
     9
100
AcDbVertex
100
AcDb2dVertex
 10
-1.637594444034663
 20
231.9030582753575
 30
0.0
  0
SEQEND
  5
47E
330
47B
100
AcDbEntity
  8
Bema_U+00DFung
 62
     7
420
 16777215
370
     9
  0
POLYLINE
  5
47F
330
1F
100
AcDbEntity
  8
Bema_U+00DFung
 62
     7
420
 16777215
370
     9
100
AcDb2dPolyline
 66
     1
 10
0.0
 20
0.0
 30
0.0
  0
VERTEX
  5
480
330
47F
100
AcDbEntity
  8
Bema_U+00DFung
 62
     7
420
 16777215
370
     9
100
AcDbVertex
100
AcDb2dVertex
 10
0.319263888809304
 20
231.9538582753447
 30
0.0
  0
VERTEX
  5
481
330
47F
100
AcDbEntity
  8
Bema_U+00DFung
 62
     7
420
 16777215
370
     9
100
AcDbVertex
100
AcDb2dVertex
 10
-2.023533332827085
 20
231.9538582753447
 30
0.0
  0
SEQEND
  5
482
330
47F
100
AcDbEntity
  8
Bema_U+00DFung
 62
     7
420
 16777215
370
     9
  0
POLYLINE
  5
483
330
1F
100
AcDbEntity
  8
Bema_U+00DFung
 62
     7
420
 16777215
370
     9
100
AcDb2dPolyline
 66
     1
 10
0.0
 20
0.0
 30
0.0
  0
VERTEX
  5
484
330
483
100
AcDbEntity
  8
Bema_U+00DFung
 62
     7
420
 16777215
370
     9
100
AcDbVertex
100
AcDb2dVertex
 10
0.319263888809304
 20
232.0046582753321
 30
0.0
  0
VERTEX
  5
485
330
483
100
AcDbEntity
  8
Bema_U+00DFung
 62
     7
420
 16777215
370
     9
100
AcDbVertex
100
AcDb2dVertex
 10
-2.409119443842067
 20
232.0046582753321
 30
0.0
  0
SEQEND
  5
486
330
483
100
AcDbEntity
  8
Bema_U+00DFung
 62
     7
420
 16777215
370
     9
  0
POLYLINE
  5
487
330
1F
100
AcDbEntity
  8
Bema_U+00DFung
 62
     7
420
 16777215
370
     9
100
AcDb2dPolyline
 66
     1
 10
0.0
 20
0.0
 30
0.0
  0
VERTEX
  5
488
330
487
100
AcDbEntity
  8
Bema_U+00DFung
 62
     7
420
 16777215
370
     9
100
AcDbVertex
100
AcDb2dVertex
 10
0.319263888809304
 20
232.0554582753194
 30
0.0
  0
VERTEX
  5
489
330
487
100
AcDbEntity
  8
Bema_U+00DFung
 62
     7
420
 16777215
370
     9
100
AcDbVertex
100
AcDb2dVertex
 10
-2.795058332634168
 20
232.0554582753194
 30
0.0
  0
SEQEND
  5
48A
330
487
100
AcDbEntity
  8
Bema_U+00DFung
 62
     7
420
 16777215
370
     9
  0
POLYLINE
  5
48B
330
1F
100
AcDbEntity
  8
Bema_U+00DFung
 62
     7
420
 16777215
370
     9
100
AcDb2dPolyline
 66
     1
 10
0.0
 20
0.0
 30
0.0
  0
VERTEX
  5
48C
330
48B
100
AcDbEntity
  8
Bema_U+00DFung
 62
     7
420
 16777215
370
     9
100
AcDbVertex
100
AcDb2dVertex
 10
0.319263888809304
 20
232.1066110530843
 30
0.0
  0
VERTEX
  5
48D
330
48B
100
AcDbEntity
  8
Bema_U+00DFung
 62
     7
420
 16777215
370
     9
100
AcDbVertex
100
AcDb2dVertex
 10
-3.18099722142659
 20
232.1066110530843
 30
0.0
  0
SEQEND
  5
48E
330
48B
100
AcDbEntity
  8
Bema_U+00DFung
 62
     7
420
 16777215
370
     9
  0
POLYLINE
  5
48F
330
1F
100
AcDbEntity
  8
Bema_U+00DFung
 62
     7
420
 16777215
370
     9
100
AcDb2dPolyline
 66
     1
 10
0.0
 20
0.0
 30
0.0
  0
VERTEX
  5
490
330
48F
100
AcDbEntity
  8
Bema_U+00DFung
 62
     7
420
 16777215
370
     9
100
AcDbVertex
100
AcDb2dVertex
 10
0.319263888809304
 20
232.5638110529701
 30
0.0
  0
VERTEX
  5
491
330
48F
100
AcDbEntity
  8
Bema_U+00DFung
 62
     7
420
 16777215
370
     9
100
AcDbVertex
100
AcDb2dVertex
 10
0.2917472221496858
 20
232.5638110529701
 30
0.0
  0
SEQEND
  5
492
330
48F
100
AcDbEntity
  8
Bema_U+00DFung
 62
     7
420
 16777215
370
     9
  0
POLYLINE
  5
493
330
1F
100
AcDbEntity
  8
Bema_U+00DFung
 62
     7
420
 16777215
370
     9
100
AcDb2dPolyline
 66
     1
 10
0.0
 20
0.0
 30
0.0
  0
VERTEX
  5
494
330
493
100
AcDbEntity
  8
Bema_U+00DFung
 62
     7
420
 16777215
370
     9
100
AcDbVertex
100
AcDb2dVertex
 10
0.319263888809304
 20
232.5638110529701
 30
0.0
  0
VERTEX
  5
495
330
493
100
AcDbEntity
  8
Bema_U+00DFung
 62
     7
420
 16777215
370
     9
100
AcDbVertex
100
AcDb2dVertex
 10
0.2917472221496858
 20
232.5638110529701
 30
0.0
  0
SEQEND
  5
496
330
493
100
AcDbEntity
  8
Bema_U+00DFung
 62
     7
420
 16777215
370
     9
  0
POLYLINE
  5
497
330
1F
100
AcDbEntity
  8
Bema_U+00DFung
 62
     7
420
 16777215
370
     9
100
AcDb2dPolyline
 66
     1
 10
0.0
 20
0.0
 30
0.0
  0
VERTEX
  5
498
330
497
100
AcDbEntity
  8
Bema_U+00DFung
 62
     7
420
 16777215
370
     9
100
AcDbVertex
100
AcDb2dVertex
 10
0.319263888809304
 20
232.5130110529827
 30
0.0
  0
VERTEX
  5
499
330
497
100
AcDbEntity
  8
Bema_U+00DFung
 62
     7
420
 16777215
370
     9
100
AcDbVertex
100
AcDb2dVertex
 10
-0.0941916666427363
 20
232.5130110529827
 30
0.0
  0
SEQEND
  5
49A
330
497
100
AcDbEntity
  8
Bema_U+00DFung
 62
     7
420
 16777215
370
     9
  0
POLYLINE
  5
49B
330
1F
100
AcDbEntity
  8
Bema_U+00DFung
 62
     7
420
 16777215
370
     9
100
AcDb2dPolyline
 66
     1
 10
0.0
 20
0.0
 30
0.0
  0
VERTEX
  5
49C
330
49B
100
AcDbEntity
  8
Bema_U+00DFung
 62
     7
420
 16777215
370
     9
100
AcDbVertex
100
AcDb2dVertex
 10
0.319263888809304
 20
232.4622110529955
 30
0.0
  0
VERTEX
  5
49D
330
49B
100
AcDbEntity
  8
Bema_U+00DFung
 62
     7
420
 16777215
370
     9
100
AcDbVertex
100
AcDb2dVertex
 10
-0.4801305554351585
 20
232.4622110529955
 30
0.0
  0
SEQEND
  5
49E
330
49B
100
AcDbEntity
  8
Bema_U+00DFung
 62
     7
420
 16777215
370
     9
  0
POLYLINE
  5
49F
330
1F
100
AcDbEntity
  8
Bema_U+00DFung
 62
     7
420
 16777215
370
     9
100
AcDb2dPolyline
 66
     1
 10
0.0
 20
0.0
 30
0.0
  0
VERTEX
  5
4A0
330
49F
100
AcDbEntity
  8
Bema_U+00DFung
 62
     7
420
 16777215
370
     9
100
AcDbVertex
100
AcDb2dVertex
 10
0.319263888809304
 20
232.4114110530082
 30
0.0
  0
VERTEX
  5
4A1
330
49F
100
AcDbEntity
  8
Bema_U+00DFung
 62
     7
420
 16777215
370
     9
100
AcDbVertex
100
AcDb2dVertex
 10
-0.86571666645014
 20
232.4114110530082
 30
0.0
  0
SEQEND
  5
4A2
330
49F
100
AcDbEntity
  8
Bema_U+00DFung
 62
     7
420
 16777215
370
     9
  0
POLYLINE
  5
4A3
330
1F
100
AcDbEntity
  8
Bema_U+00DFung
 62
     7
420
 16777215
370
     9
100
AcDb2dPolyline
 66
     1
 10
0.0
 20
0.0
 30
0.0
  0
VERTEX
  5
4A4
330
4A3
100
AcDbEntity
  8
Bema_U+00DFung
 62
     7
420
 16777215
370
     9
100
AcDbVertex
100
AcDb2dVertex
 10
0.319263888809304
 20
232.3606110530209
 30
0.0
  0
VERTEX
  5
4A5
330
4A3
100
AcDbEntity
  8
Bema_U+00DFung
 62
     7
420
 16777215
370
     9
100
AcDbVertex
100
AcDb2dVertex
 10
-1.251655555242241
 20
232.3606110530209
 30
0.0
  0
SEQEND
  5
4A6
330
4A3
100
AcDbEntity
  8
Bema_U+00DFung
 62
     7
420
 16777215
370
     9
  0
POLYLINE
  5
4A7
330
1F
100
AcDbEntity
  8
Bema_U+00DFung
 62
     7
420
 16777215
370
     9
100
AcDb2dPolyline
 66
     1
 10
0.0
 20
0.0
 30
0.0
  0
VERTEX
  5
4A8
330
4A7
100
AcDbEntity
  8
Bema_U+00DFung
 62
     7
420
 16777215
370
     9
100
AcDbVertex
100
AcDb2dVertex
 10
0.319263888809304
 20
232.3098110530335
 30
0.0
  0
VERTEX
  5
4A9
330
4A7
100
AcDbEntity
  8
Bema_U+00DFung
 62
     7
420
 16777215
370
     9
100
AcDbVertex
100
AcDb2dVertex
 10
-1.637594444034663
 20
232.3098110530335
 30
0.0
  0
SEQEND
  5
4AA
330
4A7
100
AcDbEntity
  8
Bema_U+00DFung
 62
     7
420
 16777215
370
     9
  0
POLYLINE
  5
4AB
330
1F
100
AcDbEntity
  8
Bema_U+00DFung
 62
     7
420
 16777215
370
     9
100
AcDb2dPolyline
 66
     1
 10
0.0
 20
0.0
 30
0.0
  0
VERTEX
  5
4AC
330
4AB
100
AcDbEntity
  8
Bema_U+00DFung
 62
     7
420
 16777215
370
     9
100
AcDbVertex
100
AcDb2dVertex
 10
0.319263888809304
 20
232.2590110530463
 30
0.0
  0
VERTEX
  5
4AD
330
4AB
100
AcDbEntity
  8
Bema_U+00DFung
 62
     7
420
 16777215
370
     9
100
AcDbVertex
100
AcDb2dVertex
 10
-2.023533332827085
 20
232.2590110530463
 30
0.0
  0
SEQEND
  5
4AE
330
4AB
100
AcDbEntity
  8
Bema_U+00DFung
 62
     7
420
 16777215
370
     9
  0
POLYLINE
  5
4AF
330
1F
100
AcDbEntity
  8
Bema_U+00DFung
 62
     7
420
 16777215
370
     9
100
AcDb2dPolyline
 66
     1
 10
0.0
 20
0.0
 30
0.0
  0
VERTEX
  5
4B0
330
4AF
100
AcDbEntity
  8
Bema_U+00DFung
 62
     7
420
 16777215
370
     9
100
AcDbVertex
100
AcDb2dVertex
 10
0.319263888809304
 20
232.2082110530589
 30
0.0
  0
VERTEX
  5
4B1
330
4AF
100
AcDbEntity
  8
Bema_U+00DFung
 62
     7
420
 16777215
370
     9
100
AcDbVertex
100
AcDb2dVertex
 10
-2.409119443842067
 20
232.2082110530589
 30
0.0
  0
SEQEND
  5
4B2
330
4AF
100
AcDbEntity
  8
Bema_U+00DFung
 62
     7
420
 16777215
370
     9
  0
POLYLINE
  5
4B3
330
1F
100
AcDbEntity
  8
Bema_U+00DFung
 62
     7
420
 16777215
370
     9
100
AcDb2dPolyline
 66
     1
 10
0.0
 20
0.0
 30
0.0
  0
VERTEX
  5
4B4
330
4B3
100
AcDbEntity
  8
Bema_U+00DFung
 62
     7
420
 16777215
370
     9
100
AcDbVertex
100
AcDb2dVertex
 10
0.319263888809304
 20
232.1574110530717
 30
0.0
  0
VERTEX
  5
4B5
330
4B3
100
AcDbEntity
  8
Bema_U+00DFung
 62
     7
420
 16777215
370
     9
100
AcDbVertex
100
AcDb2dVertex
 10
-2.795058332634168
 20
232.1574110530717
 30
0.0
  0
SEQEND
  5
4B6
330
4B3
100
AcDbEntity
  8
Bema_U+00DFung
 62
     7
420
 16777215
370
     9
  0
POLYLINE
  5
4B7
330
1F
100
AcDbEntity
  8
Bema_U+00DFung
 62
     7
420
 16777215
370
     9
100
AcDb2dPolyline
 66
     1
 10
0.0
 20
0.0
 30
0.0
  0
VERTEX
  5
4B8
330
4B7
100
AcDbEntity
  8
Bema_U+00DFung
 62
     7
420
 16777215
370
     9
100
AcDbVertex
100
AcDb2dVertex
 10
0.319263888809304
 20
232.1066110530843
 30
0.0
  0
VERTEX
  5
4B9
330
4B7
100
AcDbEntity
  8
Bema_U+00DFung
 62
     7
420
 16777215
370
     9
100
AcDbVertex
100
AcDb2dVertex
 10
-3.18099722142659
 20
232.1066110530843
 30
0.0
  0
SEQEND
  5
4BA
330
4B7
100
AcDbEntity
  8
Bema_U+00DFung
 62
     7
420
 16777215
370
     9
  0
POLYLINE
  5
4BB
330
1F
100
AcDbEntity
  8
Bema_U+00DFung
 62
     7
420
 16777215
370
     9
100
AcDb2dPolyline
 66
     1
 10
0.0
 20
0.0
 30
0.0
  0
VERTEX
  5
4BC
330
4BB
100
AcDbEntity
  8
Bema_U+00DFung
 62
     7
420
 16777215
370
     9
100
AcDbVertex
100
AcDb2dVertex
 10
28.81912221501777
 20
232.1066110530843
 30
0.0
  0
VERTEX
  5
4BD
330
4BB
100
AcDbEntity
  8
Bema_U+00DFung
 62
     7
420
 16777215
370
     9
100
AcDbVertex
100
AcDb2dVertex
 10
25.31921388255931
 20
232.5673388307469
 30
0.0
  0
VERTEX
  5
4BE
330
4BB
100
AcDbEntity
  8
Bema_U+00DFung
 62
     7
420
 16777215
370
     9
100
AcDbVertex
100
AcDb2dVertex
 10
25.31921388255931
 20
231.6455304976441
 30
0.0
  0
VERTEX
  5
4BF
330
4BB
100
AcDbEntity
  8
Bema_U+00DFung
 62
     7
420
 16777215
370
     9
100
AcDbVertex
100
AcDb2dVertex
 10
28.81912221501777
 20
232.1066110530843
 30
0.0
  0
SEQEND
  5
4C0
330
4BB
100
AcDbEntity
  8
Bema_U+00DFung
 62
     7
420
 16777215
370
     9
  0
POLYLINE
  5
4C1
330
1F
100
AcDbEntity
  8
Bema_U+00DFung
 62
     7
420
 16777215
370
     9
100
AcDb2dPolyline
 66
     1
 10
0.0
 20
0.0
 30
0.0
  0
VERTEX
  5
4C2
330
4C1
100
AcDbEntity
  8
Bema_U+00DFung
 62
     7
420
 16777215
370
     9
100
AcDbVertex
100
AcDb2dVertex
 10
25.31921388255931
 20
232.5638110529701
 30
0.0
  0
VERTEX
  5
4C3
330
4C1
100
AcDbEntity
  8
Bema_U+00DFung
 62
     7
420
 16777215
370
     9
100
AcDbVertex
100
AcDb2dVertex
 10
25.34637777144149
 20
232.5638110529701
 30
0.0
  0
SEQEND
  5
4C4
330
4C1
100
AcDbEntity
  8
Bema_U+00DFung
 62
     7
420
 16777215
370
     9
  0
POLYLINE
  5
4C5
330
1F
100
AcDbEntity
  8
Bema_U+00DFung
 62
     7
420
 16777215
370
     9
100
AcDb2dPolyline
 66
     1
 10
0.0
 20
0.0
 30
0.0
  0
VERTEX
  5
4C6
330
4C5
100
AcDbEntity
  8
Bema_U+00DFung
 62
     7
420
 16777215
370
     9
100
AcDbVertex
100
AcDb2dVertex
 10
25.31921388255931
 20
232.5638110529701
 30
0.0
  0
VERTEX
  5
4C7
330
4C5
100
AcDbEntity
  8
Bema_U+00DFung
 62
     7
420
 16777215
370
     9
100
AcDbVertex
100
AcDb2dVertex
 10
25.34637777144149
 20
232.5638110529701
 30
0.0
  0
SEQEND
  5
4C8
330
4C5
100
AcDbEntity
  8
Bema_U+00DFung
 62
     7
420
 16777215
370
     9
  0
POLYLINE
  5
4C9
330
1F
100
AcDbEntity
  8
Bema_U+00DFung
 62
     7
420
 16777215
370
     9
100
AcDb2dPolyline
 66
     1
 10
0.0
 20
0.0
 30
0.0
  0
VERTEX
  5
4CA
330
4C9
100
AcDbEntity
  8
Bema_U+00DFung
 62
     7
420
 16777215
370
     9
100
AcDbVertex
100
AcDb2dVertex
 10
25.31921388255931
 20
232.5130110529827
 30
0.0
  0
VERTEX
  5
4CB
330
4C9
100
AcDbEntity
  8
Bema_U+00DFung
 62
     7
420
 16777215
370
     9
100
AcDbVertex
100
AcDb2dVertex
 10
25.73231666023391
 20
232.5130110529827
 30
0.0
  0
SEQEND
  5
4CC
330
4C9
100
AcDbEntity
  8
Bema_U+00DFung
 62
     7
420
 16777215
370
     9
  0
POLYLINE
  5
4CD
330
1F
100
AcDbEntity
  8
Bema_U+00DFung
 62
     7
420
 16777215
370
     9
100
AcDb2dPolyline
 66
     1
 10
0.0
 20
0.0
 30
0.0
  0
VERTEX
  5
4CE
330
4CD
100
AcDbEntity
  8
Bema_U+00DFung
 62
     7
420
 16777215
370
     9
100
AcDbVertex
100
AcDb2dVertex
 10
25.31921388255931
 20
232.4622110529955
 30
0.0
  0
VERTEX
  5
4CF
330
4CD
100
AcDbEntity
  8
Bema_U+00DFung
 62
     7
420
 16777215
370
     9
100
AcDbVertex
100
AcDb2dVertex
 10
26.11825554902633
 20
232.4622110529955
 30
0.0
  0
SEQEND
  5
4D0
330
4CD
100
AcDbEntity
  8
Bema_U+00DFung
 62
     7
420
 16777215
370
     9
  0
POLYLINE
  5
4D1
330
1F
100
AcDbEntity
  8
Bema_U+00DFung
 62
     7
420
 16777215
370
     9
100
AcDb2dPolyline
 66
     1
 10
0.0
 20
0.0
 30
0.0
  0
VERTEX
  5
4D2
330
4D1
100
AcDbEntity
  8
Bema_U+00DFung
 62
     7
420
 16777215
370
     9
100
AcDbVertex
100
AcDb2dVertex
 10
25.31921388255931
 20
232.4114110530082
 30
0.0
  0
VERTEX
  5
4D3
330
4D1
100
AcDbEntity
  8
Bema_U+00DFung
 62
     7
420
 16777215
370
     9
100
AcDbVertex
100
AcDb2dVertex
 10
26.50348888226323
 20
232.4114110530082
 30
0.0
  0
SEQEND
  5
4D4
330
4D1
100
AcDbEntity
  8
Bema_U+00DFung
 62
     7
420
 16777215
370
     9
  0
POLYLINE
  5
4D5
330
1F
100
AcDbEntity
  8
Bema_U+00DFung
 62
     7
420
 16777215
370
     9
100
AcDb2dPolyline
 66
     1
 10
0.0
 20
0.0
 30
0.0
  0
VERTEX
  5
4D6
330
4D5
100
AcDbEntity
  8
Bema_U+00DFung
 62
     7
420
 16777215
370
     9
100
AcDbVertex
100
AcDb2dVertex
 10
25.31921388255931
 20
232.3606110530209
 30
0.0
  0
VERTEX
  5
4D7
330
4D5
100
AcDbEntity
  8
Bema_U+00DFung
 62
     7
420
 16777215
370
     9
100
AcDbVertex
100
AcDb2dVertex
 10
26.88978054883342
 20
232.3606110530209
 30
0.0
  0
SEQEND
  5
4D8
330
4D5
100
AcDbEntity
  8
Bema_U+00DFung
 62
     7
420
 16777215
370
     9
  0
POLYLINE
  5
4D9
330
1F
100
AcDbEntity
  8
Bema_U+00DFung
 62
     7
420
 16777215
370
     9
100
AcDb2dPolyline
 66
     1
 10
0.0
 20
0.0
 30
0.0
  0
VERTEX
  5
4DA
330
4D9
100
AcDbEntity
  8
Bema_U+00DFung
 62
     7
420
 16777215
370
     9
100
AcDbVertex
100
AcDb2dVertex
 10
25.31921388255931
 20
232.3098110530335
 30
0.0
  0
VERTEX
  5
4DB
330
4D9
100
AcDbEntity
  8
Bema_U+00DFung
 62
     7
420
 16777215
370
     9
100
AcDbVertex
100
AcDb2dVertex
 10
27.27571943762584
 20
232.3098110530335
 30
0.0
  0
SEQEND
  5
4DC
330
4D9
100
AcDbEntity
  8
Bema_U+00DFung
 62
     7
420
 16777215
370
     9
  0
POLYLINE
  5
4DD
330
1F
100
AcDbEntity
  8
Bema_U+00DFung
 62
     7
420
 16777215
370
     9
100
AcDb2dPolyline
 66
     1
 10
0.0
 20
0.0
 30
0.0
  0
VERTEX
  5
4DE
330
4DD
100
AcDbEntity
  8
Bema_U+00DFung
 62
     7
420
 16777215
370
     9
100
AcDbVertex
100
AcDb2dVertex
 10
25.31921388255931
 20
232.2590110530463
 30
0.0
  0
VERTEX
  5
4DF
330
4DD
100
AcDbEntity
  8
Bema_U+00DFung
 62
     7
420
 16777215
370
     9
100
AcDbVertex
100
AcDb2dVertex
 10
27.66165832641826
 20
232.2590110530463
 30
0.0
  0
SEQEND
  5
4E0
330
4DD
100
AcDbEntity
  8
Bema_U+00DFung
 62
     7
420
 16777215
370
     9
  0
POLYLINE
  5
4E1
330
1F
100
AcDbEntity
  8
Bema_U+00DFung
 62
     7
420
 16777215
370
     9
100
AcDb2dPolyline
 66
     1
 10
0.0
 20
0.0
 30
0.0
  0
VERTEX
  5
4E2
330
4E1
100
AcDbEntity
  8
Bema_U+00DFung
 62
     7
420
 16777215
370
     9
100
AcDbVertex
100
AcDb2dVertex
 10
25.31921388255931
 20
232.2082110530589
 30
0.0
  0
VERTEX
  5
4E3
330
4E1
100
AcDbEntity
  8
Bema_U+00DFung
 62
     7
420
 16777215
370
     9
100
AcDbVertex
100
AcDb2dVertex
 10
28.04759721521068
 20
232.2082110530589
 30
0.0
  0
SEQEND
  5
4E4
330
4E1
100
AcDbEntity
  8
Bema_U+00DFung
 62
     7
420
 16777215
370
     9
  0
POLYLINE
  5
4E5
330
1F
100
AcDbEntity
  8
Bema_U+00DFung
 62
     7
420
 16777215
370
     9
100
AcDb2dPolyline
 66
     1
 10
0.0
 20
0.0
 30
0.0
  0
VERTEX
  5
4E6
330
4E5
100
AcDbEntity
  8
Bema_U+00DFung
 62
     7
420
 16777215
370
     9
100
AcDbVertex
100
AcDb2dVertex
 10
25.31921388255931
 20
232.1574110530717
 30
0.0
  0
VERTEX
  5
4E7
330
4E5
100
AcDbEntity
  8
Bema_U+00DFung
 62
     7
420
 16777215
370
     9
100
AcDbVertex
100
AcDb2dVertex
 10
28.43318332622534
 20
232.1574110530717
 30
0.0
  0
SEQEND
  5
4E8
330
4E5
100
AcDbEntity
  8
Bema_U+00DFung
 62
     7
420
 16777215
370
     9
  0
POLYLINE
  5
4E9
330
1F
100
AcDbEntity
  8
Bema_U+00DFung
 62
     7
420
 16777215
370
     9
100
AcDb2dPolyline
 66
     1
 10
0.0
 20
0.0
 30
0.0
  0
VERTEX
  5
4EA
330
4E9
100
AcDbEntity
  8
Bema_U+00DFung
 62
     7
420
 16777215
370
     9
100
AcDbVertex
100
AcDb2dVertex
 10
25.31921388255931
 20
232.1066110530843
 30
0.0
  0
VERTEX
  5
4EB
330
4E9
100
AcDbEntity
  8
Bema_U+00DFung
 62
     7
420
 16777215
370
     9
100
AcDbVertex
100
AcDb2dVertex
 10
28.81912221501777
 20
232.1066110530843
 30
0.0
  0
SEQEND
  5
4EC
330
4E9
100
AcDbEntity
  8
Bema_U+00DFung
 62
     7
420
 16777215
370
     9
  0
POLYLINE
  5
4ED
330
1F
100
AcDbEntity
  8
Bema_U+00DFung
 62
     7
420
 16777215
370
     9
100
AcDb2dPolyline
 66
     1
 10
0.0
 20
0.0
 30
0.0
  0
VERTEX
  5
4EE
330
4ED
100
AcDbEntity
  8
Bema_U+00DFung
 62
     7
420
 16777215
370
     9
100
AcDbVertex
100
AcDb2dVertex
 10
25.31921388255931
 20
231.6490582754209
 30
0.0
  0
VERTEX
  5
4EF
330
4ED
100
AcDbEntity
  8
Bema_U+00DFung
 62
     7
420
 16777215
370
     9
100
AcDbVertex
100
AcDb2dVertex
 10
25.34637777144149
 20
231.6490582754209
 30
0.0
  0
SEQEND
  5
4F0
330
4ED
100
AcDbEntity
  8
Bema_U+00DFung
 62
     7
420
 16777215
370
     9
  0
POLYLINE
  5
4F1
330
1F
100
AcDbEntity
  8
Bema_U+00DFung
 62
     7
420
 16777215
370
     9
100
AcDb2dPolyline
 66
     1
 10
0.0
 20
0.0
 30
0.0
  0
VERTEX
  5
4F2
330
4F1
100
AcDbEntity
  8
Bema_U+00DFung
 62
     7
420
 16777215
370
     9
100
AcDbVertex
100
AcDb2dVertex
 10
25.31921388255931
 20
231.6490582754209
 30
0.0
  0
VERTEX
  5
4F3
330
4F1
100
AcDbEntity
  8
Bema_U+00DFung
 62
     7
420
 16777215
370
     9
100
AcDbVertex
100
AcDb2dVertex
 10
25.34637777144149
 20
231.6490582754209
 30
0.0
  0
SEQEND
  5
4F4
330
4F1
100
AcDbEntity
  8
Bema_U+00DFung
 62
     7
420
 16777215
370
     9
  0
POLYLINE
  5
4F5
330
1F
100
AcDbEntity
  8
Bema_U+00DFung
 62
     7
420
 16777215
370
     9
100
AcDb2dPolyline
 66
     1
 10
0.0
 20
0.0
 30
0.0
  0
VERTEX
  5
4F6
330
4F5
100
AcDbEntity
  8
Bema_U+00DFung
 62
     7
420
 16777215
370
     9
100
AcDbVertex
100
AcDb2dVertex
 10
25.31921388255931
 20
231.6998582754083
 30
0.0
  0
VERTEX
  5
4F7
330
4F5
100
AcDbEntity
  8
Bema_U+00DFung
 62
     7
420
 16777215
370
     9
100
AcDbVertex
100
AcDb2dVertex
 10
25.73231666023391
 20
231.6998582754083
 30
0.0
  0
SEQEND
  5
4F8
330
4F5
100
AcDbEntity
  8
Bema_U+00DFung
 62
     7
420
 16777215
370
     9
  0
POLYLINE
  5
4F9
330
1F
100
AcDbEntity
  8
Bema_U+00DFung
 62
     7
420
 16777215
370
     9
100
AcDb2dPolyline
 66
     1
 10
0.0
 20
0.0
 30
0.0
  0
VERTEX
  5
4FA
330
4F9
100
AcDbEntity
  8
Bema_U+00DFung
 62
     7
420
 16777215
370
     9
100
AcDbVertex
100
AcDb2dVertex
 10
25.31921388255931
 20
231.7506582753955
 30
0.0
  0
VERTEX
  5
4FB
330
4F9
100
AcDbEntity
  8
Bema_U+00DFung
 62
     7
420
 16777215
370
     9
100
AcDbVertex
100
AcDb2dVertex
 10
26.11825554902633
 20
231.7506582753955
 30
0.0
  0
SEQEND
  5
4FC
330
4F9
100
AcDbEntity
  8
Bema_U+00DFung
 62
     7
420
 16777215
370
     9
  0
POLYLINE
  5
4FD
330
1F
100
AcDbEntity
  8
Bema_U+00DFung
 62
     7
420
 16777215
370
     9
100
AcDb2dPolyline
 66
     1
 10
0.0
 20
0.0
 30
0.0
  0
VERTEX
  5
4FE
330
4FD
100
AcDbEntity
  8
Bema_U+00DFung
 62
     7
420
 16777215
370
     9
100
AcDbVertex
100
AcDb2dVertex
 10
25.31921388255931
 20
231.8014582753829
 30
0.0
  0
VERTEX
  5
4FF
330
4FD
100
AcDbEntity
  8
Bema_U+00DFung
 62
     7
420
 16777215
370
     9
100
AcDbVertex
100
AcDb2dVertex
 10
26.50348888226323
 20
231.8014582753829
 30
0.0
  0
SEQEND
  5
500
330
4FD
100
AcDbEntity
  8
Bema_U+00DFung
 62
     7
420
 16777215
370
     9
  0
POLYLINE
  5
501
330
1F
100
AcDbEntity
  8
Bema_U+00DFung
 62
     7
420
 16777215
370
     9
100
AcDb2dPolyline
 66
     1
 10
0.0
 20
0.0
 30
0.0
  0
VERTEX
  5
502
330
501
100
AcDbEntity
  8
Bema_U+00DFung
 62
     7
420
 16777215
370
     9
100
AcDbVertex
100
AcDb2dVertex
 10
25.31921388255931
 20
231.8522582753701
 30
0.0
  0
VERTEX
  5
503
330
501
100
AcDbEntity
  8
Bema_U+00DFung
 62
     7
420
 16777215
370
     9
100
AcDbVertex
100
AcDb2dVertex
 10
26.88978054883342
 20
231.8522582753701
 30
0.0
  0
SEQEND
  5
504
330
501
100
AcDbEntity
  8
Bema_U+00DFung
 62
     7
420
 16777215
370
     9
  0
POLYLINE
  5
505
330
1F
100
AcDbEntity
  8
Bema_U+00DFung
 62
     7
420
 16777215
370
     9
100
AcDb2dPolyline
 66
     1
 10
0.0
 20
0.0
 30
0.0
  0
VERTEX
  5
506
330
505
100
AcDbEntity
  8
Bema_U+00DFung
 62
     7
420
 16777215
370
     9
100
AcDbVertex
100
AcDb2dVertex
 10
25.31921388255931
 20
231.9030582753575
 30
0.0
  0
VERTEX
  5
507
330
505
100
AcDbEntity
  8
Bema_U+00DFung
 62
     7
420
 16777215
370
     9
100
AcDbVertex
100
AcDb2dVertex
 10
27.27571943762584
 20
231.9030582753575
 30
0.0
  0
SEQEND
  5
508
330
505
100
AcDbEntity
  8
Bema_U+00DFung
 62
     7
420
 16777215
370
     9
  0
POLYLINE
  5
509
330
1F
100
AcDbEntity
  8
Bema_U+00DFung
 62
     7
420
 16777215
370
     9
100
AcDb2dPolyline
 66
     1
 10
0.0
 20
0.0
 30
0.0
  0
VERTEX
  5
50A
330
509
100
AcDbEntity
  8
Bema_U+00DFung
 62
     7
420
 16777215
370
     9
100
AcDbVertex
100
AcDb2dVertex
 10
25.31921388255931
 20
231.9538582753447
 30
0.0
  0
VERTEX
  5
50B
330
509
100
AcDbEntity
  8
Bema_U+00DFung
 62
     7
420
 16777215
370
     9
100
AcDbVertex
100
AcDb2dVertex
 10
27.66165832641826
 20
231.9538582753447
 30
0.0
  0
SEQEND
  5
50C
330
509
100
AcDbEntity
  8
Bema_U+00DFung
 62
     7
420
 16777215
370
     9
  0
POLYLINE
  5
50D
330
1F
100
AcDbEntity
  8
Bema_U+00DFung
 62
     7
420
 16777215
370
     9
100
AcDb2dPolyline
 66
     1
 10
0.0
 20
0.0
 30
0.0
  0
VERTEX
  5
50E
330
50D
100
AcDbEntity
  8
Bema_U+00DFung
 62
     7
420
 16777215
370
     9
100
AcDbVertex
100
AcDb2dVertex
 10
25.31921388255931
 20
232.0046582753321
 30
0.0
  0
VERTEX
  5
50F
330
50D
100
AcDbEntity
  8
Bema_U+00DFung
 62
     7
420
 16777215
370
     9
100
AcDbVertex
100
AcDb2dVertex
 10
28.04759721521068
 20
232.0046582753321
 30
0.0
  0
SEQEND
  5
510
330
50D
100
AcDbEntity
  8
Bema_U+00DFung
 62
     7
420
 16777215
370
     9
  0
POLYLINE
  5
511
330
1F
100
AcDbEntity
  8
Bema_U+00DFung
 62
     7
420
 16777215
370
     9
100
AcDb2dPolyline
 66
     1
 10
0.0
 20
0.0
 30
0.0
  0
VERTEX
  5
512
330
511
100
AcDbEntity
  8
Bema_U+00DFung
 62
     7
420
 16777215
370
     9
100
AcDbVertex
100
AcDb2dVertex
 10
25.31921388255931
 20
232.0554582753194
 30
0.0
  0
VERTEX
  5
513
330
511
100
AcDbEntity
  8
Bema_U+00DFung
 62
     7
420
 16777215
370
     9
100
AcDbVertex
100
AcDb2dVertex
 10
28.43318332622534
 20
232.0554582753194
 30
0.0
  0
SEQEND
  5
514
330
511
100
AcDbEntity
  8
Bema_U+00DFung
 62
     7
420
 16777215
370
     9
  0
POLYLINE
  5
515
330
1F
100
AcDbEntity
  8
Bema_U+00DFung
 62
     7
420
 16777215
370
     9
100
AcDb2dPolyline
 66
     1
 10
0.0
 20
0.0
 30
0.0
  0
VERTEX
  5
516
330
515
100
AcDbEntity
  8
Bema_U+00DFung
 62
     7
420
 16777215
370
     9
100
AcDbVertex
100
AcDb2dVertex
 10
25.31921388255931
 20
232.1066110530843
 30
0.0
  0
VERTEX
  5
517
330
515
100
AcDbEntity
  8
Bema_U+00DFung
 62
     7
420
 16777215
370
     9
100
AcDbVertex
100
AcDb2dVertex
 10
28.81912221501777
 20
232.1066110530843
 30
0.0
  0
SEQEND
  5
518
330
515
100
AcDbEntity
  8
Bema_U+00DFung
 62
     7
420
 16777215
370
     9
  0
POLYLINE
  5
519
330
1F
100
AcDbEntity
  8
Bema_U+00DFung
 62
     7
420
 16777215
370
     9
100
AcDb2dPolyline
 66
     1
 10
0.0
 20
0.0
 30
0.0
  0
VERTEX
  5
51A
330
519
100
AcDbEntity
  8
Bema_U+00DFung
 62
     7
420
 16777215
370
     9
100
AcDbVertex
100
AcDb2dVertex
 10
94.81925830962868
 20
190.2840999524286
 30
0.0
  0
VERTEX
  5
51B
330
519
100
AcDbEntity
  8
Bema_U+00DFung
 62
     7
420
 16777215
370
     9
100
AcDbVertex
100
AcDb2dVertex
 10
114.6668888602225
 20
190.2840999524286
 30
0.0
  0
SEQEND
  5
51C
330
519
100
AcDbEntity
  8
Bema_U+00DFung
 62
     7
420
 16777215
370
     9
  0
POLYLINE
  5
51D
330
1F
100
AcDbEntity
  8
Bema_U+00DFung
 62
     7
420
 16777215
370
     9
100
AcDb2dPolyline
 66
     1
 10
0.0
 20
0.0
 30
0.0
  0
VERTEX
  5
51E
330
51D
100
AcDbEntity
  8
Bema_U+00DFung
 62
     7
420
 16777215
370
     9
100
AcDbVertex
100
AcDb2dVertex
 10
51.38525832048722
 20
214.2842777242066
 30
0.0
  0
VERTEX
  5
51F
330
51D
100
AcDbEntity
  8
Bema_U+00DFung
 62
     7
420
 16777215
370
     9
100
AcDbVertex
100
AcDb2dVertex
 10
114.6668888602225
 20
214.2842777242066
 30
0.0
  0
SEQEND
  5
520
330
51D
100
AcDbEntity
  8
Bema_U+00DFung
 62
     7
420
 16777215
370
     9
  0
POLYLINE
  5
521
330
1F
100
AcDbEntity
  8
Bema_U+00DFung
 62
     7
420
 16777215
370
     9
100
AcDb2dPolyline
 66
     1
 10
0.0
 20
0.0
 30
0.0
  0
VERTEX
  5
522
330
521
100
AcDbEntity
  8
Bema_U+00DFung
 62
     7
420
 16777215
370
     9
100
AcDbVertex
100
AcDb2dVertex
 10
112.6669916385003
 20
190.2840999524286
 30
0.0
  0
VERTEX
  5
523
330
521
100
AcDbEntity
  8
Bema_U+00DFung
 62
     7
420
 16777215
370
     9
100
AcDbVertex
100
AcDb2dVertex
 10
112.6669916385003
 20
214.2842777242066
 30
0.0
  0
SEQEND
  5
524
330
521
100
AcDbEntity
  8
Bema_U+00DFung
 62
     7
420
 16777215
370
     9
  0
POLYLINE
  5
525
330
1F
100
AcDbEntity
  8
Bema_U+00DFung
 62
     7
420
 16777215
370
     9
100
AcDb2dPolyline
 66
     1
 10
0.0
 20
0.0
 30
0.0
  0
VERTEX
  5
526
330
525
100
AcDbEntity
  8
Bema_U+00DFung
 62
     7
420
 16777215
370
     9
100
AcDbVertex
100
AcDb2dVertex
 10
112.6669916385003
 20
190.2840999524286
 30
0.0
  0
VERTEX
  5
527
330
525
100
AcDbEntity
  8
Bema_U+00DFung
 62
     7
420
 16777215
370
     9
100
AcDbVertex
100
AcDb2dVertex
 10
113.1280721939405
 20
193.7843610626649
 30
0.0
  0
VERTEX
  5
528
330
525
100
AcDbEntity
  8
Bema_U+00DFung
 62
     7
420
 16777215
370
     9
100
AcDbVertex
100
AcDb2dVertex
 10
112.2066166386153
 20
193.7843610626649
 30
0.0
  0
VERTEX
  5
529
330
525
100
AcDbEntity
  8
Bema_U+00DFung
 62
     7
420
 16777215
370
     9
100
AcDbVertex
100
AcDb2dVertex
 10
112.6669916385003
 20
190.2840999524286
 30
0.0
  0
SEQEND
  5
52A
330
525
100
AcDbEntity
  8
Bema_U+00DFung
 62
     7
420
 16777215
370
     9
  0
POLYLINE
  5
52B
330
1F
100
AcDbEntity
  8
Bema_U+00DFung
 62
     7
420
 16777215
370
     9
100
AcDb2dPolyline
 66
     1
 10
0.0
 20
0.0
 30
0.0
  0
VERTEX
  5
52C
330
52B
100
AcDbEntity
  8
Bema_U+00DFung
 62
     7
420
 16777215
370
     9
100
AcDbVertex
100
AcDb2dVertex
 10
113.1245444161635
 20
193.7843610626649
 30
0.0
  0
VERTEX
  5
52D
330
52B
100
AcDbEntity
  8
Bema_U+00DFung
 62
     7
420
 16777215
370
     9
100
AcDbVertex
100
AcDb2dVertex
 10
113.1245444161635
 20
193.757197173783
 30
0.0
  0
SEQEND
  5
52E
330
52B
100
AcDbEntity
  8
Bema_U+00DFung
 62
     7
420
 16777215
370
     9
  0
POLYLINE
  5
52F
330
1F
100
AcDbEntity
  8
Bema_U+00DFung
 62
     7
420
 16777215
370
     9
100
AcDb2dPolyline
 66
     1
 10
0.0
 20
0.0
 30
0.0
  0
VERTEX
  5
530
330
52F
100
AcDbEntity
  8
Bema_U+00DFung
 62
     7
420
 16777215
370
     9
100
AcDbVertex
100
AcDb2dVertex
 10
113.1245444161635
 20
193.7843610626649
 30
0.0
  0
VERTEX
  5
531
330
52F
100
AcDbEntity
  8
Bema_U+00DFung
 62
     7
420
 16777215
370
     9
100
AcDbVertex
100
AcDb2dVertex
 10
113.1245444161635
 20
193.757197173783
 30
0.0
  0
SEQEND
  5
532
330
52F
100
AcDbEntity
  8
Bema_U+00DFung
 62
     7
420
 16777215
370
     9
  0
POLYLINE
  5
533
330
1F
100
AcDbEntity
  8
Bema_U+00DFung
 62
     7
420
 16777215
370
     9
100
AcDb2dPolyline
 66
     1
 10
0.0
 20
0.0
 30
0.0
  0
VERTEX
  5
534
330
533
100
AcDbEntity
  8
Bema_U+00DFung
 62
     7
420
 16777215
370
     9
100
AcDbVertex
100
AcDb2dVertex
 10
113.0737444161761
 20
193.7843610626649
 30
0.0
  0
VERTEX
  5
535
330
533
100
AcDbEntity
  8
Bema_U+00DFung
 62
     7
420
 16777215
370
     9
100
AcDbVertex
100
AcDb2dVertex
 10
113.0737444161761
 20
193.3709055072125
 30
0.0
  0
SEQEND
  5
536
330
533
100
AcDbEntity
  8
Bema_U+00DFung
 62
     7
420
 16777215
370
     9
  0
POLYLINE
  5
537
330
1F
100
AcDbEntity
  8
Bema_U+00DFung
 62
     7
420
 16777215
370
     9
100
AcDb2dPolyline
 66
     1
 10
0.0
 20
0.0
 30
0.0
  0
VERTEX
  5
538
330
537
100
AcDbEntity
  8
Bema_U+00DFung
 62
     7
420
 16777215
370
     9
100
AcDbVertex
100
AcDb2dVertex
 10
113.0229444161891
 20
193.7843610626649
 30
0.0
  0
VERTEX
  5
539
330
537
100
AcDbEntity
  8
Bema_U+00DFung
 62
     7
420
 16777215
370
     9
100
AcDbVertex
100
AcDb2dVertex
 10
113.0229444161891
 20
192.9853193961982
 30
0.0
  0
SEQEND
  5
53A
330
537
100
AcDbEntity
  8
Bema_U+00DFung
 62
     7
420
 16777215
370
     9
  0
POLYLINE
  5
53B
330
1F
100
AcDbEntity
  8
Bema_U+00DFung
 62
     7
420
 16777215
370
     9
100
AcDb2dPolyline
 66
     1
 10
0.0
 20
0.0
 30
0.0
  0
VERTEX
  5
53C
330
53B
100
AcDbEntity
  8
Bema_U+00DFung
 62
     7
420
 16777215
370
     9
100
AcDbVertex
100
AcDb2dVertex
 10
112.9721444162017
 20
193.7843610626649
 30
0.0
  0
VERTEX
  5
53D
330
53B
100
AcDbEntity
  8
Bema_U+00DFung
 62
     7
420
 16777215
370
     9
100
AcDbVertex
100
AcDb2dVertex
 10
112.9721444162017
 20
192.5993805074054
 30
0.0
  0
SEQEND
  5
53E
330
53B
100
AcDbEntity
  8
Bema_U+00DFung
 62
     7
420
 16777215
370
     9
  0
POLYLINE
  5
53F
330
1F
100
AcDbEntity
  8
Bema_U+00DFung
 62
     7
420
 16777215
370
     9
100
AcDb2dPolyline
 66
     1
 10
0.0
 20
0.0
 30
0.0
  0
VERTEX
  5
540
330
53F
100
AcDbEntity
  8
Bema_U+00DFung
 62
     7
420
 16777215
370
     9
100
AcDbVertex
100
AcDb2dVertex
 10
112.9209916384365
 20
193.7843610626649
 30
0.0
  0
VERTEX
  5
541
330
53F
100
AcDbEntity
  8
Bema_U+00DFung
 62
     7
420
 16777215
370
     9
100
AcDbVertex
100
AcDb2dVertex
 10
112.9209916384365
 20
192.2137943963911
 30
0.0
  0
SEQEND
  5
542
330
53F
100
AcDbEntity
  8
Bema_U+00DFung
 62
     7
420
 16777215
370
     9
  0
POLYLINE
  5
543
330
1F
100
AcDbEntity
  8
Bema_U+00DFung
 62
     7
420
 16777215
370
     9
100
AcDb2dPolyline
 66
     1
 10
0.0
 20
0.0
 30
0.0
  0
VERTEX
  5
544
330
543
100
AcDbEntity
  8
Bema_U+00DFung
 62
     7
420
 16777215
370
     9
100
AcDbVertex
100
AcDb2dVertex
 10
112.8701916384495
 20
193.7843610626649
 30
0.0
  0
VERTEX
  5
545
330
543
100
AcDbEntity
  8
Bema_U+00DFung
 62
     7
420
 16777215
370
     9
100
AcDbVertex
100
AcDb2dVertex
 10
112.8701916384495
 20
191.8275027298206
 30
0.0
  0
SEQEND
  5
546
330
543
100
AcDbEntity
  8
Bema_U+00DFung
 62
     7
420
 16777215
370
     9
  0
POLYLINE
  5
547
330
1F
100
AcDbEntity
  8
Bema_U+00DFung
 62
     7
420
 16777215
370
     9
100
AcDb2dPolyline
 66
     1
 10
0.0
 20
0.0
 30
0.0
  0
VERTEX
  5
548
330
547
100
AcDbEntity
  8
Bema_U+00DFung
 62
     7
420
 16777215
370
     9
100
AcDbVertex
100
AcDb2dVertex
 10
112.8193916384621
 20
193.7843610626649
 30
0.0
  0
VERTEX
  5
549
330
547
100
AcDbEntity
  8
Bema_U+00DFung
 62
     7
420
 16777215
370
     9
100
AcDbVertex
100
AcDb2dVertex
 10
112.8193916384621
 20
191.4419166188062
 30
0.0
  0
SEQEND
  5
54A
330
547
100
AcDbEntity
  8
Bema_U+00DFung
 62
     7
420
 16777215
370
     9
  0
POLYLINE
  5
54B
330
1F
100
AcDbEntity
  8
Bema_U+00DFung
 62
     7
420
 16777215
370
     9
100
AcDb2dPolyline
 66
     1
 10
0.0
 20
0.0
 30
0.0
  0
VERTEX
  5
54C
330
54B
100
AcDbEntity
  8
Bema_U+00DFung
 62
     7
420
 16777215
370
     9
100
AcDbVertex
100
AcDb2dVertex
 10
112.7685916384747
 20
193.7843610626649
 30
0.0
  0
VERTEX
  5
54D
330
54B
100
AcDbEntity
  8
Bema_U+00DFung
 62
     7
420
 16777215
370
     9
100
AcDbVertex
100
AcDb2dVertex
 10
112.7685916384747
 20
191.0556249522357
 30
0.0
  0
SEQEND
  5
54E
330
54B
100
AcDbEntity
  8
Bema_U+00DFung
 62
     7
420
 16777215
370
     9
  0
POLYLINE
  5
54F
330
1F
100
AcDbEntity
  8
Bema_U+00DFung
 62
     7
420
 16777215
370
     9
100
AcDb2dPolyline
 66
     1
 10
0.0
 20
0.0
 30
0.0
  0
VERTEX
  5
550
330
54F
100
AcDbEntity
  8
Bema_U+00DFung
 62
     7
420
 16777215
370
     9
100
AcDbVertex
100
AcDb2dVertex
 10
112.7177916384873
 20
193.7843610626649
 30
0.0
  0
VERTEX
  5
551
330
54F
100
AcDbEntity
  8
Bema_U+00DFung
 62
     7
420
 16777215
370
     9
100
AcDbVertex
100
AcDb2dVertex
 10
112.7177916384873
 20
190.6703916189991
 30
0.0
  0
SEQEND
  5
552
330
54F
100
AcDbEntity
  8
Bema_U+00DFung
 62
     7
420
 16777215
370
     9
  0
POLYLINE
  5
553
330
1F
100
AcDbEntity
  8
Bema_U+00DFung
 62
     7
420
 16777215
370
     9
100
AcDb2dPolyline
 66
     1
 10
0.0
 20
0.0
 30
0.0
  0
VERTEX
  5
554
330
553
100
AcDbEntity
  8
Bema_U+00DFung
 62
     7
420
 16777215
370
     9
100
AcDbVertex
100
AcDb2dVertex
 10
112.6669916385003
 20
193.7843610626649
 30
0.0
  0
VERTEX
  5
555
330
553
100
AcDbEntity
  8
Bema_U+00DFung
 62
     7
420
 16777215
370
     9
100
AcDbVertex
100
AcDb2dVertex
 10
112.6669916385003
 20
190.2840999524286
 30
0.0
  0
SEQEND
  5
556
330
553
100
AcDbEntity
  8
Bema_U+00DFung
 62
     7
420
 16777215
370
     9
  0
POLYLINE
  5
557
330
1F
100
AcDbEntity
  8
Bema_U+00DFung
 62
     7
420
 16777215
370
     9
100
AcDb2dPolyline
 66
     1
 10
0.0
 20
0.0
 30
0.0
  0
VERTEX
  5
558
330
557
100
AcDbEntity
  8
Bema_U+00DFung
 62
     7
420
 16777215
370
     9
100
AcDbVertex
100
AcDb2dVertex
 10
112.2101444163922
 20
193.7843610626649
 30
0.0
  0
VERTEX
  5
559
330
557
100
AcDbEntity
  8
Bema_U+00DFung
 62
     7
420
 16777215
370
     9
100
AcDbVertex
100
AcDb2dVertex
 10
112.2101444163922
 20
193.757197173783
 30
0.0
  0
SEQEND
  5
55A
330
557
100
AcDbEntity
  8
Bema_U+00DFung
 62
     7
420
 16777215
370
     9
  0
POLYLINE
  5
55B
330
1F
100
AcDbEntity
  8
Bema_U+00DFung
 62
     7
420
 16777215
370
     9
100
AcDb2dPolyline
 66
     1
 10
0.0
 20
0.0
 30
0.0
  0
VERTEX
  5
55C
330
55B
100
AcDbEntity
  8
Bema_U+00DFung
 62
     7
420
 16777215
370
     9
100
AcDbVertex
100
AcDb2dVertex
 10
112.2101444163922
 20
193.7843610626649
 30
0.0
  0
VERTEX
  5
55D
330
55B
100
AcDbEntity
  8
Bema_U+00DFung
 62
     7
420
 16777215
370
     9
100
AcDbVertex
100
AcDb2dVertex
 10
112.2101444163922
 20
193.757197173783
 30
0.0
  0
SEQEND
  5
55E
330
55B
100
AcDbEntity
  8
Bema_U+00DFung
 62
     7
420
 16777215
370
     9
  0
POLYLINE
  5
55F
330
1F
100
AcDbEntity
  8
Bema_U+00DFung
 62
     7
420
 16777215
370
     9
100
AcDb2dPolyline
 66
     1
 10
0.0
 20
0.0
 30
0.0
  0
VERTEX
  5
560
330
55F
100
AcDbEntity
  8
Bema_U+00DFung
 62
     7
420
 16777215
370
     9
100
AcDbVertex
100
AcDb2dVertex
 10
112.2609444163796
 20
193.7843610626649
 30
0.0
  0
VERTEX
  5
561
330
55F
100
AcDbEntity
  8
Bema_U+00DFung
 62
     7
420
 16777215
370
     9
100
AcDbVertex
100
AcDb2dVertex
 10
112.2609444163796
 20
193.3709055072125
 30
0.0
  0
SEQEND
  5
562
330
55F
100
AcDbEntity
  8
Bema_U+00DFung
 62
     7
420
 16777215
370
     9
  0
POLYLINE
  5
563
330
1F
100
AcDbEntity
  8
Bema_U+00DFung
 62
     7
420
 16777215
370
     9
100
AcDb2dPolyline
 66
     1
 10
0.0
 20
0.0
 30
0.0
  0
VERTEX
  5
564
330
563
100
AcDbEntity
  8
Bema_U+00DFung
 62
     7
420
 16777215
370
     9
100
AcDbVertex
100
AcDb2dVertex
 10
112.3117444163667
 20
193.7843610626649
 30
0.0
  0
VERTEX
  5
565
330
563
100
AcDbEntity
  8
Bema_U+00DFung
 62
     7
420
 16777215
370
     9
100
AcDbVertex
100
AcDb2dVertex
 10
112.3117444163667
 20
192.9853193961982
 30
0.0
  0
SEQEND
  5
566
330
563
100
AcDbEntity
  8
Bema_U+00DFung
 62
     7
420
 16777215
370
     9
  0
POLYLINE
  5
567
330
1F
100
AcDbEntity
  8
Bema_U+00DFung
 62
     7
420
 16777215
370
     9
100
AcDb2dPolyline
 66
     1
 10
0.0
 20
0.0
 30
0.0
  0
VERTEX
  5
568
330
567
100
AcDbEntity
  8
Bema_U+00DFung
 62
     7
420
 16777215
370
     9
100
AcDbVertex
100
AcDb2dVertex
 10
112.3625444163541
 20
193.7843610626649
 30
0.0
  0
VERTEX
  5
569
330
567
100
AcDbEntity
  8
Bema_U+00DFung
 62
     7
420
 16777215
370
     9
100
AcDbVertex
100
AcDb2dVertex
 10
112.3625444163541
 20
192.5993805074054
 30
0.0
  0
SEQEND
  5
56A
330
567
100
AcDbEntity
  8
Bema_U+00DFung
 62
     7
420
 16777215
370
     9
  0
POLYLINE
  5
56B
330
1F
100
AcDbEntity
  8
Bema_U+00DFung
 62
     7
420
 16777215
370
     9
100
AcDb2dPolyline
 66
     1
 10
0.0
 20
0.0
 30
0.0
  0
VERTEX
  5
56C
330
56B
100
AcDbEntity
  8
Bema_U+00DFung
 62
     7
420
 16777215
370
     9
100
AcDbVertex
100
AcDb2dVertex
 10
112.4133444163414
 20
193.7843610626649
 30
0.0
  0
VERTEX
  5
56D
330
56B
100
AcDbEntity
  8
Bema_U+00DFung
 62
     7
420
 16777215
370
     9
100
AcDbVertex
100
AcDb2dVertex
 10
112.4133444163414
 20
192.2137943963911
 30
0.0
  0
SEQEND
  5
56E
330
56B
100
AcDbEntity
  8
Bema_U+00DFung
 62
     7
420
 16777215
370
     9
  0
POLYLINE
  5
56F
330
1F
100
AcDbEntity
  8
Bema_U+00DFung
 62
     7
420
 16777215
370
     9
100
AcDb2dPolyline
 66
     1
 10
0.0
 20
0.0
 30
0.0
  0
VERTEX
  5
570
330
56F
100
AcDbEntity
  8
Bema_U+00DFung
 62
     7
420
 16777215
370
     9
100
AcDbVertex
100
AcDb2dVertex
 10
112.4637916385511
 20
193.7843610626649
 30
0.0
  0
VERTEX
  5
571
330
56F
100
AcDbEntity
  8
Bema_U+00DFung
 62
     7
420
 16777215
370
     9
100
AcDbVertex
100
AcDb2dVertex
 10
112.4637916385511
 20
191.8275027298206
 30
0.0
  0
SEQEND
  5
572
330
56F
100
AcDbEntity
  8
Bema_U+00DFung
 62
     7
420
 16777215
370
     9
  0
POLYLINE
  5
573
330
1F
100
AcDbEntity
  8
Bema_U+00DFung
 62
     7
420
 16777215
370
     9
100
AcDb2dPolyline
 66
     1
 10
0.0
 20
0.0
 30
0.0
  0
VERTEX
  5
574
330
573
100
AcDbEntity
  8
Bema_U+00DFung
 62
     7
420
 16777215
370
     9
100
AcDbVertex
100
AcDb2dVertex
 10
112.5145916385381
 20
193.7843610626649
 30
0.0
  0
VERTEX
  5
575
330
573
100
AcDbEntity
  8
Bema_U+00DFung
 62
     7
420
 16777215
370
     9
100
AcDbVertex
100
AcDb2dVertex
 10
112.5145916385381
 20
191.4419166188062
 30
0.0
  0
SEQEND
  5
576
330
573
100
AcDbEntity
  8
Bema_U+00DFung
 62
     7
420
 16777215
370
     9
  0
POLYLINE
  5
577
330
1F
100
AcDbEntity
  8
Bema_U+00DFung
 62
     7
420
 16777215
370
     9
100
AcDb2dPolyline
 66
     1
 10
0.0
 20
0.0
 30
0.0
  0
VERTEX
  5
578
330
577
100
AcDbEntity
  8
Bema_U+00DFung
 62
     7
420
 16777215
370
     9
100
AcDbVertex
100
AcDb2dVertex
 10
112.5653916385255
 20
193.7843610626649
 30
0.0
  0
VERTEX
  5
579
330
577
100
AcDbEntity
  8
Bema_U+00DFung
 62
     7
420
 16777215
370
     9
100
AcDbVertex
100
AcDb2dVertex
 10
112.5653916385255
 20
191.0556249522357
 30
0.0
  0
SEQEND
  5
57A
330
577
100
AcDbEntity
  8
Bema_U+00DFung
 62
     7
420
 16777215
370
     9
  0
POLYLINE
  5
57B
330
1F
100
AcDbEntity
  8
Bema_U+00DFung
 62
     7
420
 16777215
370
     9
100
AcDb2dPolyline
 66
     1
 10
0.0
 20
0.0
 30
0.0
  0
VERTEX
  5
57C
330
57B
100
AcDbEntity
  8
Bema_U+00DFung
 62
     7
420
 16777215
370
     9
100
AcDbVertex
100
AcDb2dVertex
 10
112.6161916385129
 20
193.7843610626649
 30
0.0
  0
VERTEX
  5
57D
330
57B
100
AcDbEntity
  8
Bema_U+00DFung
 62
     7
420
 16777215
370
     9
100
AcDbVertex
100
AcDb2dVertex
 10
112.6161916385129
 20
190.6703916189991
 30
0.0
  0
SEQEND
  5
57E
330
57B
100
AcDbEntity
  8
Bema_U+00DFung
 62
     7
420
 16777215
370
     9
  0
POLYLINE
  5
57F
330
1F
100
AcDbEntity
  8
Bema_U+00DFung
 62
     7
420
 16777215
370
     9
100
AcDb2dPolyline
 66
     1
 10
0.0
 20
0.0
 30
0.0
  0
VERTEX
  5
580
330
57F
100
AcDbEntity
  8
Bema_U+00DFung
 62
     7
420
 16777215
370
     9
100
AcDbVertex
100
AcDb2dVertex
 10
112.6669916385003
 20
193.7843610626649
 30
0.0
  0
VERTEX
  5
581
330
57F
100
AcDbEntity
  8
Bema_U+00DFung
 62
     7
420
 16777215
370
     9
100
AcDbVertex
100
AcDb2dVertex
 10
112.6669916385003
 20
190.2840999524286
 30
0.0
  0
SEQEND
  5
582
330
57F
100
AcDbEntity
  8
Bema_U+00DFung
 62
     7
420
 16777215
370
     9
  0
POLYLINE
  5
583
330
1F
100
AcDbEntity
  8
Bema_U+00DFung
 62
     7
420
 16777215
370
     9
100
AcDb2dPolyline
 66
     1
 10
0.0
 20
0.0
 30
0.0
  0
VERTEX
  5
584
330
583
100
AcDbEntity
  8
Bema_U+00DFung
 62
     7
420
 16777215
370
     9
100
AcDbVertex
100
AcDb2dVertex
 10
112.6669916385003
 20
214.2842777242066
 30
0.0
  0
VERTEX
  5
585
330
583
100
AcDbEntity
  8
Bema_U+00DFung
 62
     7
420
 16777215
370
     9
100
AcDbVertex
100
AcDb2dVertex
 10
112.2066166386153
 20
210.7840166139705
 30
0.0
  0
VERTEX
  5
586
330
583
100
AcDbEntity
  8
Bema_U+00DFung
 62
     7
420
 16777215
370
     9
100
AcDbVertex
100
AcDb2dVertex
 10
113.1280721939405
 20
210.7840166139705
 30
0.0
  0
VERTEX
  5
587
330
583
100
AcDbEntity
  8
Bema_U+00DFung
 62
     7
420
 16777215
370
     9
100
AcDbVertex
100
AcDb2dVertex
 10
112.6669916385003
 20
214.2842777242066
 30
0.0
  0
SEQEND
  5
588
330
583
100
AcDbEntity
  8
Bema_U+00DFung
 62
     7
420
 16777215
370
     9
  0
POLYLINE
  5
589
330
1F
100
AcDbEntity
  8
Bema_U+00DFung
 62
     7
420
 16777215
370
     9
100
AcDb2dPolyline
 66
     1
 10
0.0
 20
0.0
 30
0.0
  0
VERTEX
  5
58A
330
589
100
AcDbEntity
  8
Bema_U+00DFung
 62
     7
420
 16777215
370
     9
100
AcDbVertex
100
AcDb2dVertex
 10
112.2101444163922
 20
210.7840166139705
 30
0.0
  0
VERTEX
  5
58B
330
589
100
AcDbEntity
  8
Bema_U+00DFung
 62
     7
420
 16777215
370
     9
100
AcDbVertex
100
AcDb2dVertex
 10
112.2101444163922
 20
210.8111805028527
 30
0.0
  0
SEQEND
  5
58C
330
589
100
AcDbEntity
  8
Bema_U+00DFung
 62
     7
420
 16777215
370
     9
  0
POLYLINE
  5
58D
330
1F
100
AcDbEntity
  8
Bema_U+00DFung
 62
     7
420
 16777215
370
     9
100
AcDb2dPolyline
 66
     1
 10
0.0
 20
0.0
 30
0.0
  0
VERTEX
  5
58E
330
58D
100
AcDbEntity
  8
Bema_U+00DFung
 62
     7
420
 16777215
370
     9
100
AcDbVertex
100
AcDb2dVertex
 10
112.2101444163922
 20
210.7840166139705
 30
0.0
  0
VERTEX
  5
58F
330
58D
100
AcDbEntity
  8
Bema_U+00DFung
 62
     7
420
 16777215
370
     9
100
AcDbVertex
100
AcDb2dVertex
 10
112.2101444163922
 20
210.8111805028527
 30
0.0
  0
SEQEND
  5
590
330
58D
100
AcDbEntity
  8
Bema_U+00DFung
 62
     7
420
 16777215
370
     9
  0
POLYLINE
  5
591
330
1F
100
AcDbEntity
  8
Bema_U+00DFung
 62
     7
420
 16777215
370
     9
100
AcDb2dPolyline
 66
     1
 10
0.0
 20
0.0
 30
0.0
  0
VERTEX
  5
592
330
591
100
AcDbEntity
  8
Bema_U+00DFung
 62
     7
420
 16777215
370
     9
100
AcDbVertex
100
AcDb2dVertex
 10
112.2609444163796
 20
210.7840166139705
 30
0.0
  0
VERTEX
  5
593
330
591
100
AcDbEntity
  8
Bema_U+00DFung
 62
     7
420
 16777215
370
     9
100
AcDbVertex
100
AcDb2dVertex
 10
112.2609444163796
 20
211.1974721694227
 30
0.0
  0
SEQEND
  5
594
330
591
100
AcDbEntity
  8
Bema_U+00DFung
 62
     7
420
 16777215
370
     9
  0
POLYLINE
  5
595
330
1F
100
AcDbEntity
  8
Bema_U+00DFung
 62
     7
420
 16777215
370
     9
100
AcDb2dPolyline
 66
     1
 10
0.0
 20
0.0
 30
0.0
  0
VERTEX
  5
596
330
595
100
AcDbEntity
  8
Bema_U+00DFung
 62
     7
420
 16777215
370
     9
100
AcDbVertex
100
AcDb2dVertex
 10
112.3117444163667
 20
210.7840166139705
 30
0.0
  0
VERTEX
  5
597
330
595
100
AcDbEntity
  8
Bema_U+00DFung
 62
     7
420
 16777215
370
     9
100
AcDbVertex
100
AcDb2dVertex
 10
112.3117444163667
 20
211.5830582804374
 30
0.0
  0
SEQEND
  5
598
330
595
100
AcDbEntity
  8
Bema_U+00DFung
 62
     7
420
 16777215
370
     9
  0
POLYLINE
  5
599
330
1F
100
AcDbEntity
  8
Bema_U+00DFung
 62
     7
420
 16777215
370
     9
100
AcDb2dPolyline
 66
     1
 10
0.0
 20
0.0
 30
0.0
  0
VERTEX
  5
59A
330
599
100
AcDbEntity
  8
Bema_U+00DFung
 62
     7
420
 16777215
370
     9
100
AcDbVertex
100
AcDb2dVertex
 10
112.3625444163541
 20
210.7840166139705
 30
0.0
  0
VERTEX
  5
59B
330
599
100
AcDbEntity
  8
Bema_U+00DFung
 62
     7
420
 16777215
370
     9
100
AcDbVertex
100
AcDb2dVertex
 10
112.3625444163541
 20
211.9693499470076
 30
0.0
  0
SEQEND
  5
59C
330
599
100
AcDbEntity
  8
Bema_U+00DFung
 62
     7
420
 16777215
370
     9
  0
POLYLINE
  5
59D
330
1F
100
AcDbEntity
  8
Bema_U+00DFung
 62
     7
420
 16777215
370
     9
100
AcDb2dPolyline
 66
     1
 10
0.0
 20
0.0
 30
0.0
  0
VERTEX
  5
59E
330
59D
100
AcDbEntity
  8
Bema_U+00DFung
 62
     7
420
 16777215
370
     9
100
AcDbVertex
100
AcDb2dVertex
 10
112.4133444163414
 20
210.7840166139705
 30
0.0
  0
VERTEX
  5
59F
330
59D
100
AcDbEntity
  8
Bema_U+00DFung
 62
     7
420
 16777215
370
     9
100
AcDbVertex
100
AcDb2dVertex
 10
112.4133444163414
 20
212.3545832802446
 30
0.0
  0
SEQEND
  5
5A0
330
59D
100
AcDbEntity
  8
Bema_U+00DFung
 62
     7
420
 16777215
370
     9
  0
POLYLINE
  5
5A1
330
1F
100
AcDbEntity
  8
Bema_U+00DFung
 62
     7
420
 16777215
370
     9
100
AcDb2dPolyline
 66
     1
 10
0.0
 20
0.0
 30
0.0
  0
VERTEX
  5
5A2
330
5A1
100
AcDbEntity
  8
Bema_U+00DFung
 62
     7
420
 16777215
370
     9
100
AcDbVertex
100
AcDb2dVertex
 10
112.4637916385511
 20
210.7840166139705
 30
0.0
  0
VERTEX
  5
5A3
330
5A1
100
AcDbEntity
  8
Bema_U+00DFung
 62
     7
420
 16777215
370
     9
100
AcDbVertex
100
AcDb2dVertex
 10
112.4637916385511
 20
212.7408749468146
 30
0.0
  0
SEQEND
  5
5A4
330
5A1
100
AcDbEntity
  8
Bema_U+00DFung
 62
     7
420
 16777215
370
     9
  0
POLYLINE
  5
5A5
330
1F
100
AcDbEntity
  8
Bema_U+00DFung
 62
     7
420
 16777215
370
     9
100
AcDb2dPolyline
 66
     1
 10
0.0
 20
0.0
 30
0.0
  0
VERTEX
  5
5A6
330
5A5
100
AcDbEntity
  8
Bema_U+00DFung
 62
     7
420
 16777215
370
     9
100
AcDbVertex
100
AcDb2dVertex
 10
112.5145916385381
 20
210.7840166139705
 30
0.0
  0
VERTEX
  5
5A7
330
5A5
100
AcDbEntity
  8
Bema_U+00DFung
 62
     7
420
 16777215
370
     9
100
AcDbVertex
100
AcDb2dVertex
 10
112.5145916385381
 20
213.1264610578293
 30
0.0
  0
SEQEND
  5
5A8
330
5A5
100
AcDbEntity
  8
Bema_U+00DFung
 62
     7
420
 16777215
370
     9
  0
POLYLINE
  5
5A9
330
1F
100
AcDbEntity
  8
Bema_U+00DFung
 62
     7
420
 16777215
370
     9
100
AcDb2dPolyline
 66
     1
 10
0.0
 20
0.0
 30
0.0
  0
VERTEX
  5
5AA
330
5A9
100
AcDbEntity
  8
Bema_U+00DFung
 62
     7
420
 16777215
370
     9
100
AcDbVertex
100
AcDb2dVertex
 10
112.5653916385255
 20
210.7840166139705
 30
0.0
  0
VERTEX
  5
5AB
330
5A9
100
AcDbEntity
  8
Bema_U+00DFung
 62
     7
420
 16777215
370
     9
100
AcDbVertex
100
AcDb2dVertex
 10
112.5653916385255
 20
213.5127527243995
 30
0.0
  0
SEQEND
  5
5AC
330
5A9
100
AcDbEntity
  8
Bema_U+00DFung
 62
     7
420
 16777215
370
     9
  0
POLYLINE
  5
5AD
330
1F
100
AcDbEntity
  8
Bema_U+00DFung
 62
     7
420
 16777215
370
     9
100
AcDb2dPolyline
 66
     1
 10
0.0
 20
0.0
 30
0.0
  0
VERTEX
  5
5AE
330
5AD
100
AcDbEntity
  8
Bema_U+00DFung
 62
     7
420
 16777215
370
     9
100
AcDbVertex
100
AcDb2dVertex
 10
112.6161916385129
 20
210.7840166139705
 30
0.0
  0
VERTEX
  5
5AF
330
5AD
100
AcDbEntity
  8
Bema_U+00DFung
 62
     7
420
 16777215
370
     9
100
AcDbVertex
100
AcDb2dVertex
 10
112.6161916385129
 20
213.8983388354142
 30
0.0
  0
SEQEND
  5
5B0
330
5AD
100
AcDbEntity
  8
Bema_U+00DFung
 62
     7
420
 16777215
370
     9
  0
POLYLINE
  5
5B1
330
1F
100
AcDbEntity
  8
Bema_U+00DFung
 62
     7
420
 16777215
370
     9
100
AcDb2dPolyline
 66
     1
 10
0.0
 20
0.0
 30
0.0
  0
VERTEX
  5
5B2
330
5B1
100
AcDbEntity
  8
Bema_U+00DFung
 62
     7
420
 16777215
370
     9
100
AcDbVertex
100
AcDb2dVertex
 10
112.6669916385003
 20
210.7840166139705
 30
0.0
  0
VERTEX
  5
5B3
330
5B1
100
AcDbEntity
  8
Bema_U+00DFung
 62
     7
420
 16777215
370
     9
100
AcDbVertex
100
AcDb2dVertex
 10
112.6669916385003
 20
214.2842777242066
 30
0.0
  0
SEQEND
  5
5B4
330
5B1
100
AcDbEntity
  8
Bema_U+00DFung
 62
     7
420
 16777215
370
     9
  0
POLYLINE
  5
5B5
330
1F
100
AcDbEntity
  8
Bema_U+00DFung
 62
     7
420
 16777215
370
     9
100
AcDb2dPolyline
 66
     1
 10
0.0
 20
0.0
 30
0.0
  0
VERTEX
  5
5B6
330
5B5
100
AcDbEntity
  8
Bema_U+00DFung
 62
     7
420
 16777215
370
     9
100
AcDbVertex
100
AcDb2dVertex
 10
113.1245444161635
 20
210.7840166139705
 30
0.0
  0
VERTEX
  5
5B7
330
5B5
100
AcDbEntity
  8
Bema_U+00DFung
 62
     7
420
 16777215
370
     9
100
AcDbVertex
100
AcDb2dVertex
 10
113.1245444161635
 20
210.8111805028527
 30
0.0
  0
SEQEND
  5
5B8
330
5B5
100
AcDbEntity
  8
Bema_U+00DFung
 62
     7
420
 16777215
370
     9
  0
POLYLINE
  5
5B9
330
1F
100
AcDbEntity
  8
Bema_U+00DFung
 62
     7
420
 16777215
370
     9
100
AcDb2dPolyline
 66
     1
 10
0.0
 20
0.0
 30
0.0
  0
VERTEX
  5
5BA
330
5B9
100
AcDbEntity
  8
Bema_U+00DFung
 62
     7
420
 16777215
370
     9
100
AcDbVertex
100
AcDb2dVertex
 10
113.1245444161635
 20
210.7840166139705
 30
0.0
  0
VERTEX
  5
5BB
330
5B9
100
AcDbEntity
  8
Bema_U+00DFung
 62
     7
420
 16777215
370
     9
100
AcDbVertex
100
AcDb2dVertex
 10
113.1245444161635
 20
210.8111805028527
 30
0.0
  0
SEQEND
  5
5BC
330
5B9
100
AcDbEntity
  8
Bema_U+00DFung
 62
     7
420
 16777215
370
     9
  0
POLYLINE
  5
5BD
330
1F
100
AcDbEntity
  8
Bema_U+00DFung
 62
     7
420
 16777215
370
     9
100
AcDb2dPolyline
 66
     1
 10
0.0
 20
0.0
 30
0.0
  0
VERTEX
  5
5BE
330
5BD
100
AcDbEntity
  8
Bema_U+00DFung
 62
     7
420
 16777215
370
     9
100
AcDbVertex
100
AcDb2dVertex
 10
113.0737444161761
 20
210.7840166139705
 30
0.0
  0
VERTEX
  5
5BF
330
5BD
100
AcDbEntity
  8
Bema_U+00DFung
 62
     7
420
 16777215
370
     9
100
AcDbVertex
100
AcDb2dVertex
 10
113.0737444161761
 20
211.1974721694227
 30
0.0
  0
SEQEND
  5
5C0
330
5BD
100
AcDbEntity
  8
Bema_U+00DFung
 62
     7
420
 16777215
370
     9
  0
POLYLINE
  5
5C1
330
1F
100
AcDbEntity
  8
Bema_U+00DFung
 62
     7
420
 16777215
370
     9
100
AcDb2dPolyline
 66
     1
 10
0.0
 20
0.0
 30
0.0
  0
VERTEX
  5
5C2
330
5C1
100
AcDbEntity
  8
Bema_U+00DFung
 62
     7
420
 16777215
370
     9
100
AcDbVertex
100
AcDb2dVertex
 10
113.0229444161891
 20
210.7840166139705
 30
0.0
  0
VERTEX
  5
5C3
330
5C1
100
AcDbEntity
  8
Bema_U+00DFung
 62
     7
420
 16777215
370
     9
100
AcDbVertex
100
AcDb2dVertex
 10
113.0229444161891
 20
211.5830582804374
 30
0.0
  0
SEQEND
  5
5C4
330
5C1
100
AcDbEntity
  8
Bema_U+00DFung
 62
     7
420
 16777215
370
     9
  0
POLYLINE
  5
5C5
330
1F
100
AcDbEntity
  8
Bema_U+00DFung
 62
     7
420
 16777215
370
     9
100
AcDb2dPolyline
 66
     1
 10
0.0
 20
0.0
 30
0.0
  0
VERTEX
  5
5C6
330
5C5
100
AcDbEntity
  8
Bema_U+00DFung
 62
     7
420
 16777215
370
     9
100
AcDbVertex
100
AcDb2dVertex
 10
112.9721444162017
 20
210.7840166139705
 30
0.0
  0
VERTEX
  5
5C7
330
5C5
100
AcDbEntity
  8
Bema_U+00DFung
 62
     7
420
 16777215
370
     9
100
AcDbVertex
100
AcDb2dVertex
 10
112.9721444162017
 20
211.9693499470076
 30
0.0
  0
SEQEND
  5
5C8
330
5C5
100
AcDbEntity
  8
Bema_U+00DFung
 62
     7
420
 16777215
370
     9
  0
POLYLINE
  5
5C9
330
1F
100
AcDbEntity
  8
Bema_U+00DFung
 62
     7
420
 16777215
370
     9
100
AcDb2dPolyline
 66
     1
 10
0.0
 20
0.0
 30
0.0
  0
VERTEX
  5
5CA
330
5C9
100
AcDbEntity
  8
Bema_U+00DFung
 62
     7
420
 16777215
370
     9
100
AcDbVertex
100
AcDb2dVertex
 10
112.9209916384365
 20
210.7840166139705
 30
0.0
  0
VERTEX
  5
5CB
330
5C9
100
AcDbEntity
  8
Bema_U+00DFung
 62
     7
420
 16777215
370
     9
100
AcDbVertex
100
AcDb2dVertex
 10
112.9209916384365
 20
212.3545832802446
 30
0.0
  0
SEQEND
  5
5CC
330
5C9
100
AcDbEntity
  8
Bema_U+00DFung
 62
     7
420
 16777215
370
     9
  0
POLYLINE
  5
5CD
330
1F
100
AcDbEntity
  8
Bema_U+00DFung
 62
     7
420
 16777215
370
     9
100
AcDb2dPolyline
 66
     1
 10
0.0
 20
0.0
 30
0.0
  0
VERTEX
  5
5CE
330
5CD
100
AcDbEntity
  8
Bema_U+00DFung
 62
     7
420
 16777215
370
     9
100
AcDbVertex
100
AcDb2dVertex
 10
112.8701916384495
 20
210.7840166139705
 30
0.0
  0
VERTEX
  5
5CF
330
5CD
100
AcDbEntity
  8
Bema_U+00DFung
 62
     7
420
 16777215
370
     9
100
AcDbVertex
100
AcDb2dVertex
 10
112.8701916384495
 20
212.7408749468146
 30
0.0
  0
SEQEND
  5
5D0
330
5CD
100
AcDbEntity
  8
Bema_U+00DFung
 62
     7
420
 16777215
370
     9
  0
POLYLINE
  5
5D1
330
1F
100
AcDbEntity
  8
Bema_U+00DFung
 62
     7
420
 16777215
370
     9
100
AcDb2dPolyline
 66
     1
 10
0.0
 20
0.0
 30
0.0
  0
VERTEX
  5
5D2
330
5D1
100
AcDbEntity
  8
Bema_U+00DFung
 62
     7
420
 16777215
370
     9
100
AcDbVertex
100
AcDb2dVertex
 10
112.8193916384621
 20
210.7840166139705
 30
0.0
  0
VERTEX
  5
5D3
330
5D1
100
AcDbEntity
  8
Bema_U+00DFung
 62
     7
420
 16777215
370
     9
100
AcDbVertex
100
AcDb2dVertex
 10
112.8193916384621
 20
213.1264610578293
 30
0.0
  0
SEQEND
  5
5D4
330
5D1
100
AcDbEntity
  8
Bema_U+00DFung
 62
     7
420
 16777215
370
     9
  0
POLYLINE
  5
5D5
330
1F
100
AcDbEntity
  8
Bema_U+00DFung
 62
     7
420
 16777215
370
     9
100
AcDb2dPolyline
 66
     1
 10
0.0
 20
0.0
 30
0.0
  0
VERTEX
  5
5D6
330
5D5
100
AcDbEntity
  8
Bema_U+00DFung
 62
     7
420
 16777215
370
     9
100
AcDbVertex
100
AcDb2dVertex
 10
112.7685916384747
 20
210.7840166139705
 30
0.0
  0
VERTEX
  5
5D7
330
5D5
100
AcDbEntity
  8
Bema_U+00DFung
 62
     7
420
 16777215
370
     9
100
AcDbVertex
100
AcDb2dVertex
 10
112.7685916384747
 20
213.5127527243995
 30
0.0
  0
SEQEND
  5
5D8
330
5D5
100
AcDbEntity
  8
Bema_U+00DFung
 62
     7
420
 16777215
370
     9
  0
POLYLINE
  5
5D9
330
1F
100
AcDbEntity
  8
Bema_U+00DFung
 62
     7
420
 16777215
370
     9
100
AcDb2dPolyline
 66
     1
 10
0.0
 20
0.0
 30
0.0
  0
VERTEX
  5
5DA
330
5D9
100
AcDbEntity
  8
Bema_U+00DFung
 62
     7
420
 16777215
370
     9
100
AcDbVertex
100
AcDb2dVertex
 10
112.7177916384873
 20
210.7840166139705
 30
0.0
  0
VERTEX
  5
5DB
330
5D9
100
AcDbEntity
  8
Bema_U+00DFung
 62
     7
420
 16777215
370
     9
100
AcDbVertex
100
AcDb2dVertex
 10
112.7177916384873
 20
213.8983388354142
 30
0.0
  0
SEQEND
  5
5DC
330
5D9
100
AcDbEntity
  8
Bema_U+00DFung
 62
     7
420
 16777215
370
     9
  0
POLYLINE
  5
5DD
330
1F
100
AcDbEntity
  8
Bema_U+00DFung
 62
     7
420
 16777215
370
     9
100
AcDb2dPolyline
 66
     1
 10
0.0
 20
0.0
 30
0.0
  0
VERTEX
  5
5DE
330
5DD
100
AcDbEntity
  8
Bema_U+00DFung
 62
     7
420
 16777215
370
     9
100
AcDbVertex
100
AcDb2dVertex
 10
112.6669916385003
 20
210.7840166139705
 30
0.0
  0
VERTEX
  5
5DF
330
5DD
100
AcDbEntity
  8
Bema_U+00DFung
 62
     7
420
 16777215
370
     9
100
AcDbVertex
100
AcDb2dVertex
 10
112.6669916385003
 20
214.2842777242066
 30
0.0
  0
SEQEND
  5
5E0
330
5DD
100
AcDbEntity
  8
Bema_U+00DFung
 62
     7
420
 16777215
370
     9
  0
POLYLINE
  5
5E1
330
1F
100
AcDbEntity
  8
Bema_U+00DFung
 62
     7
420
 16777215
370
     9
100
AcDb2dPolyline
 66
     1
 10
0.0
 20
0.0
 30
0.0
  0
VERTEX
  5
5E2
330
5E1
100
AcDbEntity
  8
Bema_U+00DFung
 62
     7
420
 16777215
370
     9
100
AcDbVertex
100
AcDb2dVertex
 10
-3.18099722142659
 20
234.1061554970289
 30
0.0
  0
VERTEX
  5
5E3
330
5E1
100
AcDbEntity
  8
Bema_U+00DFung
 62
     7
420
 16777215
370
     9
100
AcDbVertex
100
AcDb2dVertex
 10
-3.18099722142659
 20
172.3907406976432
 30
0.0
  0
SEQEND
  5
5E4
330
5E1
100
AcDbEntity
  8
Bema_U+00DFung
 62
     7
420
 16777215
370
     9
  0
POLYLINE
  5
5E5
330
1F
100
AcDbEntity
  8
Bema_U+00DFung
 62
     7
420
 16777215
370
     9
100
AcDb2dPolyline
 66
     1
 10
0.0
 20
0.0
 30
0.0
  0
VERTEX
  5
5E6
330
5E5
100
AcDbEntity
  8
Bema_U+00DFung
 62
     7
420
 16777215
370
     9
100
AcDbVertex
100
AcDb2dVertex
 10
-3.18099722142659
 20
174.8894041446455
 30
0.0
  0
VERTEX
  5
5E7
330
5E5
100
AcDbEntity
  8
Bema_U+00DFung
 62
     7
420
 16777215
370
     9
100
AcDbVertex
100
AcDb2dVertex
 10
36.81871110190657
 20
174.8894041446455
 30
0.0
  0
SEQEND
  5
5E8
330
5E5
100
AcDbEntity
  8
Bema_U+00DFung
 62
     7
420
 16777215
370
     9
  0
POLYLINE
  5
5E9
330
1F
100
AcDbEntity
  8
Bema_U+00DFung
 62
     7
420
 16777215
370
     9
100
AcDb2dPolyline
 66
     1
 10
0.0
 20
0.0
 30
0.0
  0
VERTEX
  5
5EA
330
5E9
100
AcDbEntity
  8
Bema_U+00DFung
 62
     7
420
 16777215
370
     9
100
AcDbVertex
100
AcDb2dVertex
 10
-3.18099722142659
 20
174.8894041446455
 30
0.0
  0
VERTEX
  5
5EB
330
5E9
100
AcDbEntity
  8
Bema_U+00DFung
 62
     7
420
 16777215
370
     9
100
AcDbVertex
100
AcDb2dVertex
 10
0.319263888809304
 20
174.4286763669831
 30
0.0
  0
VERTEX
  5
5EC
330
5E9
100
AcDbEntity
  8
Bema_U+00DFung
 62
     7
420
 16777215
370
     9
100
AcDbVertex
100
AcDb2dVertex
 10
0.319263888809304
 20
175.3497791445305
 30
0.0
  0
VERTEX
  5
5ED
330
5E9
100
AcDbEntity
  8
Bema_U+00DFung
 62
     7
420
 16777215
370
     9
100
AcDbVertex
100
AcDb2dVertex
 10
-3.18099722142659
 20
174.8894041446455
 30
0.0
  0
SEQEND
  5
5EE
330
5E9
100
AcDbEntity
  8
Bema_U+00DFung
 62
     7
420
 16777215
370
     9
  0
POLYLINE
  5
5EF
330
1F
100
AcDbEntity
  8
Bema_U+00DFung
 62
     7
420
 16777215
370
     9
100
AcDb2dPolyline
 66
     1
 10
0.0
 20
0.0
 30
0.0
  0
VERTEX
  5
5F0
330
5EF
100
AcDbEntity
  8
Bema_U+00DFung
 62
     7
420
 16777215
370
     9
100
AcDbVertex
100
AcDb2dVertex
 10
0.319263888809304
 20
174.4318513669823
 30
0.0
  0
VERTEX
  5
5F1
330
5EF
100
AcDbEntity
  8
Bema_U+00DFung
 62
     7
420
 16777215
370
     9
100
AcDbVertex
100
AcDb2dVertex
 10
0.2917472221496858
 20
174.4318513669823
 30
0.0
  0
SEQEND
  5
5F2
330
5EF
100
AcDbEntity
  8
Bema_U+00DFung
 62
     7
420
 16777215
370
     9
  0
POLYLINE
  5
5F3
330
1F
100
AcDbEntity
  8
Bema_U+00DFung
 62
     7
420
 16777215
370
     9
100
AcDb2dPolyline
 66
     1
 10
0.0
 20
0.0
 30
0.0
  0
VERTEX
  5
5F4
330
5F3
100
AcDbEntity
  8
Bema_U+00DFung
 62
     7
420
 16777215
370
     9
100
AcDbVertex
100
AcDb2dVertex
 10
0.319263888809304
 20
174.4318513669823
 30
0.0
  0
VERTEX
  5
5F5
330
5F3
100
AcDbEntity
  8
Bema_U+00DFung
 62
     7
420
 16777215
370
     9
100
AcDbVertex
100
AcDb2dVertex
 10
0.2917472221496858
 20
174.4318513669823
 30
0.0
  0
SEQEND
  5
5F6
330
5F3
100
AcDbEntity
  8
Bema_U+00DFung
 62
     7
420
 16777215
370
     9
  0
POLYLINE
  5
5F7
330
1F
100
AcDbEntity
  8
Bema_U+00DFung
 62
     7
420
 16777215
370
     9
100
AcDb2dPolyline
 66
     1
 10
0.0
 20
0.0
 30
0.0
  0
VERTEX
  5
5F8
330
5F7
100
AcDbEntity
  8
Bema_U+00DFung
 62
     7
420
 16777215
370
     9
100
AcDbVertex
100
AcDb2dVertex
 10
0.319263888809304
 20
174.4826513669697
 30
0.0
  0
VERTEX
  5
5F9
330
5F7
100
AcDbEntity
  8
Bema_U+00DFung
 62
     7
420
 16777215
370
     9
100
AcDbVertex
100
AcDb2dVertex
 10
-0.0941916666427363
 20
174.4826513669697
 30
0.0
  0
SEQEND
  5
5FA
330
5F7
100
AcDbEntity
  8
Bema_U+00DFung
 62
     7
420
 16777215
370
     9
  0
POLYLINE
  5
5FB
330
1F
100
AcDbEntity
  8
Bema_U+00DFung
 62
     7
420
 16777215
370
     9
100
AcDb2dPolyline
 66
     1
 10
0.0
 20
0.0
 30
0.0
  0
VERTEX
  5
5FC
330
5FB
100
AcDbEntity
  8
Bema_U+00DFung
 62
     7
420
 16777215
370
     9
100
AcDbVertex
100
AcDb2dVertex
 10
0.319263888809304
 20
174.5338041447345
 30
0.0
  0
VERTEX
  5
5FD
330
5FB
100
AcDbEntity
  8
Bema_U+00DFung
 62
     7
420
 16777215
370
     9
100
AcDbVertex
100
AcDb2dVertex
 10
-0.4801305554351585
 20
174.5338041447345
 30
0.0
  0
SEQEND
  5
5FE
330
5FB
100
AcDbEntity
  8
Bema_U+00DFung
 62
     7
420
 16777215
370
     9
  0
POLYLINE
  5
5FF
330
1F
100
AcDbEntity
  8
Bema_U+00DFung
 62
     7
420
 16777215
370
     9
100
AcDb2dPolyline
 66
     1
 10
0.0
 20
0.0
 30
0.0
  0
VERTEX
  5
600
330
5FF
100
AcDbEntity
  8
Bema_U+00DFung
 62
     7
420
 16777215
370
     9
100
AcDbVertex
100
AcDb2dVertex
 10
0.319263888809304
 20
174.5846041447216
 30
0.0
  0
VERTEX
  5
601
330
5FF
100
AcDbEntity
  8
Bema_U+00DFung
 62
     7
420
 16777215
370
     9
100
AcDbVertex
100
AcDb2dVertex
 10
-0.86571666645014
 20
174.5846041447216
 30
0.0
  0
SEQEND
  5
602
330
5FF
100
AcDbEntity
  8
Bema_U+00DFung
 62
     7
420
 16777215
370
     9
  0
POLYLINE
  5
603
330
1F
100
AcDbEntity
  8
Bema_U+00DFung
 62
     7
420
 16777215
370
     9
100
AcDb2dPolyline
 66
     1
 10
0.0
 20
0.0
 30
0.0
  0
VERTEX
  5
604
330
603
100
AcDbEntity
  8
Bema_U+00DFung
 62
     7
420
 16777215
370
     9
100
AcDbVertex
100
AcDb2dVertex
 10
0.319263888809304
 20
174.635404144709
 30
0.0
  0
VERTEX
  5
605
330
603
100
AcDbEntity
  8
Bema_U+00DFung
 62
     7
420
 16777215
370
     9
100
AcDbVertex
100
AcDb2dVertex
 10
-1.251655555242241
 20
174.635404144709
 30
0.0
  0
SEQEND
  5
606
330
603
100
AcDbEntity
  8
Bema_U+00DFung
 62
     7
420
 16777215
370
     9
  0
POLYLINE
  5
607
330
1F
100
AcDbEntity
  8
Bema_U+00DFung
 62
     7
420
 16777215
370
     9
100
AcDb2dPolyline
 66
     1
 10
0.0
 20
0.0
 30
0.0
  0
VERTEX
  5
608
330
607
100
AcDbEntity
  8
Bema_U+00DFung
 62
     7
420
 16777215
370
     9
100
AcDbVertex
100
AcDb2dVertex
 10
0.319263888809304
 20
174.6862041446963
 30
0.0
  0
VERTEX
  5
609
330
607
100
AcDbEntity
  8
Bema_U+00DFung
 62
     7
420
 16777215
370
     9
100
AcDbVertex
100
AcDb2dVertex
 10
-1.637594444034663
 20
174.6862041446963
 30
0.0
  0
SEQEND
  5
60A
330
607
100
AcDbEntity
  8
Bema_U+00DFung
 62
     7
420
 16777215
370
     9
  0
POLYLINE
  5
60B
330
1F
100
AcDbEntity
  8
Bema_U+00DFung
 62
     7
420
 16777215
370
     9
100
AcDb2dPolyline
 66
     1
 10
0.0
 20
0.0
 30
0.0
  0
VERTEX
  5
60C
330
60B
100
AcDbEntity
  8
Bema_U+00DFung
 62
     7
420
 16777215
370
     9
100
AcDbVertex
100
AcDb2dVertex
 10
0.319263888809304
 20
174.7370041446837
 30
0.0
  0
VERTEX
  5
60D
330
60B
100
AcDbEntity
  8
Bema_U+00DFung
 62
     7
420
 16777215
370
     9
100
AcDbVertex
100
AcDb2dVertex
 10
-2.023533332827085
 20
174.7370041446837
 30
0.0
  0
SEQEND
  5
60E
330
60B
100
AcDbEntity
  8
Bema_U+00DFung
 62
     7
420
 16777215
370
     9
  0
POLYLINE
  5
60F
330
1F
100
AcDbEntity
  8
Bema_U+00DFung
 62
     7
420
 16777215
370
     9
100
AcDb2dPolyline
 66
     1
 10
0.0
 20
0.0
 30
0.0
  0
VERTEX
  5
610
330
60F
100
AcDbEntity
  8
Bema_U+00DFung
 62
     7
420
 16777215
370
     9
100
AcDbVertex
100
AcDb2dVertex
 10
0.319263888809304
 20
174.7878041446711
 30
0.0
  0
VERTEX
  5
611
330
60F
100
AcDbEntity
  8
Bema_U+00DFung
 62
     7
420
 16777215
370
     9
100
AcDbVertex
100
AcDb2dVertex
 10
-2.409119443842067
 20
174.7878041446711
 30
0.0
  0
SEQEND
  5
612
330
60F
100
AcDbEntity
  8
Bema_U+00DFung
 62
     7
420
 16777215
370
     9
  0
POLYLINE
  5
613
330
1F
100
AcDbEntity
  8
Bema_U+00DFung
 62
     7
420
 16777215
370
     9
100
AcDb2dPolyline
 66
     1
 10
0.0
 20
0.0
 30
0.0
  0
VERTEX
  5
614
330
613
100
AcDbEntity
  8
Bema_U+00DFung
 62
     7
420
 16777215
370
     9
100
AcDbVertex
100
AcDb2dVertex
 10
0.319263888809304
 20
174.8386041446585
 30
0.0
  0
VERTEX
  5
615
330
613
100
AcDbEntity
  8
Bema_U+00DFung
 62
     7
420
 16777215
370
     9
100
AcDbVertex
100
AcDb2dVertex
 10
-2.795058332634168
 20
174.8386041446585
 30
0.0
  0
SEQEND
  5
616
330
613
100
AcDbEntity
  8
Bema_U+00DFung
 62
     7
420
 16777215
370
     9
  0
POLYLINE
  5
617
330
1F
100
AcDbEntity
  8
Bema_U+00DFung
 62
     7
420
 16777215
370
     9
100
AcDb2dPolyline
 66
     1
 10
0.0
 20
0.0
 30
0.0
  0
VERTEX
  5
618
330
617
100
AcDbEntity
  8
Bema_U+00DFung
 62
     7
420
 16777215
370
     9
100
AcDbVertex
100
AcDb2dVertex
 10
0.319263888809304
 20
174.8894041446455
 30
0.0
  0
VERTEX
  5
619
330
617
100
AcDbEntity
  8
Bema_U+00DFung
 62
     7
420
 16777215
370
     9
100
AcDbVertex
100
AcDb2dVertex
 10
-3.18099722142659
 20
174.8894041446455
 30
0.0
  0
SEQEND
  5
61A
330
617
100
AcDbEntity
  8
Bema_U+00DFung
 62
     7
420
 16777215
370
     9
  0
POLYLINE
  5
61B
330
1F
100
AcDbEntity
  8
Bema_U+00DFung
 62
     7
420
 16777215
370
     9
100
AcDb2dPolyline
 66
     1
 10
0.0
 20
0.0
 30
0.0
  0
VERTEX
  5
61C
330
61B
100
AcDbEntity
  8
Bema_U+00DFung
 62
     7
420
 16777215
370
     9
100
AcDbVertex
100
AcDb2dVertex
 10
0.319263888809304
 20
175.3462513667536
 30
0.0
  0
VERTEX
  5
61D
330
61B
100
AcDbEntity
  8
Bema_U+00DFung
 62
     7
420
 16777215
370
     9
100
AcDbVertex
100
AcDb2dVertex
 10
0.2917472221496858
 20
175.3462513667536
 30
0.0
  0
SEQEND
  5
61E
330
61B
100
AcDbEntity
  8
Bema_U+00DFung
 62
     7
420
 16777215
370
     9
  0
POLYLINE
  5
61F
330
1F
100
AcDbEntity
  8
Bema_U+00DFung
 62
     7
420
 16777215
370
     9
100
AcDb2dPolyline
 66
     1
 10
0.0
 20
0.0
 30
0.0
  0
VERTEX
  5
620
330
61F
100
AcDbEntity
  8
Bema_U+00DFung
 62
     7
420
 16777215
370
     9
100
AcDbVertex
100
AcDb2dVertex
 10
0.319263888809304
 20
175.3462513667536
 30
0.0
  0
VERTEX
  5
621
330
61F
100
AcDbEntity
  8
Bema_U+00DFung
 62
     7
420
 16777215
370
     9
100
AcDbVertex
100
AcDb2dVertex
 10
0.2917472221496858
 20
175.3462513667536
 30
0.0
  0
SEQEND
  5
622
330
61F
100
AcDbEntity
  8
Bema_U+00DFung
 62
     7
420
 16777215
370
     9
  0
POLYLINE
  5
623
330
1F
100
AcDbEntity
  8
Bema_U+00DFung
 62
     7
420
 16777215
370
     9
100
AcDb2dPolyline
 66
     1
 10
0.0
 20
0.0
 30
0.0
  0
VERTEX
  5
624
330
623
100
AcDbEntity
  8
Bema_U+00DFung
 62
     7
420
 16777215
370
     9
100
AcDbVertex
100
AcDb2dVertex
 10
0.319263888809304
 20
175.2954513667662
 30
0.0
  0
VERTEX
  5
625
330
623
100
AcDbEntity
  8
Bema_U+00DFung
 62
     7
420
 16777215
370
     9
100
AcDbVertex
100
AcDb2dVertex
 10
-0.0941916666427363
 20
175.2954513667662
 30
0.0
  0
SEQEND
  5
626
330
623
100
AcDbEntity
  8
Bema_U+00DFung
 62
     7
420
 16777215
370
     9
  0
POLYLINE
  5
627
330
1F
100
AcDbEntity
  8
Bema_U+00DFung
 62
     7
420
 16777215
370
     9
100
AcDb2dPolyline
 66
     1
 10
0.0
 20
0.0
 30
0.0
  0
VERTEX
  5
628
330
627
100
AcDbEntity
  8
Bema_U+00DFung
 62
     7
420
 16777215
370
     9
100
AcDbVertex
100
AcDb2dVertex
 10
0.319263888809304
 20
175.2446513667792
 30
0.0
  0
VERTEX
  5
629
330
627
100
AcDbEntity
  8
Bema_U+00DFung
 62
     7
420
 16777215
370
     9
100
AcDbVertex
100
AcDb2dVertex
 10
-0.4801305554351585
 20
175.2446513667792
 30
0.0
  0
SEQEND
  5
62A
330
627
100
AcDbEntity
  8
Bema_U+00DFung
 62
     7
420
 16777215
370
     9
  0
POLYLINE
  5
62B
330
1F
100
AcDbEntity
  8
Bema_U+00DFung
 62
     7
420
 16777215
370
     9
100
AcDb2dPolyline
 66
     1
 10
0.0
 20
0.0
 30
0.0
  0
VERTEX
  5
62C
330
62B
100
AcDbEntity
  8
Bema_U+00DFung
 62
     7
420
 16777215
370
     9
100
AcDbVertex
100
AcDb2dVertex
 10
0.319263888809304
 20
175.1938513667918
 30
0.0
  0
VERTEX
  5
62D
330
62B
100
AcDbEntity
  8
Bema_U+00DFung
 62
     7
420
 16777215
370
     9
100
AcDbVertex
100
AcDb2dVertex
 10
-0.86571666645014
 20
175.1938513667918
 30
0.0
  0
SEQEND
  5
62E
330
62B
100
AcDbEntity
  8
Bema_U+00DFung
 62
     7
420
 16777215
370
     9
  0
POLYLINE
  5
62F
330
1F
100
AcDbEntity
  8
Bema_U+00DFung
 62
     7
420
 16777215
370
     9
100
AcDb2dPolyline
 66
     1
 10
0.0
 20
0.0
 30
0.0
  0
VERTEX
  5
630
330
62F
100
AcDbEntity
  8
Bema_U+00DFung
 62
     7
420
 16777215
370
     9
100
AcDbVertex
100
AcDb2dVertex
 10
0.319263888809304
 20
175.1430513668044
 30
0.0
  0
VERTEX
  5
631
330
62F
100
AcDbEntity
  8
Bema_U+00DFung
 62
     7
420
 16777215
370
     9
100
AcDbVertex
100
AcDb2dVertex
 10
-1.251655555242241
 20
175.1430513668044
 30
0.0
  0
SEQEND
  5
632
330
62F
100
AcDbEntity
  8
Bema_U+00DFung
 62
     7
420
 16777215
370
     9
  0
POLYLINE
  5
633
330
1F
100
AcDbEntity
  8
Bema_U+00DFung
 62
     7
420
 16777215
370
     9
100
AcDb2dPolyline
 66
     1
 10
0.0
 20
0.0
 30
0.0
  0
VERTEX
  5
634
330
633
100
AcDbEntity
  8
Bema_U+00DFung
 62
     7
420
 16777215
370
     9
100
AcDbVertex
100
AcDb2dVertex
 10
0.319263888809304
 20
175.092251366817
 30
0.0
  0
VERTEX
  5
635
330
633
100
AcDbEntity
  8
Bema_U+00DFung
 62
     7
420
 16777215
370
     9
100
AcDbVertex
100
AcDb2dVertex
 10
-1.637594444034663
 20
175.092251366817
 30
0.0
  0
SEQEND
  5
636
330
633
100
AcDbEntity
  8
Bema_U+00DFung
 62
     7
420
 16777215
370
     9
  0
POLYLINE
  5
637
330
1F
100
AcDbEntity
  8
Bema_U+00DFung
 62
     7
420
 16777215
370
     9
100
AcDb2dPolyline
 66
     1
 10
0.0
 20
0.0
 30
0.0
  0
VERTEX
  5
638
330
637
100
AcDbEntity
  8
Bema_U+00DFung
 62
     7
420
 16777215
370
     9
100
AcDbVertex
100
AcDb2dVertex
 10
0.319263888809304
 20
175.0414513668296
 30
0.0
  0
VERTEX
  5
639
330
637
100
AcDbEntity
  8
Bema_U+00DFung
 62
     7
420
 16777215
370
     9
100
AcDbVertex
100
AcDb2dVertex
 10
-2.023533332827085
 20
175.0414513668296
 30
0.0
  0
SEQEND
  5
63A
330
637
100
AcDbEntity
  8
Bema_U+00DFung
 62
     7
420
 16777215
370
     9
  0
POLYLINE
  5
63B
330
1F
100
AcDbEntity
  8
Bema_U+00DFung
 62
     7
420
 16777215
370
     9
100
AcDb2dPolyline
 66
     1
 10
0.0
 20
0.0
 30
0.0
  0
VERTEX
  5
63C
330
63B
100
AcDbEntity
  8
Bema_U+00DFung
 62
     7
420
 16777215
370
     9
100
AcDbVertex
100
AcDb2dVertex
 10
0.319263888809304
 20
174.99100414462
 30
0.0
  0
VERTEX
  5
63D
330
63B
100
AcDbEntity
  8
Bema_U+00DFung
 62
     7
420
 16777215
370
     9
100
AcDbVertex
100
AcDb2dVertex
 10
-2.409119443842067
 20
174.99100414462
 30
0.0
  0
SEQEND
  5
63E
330
63B
100
AcDbEntity
  8
Bema_U+00DFung
 62
     7
420
 16777215
370
     9
  0
POLYLINE
  5
63F
330
1F
100
AcDbEntity
  8
Bema_U+00DFung
 62
     7
420
 16777215
370
     9
100
AcDb2dPolyline
 66
     1
 10
0.0
 20
0.0
 30
0.0
  0
VERTEX
  5
640
330
63F
100
AcDbEntity
  8
Bema_U+00DFung
 62
     7
420
 16777215
370
     9
100
AcDbVertex
100
AcDb2dVertex
 10
0.319263888809304
 20
174.9402041446329
 30
0.0
  0
VERTEX
  5
641
330
63F
100
AcDbEntity
  8
Bema_U+00DFung
 62
     7
420
 16777215
370
     9
100
AcDbVertex
100
AcDb2dVertex
 10
-2.795058332634168
 20
174.9402041446329
 30
0.0
  0
SEQEND
  5
642
330
63F
100
AcDbEntity
  8
Bema_U+00DFung
 62
     7
420
 16777215
370
     9
  0
POLYLINE
  5
643
330
1F
100
AcDbEntity
  8
Bema_U+00DFung
 62
     7
420
 16777215
370
     9
100
AcDb2dPolyline
 66
     1
 10
0.0
 20
0.0
 30
0.0
  0
VERTEX
  5
644
330
643
100
AcDbEntity
  8
Bema_U+00DFung
 62
     7
420
 16777215
370
     9
100
AcDbVertex
100
AcDb2dVertex
 10
0.319263888809304
 20
174.8894041446455
 30
0.0
  0
VERTEX
  5
645
330
643
100
AcDbEntity
  8
Bema_U+00DFung
 62
     7
420
 16777215
370
     9
100
AcDbVertex
100
AcDb2dVertex
 10
-3.18099722142659
 20
174.8894041446455
 30
0.0
  0
SEQEND
  5
646
330
643
100
AcDbEntity
  8
Bema_U+00DFung
 62
     7
420
 16777215
370
     9
  0
POLYLINE
  5
647
330
1F
100
AcDbEntity
  8
Bema_U+00DFung
 62
     7
420
 16777215
370
     9
100
AcDb2dPolyline
 66
     1
 10
0.0
 20
0.0
 30
0.0
  0
VERTEX
  5
648
330
647
100
AcDbEntity
  8
Bema_U+00DFung
 62
     7
420
 16777215
370
     9
100
AcDbVertex
100
AcDb2dVertex
 10
36.81871110190657
 20
174.8894041446455
 30
0.0
  0
VERTEX
  5
649
330
647
100
AcDbEntity
  8
Bema_U+00DFung
 62
     7
420
 16777215
370
     9
100
AcDbVertex
100
AcDb2dVertex
 10
33.31880276944844
 20
175.3497791445305
 30
0.0
  0
VERTEX
  5
64A
330
647
100
AcDbEntity
  8
Bema_U+00DFung
 62
     7
420
 16777215
370
     9
100
AcDbVertex
100
AcDb2dVertex
 10
33.31880276944844
 20
174.4286763669831
 30
0.0
  0
VERTEX
  5
64B
330
647
100
AcDbEntity
  8
Bema_U+00DFung
 62
     7
420
 16777215
370
     9
100
AcDbVertex
100
AcDb2dVertex
 10
36.81871110190657
 20
174.8894041446455
 30
0.0
  0
SEQEND
  5
64C
330
647
100
AcDbEntity
  8
Bema_U+00DFung
 62
     7
420
 16777215
370
     9
  0
POLYLINE
  5
64D
330
1F
100
AcDbEntity
  8
Bema_U+00DFung
 62
     7
420
 16777215
370
     9
100
AcDb2dPolyline
 66
     1
 10
0.0
 20
0.0
 30
0.0
  0
VERTEX
  5
64E
330
64D
100
AcDbEntity
  8
Bema_U+00DFung
 62
     7
420
 16777215
370
     9
100
AcDbVertex
100
AcDb2dVertex
 10
33.31880276944844
 20
175.3462513667536
 30
0.0
  0
VERTEX
  5
64F
330
64D
100
AcDbEntity
  8
Bema_U+00DFung
 62
     7
420
 16777215
370
     9
100
AcDbVertex
100
AcDb2dVertex
 10
33.3459666583303
 20
175.3462513667536
 30
0.0
  0
SEQEND
  5
650
330
64D
100
AcDbEntity
  8
Bema_U+00DFung
 62
     7
420
 16777215
370
     9
  0
POLYLINE
  5
651
330
1F
100
AcDbEntity
  8
Bema_U+00DFung
 62
     7
420
 16777215
370
     9
100
AcDb2dPolyline
 66
     1
 10
0.0
 20
0.0
 30
0.0
  0
VERTEX
  5
652
330
651
100
AcDbEntity
  8
Bema_U+00DFung
 62
     7
420
 16777215
370
     9
100
AcDbVertex
100
AcDb2dVertex
 10
33.31880276944844
 20
175.3462513667536
 30
0.0
  0
VERTEX
  5
653
330
651
100
AcDbEntity
  8
Bema_U+00DFung
 62
     7
420
 16777215
370
     9
100
AcDbVertex
100
AcDb2dVertex
 10
33.3459666583303
 20
175.3462513667536
 30
0.0
  0
SEQEND
  5
654
330
651
100
AcDbEntity
  8
Bema_U+00DFung
 62
     7
420
 16777215
370
     9
  0
POLYLINE
  5
655
330
1F
100
AcDbEntity
  8
Bema_U+00DFung
 62
     7
420
 16777215
370
     9
100
AcDb2dPolyline
 66
     1
 10
0.0
 20
0.0
 30
0.0
  0
VERTEX
  5
656
330
655
100
AcDbEntity
  8
Bema_U+00DFung
 62
     7
420
 16777215
370
     9
100
AcDbVertex
100
AcDb2dVertex
 10
33.31880276944844
 20
175.2954513667662
 30
0.0
  0
VERTEX
  5
657
330
655
100
AcDbEntity
  8
Bema_U+00DFung
 62
     7
420
 16777215
370
     9
100
AcDbVertex
100
AcDb2dVertex
 10
33.73190554712272
 20
175.2954513667662
 30
0.0
  0
SEQEND
  5
658
330
655
100
AcDbEntity
  8
Bema_U+00DFung
 62
     7
420
 16777215
370
     9
  0
POLYLINE
  5
659
330
1F
100
AcDbEntity
  8
Bema_U+00DFung
 62
     7
420
 16777215
370
     9
100
AcDb2dPolyline
 66
     1
 10
0.0
 20
0.0
 30
0.0
  0
VERTEX
  5
65A
330
659
100
AcDbEntity
  8
Bema_U+00DFung
 62
     7
420
 16777215
370
     9
100
AcDbVertex
100
AcDb2dVertex
 10
33.31880276944844
 20
175.2446513667792
 30
0.0
  0
VERTEX
  5
65B
330
659
100
AcDbEntity
  8
Bema_U+00DFung
 62
     7
420
 16777215
370
     9
100
AcDbVertex
100
AcDb2dVertex
 10
34.11784443591514
 20
175.2446513667792
 30
0.0
  0
SEQEND
  5
65C
330
659
100
AcDbEntity
  8
Bema_U+00DFung
 62
     7
420
 16777215
370
     9
  0
POLYLINE
  5
65D
330
1F
100
AcDbEntity
  8
Bema_U+00DFung
 62
     7
420
 16777215
370
     9
100
AcDb2dPolyline
 66
     1
 10
0.0
 20
0.0
 30
0.0
  0
VERTEX
  5
65E
330
65D
100
AcDbEntity
  8
Bema_U+00DFung
 62
     7
420
 16777215
370
     9
100
AcDbVertex
100
AcDb2dVertex
 10
33.31880276944844
 20
175.1938513667918
 30
0.0
  0
VERTEX
  5
65F
330
65D
100
AcDbEntity
  8
Bema_U+00DFung
 62
     7
420
 16777215
370
     9
100
AcDbVertex
100
AcDb2dVertex
 10
34.50378332470756
 20
175.1938513667918
 30
0.0
  0
SEQEND
  5
660
330
65D
100
AcDbEntity
  8
Bema_U+00DFung
 62
     7
420
 16777215
370
     9
  0
POLYLINE
  5
661
330
1F
100
AcDbEntity
  8
Bema_U+00DFung
 62
     7
420
 16777215
370
     9
100
AcDb2dPolyline
 66
     1
 10
0.0
 20
0.0
 30
0.0
  0
VERTEX
  5
662
330
661
100
AcDbEntity
  8
Bema_U+00DFung
 62
     7
420
 16777215
370
     9
100
AcDbVertex
100
AcDb2dVertex
 10
33.31880276944844
 20
175.1430513668044
 30
0.0
  0
VERTEX
  5
663
330
661
100
AcDbEntity
  8
Bema_U+00DFung
 62
     7
420
 16777215
370
     9
100
AcDbVertex
100
AcDb2dVertex
 10
34.88936943572222
 20
175.1430513668044
 30
0.0
  0
SEQEND
  5
664
330
661
100
AcDbEntity
  8
Bema_U+00DFung
 62
     7
420
 16777215
370
     9
  0
POLYLINE
  5
665
330
1F
100
AcDbEntity
  8
Bema_U+00DFung
 62
     7
420
 16777215
370
     9
100
AcDb2dPolyline
 66
     1
 10
0.0
 20
0.0
 30
0.0
  0
VERTEX
  5
666
330
665
100
AcDbEntity
  8
Bema_U+00DFung
 62
     7
420
 16777215
370
     9
100
AcDbVertex
100
AcDb2dVertex
 10
33.31880276944844
 20
175.092251366817
 30
0.0
  0
VERTEX
  5
667
330
665
100
AcDbEntity
  8
Bema_U+00DFung
 62
     7
420
 16777215
370
     9
100
AcDbVertex
100
AcDb2dVertex
 10
35.27530832451465
 20
175.092251366817
 30
0.0
  0
SEQEND
  5
668
330
665
100
AcDbEntity
  8
Bema_U+00DFung
 62
     7
420
 16777215
370
     9
  0
POLYLINE
  5
669
330
1F
100
AcDbEntity
  8
Bema_U+00DFung
 62
     7
420
 16777215
370
     9
100
AcDb2dPolyline
 66
     1
 10
0.0
 20
0.0
 30
0.0
  0
VERTEX
  5
66A
330
669
100
AcDbEntity
  8
Bema_U+00DFung
 62
     7
420
 16777215
370
     9
100
AcDbVertex
100
AcDb2dVertex
 10
33.31880276944844
 20
175.0414513668296
 30
0.0
  0
VERTEX
  5
66B
330
669
100
AcDbEntity
  8
Bema_U+00DFung
 62
     7
420
 16777215
370
     9
100
AcDbVertex
100
AcDb2dVertex
 10
35.66124721330707
 20
175.0414513668296
 30
0.0
  0
SEQEND
  5
66C
330
669
100
AcDbEntity
  8
Bema_U+00DFung
 62
     7
420
 16777215
370
     9
  0
POLYLINE
  5
66D
330
1F
100
AcDbEntity
  8
Bema_U+00DFung
 62
     7
420
 16777215
370
     9
100
AcDb2dPolyline
 66
     1
 10
0.0
 20
0.0
 30
0.0
  0
VERTEX
  5
66E
330
66D
100
AcDbEntity
  8
Bema_U+00DFung
 62
     7
420
 16777215
370
     9
100
AcDbVertex
100
AcDb2dVertex
 10
33.31880276944844
 20
174.99100414462
 30
0.0
  0
VERTEX
  5
66F
330
66D
100
AcDbEntity
  8
Bema_U+00DFung
 62
     7
420
 16777215
370
     9
100
AcDbVertex
100
AcDb2dVertex
 10
36.04718610209949
 20
174.99100414462
 30
0.0
  0
SEQEND
  5
670
330
66D
100
AcDbEntity
  8
Bema_U+00DFung
 62
     7
420
 16777215
370
     9
  0
POLYLINE
  5
671
330
1F
100
AcDbEntity
  8
Bema_U+00DFung
 62
     7
420
 16777215
370
     9
100
AcDb2dPolyline
 66
     1
 10
0.0
 20
0.0
 30
0.0
  0
VERTEX
  5
672
330
671
100
AcDbEntity
  8
Bema_U+00DFung
 62
     7
420
 16777215
370
     9
100
AcDbVertex
100
AcDb2dVertex
 10
33.31880276944844
 20
174.9402041446329
 30
0.0
  0
VERTEX
  5
673
330
671
100
AcDbEntity
  8
Bema_U+00DFung
 62
     7
420
 16777215
370
     9
100
AcDbVertex
100
AcDb2dVertex
 10
36.43347776866968
 20
174.9402041446329
 30
0.0
  0
SEQEND
  5
674
330
671
100
AcDbEntity
  8
Bema_U+00DFung
 62
     7
420
 16777215
370
     9
  0
POLYLINE
  5
675
330
1F
100
AcDbEntity
  8
Bema_U+00DFung
 62
     7
420
 16777215
370
     9
100
AcDb2dPolyline
 66
     1
 10
0.0
 20
0.0
 30
0.0
  0
VERTEX
  5
676
330
675
100
AcDbEntity
  8
Bema_U+00DFung
 62
     7
420
 16777215
370
     9
100
AcDbVertex
100
AcDb2dVertex
 10
33.31880276944844
 20
174.8894041446455
 30
0.0
  0
VERTEX
  5
677
330
675
100
AcDbEntity
  8
Bema_U+00DFung
 62
     7
420
 16777215
370
     9
100
AcDbVertex
100
AcDb2dVertex
 10
36.81871110190657
 20
174.8894041446455
 30
0.0
  0
SEQEND
  5
678
330
675
100
AcDbEntity
  8
Bema_U+00DFung
 62
     7
420
 16777215
370
     9
  0
POLYLINE
  5
679
330
1F
100
AcDbEntity
  8
Bema_U+00DFung
 62
     7
420
 16777215
370
     9
100
AcDb2dPolyline
 66
     1
 10
0.0
 20
0.0
 30
0.0
  0
VERTEX
  5
67A
330
679
100
AcDbEntity
  8
Bema_U+00DFung
 62
     7
420
 16777215
370
     9
100
AcDbVertex
100
AcDb2dVertex
 10
33.31880276944844
 20
174.4318513669823
 30
0.0
  0
VERTEX
  5
67B
330
679
100
AcDbEntity
  8
Bema_U+00DFung
 62
     7
420
 16777215
370
     9
100
AcDbVertex
100
AcDb2dVertex
 10
33.3459666583303
 20
174.4318513669823
 30
0.0
  0
SEQEND
  5
67C
330
679
100
AcDbEntity
  8
Bema_U+00DFung
 62
     7
420
 16777215
370
     9
  0
POLYLINE
  5
67D
330
1F
100
AcDbEntity
  8
Bema_U+00DFung
 62
     7
420
 16777215
370
     9
100
AcDb2dPolyline
 66
     1
 10
0.0
 20
0.0
 30
0.0
  0
VERTEX
  5
67E
330
67D
100
AcDbEntity
  8
Bema_U+00DFung
 62
     7
420
 16777215
370
     9
100
AcDbVertex
100
AcDb2dVertex
 10
33.31880276944844
 20
174.4318513669823
 30
0.0
  0
VERTEX
  5
67F
330
67D
100
AcDbEntity
  8
Bema_U+00DFung
 62
     7
420
 16777215
370
     9
100
AcDbVertex
100
AcDb2dVertex
 10
33.3459666583303
 20
174.4318513669823
 30
0.0
  0
SEQEND
  5
680
330
67D
100
AcDbEntity
  8
Bema_U+00DFung
 62
     7
420
 16777215
370
     9
  0
POLYLINE
  5
681
330
1F
100
AcDbEntity
  8
Bema_U+00DFung
 62
     7
420
 16777215
370
     9
100
AcDb2dPolyline
 66
     1
 10
0.0
 20
0.0
 30
0.0
  0
VERTEX
  5
682
330
681
100
AcDbEntity
  8
Bema_U+00DFung
 62
     7
420
 16777215
370
     9
100
AcDbVertex
100
AcDb2dVertex
 10
33.31880276944844
 20
174.4826513669697
 30
0.0
  0
VERTEX
  5
683
330
681
100
AcDbEntity
  8
Bema_U+00DFung
 62
     7
420
 16777215
370
     9
100
AcDbVertex
100
AcDb2dVertex
 10
33.73190554712272
 20
174.4826513669697
 30
0.0
  0
SEQEND
  5
684
330
681
100
AcDbEntity
  8
Bema_U+00DFung
 62
     7
420
 16777215
370
     9
  0
POLYLINE
  5
685
330
1F
100
AcDbEntity
  8
Bema_U+00DFung
 62
     7
420
 16777215
370
     9
100
AcDb2dPolyline
 66
     1
 10
0.0
 20
0.0
 30
0.0
  0
VERTEX
  5
686
330
685
100
AcDbEntity
  8
Bema_U+00DFung
 62
     7
420
 16777215
370
     9
100
AcDbVertex
100
AcDb2dVertex
 10
33.31880276944844
 20
174.5338041447345
 30
0.0
  0
VERTEX
  5
687
330
685
100
AcDbEntity
  8
Bema_U+00DFung
 62
     7
420
 16777215
370
     9
100
AcDbVertex
100
AcDb2dVertex
 10
34.11784443591514
 20
174.5338041447345
 30
0.0
  0
SEQEND
  5
688
330
685
100
AcDbEntity
  8
Bema_U+00DFung
 62
     7
420
 16777215
370
     9
  0
POLYLINE
  5
689
330
1F
100
AcDbEntity
  8
Bema_U+00DFung
 62
     7
420
 16777215
370
     9
100
AcDb2dPolyline
 66
     1
 10
0.0
 20
0.0
 30
0.0
  0
VERTEX
  5
68A
330
689
100
AcDbEntity
  8
Bema_U+00DFung
 62
     7
420
 16777215
370
     9
100
AcDbVertex
100
AcDb2dVertex
 10
33.31880276944844
 20
174.5846041447216
 30
0.0
  0
VERTEX
  5
68B
330
689
100
AcDbEntity
  8
Bema_U+00DFung
 62
     7
420
 16777215
370
     9
100
AcDbVertex
100
AcDb2dVertex
 10
34.50378332470756
 20
174.5846041447216
 30
0.0
  0
SEQEND
  5
68C
330
689
100
AcDbEntity
  8
Bema_U+00DFung
 62
     7
420
 16777215
370
     9
  0
POLYLINE
  5
68D
330
1F
100
AcDbEntity
  8
Bema_U+00DFung
 62
     7
420
 16777215
370
     9
100
AcDb2dPolyline
 66
     1
 10
0.0
 20
0.0
 30
0.0
  0
VERTEX
  5
68E
330
68D
100
AcDbEntity
  8
Bema_U+00DFung
 62
     7
420
 16777215
370
     9
100
AcDbVertex
100
AcDb2dVertex
 10
33.31880276944844
 20
174.635404144709
 30
0.0
  0
VERTEX
  5
68F
330
68D
100
AcDbEntity
  8
Bema_U+00DFung
 62
     7
420
 16777215
370
     9
100
AcDbVertex
100
AcDb2dVertex
 10
34.88936943572222
 20
174.635404144709
 30
0.0
  0
SEQEND
  5
690
330
68D
100
AcDbEntity
  8
Bema_U+00DFung
 62
     7
420
 16777215
370
     9
  0
POLYLINE
  5
691
330
1F
100
AcDbEntity
  8
Bema_U+00DFung
 62
     7
420
 16777215
370
     9
100
AcDb2dPolyline
 66
     1
 10
0.0
 20
0.0
 30
0.0
  0
VERTEX
  5
692
330
691
100
AcDbEntity
  8
Bema_U+00DFung
 62
     7
420
 16777215
370
     9
100
AcDbVertex
100
AcDb2dVertex
 10
33.31880276944844
 20
174.6862041446963
 30
0.0
  0
VERTEX
  5
693
330
691
100
AcDbEntity
  8
Bema_U+00DFung
 62
     7
420
 16777215
370
     9
100
AcDbVertex
100
AcDb2dVertex
 10
35.27530832451465
 20
174.6862041446963
 30
0.0
  0
SEQEND
  5
694
330
691
100
AcDbEntity
  8
Bema_U+00DFung
 62
     7
420
 16777215
370
     9
  0
POLYLINE
  5
695
330
1F
100
AcDbEntity
  8
Bema_U+00DFung
 62
     7
420
 16777215
370
     9
100
AcDb2dPolyline
 66
     1
 10
0.0
 20
0.0
 30
0.0
  0
VERTEX
  5
696
330
695
100
AcDbEntity
  8
Bema_U+00DFung
 62
     7
420
 16777215
370
     9
100
AcDbVertex
100
AcDb2dVertex
 10
33.31880276944844
 20
174.7370041446837
 30
0.0
  0
VERTEX
  5
697
330
695
100
AcDbEntity
  8
Bema_U+00DFung
 62
     7
420
 16777215
370
     9
100
AcDbVertex
100
AcDb2dVertex
 10
35.66124721330707
 20
174.7370041446837
 30
0.0
  0
SEQEND
  5
698
330
695
100
AcDbEntity
  8
Bema_U+00DFung
 62
     7
420
 16777215
370
     9
  0
POLYLINE
  5
699
330
1F
100
AcDbEntity
  8
Bema_U+00DFung
 62
     7
420
 16777215
370
     9
100
AcDb2dPolyline
 66
     1
 10
0.0
 20
0.0
 30
0.0
  0
VERTEX
  5
69A
330
699
100
AcDbEntity
  8
Bema_U+00DFung
 62
     7
420
 16777215
370
     9
100
AcDbVertex
100
AcDb2dVertex
 10
33.31880276944844
 20
174.7878041446711
 30
0.0
  0
VERTEX
  5
69B
330
699
100
AcDbEntity
  8
Bema_U+00DFung
 62
     7
420
 16777215
370
     9
100
AcDbVertex
100
AcDb2dVertex
 10
36.04718610209949
 20
174.7878041446711
 30
0.0
  0
SEQEND
  5
69C
330
699
100
AcDbEntity
  8
Bema_U+00DFung
 62
     7
420
 16777215
370
     9
  0
POLYLINE
  5
69D
330
1F
100
AcDbEntity
  8
Bema_U+00DFung
 62
     7
420
 16777215
370
     9
100
AcDb2dPolyline
 66
     1
 10
0.0
 20
0.0
 30
0.0
  0
VERTEX
  5
69E
330
69D
100
AcDbEntity
  8
Bema_U+00DFung
 62
     7
420
 16777215
370
     9
100
AcDbVertex
100
AcDb2dVertex
 10
33.31880276944844
 20
174.8386041446585
 30
0.0
  0
VERTEX
  5
69F
330
69D
100
AcDbEntity
  8
Bema_U+00DFung
 62
     7
420
 16777215
370
     9
100
AcDbVertex
100
AcDb2dVertex
 10
36.43347776866968
 20
174.8386041446585
 30
0.0
  0
SEQEND
  5
6A0
330
69D
100
AcDbEntity
  8
Bema_U+00DFung
 62
     7
420
 16777215
370
     9
  0
POLYLINE
  5
6A1
330
1F
100
AcDbEntity
  8
Bema_U+00DFung
 62
     7
420
 16777215
370
     9
100
AcDb2dPolyline
 66
     1
 10
0.0
 20
0.0
 30
0.0
  0
VERTEX
  5
6A2
330
6A1
100
AcDbEntity
  8
Bema_U+00DFung
 62
     7
420
 16777215
370
     9
100
AcDbVertex
100
AcDb2dVertex
 10
33.31880276944844
 20
174.8894041446455
 30
0.0
  0
VERTEX
  5
6A3
330
6A1
100
AcDbEntity
  8
Bema_U+00DFung
 62
     7
420
 16777215
370
     9
100
AcDbVertex
100
AcDb2dVertex
 10
36.81871110190657
 20
174.8894041446455
 30
0.0
  0
SEQEND
  5
6A4
330
6A1
100
AcDbEntity
  8
Bema_U+00DFung
 62
     7
420
 16777215
370
     9
  0
POLYLINE
  5
6A5
330
1F
100
AcDbEntity
  8
Bema_U+00DFung
 62
     7
420
 16777215
370
     9
100
AcDb2dPolyline
 66
     1
 10
0.0
 20
0.0
 30
0.0
  0
VERTEX
  5
6A6
330
6A5
100
AcDbEntity
  8
Bema_U+00DFung
 62
     7
420
 16777215
370
     9
100
AcDbVertex
100
AcDb2dVertex
 10
36.81871110190657
 20
220.2839693893733
 30
0.0
  0
VERTEX
  5
6A7
330
6A5
100
AcDbEntity
  8
Bema_U+00DFung
 62
     7
420
 16777215
370
     9
100
AcDbVertex
100
AcDb2dVertex
 10
36.81871110190657
 20
172.3907406976432
 30
0.0
  0
SEQEND
  5
6A8
330
6A5
100
AcDbEntity
  8
Bema_U+00DFung
 62
     7
420
 16777215
370
     9
  0
POLYLINE
  5
6A9
330
1F
100
AcDbEntity
  8
Bema_U+00DFung
 62
     7
420
 16777215
370
     9
100
AcDb2dPolyline
 66
     1
 10
0.0
 20
0.0
 30
0.0
  0
VERTEX
  5
6AA
330
6A9
100
AcDbEntity
  8
Bema_U+00DFung
 62
     7
420
 16777215
370
     9
100
AcDbVertex
100
AcDb2dVertex
 10
96.81880275357344
 20
213.5564971688329
 30
0.0
  0
VERTEX
  5
6AB
330
6A9
100
AcDbEntity
  8
Bema_U+00DFung
 62
     7
420
 16777215
370
     9
100
AcDbVertex
100
AcDb2dVertex
 10
96.81880275357344
 20
172.3907406976432
 30
0.0
  0
SEQEND
  5
6AC
330
6A9
100
AcDbEntity
  8
Bema_U+00DFung
 62
     7
420
 16777215
370
     9
  0
POLYLINE
  5
6AD
330
1F
100
AcDbEntity
  8
Bema_U+00DFung
 62
     7
420
 16777215
370
     9
100
AcDb2dPolyline
 66
     1
 10
0.0
 20
0.0
 30
0.0
  0
VERTEX
  5
6AE
330
6AD
100
AcDbEntity
  8
Bema_U+00DFung
 62
     7
420
 16777215
370
     9
100
AcDbVertex
100
AcDb2dVertex
 10
36.81871110190657
 20
174.8894041446455
 30
0.0
  0
VERTEX
  5
6AF
330
6AD
100
AcDbEntity
  8
Bema_U+00DFung
 62
     7
420
 16777215
370
     9
100
AcDbVertex
100
AcDb2dVertex
 10
96.81880275357344
 20
174.8894041446455
 30
0.0
  0
SEQEND
  5
6B0
330
6AD
100
AcDbEntity
  8
Bema_U+00DFung
 62
     7
420
 16777215
370
     9
  0
POLYLINE
  5
6B1
330
1F
100
AcDbEntity
  8
Bema_U+00DFung
 62
     7
420
 16777215
370
     9
100
AcDb2dPolyline
 66
     1
 10
0.0
 20
0.0
 30
0.0
  0
VERTEX
  5
6B2
330
6B1
100
AcDbEntity
  8
Bema_U+00DFung
 62
     7
420
 16777215
370
     9
100
AcDbVertex
100
AcDb2dVertex
 10
36.81871110190657
 20
174.8894041446455
 30
0.0
  0
VERTEX
  5
6B3
330
6B1
100
AcDbEntity
  8
Bema_U+00DFung
 62
     7
420
 16777215
370
     9
100
AcDbVertex
100
AcDb2dVertex
 10
40.31932498992055
 20
174.4286763669831
 30
0.0
  0
VERTEX
  5
6B4
330
6B1
100
AcDbEntity
  8
Bema_U+00DFung
 62
     7
420
 16777215
370
     9
100
AcDbVertex
100
AcDb2dVertex
 10
40.31932498992055
 20
175.3497791445305
 30
0.0
  0
VERTEX
  5
6B5
330
6B1
100
AcDbEntity
  8
Bema_U+00DFung
 62
     7
420
 16777215
370
     9
100
AcDbVertex
100
AcDb2dVertex
 10
36.81871110190657
 20
174.8894041446455
 30
0.0
  0
SEQEND
  5
6B6
330
6B1
100
AcDbEntity
  8
Bema_U+00DFung
 62
     7
420
 16777215
370
     9
  0
POLYLINE
  5
6B7
330
1F
100
AcDbEntity
  8
Bema_U+00DFung
 62
     7
420
 16777215
370
     9
100
AcDb2dPolyline
 66
     1
 10
0.0
 20
0.0
 30
0.0
  0
VERTEX
  5
6B8
330
6B7
100
AcDbEntity
  8
Bema_U+00DFung
 62
     7
420
 16777215
370
     9
100
AcDbVertex
100
AcDb2dVertex
 10
40.31932498992055
 20
174.4318513669823
 30
0.0
  0
VERTEX
  5
6B9
330
6B7
100
AcDbEntity
  8
Bema_U+00DFung
 62
     7
420
 16777215
370
     9
100
AcDbVertex
100
AcDb2dVertex
 10
40.29145554548285
 20
174.4318513669823
 30
0.0
  0
SEQEND
  5
6BA
330
6B7
100
AcDbEntity
  8
Bema_U+00DFung
 62
     7
420
 16777215
370
     9
  0
POLYLINE
  5
6BB
330
1F
100
AcDbEntity
  8
Bema_U+00DFung
 62
     7
420
 16777215
370
     9
100
AcDb2dPolyline
 66
     1
 10
0.0
 20
0.0
 30
0.0
  0
VERTEX
  5
6BC
330
6BB
100
AcDbEntity
  8
Bema_U+00DFung
 62
     7
420
 16777215
370
     9
100
AcDbVertex
100
AcDb2dVertex
 10
40.31932498992055
 20
174.4318513669823
 30
0.0
  0
VERTEX
  5
6BD
330
6BB
100
AcDbEntity
  8
Bema_U+00DFung
 62
     7
420
 16777215
370
     9
100
AcDbVertex
100
AcDb2dVertex
 10
40.29145554548285
 20
174.4318513669823
 30
0.0
  0
SEQEND
  5
6BE
330
6BB
100
AcDbEntity
  8
Bema_U+00DFung
 62
     7
420
 16777215
370
     9
  0
POLYLINE
  5
6BF
330
1F
100
AcDbEntity
  8
Bema_U+00DFung
 62
     7
420
 16777215
370
     9
100
AcDb2dPolyline
 66
     1
 10
0.0
 20
0.0
 30
0.0
  0
VERTEX
  5
6C0
330
6BF
100
AcDbEntity
  8
Bema_U+00DFung
 62
     7
420
 16777215
370
     9
100
AcDbVertex
100
AcDb2dVertex
 10
40.31932498992055
 20
174.4826513669697
 30
0.0
  0
VERTEX
  5
6C1
330
6BF
100
AcDbEntity
  8
Bema_U+00DFung
 62
     7
420
 16777215
370
     9
100
AcDbVertex
100
AcDb2dVertex
 10
39.90622221224595
 20
174.4826513669697
 30
0.0
  0
SEQEND
  5
6C2
330
6BF
100
AcDbEntity
  8
Bema_U+00DFung
 62
     7
420
 16777215
370
     9
  0
POLYLINE
  5
6C3
330
1F
100
AcDbEntity
  8
Bema_U+00DFung
 62
     7
420
 16777215
370
     9
100
AcDb2dPolyline
 66
     1
 10
0.0
 20
0.0
 30
0.0
  0
VERTEX
  5
6C4
330
6C3
100
AcDbEntity
  8
Bema_U+00DFung
 62
     7
420
 16777215
370
     9
100
AcDbVertex
100
AcDb2dVertex
 10
40.31932498992055
 20
174.5338041447345
 30
0.0
  0
VERTEX
  5
6C5
330
6C3
100
AcDbEntity
  8
Bema_U+00DFung
 62
     7
420
 16777215
370
     9
100
AcDbVertex
100
AcDb2dVertex
 10
39.52028332345353
 20
174.5338041447345
 30
0.0
  0
SEQEND
  5
6C6
330
6C3
100
AcDbEntity
  8
Bema_U+00DFung
 62
     7
420
 16777215
370
     9
  0
POLYLINE
  5
6C7
330
1F
100
AcDbEntity
  8
Bema_U+00DFung
 62
     7
420
 16777215
370
     9
100
AcDb2dPolyline
 66
     1
 10
0.0
 20
0.0
 30
0.0
  0
VERTEX
  5
6C8
330
6C7
100
AcDbEntity
  8
Bema_U+00DFung
 62
     7
420
 16777215
370
     9
100
AcDbVertex
100
AcDb2dVertex
 10
40.31932498992055
 20
174.5846041447216
 30
0.0
  0
VERTEX
  5
6C9
330
6C7
100
AcDbEntity
  8
Bema_U+00DFung
 62
     7
420
 16777215
370
     9
100
AcDbVertex
100
AcDb2dVertex
 10
39.13399165688335
 20
174.5846041447216
 30
0.0
  0
SEQEND
  5
6CA
330
6C7
100
AcDbEntity
  8
Bema_U+00DFung
 62
     7
420
 16777215
370
     9
  0
POLYLINE
  5
6CB
330
1F
100
AcDbEntity
  8
Bema_U+00DFung
 62
     7
420
 16777215
370
     9
100
AcDb2dPolyline
 66
     1
 10
0.0
 20
0.0
 30
0.0
  0
VERTEX
  5
6CC
330
6CB
100
AcDbEntity
  8
Bema_U+00DFung
 62
     7
420
 16777215
370
     9
100
AcDbVertex
100
AcDb2dVertex
 10
40.31932498992055
 20
174.635404144709
 30
0.0
  0
VERTEX
  5
6CD
330
6CB
100
AcDbEntity
  8
Bema_U+00DFung
 62
     7
420
 16777215
370
     9
100
AcDbVertex
100
AcDb2dVertex
 10
38.74805276809092
 20
174.635404144709
 30
0.0
  0
SEQEND
  5
6CE
330
6CB
100
AcDbEntity
  8
Bema_U+00DFung
 62
     7
420
 16777215
370
     9
  0
POLYLINE
  5
6CF
330
1F
100
AcDbEntity
  8
Bema_U+00DFung
 62
     7
420
 16777215
370
     9
100
AcDb2dPolyline
 66
     1
 10
0.0
 20
0.0
 30
0.0
  0
VERTEX
  5
6D0
330
6CF
100
AcDbEntity
  8
Bema_U+00DFung
 62
     7
420
 16777215
370
     9
100
AcDbVertex
100
AcDb2dVertex
 10
40.31932498992055
 20
174.6862041446963
 30
0.0
  0
VERTEX
  5
6D1
330
6CF
100
AcDbEntity
  8
Bema_U+00DFung
 62
     7
420
 16777215
370
     9
100
AcDbVertex
100
AcDb2dVertex
 10
38.36281943485402
 20
174.6862041446963
 30
0.0
  0
SEQEND
  5
6D2
330
6CF
100
AcDbEntity
  8
Bema_U+00DFung
 62
     7
420
 16777215
370
     9
  0
POLYLINE
  5
6D3
330
1F
100
AcDbEntity
  8
Bema_U+00DFung
 62
     7
420
 16777215
370
     9
100
AcDb2dPolyline
 66
     1
 10
0.0
 20
0.0
 30
0.0
  0
VERTEX
  5
6D4
330
6D3
100
AcDbEntity
  8
Bema_U+00DFung
 62
     7
420
 16777215
370
     9
100
AcDbVertex
100
AcDb2dVertex
 10
40.31932498992055
 20
174.7370041446837
 30
0.0
  0
VERTEX
  5
6D5
330
6D3
100
AcDbEntity
  8
Bema_U+00DFung
 62
     7
420
 16777215
370
     9
100
AcDbVertex
100
AcDb2dVertex
 10
37.9768805460616
 20
174.7370041446837
 30
0.0
  0
SEQEND
  5
6D6
330
6D3
100
AcDbEntity
  8
Bema_U+00DFung
 62
     7
420
 16777215
370
     9
  0
POLYLINE
  5
6D7
330
1F
100
AcDbEntity
  8
Bema_U+00DFung
 62
     7
420
 16777215
370
     9
100
AcDb2dPolyline
 66
     1
 10
0.0
 20
0.0
 30
0.0
  0
VERTEX
  5
6D8
330
6D7
100
AcDbEntity
  8
Bema_U+00DFung
 62
     7
420
 16777215
370
     9
100
AcDbVertex
100
AcDb2dVertex
 10
40.31932498992055
 20
174.7878041446711
 30
0.0
  0
VERTEX
  5
6D9
330
6D7
100
AcDbEntity
  8
Bema_U+00DFung
 62
     7
420
 16777215
370
     9
100
AcDbVertex
100
AcDb2dVertex
 10
37.59058887949142
 20
174.7878041446711
 30
0.0
  0
SEQEND
  5
6DA
330
6D7
100
AcDbEntity
  8
Bema_U+00DFung
 62
     7
420
 16777215
370
     9
  0
POLYLINE
  5
6DB
330
1F
100
AcDbEntity
  8
Bema_U+00DFung
 62
     7
420
 16777215
370
     9
100
AcDb2dPolyline
 66
     1
 10
0.0
 20
0.0
 30
0.0
  0
VERTEX
  5
6DC
330
6DB
100
AcDbEntity
  8
Bema_U+00DFung
 62
     7
420
 16777215
370
     9
100
AcDbVertex
100
AcDb2dVertex
 10
40.31932498992055
 20
174.8386041446585
 30
0.0
  0
VERTEX
  5
6DD
330
6DB
100
AcDbEntity
  8
Bema_U+00DFung
 62
     7
420
 16777215
370
     9
100
AcDbVertex
100
AcDb2dVertex
 10
37.204649990699
 20
174.8386041446585
 30
0.0
  0
SEQEND
  5
6DE
330
6DB
100
AcDbEntity
  8
Bema_U+00DFung
 62
     7
420
 16777215
370
     9
  0
POLYLINE
  5
6DF
330
1F
100
AcDbEntity
  8
Bema_U+00DFung
 62
     7
420
 16777215
370
     9
100
AcDb2dPolyline
 66
     1
 10
0.0
 20
0.0
 30
0.0
  0
VERTEX
  5
6E0
330
6DF
100
AcDbEntity
  8
Bema_U+00DFung
 62
     7
420
 16777215
370
     9
100
AcDbVertex
100
AcDb2dVertex
 10
40.31932498992055
 20
174.8894041446455
 30
0.0
  0
VERTEX
  5
6E1
330
6DF
100
AcDbEntity
  8
Bema_U+00DFung
 62
     7
420
 16777215
370
     9
100
AcDbVertex
100
AcDb2dVertex
 10
36.81871110190657
 20
174.8894041446455
 30
0.0
  0
SEQEND
  5
6E2
330
6DF
100
AcDbEntity
  8
Bema_U+00DFung
 62
     7
420
 16777215
370
     9
  0
POLYLINE
  5
6E3
330
1F
100
AcDbEntity
  8
Bema_U+00DFung
 62
     7
420
 16777215
370
     9
100
AcDb2dPolyline
 66
     1
 10
0.0
 20
0.0
 30
0.0
  0
VERTEX
  5
6E4
330
6E3
100
AcDbEntity
  8
Bema_U+00DFung
 62
     7
420
 16777215
370
     9
100
AcDbVertex
100
AcDb2dVertex
 10
40.31932498992055
 20
175.3462513667536
 30
0.0
  0
VERTEX
  5
6E5
330
6E3
100
AcDbEntity
  8
Bema_U+00DFung
 62
     7
420
 16777215
370
     9
100
AcDbVertex
100
AcDb2dVertex
 10
40.29145554548285
 20
175.3462513667536
 30
0.0
  0
SEQEND
  5
6E6
330
6E3
100
AcDbEntity
  8
Bema_U+00DFung
 62
     7
420
 16777215
370
     9
  0
POLYLINE
  5
6E7
330
1F
100
AcDbEntity
  8
Bema_U+00DFung
 62
     7
420
 16777215
370
     9
100
AcDb2dPolyline
 66
     1
 10
0.0
 20
0.0
 30
0.0
  0
VERTEX
  5
6E8
330
6E7
100
AcDbEntity
  8
Bema_U+00DFung
 62
     7
420
 16777215
370
     9
100
AcDbVertex
100
AcDb2dVertex
 10
40.31932498992055
 20
175.3462513667536
 30
0.0
  0
VERTEX
  5
6E9
330
6E7
100
AcDbEntity
  8
Bema_U+00DFung
 62
     7
420
 16777215
370
     9
100
AcDbVertex
100
AcDb2dVertex
 10
40.29145554548285
 20
175.3462513667536
 30
0.0
  0
SEQEND
  5
6EA
330
6E7
100
AcDbEntity
  8
Bema_U+00DFung
 62
     7
420
 16777215
370
     9
  0
POLYLINE
  5
6EB
330
1F
100
AcDbEntity
  8
Bema_U+00DFung
 62
     7
420
 16777215
370
     9
100
AcDb2dPolyline
 66
     1
 10
0.0
 20
0.0
 30
0.0
  0
VERTEX
  5
6EC
330
6EB
100
AcDbEntity
  8
Bema_U+00DFung
 62
     7
420
 16777215
370
     9
100
AcDbVertex
100
AcDb2dVertex
 10
40.31932498992055
 20
175.2954513667662
 30
0.0
  0
VERTEX
  5
6ED
330
6EB
100
AcDbEntity
  8
Bema_U+00DFung
 62
     7
420
 16777215
370
     9
100
AcDbVertex
100
AcDb2dVertex
 10
39.90622221224595
 20
175.2954513667662
 30
0.0
  0
SEQEND
  5
6EE
330
6EB
100
AcDbEntity
  8
Bema_U+00DFung
 62
     7
420
 16777215
370
     9
  0
POLYLINE
  5
6EF
330
1F
100
AcDbEntity
  8
Bema_U+00DFung
 62
     7
420
 16777215
370
     9
100
AcDb2dPolyline
 66
     1
 10
0.0
 20
0.0
 30
0.0
  0
VERTEX
  5
6F0
330
6EF
100
AcDbEntity
  8
Bema_U+00DFung
 62
     7
420
 16777215
370
     9
100
AcDbVertex
100
AcDb2dVertex
 10
40.31932498992055
 20
175.2446513667792
 30
0.0
  0
VERTEX
  5
6F1
330
6EF
100
AcDbEntity
  8
Bema_U+00DFung
 62
     7
420
 16777215
370
     9
100
AcDbVertex
100
AcDb2dVertex
 10
39.52028332345353
 20
175.2446513667792
 30
0.0
  0
SEQEND
  5
6F2
330
6EF
100
AcDbEntity
  8
Bema_U+00DFung
 62
     7
420
 16777215
370
     9
  0
POLYLINE
  5
6F3
330
1F
100
AcDbEntity
  8
Bema_U+00DFung
 62
     7
420
 16777215
370
     9
100
AcDb2dPolyline
 66
     1
 10
0.0
 20
0.0
 30
0.0
  0
VERTEX
  5
6F4
330
6F3
100
AcDbEntity
  8
Bema_U+00DFung
 62
     7
420
 16777215
370
     9
100
AcDbVertex
100
AcDb2dVertex
 10
40.31932498992055
 20
175.1938513667918
 30
0.0
  0
VERTEX
  5
6F5
330
6F3
100
AcDbEntity
  8
Bema_U+00DFung
 62
     7
420
 16777215
370
     9
100
AcDbVertex
100
AcDb2dVertex
 10
39.13399165688335
 20
175.1938513667918
 30
0.0
  0
SEQEND
  5
6F6
330
6F3
100
AcDbEntity
  8
Bema_U+00DFung
 62
     7
420
 16777215
370
     9
  0
POLYLINE
  5
6F7
330
1F
100
AcDbEntity
  8
Bema_U+00DFung
 62
     7
420
 16777215
370
     9
100
AcDb2dPolyline
 66
     1
 10
0.0
 20
0.0
 30
0.0
  0
VERTEX
  5
6F8
330
6F7
100
AcDbEntity
  8
Bema_U+00DFung
 62
     7
420
 16777215
370
     9
100
AcDbVertex
100
AcDb2dVertex
 10
40.31932498992055
 20
175.1430513668044
 30
0.0
  0
VERTEX
  5
6F9
330
6F7
100
AcDbEntity
  8
Bema_U+00DFung
 62
     7
420
 16777215
370
     9
100
AcDbVertex
100
AcDb2dVertex
 10
38.74805276809092
 20
175.1430513668044
 30
0.0
  0
SEQEND
  5
6FA
330
6F7
100
AcDbEntity
  8
Bema_U+00DFung
 62
     7
420
 16777215
370
     9
  0
POLYLINE
  5
6FB
330
1F
100
AcDbEntity
  8
Bema_U+00DFung
 62
     7
420
 16777215
370
     9
100
AcDb2dPolyline
 66
     1
 10
0.0
 20
0.0
 30
0.0
  0
VERTEX
  5
6FC
330
6FB
100
AcDbEntity
  8
Bema_U+00DFung
 62
     7
420
 16777215
370
     9
100
AcDbVertex
100
AcDb2dVertex
 10
40.31932498992055
 20
175.092251366817
 30
0.0
  0
VERTEX
  5
6FD
330
6FB
100
AcDbEntity
  8
Bema_U+00DFung
 62
     7
420
 16777215
370
     9
100
AcDbVertex
100
AcDb2dVertex
 10
38.36281943485402
 20
175.092251366817
 30
0.0
  0
SEQEND
  5
6FE
330
6FB
100
AcDbEntity
  8
Bema_U+00DFung
 62
     7
420
 16777215
370
     9
  0
POLYLINE
  5
6FF
330
1F
100
AcDbEntity
  8
Bema_U+00DFung
 62
     7
420
 16777215
370
     9
100
AcDb2dPolyline
 66
     1
 10
0.0
 20
0.0
 30
0.0
  0
VERTEX
  5
700
330
6FF
100
AcDbEntity
  8
Bema_U+00DFung
 62
     7
420
 16777215
370
     9
100
AcDbVertex
100
AcDb2dVertex
 10
40.31932498992055
 20
175.0414513668296
 30
0.0
  0
VERTEX
  5
701
330
6FF
100
AcDbEntity
  8
Bema_U+00DFung
 62
     7
420
 16777215
370
     9
100
AcDbVertex
100
AcDb2dVertex
 10
37.9768805460616
 20
175.0414513668296
 30
0.0
  0
SEQEND
  5
702
330
6FF
100
AcDbEntity
  8
Bema_U+00DFung
 62
     7
420
 16777215
370
     9
  0
POLYLINE
  5
703
330
1F
100
AcDbEntity
  8
Bema_U+00DFung
 62
     7
420
 16777215
370
     9
100
AcDb2dPolyline
 66
     1
 10
0.0
 20
0.0
 30
0.0
  0
VERTEX
  5
704
330
703
100
AcDbEntity
  8
Bema_U+00DFung
 62
     7
420
 16777215
370
     9
100
AcDbVertex
100
AcDb2dVertex
 10
40.31932498992055
 20
174.99100414462
 30
0.0
  0
VERTEX
  5
705
330
703
100
AcDbEntity
  8
Bema_U+00DFung
 62
     7
420
 16777215
370
     9
100
AcDbVertex
100
AcDb2dVertex
 10
37.59058887949142
 20
174.99100414462
 30
0.0
  0
SEQEND
  5
706
330
703
100
AcDbEntity
  8
Bema_U+00DFung
 62
     7
420
 16777215
370
     9
  0
POLYLINE
  5
707
330
1F
100
AcDbEntity
  8
Bema_U+00DFung
 62
     7
420
 16777215
370
     9
100
AcDb2dPolyline
 66
     1
 10
0.0
 20
0.0
 30
0.0
  0
VERTEX
  5
708
330
707
100
AcDbEntity
  8
Bema_U+00DFung
 62
     7
420
 16777215
370
     9
100
AcDbVertex
100
AcDb2dVertex
 10
40.31932498992055
 20
174.9402041446329
 30
0.0
  0
VERTEX
  5
709
330
707
100
AcDbEntity
  8
Bema_U+00DFung
 62
     7
420
 16777215
370
     9
100
AcDbVertex
100
AcDb2dVertex
 10
37.204649990699
 20
174.9402041446329
 30
0.0
  0
SEQEND
  5
70A
330
707
100
AcDbEntity
  8
Bema_U+00DFung
 62
     7
420
 16777215
370
     9
  0
POLYLINE
  5
70B
330
1F
100
AcDbEntity
  8
Bema_U+00DFung
 62
     7
420
 16777215
370
     9
100
AcDb2dPolyline
 66
     1
 10
0.0
 20
0.0
 30
0.0
  0
VERTEX
  5
70C
330
70B
100
AcDbEntity
  8
Bema_U+00DFung
 62
     7
420
 16777215
370
     9
100
AcDbVertex
100
AcDb2dVertex
 10
40.31932498992055
 20
174.8894041446455
 30
0.0
  0
VERTEX
  5
70D
330
70B
100
AcDbEntity
  8
Bema_U+00DFung
 62
     7
420
 16777215
370
     9
100
AcDbVertex
100
AcDb2dVertex
 10
36.81871110190657
 20
174.8894041446455
 30
0.0
  0
SEQEND
  5
70E
330
70B
100
AcDbEntity
  8
Bema_U+00DFung
 62
     7
420
 16777215
370
     9
  0
POLYLINE
  5
70F
330
1F
100
AcDbEntity
  8
Bema_U+00DFung
 62
     7
420
 16777215
370
     9
100
AcDb2dPolyline
 66
     1
 10
0.0
 20
0.0
 30
0.0
  0
VERTEX
  5
710
330
70F
100
AcDbEntity
  8
Bema_U+00DFung
 62
     7
420
 16777215
370
     9
100
AcDbVertex
100
AcDb2dVertex
 10
96.81880275357344
 20
174.8894041446455
 30
0.0
  0
VERTEX
  5
711
330
70F
100
AcDbEntity
  8
Bema_U+00DFung
 62
     7
420
 16777215
370
     9
100
AcDbVertex
100
AcDb2dVertex
 10
93.31889442111499
 20
175.3497791445305
 30
0.0
  0
VERTEX
  5
712
330
70F
100
AcDbEntity
  8
Bema_U+00DFung
 62
     7
420
 16777215
370
     9
100
AcDbVertex
100
AcDb2dVertex
 10
93.31889442111499
 20
174.4286763669831
 30
0.0
  0
VERTEX
  5
713
330
70F
100
AcDbEntity
  8
Bema_U+00DFung
 62
     7
420
 16777215
370
     9
100
AcDbVertex
100
AcDb2dVertex
 10
96.81880275357344
 20
174.8894041446455
 30
0.0
  0
SEQEND
  5
714
330
70F
100
AcDbEntity
  8
Bema_U+00DFung
 62
     7
420
 16777215
370
     9
  0
POLYLINE
  5
715
330
1F
100
AcDbEntity
  8
Bema_U+00DFung
 62
     7
420
 16777215
370
     9
100
AcDb2dPolyline
 66
     1
 10
0.0
 20
0.0
 30
0.0
  0
VERTEX
  5
716
330
715
100
AcDbEntity
  8
Bema_U+00DFung
 62
     7
420
 16777215
370
     9
100
AcDbVertex
100
AcDb2dVertex
 10
93.31889442111499
 20
175.3462513667536
 30
0.0
  0
VERTEX
  5
717
330
715
100
AcDbEntity
  8
Bema_U+00DFung
 62
     7
420
 16777215
370
     9
100
AcDbVertex
100
AcDb2dVertex
 10
93.34605830999716
 20
175.3462513667536
 30
0.0
  0
SEQEND
  5
718
330
715
100
AcDbEntity
  8
Bema_U+00DFung
 62
     7
420
 16777215
370
     9
  0
POLYLINE
  5
719
330
1F
100
AcDbEntity
  8
Bema_U+00DFung
 62
     7
420
 16777215
370
     9
100
AcDb2dPolyline
 66
     1
 10
0.0
 20
0.0
 30
0.0
  0
VERTEX
  5
71A
330
719
100
AcDbEntity
  8
Bema_U+00DFung
 62
     7
420
 16777215
370
     9
100
AcDbVertex
100
AcDb2dVertex
 10
93.31889442111499
 20
175.3462513667536
 30
0.0
  0
VERTEX
  5
71B
330
719
100
AcDbEntity
  8
Bema_U+00DFung
 62
     7
420
 16777215
370
     9
100
AcDbVertex
100
AcDb2dVertex
 10
93.34605830999716
 20
175.3462513667536
 30
0.0
  0
SEQEND
  5
71C
330
719
100
AcDbEntity
  8
Bema_U+00DFung
 62
     7
420
 16777215
370
     9
  0
POLYLINE
  5
71D
330
1F
100
AcDbEntity
  8
Bema_U+00DFung
 62
     7
420
 16777215
370
     9
100
AcDb2dPolyline
 66
     1
 10
0.0
 20
0.0
 30
0.0
  0
VERTEX
  5
71E
330
71D
100
AcDbEntity
  8
Bema_U+00DFung
 62
     7
420
 16777215
370
     9
100
AcDbVertex
100
AcDb2dVertex
 10
93.31889442111499
 20
175.2954513667662
 30
0.0
  0
VERTEX
  5
71F
330
71D
100
AcDbEntity
  8
Bema_U+00DFung
 62
     7
420
 16777215
370
     9
100
AcDbVertex
100
AcDb2dVertex
 10
93.73199719878959
 20
175.2954513667662
 30
0.0
  0
SEQEND
  5
720
330
71D
100
AcDbEntity
  8
Bema_U+00DFung
 62
     7
420
 16777215
370
     9
  0
POLYLINE
  5
721
330
1F
100
AcDbEntity
  8
Bema_U+00DFung
 62
     7
420
 16777215
370
     9
100
AcDb2dPolyline
 66
     1
 10
0.0
 20
0.0
 30
0.0
  0
VERTEX
  5
722
330
721
100
AcDbEntity
  8
Bema_U+00DFung
 62
     7
420
 16777215
370
     9
100
AcDbVertex
100
AcDb2dVertex
 10
93.31889442111499
 20
175.2446513667792
 30
0.0
  0
VERTEX
  5
723
330
721
100
AcDbEntity
  8
Bema_U+00DFung
 62
     7
420
 16777215
370
     9
100
AcDbVertex
100
AcDb2dVertex
 10
94.11793608758201
 20
175.2446513667792
 30
0.0
  0
SEQEND
  5
724
330
721
100
AcDbEntity
  8
Bema_U+00DFung
 62
     7
420
 16777215
370
     9
  0
POLYLINE
  5
725
330
1F
100
AcDbEntity
  8
Bema_U+00DFung
 62
     7
420
 16777215
370
     9
100
AcDb2dPolyline
 66
     1
 10
0.0
 20
0.0
 30
0.0
  0
VERTEX
  5
726
330
725
100
AcDbEntity
  8
Bema_U+00DFung
 62
     7
420
 16777215
370
     9
100
AcDbVertex
100
AcDb2dVertex
 10
93.31889442111499
 20
175.1938513667918
 30
0.0
  0
VERTEX
  5
727
330
725
100
AcDbEntity
  8
Bema_U+00DFung
 62
     7
420
 16777215
370
     9
100
AcDbVertex
100
AcDb2dVertex
 10
94.5038749763741
 20
175.1938513667918
 30
0.0
  0
SEQEND
  5
728
330
725
100
AcDbEntity
  8
Bema_U+00DFung
 62
     7
420
 16777215
370
     9
  0
POLYLINE
  5
729
330
1F
100
AcDbEntity
  8
Bema_U+00DFung
 62
     7
420
 16777215
370
     9
100
AcDb2dPolyline
 66
     1
 10
0.0
 20
0.0
 30
0.0
  0
VERTEX
  5
72A
330
729
100
AcDbEntity
  8
Bema_U+00DFung
 62
     7
420
 16777215
370
     9
100
AcDbVertex
100
AcDb2dVertex
 10
93.31889442111499
 20
175.1430513668044
 30
0.0
  0
VERTEX
  5
72B
330
729
100
AcDbEntity
  8
Bema_U+00DFung
 62
     7
420
 16777215
370
     9
100
AcDbVertex
100
AcDb2dVertex
 10
94.8894610873891
 20
175.1430513668044
 30
0.0
  0
SEQEND
  5
72C
330
729
100
AcDbEntity
  8
Bema_U+00DFung
 62
     7
420
 16777215
370
     9
  0
POLYLINE
  5
72D
330
1F
100
AcDbEntity
  8
Bema_U+00DFung
 62
     7
420
 16777215
370
     9
100
AcDb2dPolyline
 66
     1
 10
0.0
 20
0.0
 30
0.0
  0
VERTEX
  5
72E
330
72D
100
AcDbEntity
  8
Bema_U+00DFung
 62
     7
420
 16777215
370
     9
100
AcDbVertex
100
AcDb2dVertex
 10
93.31889442111499
 20
175.092251366817
 30
0.0
  0
VERTEX
  5
72F
330
72D
100
AcDbEntity
  8
Bema_U+00DFung
 62
     7
420
 16777215
370
     9
100
AcDbVertex
100
AcDb2dVertex
 10
95.27539997618152
 20
175.092251366817
 30
0.0
  0
SEQEND
  5
730
330
72D
100
AcDbEntity
  8
Bema_U+00DFung
 62
     7
420
 16777215
370
     9
  0
POLYLINE
  5
731
330
1F
100
AcDbEntity
  8
Bema_U+00DFung
 62
     7
420
 16777215
370
     9
100
AcDb2dPolyline
 66
     1
 10
0.0
 20
0.0
 30
0.0
  0
VERTEX
  5
732
330
731
100
AcDbEntity
  8
Bema_U+00DFung
 62
     7
420
 16777215
370
     9
100
AcDbVertex
100
AcDb2dVertex
 10
93.31889442111499
 20
175.0414513668296
 30
0.0
  0
VERTEX
  5
733
330
731
100
AcDbEntity
  8
Bema_U+00DFung
 62
     7
420
 16777215
370
     9
100
AcDbVertex
100
AcDb2dVertex
 10
95.66133886497394
 20
175.0414513668296
 30
0.0
  0
SEQEND
  5
734
330
731
100
AcDbEntity
  8
Bema_U+00DFung
 62
     7
420
 16777215
370
     9
  0
POLYLINE
  5
735
330
1F
100
AcDbEntity
  8
Bema_U+00DFung
 62
     7
420
 16777215
370
     9
100
AcDb2dPolyline
 66
     1
 10
0.0
 20
0.0
 30
0.0
  0
VERTEX
  5
736
330
735
100
AcDbEntity
  8
Bema_U+00DFung
 62
     7
420
 16777215
370
     9
100
AcDbVertex
100
AcDb2dVertex
 10
93.31889442111499
 20
174.99100414462
 30
0.0
  0
VERTEX
  5
737
330
735
100
AcDbEntity
  8
Bema_U+00DFung
 62
     7
420
 16777215
370
     9
100
AcDbVertex
100
AcDb2dVertex
 10
96.04727775376604
 20
174.99100414462
 30
0.0
  0
SEQEND
  5
738
330
735
100
AcDbEntity
  8
Bema_U+00DFung
 62
     7
420
 16777215
370
     9
  0
POLYLINE
  5
739
330
1F
100
AcDbEntity
  8
Bema_U+00DFung
 62
     7
420
 16777215
370
     9
100
AcDb2dPolyline
 66
     1
 10
0.0
 20
0.0
 30
0.0
  0
VERTEX
  5
73A
330
739
100
AcDbEntity
  8
Bema_U+00DFung
 62
     7
420
 16777215
370
     9
100
AcDbVertex
100
AcDb2dVertex
 10
93.31889442111499
 20
174.9402041446329
 30
0.0
  0
VERTEX
  5
73B
330
739
100
AcDbEntity
  8
Bema_U+00DFung
 62
     7
420
 16777215
370
     9
100
AcDbVertex
100
AcDb2dVertex
 10
96.43286386478103
 20
174.9402041446329
 30
0.0
  0
SEQEND
  5
73C
330
739
100
AcDbEntity
  8
Bema_U+00DFung
 62
     7
420
 16777215
370
     9
  0
POLYLINE
  5
73D
330
1F
100
AcDbEntity
  8
Bema_U+00DFung
 62
     7
420
 16777215
370
     9
100
AcDb2dPolyline
 66
     1
 10
0.0
 20
0.0
 30
0.0
  0
VERTEX
  5
73E
330
73D
100
AcDbEntity
  8
Bema_U+00DFung
 62
     7
420
 16777215
370
     9
100
AcDbVertex
100
AcDb2dVertex
 10
93.31889442111499
 20
174.8894041446455
 30
0.0
  0
VERTEX
  5
73F
330
73D
100
AcDbEntity
  8
Bema_U+00DFung
 62
     7
420
 16777215
370
     9
100
AcDbVertex
100
AcDb2dVertex
 10
96.81880275357344
 20
174.8894041446455
 30
0.0
  0
SEQEND
  5
740
330
73D
100
AcDbEntity
  8
Bema_U+00DFung
 62
     7
420
 16777215
370
     9
  0
POLYLINE
  5
741
330
1F
100
AcDbEntity
  8
Bema_U+00DFung
 62
     7
420
 16777215
370
     9
100
AcDb2dPolyline
 66
     1
 10
0.0
 20
0.0
 30
0.0
  0
VERTEX
  5
742
330
741
100
AcDbEntity
  8
Bema_U+00DFung
 62
     7
420
 16777215
370
     9
100
AcDbVertex
100
AcDb2dVertex
 10
93.31889442111499
 20
174.4318513669823
 30
0.0
  0
VERTEX
  5
743
330
741
100
AcDbEntity
  8
Bema_U+00DFung
 62
     7
420
 16777215
370
     9
100
AcDbVertex
100
AcDb2dVertex
 10
93.34605830999716
 20
174.4318513669823
 30
0.0
  0
SEQEND
  5
744
330
741
100
AcDbEntity
  8
Bema_U+00DFung
 62
     7
420
 16777215
370
     9
  0
POLYLINE
  5
745
330
1F
100
AcDbEntity
  8
Bema_U+00DFung
 62
     7
420
 16777215
370
     9
100
AcDb2dPolyline
 66
     1
 10
0.0
 20
0.0
 30
0.0
  0
VERTEX
  5
746
330
745
100
AcDbEntity
  8
Bema_U+00DFung
 62
     7
420
 16777215
370
     9
100
AcDbVertex
100
AcDb2dVertex
 10
93.31889442111499
 20
174.4318513669823
 30
0.0
  0
VERTEX
  5
747
330
745
100
AcDbEntity
  8
Bema_U+00DFung
 62
     7
420
 16777215
370
     9
100
AcDbVertex
100
AcDb2dVertex
 10
93.34605830999716
 20
174.4318513669823
 30
0.0
  0
SEQEND
  5
748
330
745
100
AcDbEntity
  8
Bema_U+00DFung
 62
     7
420
 16777215
370
     9
  0
POLYLINE
  5
749
330
1F
100
AcDbEntity
  8
Bema_U+00DFung
 62
     7
420
 16777215
370
     9
100
AcDb2dPolyline
 66
     1
 10
0.0
 20
0.0
 30
0.0
  0
VERTEX
  5
74A
330
749
100
AcDbEntity
  8
Bema_U+00DFung
 62
     7
420
 16777215
370
     9
100
AcDbVertex
100
AcDb2dVertex
 10
93.31889442111499
 20
174.4826513669697
 30
0.0
  0
VERTEX
  5
74B
330
749
100
AcDbEntity
  8
Bema_U+00DFung
 62
     7
420
 16777215
370
     9
100
AcDbVertex
100
AcDb2dVertex
 10
93.73199719878959
 20
174.4826513669697
 30
0.0
  0
SEQEND
  5
74C
330
749
100
AcDbEntity
  8
Bema_U+00DFung
 62
     7
420
 16777215
370
     9
  0
POLYLINE
  5
74D
330
1F
100
AcDbEntity
  8
Bema_U+00DFung
 62
     7
420
 16777215
370
     9
100
AcDb2dPolyline
 66
     1
 10
0.0
 20
0.0
 30
0.0
  0
VERTEX
  5
74E
330
74D
100
AcDbEntity
  8
Bema_U+00DFung
 62
     7
420
 16777215
370
     9
100
AcDbVertex
100
AcDb2dVertex
 10
93.31889442111499
 20
174.5338041447345
 30
0.0
  0
VERTEX
  5
74F
330
74D
100
AcDbEntity
  8
Bema_U+00DFung
 62
     7
420
 16777215
370
     9
100
AcDbVertex
100
AcDb2dVertex
 10
94.11793608758201
 20
174.5338041447345
 30
0.0
  0
SEQEND
  5
750
330
74D
100
AcDbEntity
  8
Bema_U+00DFung
 62
     7
420
 16777215
370
     9
  0
POLYLINE
  5
751
330
1F
100
AcDbEntity
  8
Bema_U+00DFung
 62
     7
420
 16777215
370
     9
100
AcDb2dPolyline
 66
     1
 10
0.0
 20
0.0
 30
0.0
  0
VERTEX
  5
752
330
751
100
AcDbEntity
  8
Bema_U+00DFung
 62
     7
420
 16777215
370
     9
100
AcDbVertex
100
AcDb2dVertex
 10
93.31889442111499
 20
174.5846041447216
 30
0.0
  0
VERTEX
  5
753
330
751
100
AcDbEntity
  8
Bema_U+00DFung
 62
     7
420
 16777215
370
     9
100
AcDbVertex
100
AcDb2dVertex
 10
94.5038749763741
 20
174.5846041447216
 30
0.0
  0
SEQEND
  5
754
330
751
100
AcDbEntity
  8
Bema_U+00DFung
 62
     7
420
 16777215
370
     9
  0
POLYLINE
  5
755
330
1F
100
AcDbEntity
  8
Bema_U+00DFung
 62
     7
420
 16777215
370
     9
100
AcDb2dPolyline
 66
     1
 10
0.0
 20
0.0
 30
0.0
  0
VERTEX
  5
756
330
755
100
AcDbEntity
  8
Bema_U+00DFung
 62
     7
420
 16777215
370
     9
100
AcDbVertex
100
AcDb2dVertex
 10
93.31889442111499
 20
174.635404144709
 30
0.0
  0
VERTEX
  5
757
330
755
100
AcDbEntity
  8
Bema_U+00DFung
 62
     7
420
 16777215
370
     9
100
AcDbVertex
100
AcDb2dVertex
 10
94.8894610873891
 20
174.635404144709
 30
0.0
  0
SEQEND
  5
758
330
755
100
AcDbEntity
  8
Bema_U+00DFung
 62
     7
420
 16777215
370
     9
  0
POLYLINE
  5
759
330
1F
100
AcDbEntity
  8
Bema_U+00DFung
 62
     7
420
 16777215
370
     9
100
AcDb2dPolyline
 66
     1
 10
0.0
 20
0.0
 30
0.0
  0
VERTEX
  5
75A
330
759
100
AcDbEntity
  8
Bema_U+00DFung
 62
     7
420
 16777215
370
     9
100
AcDbVertex
100
AcDb2dVertex
 10
93.31889442111499
 20
174.6862041446963
 30
0.0
  0
VERTEX
  5
75B
330
759
100
AcDbEntity
  8
Bema_U+00DFung
 62
     7
420
 16777215
370
     9
100
AcDbVertex
100
AcDb2dVertex
 10
95.27539997618152
 20
174.6862041446963
 30
0.0
  0
SEQEND
  5
75C
330
759
100
AcDbEntity
  8
Bema_U+00DFung
 62
     7
420
 16777215
370
     9
  0
POLYLINE
  5
75D
330
1F
100
AcDbEntity
  8
Bema_U+00DFung
 62
     7
420
 16777215
370
     9
100
AcDb2dPolyline
 66
     1
 10
0.0
 20
0.0
 30
0.0
  0
VERTEX
  5
75E
330
75D
100
AcDbEntity
  8
Bema_U+00DFung
 62
     7
420
 16777215
370
     9
100
AcDbVertex
100
AcDb2dVertex
 10
93.31889442111499
 20
174.7370041446837
 30
0.0
  0
VERTEX
  5
75F
330
75D
100
AcDbEntity
  8
Bema_U+00DFung
 62
     7
420
 16777215
370
     9
100
AcDbVertex
100
AcDb2dVertex
 10
95.66133886497394
 20
174.7370041446837
 30
0.0
  0
SEQEND
  5
760
330
75D
100
AcDbEntity
  8
Bema_U+00DFung
 62
     7
420
 16777215
370
     9
  0
POLYLINE
  5
761
330
1F
100
AcDbEntity
  8
Bema_U+00DFung
 62
     7
420
 16777215
370
     9
100
AcDb2dPolyline
 66
     1
 10
0.0
 20
0.0
 30
0.0
  0
VERTEX
  5
762
330
761
100
AcDbEntity
  8
Bema_U+00DFung
 62
     7
420
 16777215
370
     9
100
AcDbVertex
100
AcDb2dVertex
 10
93.31889442111499
 20
174.7878041446711
 30
0.0
  0
VERTEX
  5
763
330
761
100
AcDbEntity
  8
Bema_U+00DFung
 62
     7
420
 16777215
370
     9
100
AcDbVertex
100
AcDb2dVertex
 10
96.04727775376604
 20
174.7878041446711
 30
0.0
  0
SEQEND
  5
764
330
761
100
AcDbEntity
  8
Bema_U+00DFung
 62
     7
420
 16777215
370
     9
  0
POLYLINE
  5
765
330
1F
100
AcDbEntity
  8
Bema_U+00DFung
 62
     7
420
 16777215
370
     9
100
AcDb2dPolyline
 66
     1
 10
0.0
 20
0.0
 30
0.0
  0
VERTEX
  5
766
330
765
100
AcDbEntity
  8
Bema_U+00DFung
 62
     7
420
 16777215
370
     9
100
AcDbVertex
100
AcDb2dVertex
 10
93.31889442111499
 20
174.8386041446585
 30
0.0
  0
VERTEX
  5
767
330
765
100
AcDbEntity
  8
Bema_U+00DFung
 62
     7
420
 16777215
370
     9
100
AcDbVertex
100
AcDb2dVertex
 10
96.43286386478103
 20
174.8386041446585
 30
0.0
  0
SEQEND
  5
768
330
765
100
AcDbEntity
  8
Bema_U+00DFung
 62
     7
420
 16777215
370
     9
  0
POLYLINE
  5
769
330
1F
100
AcDbEntity
  8
Bema_U+00DFung
 62
     7
420
 16777215
370
     9
100
AcDb2dPolyline
 66
     1
 10
0.0
 20
0.0
 30
0.0
  0
VERTEX
  5
76A
330
769
100
AcDbEntity
  8
Bema_U+00DFung
 62
     7
420
 16777215
370
     9
100
AcDbVertex
100
AcDb2dVertex
 10
93.31889442111499
 20
174.8894041446455
 30
0.0
  0
VERTEX
  5
76B
330
769
100
AcDbEntity
  8
Bema_U+00DFung
 62
     7
420
 16777215
370
     9
100
AcDbVertex
100
AcDb2dVertex
 10
96.81880275357344
 20
174.8894041446455
 30
0.0
  0
SEQEND
  5
76C
330
769
100
AcDbEntity
  8
Bema_U+00DFung
 62
     7
420
 16777215
370
     9
  0
MTEXT
  5
76E
330
1F
100
AcDbEntity
  8
Text
 62
     7
420
 16777215
100
AcDbMText
 10
-13.73401310895257
 20
210.3016854661132
 30
0.0
 40
3.447529173370601
 41
0.0
 46
0.0
 71
     7
 72
     1
  1
\fINDEX Univers 45 Light|b0|i0|c0|p34;\W0.866;ø13H6
 11
6.123233995736766E-17
 21
1.0
 31
0.0
 73
     1
 44
1.0
  0
MTEXT
  5
76F
330
1F
100
AcDbEntity
  8
Text
 62
     7
420
 16777215
100
AcDbMText
 10
11.14570210496097
 20
232.9137881560975
 30
0.0
 40
3.447529173370601
 41
0.0
 46
0.0
 71
     7
 72
     1
  1
\fINDEX Univers 45 Light|b0|i0|c0|p34;\W0.866;32
 73
     1
 44
1.0
  0
MTEXT
  5
770
330
1F
100
AcDbEntity
  8
Text
 62
     7
420
 16777215
100
AcDbMText
 10
111.8598496051459
 20
195.7839871499896
 30
0.0
 40
3.447529173370601
 41
0.0
 46
0.0
 71
     7
 72
     1
  1
\fINDEX Univers 45 Light|b0|i0|c0|p34;\W0.866;ø24h6
 11
6.123233995736766E-17
 21
1.0
 31
0.0
 73
     1
 44
1.0
  0
MTEXT
  5
771
330
1F
100
AcDbEntity
  8
Text
 62
     7
420
 16777215
100
AcDbMText
 10
14.94652523090964
 20
176.6451393533539
 30
0.0
 40
3.447529173370601
 41
0.0
 46
0.0
 71
     7
 72
     1
  1
\fINDEX Univers 45 Light|b0|i0|c0|p34;\W0.866;40
 73
     1
 44
1.0
  0
MTEXT
  5
772
330
1F
100
AcDbEntity
  8
Text
 62
     7
420
 16777215
100
AcDbMText
 10
65.10866578911563
 20
176.6451393533539
 30
0.0
 40
3.447529173370601
 41
0.0
 46
0.0
 71
     7
 72
     1
  1
\fINDEX Univers 45 Light|b0|i0|c0|p34;\W0.866;60
 73
     1
 44
1.0
  0
ENDSEC
  0
SECTION
  2
OBJECTS
  0
DICTIONARY
  5
C
330
0
100
AcDbDictionary
281
     1
  3
ACAD_GROUP
350
D
  3
ACAD_LAYOUT
350
1A
  3
ACAD_MATERIAL
350
3B
  3
ACAD_MLEADERSTYLE
350
774
  3
ACAD_MLINESTYLE
350
17
  3
ACAD_PLOTSETTINGS
350
19
  3
ACAD_PLOTSTYLENAME
350
E
  3
ACAD_TABLESTYLE
350
773
  3
ACAD_VISUALSTYLE
350
2A
  0
SUN
  5
3F
330
29
100
AcDbSun
 90
        1
290
     0
 63
     7
421
 16777215
 40
1.0
291
     1
 91
  2455826
 92
 54000000
292
     0
 70
     2
 71
   256
280
     1
  0
DICTIONARY
  5
D
102
{ACAD_REACTORS
330
C
102
}
330
C
100
AcDbDictionary
281
     1
  0
DICTIONARY
  5
1A
102
{ACAD_REACTORS
330
C
102
}
330
C
100
AcDbDictionary
281
     1
  3
Layout1
350
1E
  3
Layout2
350
26
  3
Model
350
22
  0
DICTIONARY
  5
3B
102
{ACAD_REACTORS
330
C
102
}
330
C
100
AcDbDictionary
281
     1
  3
ByBlock
350
3D
  3
ByLayer
350
3C
  3
Global
350
3E
  0
DICTIONARY
  5
774
102
{ACAD_REACTORS
330
C
102
}
330
C
100
AcDbDictionary
281
     1
  0
DICTIONARY
  5
17
102
{ACAD_REACTORS
330
C
102
}
330
C
100
AcDbDictionary
281
     1
  3
Standard
350
18
  0
DICTIONARY
  5
19
102
{ACAD_REACTORS
330
C
102
}
330
C
100
AcDbDictionary
281
     1
  0
ACDBDICTIONARYWDFLT
  5
E
102
{ACAD_REACTORS
330
C
102
}
330
C
100
AcDbDictionary
281
     1
  3
Normal
350
F
100
AcDbDictionaryWithDefault
340
F
  0
DICTIONARY
  5
773
102
{ACAD_REACTORS
330
C
102
}
330
C
100
AcDbDictionary
281
     1
  0
DICTIONARY
  5
2A
102
{ACAD_REACTORS
330
C
102
}
330
C
100
AcDbDictionary
281
     1
  3
2dWireframe
350
2F
  3
3D Hidden
350
31
  3
3dWireframe
350
30
  3
Basic
350
32
  3
Brighten
350
36
  3
ColorChange
350
3A
  3
Conceptual
350
34
  3
Dim
350
35
  3
Facepattern
350
39
  3
Flat
350
2B
  3
FlatWithEdges
350
2C
  3
Gouraud
350
2D
  3
GouraudWithEdges
350
2E
  3
Linepattern
350
38
  3
Realistic
350
33
  3
Thicken
350
37
  0
LAYOUT
  5
1E
102
{ACAD_REACTORS
330
1A
102
}
330
1A
100
AcDbPlotSettings
  1

  2
none_device
  4

  6

 40
0.0
 41
0.0
 42
0.0
 43
0.0
 44
0.0
 45
0.0
 46
0.0
 47
0.0
 48
0.0
 49
0.0
140
0.0
141
0.0
142
1.0
143
1.0
 70
   688
 72
     0
 73
     0
 74
     5
  7

 75
    16
 76
     0
 77
     2
 78
   300
147
1.0
148
0.0
149
0.0
100
AcDbLayout
  1
Layout1
 70
     1
 71
     1
 10
0.0
 20
0.0
 11
12.0
 21
9.0
 12
0.0
 22
0.0
 32
0.0
 14
1.000000000000000E+20
 24
1.000000000000000E+20
 34
1.000000000000000E+20
 15
-1.000000000000000E+20
 25
-1.000000000000000E+20
 35
-1.000000000000000E+20
146
0.0
 13
0.0
 23
0.0
 33
0.0
 16
1.0
 26
0.0
 36
0.0
 17
0.0
 27
1.0
 37
0.0
 76
     0
330
1B
  0
LAYOUT
  5
26
102
{ACAD_REACTORS
330
1A
102
}
330
1A
100
AcDbPlotSettings
  1

  2
none_device
  4

  6

 40
0.0
 41
0.0
 42
0.0
 43
0.0
 44
0.0
 45
0.0
 46
0.0
 47
0.0
 48
0.0
 49
0.0
140
0.0
141
0.0
142
1.0
143
1.0
 70
   688
 72
     0
 73
     0
 74
     5
  7

 75
    16
 76
     0
 77
     2
 78
   300
147
1.0
148
0.0
149
0.0
100
AcDbLayout
  1
Layout2
 70
     1
 71
     2
 10
0.0
 20
0.0
 11
0.0
 21
0.0
 12
0.0
 22
0.0
 32
0.0
 14
0.0
 24
0.0
 34
0.0
 15
0.0
 25
0.0
 35
0.0
146
0.0
 13
0.0
 23
0.0
 33
0.0
 16
1.0
 26
0.0
 36
0.0
 17
0.0
 27
1.0
 37
0.0
 76
     0
330
23
  0
LAYOUT
  5
22
102
{ACAD_REACTORS
330
1A
102
}
330
1A
100
AcDbPlotSettings
  1

  2
none_device
  4

  6

 40
0.0
 41
0.0
 42
0.0
 43
0.0
 44
0.0
 45
0.0
 46
0.0
 47
0.0
 48
0.0
 49
0.0
140
0.0
141
0.0
142
1.0
143
1.0
 70
  1712
 72
     0
 73
     0
 74
     0
  7

 75
     0
 76
     0
 77
     2
 78
   300
147
1.0
148
0.0
149
0.0
100
AcDbLayout
  1
Model
 70
     1
 71
     0
 10
0.0
 20
0.0
 11
12.0
 21
9.0
 12
0.0
 22
0.0
 32
0.0
 14
1.000000000000000E+20
 24
1.000000000000000E+20
 34
1.000000000000000E+20
 15
-1.000000000000000E+20
 25
-1.000000000000000E+20
 35
-1.000000000000000E+20
146
0.0
 13
0.0
 23
0.0
 33
0.0
 16
1.0
 26
0.0
 36
0.0
 17
0.0
 27
1.0
 37
0.0
 76
     0
330
1F
331
29
  0
MATERIAL
  5
3D
102
{ACAD_REACTORS
330
3B
102
}
330
3B
100
AcDbMaterial
  1
ByBlock
 72
     1
 94
      127
  0
MATERIAL
  5
3C
102
{ACAD_REACTORS
330
3B
102
}
330
3B
100
AcDbMaterial
  1
ByLayer
 72
     1
 94
      127
  0
MATERIAL
  5
3E
102
{ACAD_REACTORS
330
3B
102
}
330
3B
100
AcDbMaterial
  1
Global
 72
     1
 94
      127
  0
MLINESTYLE
  5
18
102
{ACAD_REACTORS
330
17
102
}
330
17
100
AcDbMlineStyle
  2
Standard
 70
     0
  3

 62
   256
 51
90.0
 52
90.0
 71
     2
 49
0.5
 62
   256
  6
BYLAYER
 49
-0.5
 62
   256
  6
BYLAYER
  0
ACDBPLACEHOLDER
  5
F
102
{ACAD_REACTORS
330
E
102
}
330
E
  0
VISUALSTYLE
  5
2F
102
{ACAD_REACTORS
330
2A
102
}
330
2A
100
AcDbVisualStyle
  2
2dWireframe
 70
     4
177
     2
291
     0
 71
     0
176
     1
 72
     2
176
     1
 73
     0
176
     1
 90
        0
176
     1
 40
-0.6
176
     1
 41
-30.0
176
     1
 62
     5
 63
     7
421
 16777215
176
     1
 74
     1
176
     1
 91
        4
176
     1
 64
     7
176
     1
 65
   257
176
     1
 75
     1
176
     1
175
     1
176
     1
 42
1.0
176
     1
 92
        0
176
     1
 66
   257
176
     1
 43
1.0
176
     1
 76
     1
176
     1
 77
     6
176
     1
 78
     2
176
     1
 67
     7
176
     1
 79
     5
176
     1
170
     0
176
     1
171
     0
176
     1
290
     0
176
     1
 93
        1
176
     1
 44
0.0
176
     1
173
     0
176
     1
  0
VISUALSTYLE
  5
31
102
{ACAD_REACTORS
330
2A
102
}
330
2A
100
AcDbVisualStyle
  2
3D Hidden
 70
     6
177
     2
291
     0
 71
     1
176
     1
 72
     2
176
     1
 73
     2
176
     1
 90
        0
176
     1
 40
-0.6
176
     1
 41
-30.0
176
     1
 62
     5
 63
     7
421
 16777215
176
     1
 74
     2
176
     1
 91
        2
176
     1
 64
     7
176
     1
 65
   257
176
     1
 75
     2
176
     1
175
     1
176
     1
 42
40.0
176
     1
 92
        0
176
     1
 66
   257
176
     1
 43
1.0
176
     1
 76
     1
176
     1
 77
     6
176
     1
 78
     2
176
     1
 67
     7
176
     1
 79
     3
176
     1
170
     0
176
     1
171
     0
176
     1
290
     0
176
     1
 93
        1
176
     1
 44
0.0
176
     1
173
     0
176
     1
  0
VISUALSTYLE
  5
30
102
{ACAD_REACTORS
330
2A
102
}
330
2A
100
AcDbVisualStyle
  2
3dWireframe
 70
     5
177
     2
291
     0
 71
     0
176
     1
 72
     2
176
     1
 73
     0
176
     1
 90
        0
176
     1
 40
-0.6
176
     1
 41
-30.0
176
     1
 62
     5
 63
     7
421
 16777215
176
     1
 74
     1
176
     1
 91
        4
176
     1
 64
     7
176
     1
 65
   257
176
     1
 75
     1
176
     1
175
     1
176
     1
 42
1.0
176
     1
 92
        0
176
     1
 66
   257
176
     1
 43
1.0
176
     1
 76
     1
176
     1
 77
     6
176
     1
 78
     2
176
     1
 67
     7
176
     1
 79
     5
176
     1
170
     0
176
     1
171
     0
176
     1
290
     0
176
     1
 93
        1
176
     1
 44
0.0
176
     1
173
     0
176
     1
  0
VISUALSTYLE
  5
32
102
{ACAD_REACTORS
330
2A
102
}
330
2A
100
AcDbVisualStyle
  2
Basic
 70
     7
177
     2
291
     1
 71
     1
176
     1
 72
     0
176
     1
 73
     1
176
     1
 90
        0
176
     1
 40
-0.6
176
     1
 41
-30.0
176
     1
 62
     5
 63
     7
421
 16777215
176
     1
 74
     0
176
     1
 91
        4
176
     1
 64
     7
176
     1
 65
   257
176
     1
 75
     1
176
     1
175
     1
176
     1
 42
1.0
176
     1
 92
        8
176
     1
 66
     7
176
     1
 43
1.0
176
     1
 76
     1
176
     1
 77
     6
176
     1
 78
     2
176
     1
 67
     7
176
     1
 79
     5
176
     1
170
     0
176
     1
171
     0
176
     1
290
     0
176
     1
 93
        1
176
     1
 44
0.0
176
     1
173
     0
176
     1
  0
VISUALSTYLE
  5
36
102
{ACAD_REACTORS
330
2A
102
}
330
2A
100
AcDbVisualStyle
  2
Brighten
 70
    12
177
     2
291
     1
 71
     2
176
     1
 72
     2
176
     1
 73
     0
176
     1
 90
        0
176
     1
 40
-0.6
176
     1
 41
-30.0
176
     1
 62
     5
 63
     7
421
 16777215
176
     1
 74
     1
176
     1
 91
        4
176
     1
 64
     7
176
     1
 65
   257
176
     1
 75
     1
176
     1
175
     1
176
     1
 42
1.0
176
     1
 92
        8
176
     1
 66
     7
176
     1
 43
1.0
176
     1
 76
     1
176
     1
 77
     6
176
     1
 78
     2
176
     1
 67
     7
176
     1
 79
     5
176
     1
170
     0
176
     1
171
     0
176
     1
290
     0
176
     1
 93
        1
176
     1
 44
50.0
176
     1
173
     0
176
     1
  0
VISUALSTYLE
  5
3A
102
{ACAD_REACTORS
330
2A
102
}
330
2A
100
AcDbVisualStyle
  2
ColorChange
 70
    16
177
     2
291
     1
 71
     2
176
     1
 72
     2
176
     1
 73
     3
176
     1
 90
        0
176
     1
 40
-0.6
176
     1
 41
-30.0
176
     1
 62
     5
 63
     8
421
  8421504
176
     1
 74
     1
176
     1
 91
        4
176
     1
 64
     7
176
     1
 65
   257
176
     1
 75
     1
176
     1
175
     1
176
     1
 42
1.0
176
     1
 92
        8
176
     1
 66
     8
424
  8421504
176
     1
 43
1.0
176
     1
 76
     1
176
     1
 77
     6
176
     1
 78
     2
176
     1
 67
     7
176
     1
 79
     5
176
     1
170
     0
176
     1
171
     0
176
     1
290
     0
176
     1
 93
        1
176
     1
 44
0.0
176
     1
173
     0
176
     1
  0
VISUALSTYLE
  5
34
102
{ACAD_REACTORS
330
2A
102
}
330
2A
100
AcDbVisualStyle
  2
Conceptual
 70
     9
177
     2
291
     0
 71
     3
176
     1
 72
     2
176
     1
 73
     0
176
     1
 90
        0
176
     1
 40
-0.6
176
     1
 41
-30.0
176
     1
 62
     5
 63
     7
421
 16777215
176
     1
 74
     2
176
     1
 91
        2
176
     1
 64
     7
176
     1
 65
   257
176
     1
 75
     1
176
     1
175
     1
176
     1
 42
40.0
176
     1
 92
        8
176
     1
 66
     7
176
     1
 43
1.0
176
     1
 76
     1
176
     1
 77
     6
176
     1
 78
     2
176
     1
 67
     7
176
     1
 79
     3
176
     1
170
     0
176
     1
171
     0
176
     1
290
     0
176
     1
 93
        1
176
     1
 44
0.0
176
     1
173
     0
176
     1
  0
VISUALSTYLE
  5
35
102
{ACAD_REACTORS
330
2A
102
}
330
2A
100
AcDbVisualStyle
  2
Dim
 70
    11
177
     2
291
     1
 71
     2
176
     1
 72
     2
176
     1
 73
     0
176
     1
 90
        0
176
     1
 40
-0.6
176
     1
 41
-30.0
176
     1
 62
     5
 63
     7
421
 16777215
176
     1
 74
     1
176
     1
 91
        4
176
     1
 64
     7
176
     1
 65
   257
176
     1
 75
     1
176
     1
175
     1
176
     1
 42
1.0
176
     1
 92
        8
176
     1
 66
     7
176
     1
 43
1.0
176
     1
 76
     1
176
     1
 77
     6
176
     1
 78
     2
176
     1
 67
     7
176
     1
 79
     5
176
     1
170
     0
176
     1
171
     0
176
     1
290
     0
176
     1
 93
        1
176
     1
 44
-50.0
176
     1
173
     0
176
     1
  0
VISUALSTYLE
  5
39
102
{ACAD_REACTORS
330
2A
102
}
330
2A
100
AcDbVisualStyle
  2
Facepattern
 70
    15
177
     2
291
     1
 71
     2
176
     1
 72
     2
176
     1
 73
     0
176
     1
 90
        0
176
     1
 40
-0.6
176
     1
 41
-30.0
176
     1
 62
     5
 63
     7
421
 16777215
176
     1
 74
     1
176
     1
 91
        4
176
     1
 64
     7
176
     1
 65
   257
176
     1
 75
     1
176
     1
175
     1
176
     1
 42
1.0
176
     1
 92
        8
176
     1
 66
     7
176
     1
 43
1.0
176
     1
 76
     1
176
     1
 77
     6
176
     1
 78
     2
176
     1
 67
     7
176
     1
 79
     5
176
     1
170
     0
176
     1
171
     0
176
     1
290
     0
176
     1
 93
        1
176
     1
 44
0.0
176
     1
173
     0
176
     1
  0
VISUALSTYLE
  5
2B
102
{ACAD_REACTORS
330
2A
102
}
330
2A
100
AcDbVisualStyle
  2
Flat
 70
     0
177
     2
291
     1
 71
     2
176
     1
 72
     1
176
     1
 73
     1
176
     1
 90
        2
176
     1
 40
-0.6
176
     1
 41
30.0
176
     1
 62
     5
 63
     7
421
 16777215
176
     1
 74
     0
176
     1
 91
        4
176
     1
 64
     7
176
     1
 65
   257
176
     1
 75
     1
176
     1
175
     1
176
     1
 42
1.0
176
     1
 92
        8
176
     1
 66
     7
176
     1
 43
1.0
176
     1
 76
     1
176
     1
 77
     6
176
     1
 78
     2
176
     1
 67
     7
176
     1
 79
     5
176
     1
170
     0
176
     1
171
     0
176
     1
290
     0
176
     1
 93
       13
176
     1
 44
0.0
176
     1
173
     0
176
     1
  0
VISUALSTYLE
  5
2C
102
{ACAD_REACTORS
330
2A
102
}
330
2A
100
AcDbVisualStyle
  2
FlatWithEdges
 70
     1
177
     2
291
     1
 71
     2
176
     1
 72
     1
176
     1
 73
     1
176
     1
 90
        2
176
     1
 40
-0.6
176
     1
 41
30.0
176
     1
 62
     5
 63
     7
421
 16777215
176
     1
 74
     1
176
     1
 91
        4
176
     1
 64
     7
176
     1
 65
   257
176
     1
 75
     1
176
     1
175
     1
176
     1
 42
1.0
176
     1
 92
        0
176
     1
 66
   257
176
     1
 43
1.0
176
     1
 76
     1
176
     1
 77
     6
176
     1
 78
     2
176
     1
 67
     7
176
     1
 79
     5
176
     1
170
     0
176
     1
171
     0
176
     1
290
     0
176
     1
 93
       13
176
     1
 44
0.0
176
     1
173
     0
176
     1
  0
VISUALSTYLE
  5
2D
102
{ACAD_REACTORS
330
2A
102
}
330
2A
100
AcDbVisualStyle
  2
Gouraud
 70
     2
177
     2
291
     1
 71
     2
176
     1
 72
     2
176
     1
 73
     1
176
     1
 90
        2
176
     1
 40
-0.6
176
     1
 41
30.0
176
     1
 62
     5
 63
     7
421
 16777215
176
     1
 74
     0
176
     1
 91
        4
176
     1
 64
     7
176
     1
 65
   257
176
     1
 75
     1
176
     1
175
     1
176
     1
 42
1.0
176
     1
 92
        0
176
     1
 66
     7
176
     1
 43
1.0
176
     1
 76
     1
176
     1
 77
     6
176
     1
 78
     2
176
     1
 67
     7
176
     1
 79
     5
176
     1
170
     0
176
     1
171
     0
176
     1
290
     0
176
     1
 93
       13
176
     1
 44
0.0
176
     1
173
     0
176
     1
  0
VISUALSTYLE
  5
2E
102
{ACAD_REACTORS
330
2A
102
}
330
2A
100
AcDbVisualStyle
  2
GouraudWithEdges
 70
     3
177
     2
291
     1
 71
     2
176
     1
 72
     2
176
     1
 73
     1
176
     1
 90
        2
176
     1
 40
-0.6
176
     1
 41
30.0
176
     1
 62
     5
 63
     7
421
 16777215
176
     1
 74
     1
176
     1
 91
        4
176
     1
 64
     7
176
     1
 65
   257
176
     1
 75
     1
176
     1
175
     1
176
     1
 42
1.0
176
     1
 92
        0
176
     1
 66
   257
176
     1
 43
1.0
176
     1
 76
     1
176
     1
 77
     6
176
     1
 78
     2
176
     1
 67
     7
176
     1
 79
     5
176
     1
170
     0
176
     1
171
     0
176
     1
290
     0
176
     1
 93
       13
176
     1
 44
0.0
176
     1
173
     0
176
     1
  0
VISUALSTYLE
  5
38
102
{ACAD_REACTORS
330
2A
102
}
330
2A
100
AcDbVisualStyle
  2
Linepattern
 70
    14
177
     2
291
     1
 71
     2
176
     1
 72
     2
176
     1
 73
     0
176
     1
 90
        0
176
     1
 40
-0.6
176
     1
 41
-30.0
176
     1
 62
     5
 63
     7
421
 16777215
176
     1
 74
     1
176
     1
 91
        4
176
     1
 64
     7
176
     1
 65
   257
176
     1
 75
     7
176
     1
175
     7
176
     1
 42
1.0
176
     1
 92
        8
176
     1
 66
     7
176
     1
 43
1.0
176
     1
 76
     1
176
     1
 77
     6
176
     1
 78
     2
176
     1
 67
     7
176
     1
 79
     5
176
     1
170
     0
176
     1
171
     0
176
     1
290
     0
176
     1
 93
        1
176
     1
 44
0.0
176
     1
173
     0
176
     1
  0
VISUALSTYLE
  5
33
102
{ACAD_REACTORS
330
2A
102
}
330
2A
100
AcDbVisualStyle
  2
Realistic
 70
     8
177
     2
291
     0
 71
     2
176
     1
 72
     2
176
     1
 73
     0
176
     1
 90
        0
176
     1
 40
-0.6
176
     1
 41
-30.0
176
     1
 62
     5
 63
     7
421
 16777215
176
     1
 74
     1
176
     1
 91
        0
176
     1
 64
     7
176
     1
 65
   257
176
     1
 75
     1
176
     1
175
     1
176
     1
 42
1.0
176
     1
 92
        8
176
     1
 66
     8
424
  7895160
176
     1
 43
1.0
176
     1
 76
     1
176
     1
 77
     6
176
     1
 78
     2
176
     1
 67
     7
176
     1
 79
     5
176
     1
170
     0
176
     1
171
     0
176
     1
290
     0
176
     1
 93
       13
176
     1
 44
0.0
176
     1
173
     0
176
     1
  0
VISUALSTYLE
  5
37
102
{ACAD_REACTORS
330
2A
102
}
330
2A
100
AcDbVisualStyle
  2
Thicken
 70
    13
177
     2
291
     1
 71
     2
176
     1
 72
     2
176
     1
 73
     0
176
     1
 90
        0
176
     1
 40
-0.6
176
     1
 41
-30.0
176
     1
 62
     5
 63
     7
421
 16777215
176
     1
 74
     1
176
     1
 91
        4
176
     1
 64
     7
176
     1
 65
   257
176
     1
 75
     1
176
     1
175
     1
176
     1
 42
1.0
176
     1
 92
       12
176
     1
 66
     7
176
     1
 43
1.0
176
     1
 76
     1
176
     1
 77
     6
176
     1
 78
     2
176
     1
 67
     7
176
     1
 79
     5
176
     1
170
     0
176
     1
171
     0
176
     1
290
     0
176
     1
 93
        1
176
     1
 44
0.0
176
     1
173
     0
176
     1
  0
ENDSEC
  0
EOF
