  0
SECTION
  2
HEADER
  9
$ACADVER
  1
AC1014
  9
$ACADMAINTVER
 70
     9
  9
$DWGCODEPAGE
  3
ANSI_1252
  9
$INSBASE
 10
0.0
 20
0.0
 30
0.0
  9
$EXTMIN
 10
1.000000000000000E+20
 20
1.000000000000000E+20
 30
1.000000000000000E+20
  9
$EXTMAX
 10
-1.000000000000000E+20
 20
-1.000000000000000E+20
 30
-1.000000000000000E+20
  9
$LIMMIN
 10
0.0
 20
0.0
  9
$LIMMAX
 10
12.0
 20
9.0
  9
$ORTHOMODE
 70
     0
  9
$REGENMODE
 70
     1
  9
$FILLMODE
 70
     1
  9
$QTEXTMODE
 70
     0
  9
$MIRRTEXT
 70
     1
  9
$DRAGMODE
 70
     2
  9
$LTSCALE
 40
1.0
  9
$OSMODE
 70
    37
  9
$ATTMODE
 70
     1
  9
$TEXTSIZE
 40
0.2
  9
$TRACEWID
 40
0.05
  9
$TEXTSTYLE
  7
STANDARD
  9
$CLAYER
  8
0
  9
$CELTYPE
  6
BYLAYER
  9
$CECOLOR
 62
   256
  9
$CELTSCALE
 40
1.0
  9
$DELOBJ
 70
     1
  9
$DISPSILH
 70
     0
  9
$DIMSCALE
 40
1.0
  9
$DIMASZ
 40
0.18
  9
$DIMEXO
 40
0.0625
  9
$DIMDLI
 40
0.38
  9
$DIMRND
 40
0.0
  9
$DIMDLE
 40
0.0
  9
$DIMEXE
 40
0.18
  9
$DIMTP
 40
0.0
  9
$DIMTM
 40
0.0
  9
$DIMTXT
 40
0.18
  9
$DIMCEN
 40
0.09
  9
$DIMTSZ
 40
0.0
  9
$DIMTOL
 70
     0
  9
$DIMLIM
 70
     0
  9
$DIMTIH
 70
     1
  9
$DIMTOH
 70
     1
  9
$DIMSE1
 70
     0
  9
$DIMSE2
 70
     0
  9
$DIMTAD
 70
     0
  9
$DIMZIN
 70
     0
  9
$DIMBLK
  1

  9
$DIMASO
 70
     1
  9
$DIMSHO
 70
     1
  9
$DIMPOST
  1

  9
$DIMAPOST
  1

  9
$DIMALT
 70
     0
  9
$DIMALTD
 70
     2
  9
$DIMALTF
 40
25.4
  9
$DIMLFAC
 40
1.0
  9
$DIMTOFL
 70
     0
  9
$DIMTVP
 40
0.0
  9
$DIMTIX
 70
     0
  9
$DIMSOXD
 70
     0
  9
$DIMSAH
 70
     0
  9
$DIMBLK1
  1

  9
$DIMBLK2
  1

  9
$DIMSTYLE
  2
STANDARD
  9
$DIMCLRD
 70
     0
  9
$DIMCLRE
 70
     0
  9
$DIMCLRT
 70
     0
  9
$DIMTFAC
 40
1.0
  9
$DIMGAP
 40
0.09
  9
$DIMJUST
 70
     0
  9
$DIMSD1
 70
     0
  9
$DIMSD2
 70
     0
  9
$DIMTOLJ
 70
     1
  9
$DIMTZIN
 70
     0
  9
$DIMALTZ
 70
     0
  9
$DIMALTTZ
 70
     0
  9
$DIMFIT
 70
     3
  9
$DIMUPT
 70
     0
  9
$DIMUNIT
 70
     2
  9
$DIMDEC
 70
     4
  9
$DIMTDEC
 70
     4
  9
$DIMALTU
 70
     2
  9
$DIMALTTD
 70
     2
  9
$DIMTXSTY
  7
STANDARD
  9
$DIMAUNIT
 70
     0
  9
$LUNITS
 70
     2
  9
$LUPREC
 70
     4
  9
$SKETCHINC
 40
0.1
  9
$FILLETRAD
 40
0.5
  9
$AUNITS
 70
     0
  9
$AUPREC
 70
     0
  9
$MENU
  1
.
  9
$ELEVATION
 40
0.0
  9
$PELEVATION
 40
0.0
  9
$THICKNESS
 40
0.0
  9
$LIMCHECK
 70
     0
  9
$CHAMFERA
 40
0.5
  9
$CHAMFERB
 40
0.5
  9
$CHAMFERC
 40
1.0
  9
$CHAMFERD
 40
0.0
  9
$SKPOLY
 70
     0
  9
$TDCREATE
 40
2458339.488811134
  9
$TDUPDATE
 40
2458339.488811146
  9
$TDINDWG
 40
0.0000000116
  9
$TDUSRTIMER
 40
0.0000000116
  9
$USRTIMER
 70
     1
  9
$ANGBASE
 50
0.0
  9
$ANGDIR
 70
     0
  9
$PDMODE
 70
     0
  9
$PDSIZE
 40
0.0
  9
$PLINEWID
 40
0.0
  9
$COORDS
 70
     1
  9
$SPLFRAME
 70
     0
  9
$SPLINETYPE
 70
     6
  9
$SPLINESEGS
 70
     8
  9
$ATTDIA
 70
     0
  9
$ATTREQ
 70
     1
  9
$HANDLING
 70
     1
  9
$HANDSEED
  5
561
  9
$SURFTAB1
 70
     6
  9
$SURFTAB2
 70
     6
  9
$SURFTYPE
 70
     6
  9
$SURFU
 70
     6
  9
$SURFV
 70
     6
  9
$UCSNAME
  2

  9
$UCSORG
 10
0.0
 20
0.0
 30
0.0
  9
$UCSXDIR
 10
1.0
 20
0.0
 30
0.0
  9
$UCSYDIR
 10
0.0
 20
1.0
 30
0.0
  9
$PUCSNAME
  2

  9
$PUCSORG
 10
0.0
 20
0.0
 30
0.0
  9
$PUCSXDIR
 10
1.0
 20
0.0
 30
0.0
  9
$PUCSYDIR
 10
0.0
 20
1.0
 30
0.0
  9
$USERI1
 70
     0
  9
$USERI2
 70
     0
  9
$USERI3
 70
     0
  9
$USERI4
 70
     0
  9
$USERI5
 70
     0
  9
$USERR1
 40
0.0
  9
$USERR2
 40
0.0
  9
$USERR3
 40
0.0
  9
$USERR4
 40
0.0
  9
$USERR5
 40
0.0
  9
$WORLDVIEW
 70
     1
  9
$SHADEDGE
 70
     3
  9
$SHADEDIF
 70
    70
  9
$TILEMODE
 70
     1
  9
$MAXACTVP
 70
    64
  9
$PINSBASE
 10
0.0
 20
0.0
 30
0.0
  9
$PLIMCHECK
 70
     0
  9
$PEXTMIN
 10
1.000000000000000E+20
 20
1.000000000000000E+20
 30
1.000000000000000E+20
  9
$PEXTMAX
 10
-1.000000000000000E+20
 20
-1.000000000000000E+20
 30
-1.000000000000000E+20
  9
$PLIMMIN
 10
0.0
 20
0.0
  9
$PLIMMAX
 10
12.0
 20
9.0
  9
$UNITMODE
 70
     0
  9
$VISRETAIN
 70
     1
  9
$PLINEGEN
 70
     0
  9
$PSLTSCALE
 70
     1
  9
$TREEDEPTH
 70
  3020
  9
$PICKSTYLE
 70
     1
  9
$CMLSTYLE
  2
STANDARD
  9
$CMLJUST
 70
     0
  9
$CMLSCALE
 40
1.0
  9
$PROXYGRAPHICS
 70
     1
  9
$MEASUREMENT
 70
     0
  0
ENDSEC
  0
SECTION
  2
CLASSES
  0
CLASS
  1
ACDBDICTIONARYWDFLT
  2
AcDbDictionaryWithDefault
  3
ObjectDBX Classes
 90
        0
280
     0
281
     0
  0
CLASS
  1
VISUALSTYLE
  2
AcDbVisualStyle
  3
ObjectDBX Classes
 90
     4095
280
     0
281
     0
  0
CLASS
  1
XRECORD
  2
AcDbXrecord
  3
AutoCAD 2000
 90
        0
280
     0
281
     0
  0
CLASS
  1
LWPOLYLINE
  2
AcDbPolyline
  3
AutoCAD 2000
 90
        0
280
     0
281
     1
  0
CLASS
  1
HATCH
  2
AcDbHatch
  3
AutoCAD 2000
 90
        0
280
     0
281
     1
  0
CLASS
  1
ACDBPLACEHOLDER
  2
AcDbPlaceHolder
  3
ObjectDBX Classes
 90
        0
280
     0
281
     0
  0
CLASS
  1
LAYOUT
  2
AcDbLayout
  3
ObjectDBX Classes
 90
        0
280
     0
281
     0
  0
ENDSEC
  0
SECTION
  2
TABLES
  0
TABLE
  2
VPORT
  5
8
330
0
100
AcDbSymbolTable
 70
     1
  0
VPORT
  5
29
330
8
100
AcDbSymbolTableRecord
100
AcDbViewportTableRecord
  2
*ACTIVE
 70
     0
 10
0.0
 20
0.0
 11
1.0
 21
1.0
 12
0.0
 22
0.0
 13
0.0
 23
0.0
 14
0.5
 24
0.5
 15
0.5
 25
0.5
 16
0.0
 26
0.0
 36
1.0
 17
100.0620232225973
 27
166.5195515534222
 37
0.0
 40
217.9997856442848
 41
1.192662413497202
 42
50.0
 43
0.0
 44
0.0
 50
0.0
 51
0.0
 71
     0
 72
   100
 73
     1
 74
     3
 75
     0
 76
     0
 77
     0
 78
     0
  0
ENDTAB
  0
TABLE
  2
LTYPE
  5
5
330
0
100
AcDbSymbolTable
 70
     3
  0
LTYPE
  5
14
330
5
100
AcDbSymbolTableRecord
100
AcDbLinetypeTableRecord
  2
BYBLOCK
 70
     0
  3

 72
    65
 73
     0
 40
0.0
  0
LTYPE
  5
15
330
5
100
AcDbSymbolTableRecord
100
AcDbLinetypeTableRecord
  2
BYLAYER
 70
     0
  3

 72
    65
 73
     0
 40
0.0
  0
LTYPE
  5
16
330
5
100
AcDbSymbolTableRecord
100
AcDbLinetypeTableRecord
  2
CONTINUOUS
 70
     0
  3
Solid line
 72
    65
 73
     0
 40
0.0
  0
LTYPE
  5
4E
330
5
100
AcDbSymbolTableRecord
100
AcDbLinetypeTableRecord
  2
AI-LINETYPE-1
 70
     0
  3
Adobe Illustrator Linetype No. 1
 72
    65
 73
     4
 40
8.819444442239584
 49
7.055555553791667
 74
     0
 49
-0.7055555553791667
 74
     0
 49
0.3527777776895833
 74
     0
 49
-0.7055555553791667
 74
     0
  0
LTYPE
  5
55
330
5
100
AcDbSymbolTableRecord
100
AcDbLinetypeTableRecord
  2
AI-LINETYPE-2
 70
     0
  3
Adobe Illustrator Linetype No. 2
 72
    65
 73
     4
 40
8.819444442239584
 49
7.055555553791667
 74
     0
 49
-0.7055555553791667
 74
     0
 49
0.3527777776895833
 74
     0
 49
-0.7055555553791667
 74
     0
  0
ENDTAB
  0
TABLE
  2
LAYER
  5
2
330
0
100
AcDbSymbolTable
 70
     5
  0
LAYER
  5
10
330
2
100
AcDbSymbolTableRecord
100
AcDbLayerTableRecord
  2
0
 70
     0
 62
     7
  6
CONTINUOUS
  0
LAYER
  5
3B
330
2
100
AcDbSymbolTableRecord
100
AcDbLayerTableRecord
  2
GRAU_10_
 70
     0
 62
     7
  6
CONTINUOUS
  0
LAYER
  5
DA
330
2
100
AcDbSymbolTableRecord
100
AcDbLayerTableRecord
  2
STANDARDEBENE
 70
     0
 62
     7
  6
CONTINUOUS
  0
LAYER
  5
244
330
2
100
AcDbSymbolTableRecord
100
AcDbLayerTableRecord
  2
BEMAßUNG
 70
     1
 62
     7
  6
CONTINUOUS
  0
LAYER
  5
539
330
2
100
AcDbSymbolTableRecord
100
AcDbLayerTableRecord
  2
TEXT
 70
     1
 62
     7
  6
CONTINUOUS
  0
ENDTAB
  0
TABLE
  2
STYLE
  5
3
330
0
100
AcDbSymbolTable
 70
     1
  0
STYLE
  5
11
330
3
100
AcDbSymbolTableRecord
100
AcDbTextStyleTableRecord
  2
STANDARD
 70
     0
 40
0.0
 41
1.0
 50
0.0
 71
     0
 42
0.2
  3
txt
  4

  0
ENDTAB
  0
TABLE
  2
VIEW
  5
6
330
0
100
AcDbSymbolTable
 70
     0
  0
ENDTAB
  0
TABLE
  2
UCS
  5
7
330
0
100
AcDbSymbolTable
 70
     0
  0
ENDTAB
  0
TABLE
  2
APPID
  5
9
330
0
100
AcDbSymbolTable
 70
     1
  0
APPID
  5
12
330
9
100
AcDbSymbolTableRecord
100
AcDbRegAppTableRecord
  2
ACAD
 70
     0
  0
ENDTAB
  0
TABLE
  2
DIMSTYLE
  5
A
330
0
100
AcDbSymbolTable
 70
     1
  0
DIMSTYLE
105
27
330
A
100
AcDbSymbolTableRecord
100
AcDbDimStyleTableRecord
  2
STANDARD
 70
     0
  3

  4

  5

  6

  7

 40
1.0
 41
0.18
 42
0.0625
 43
0.38
 44
0.18
 45
0.0
 46
0.0
 47
0.0
 48
0.0
140
0.18
141
0.09
142
0.0
143
25.4
144
1.0
145
0.0
146
1.0
147
0.09
 71
     0
 72
     0
 73
     1
 74
     1
 75
     0
 76
     0
 77
     0
 78
     0
170
     0
171
     2
172
     0
173
     0
174
     0
175
     0
176
     0
177
     0
178
     0
270
     2
271
     4
272
     4
273
     2
274
     2
340
11
275
     0
280
     0
281
     0
282
     0
283
     1
284
     0
285
     0
286
     0
287
     3
288
     0
  0
ENDTAB
  0
TABLE
  2
BLOCK_RECORD
  5
1
330
0
100
AcDbSymbolTable
 70
     4
  0
BLOCK_RECORD
  5
1F
330
1
100
AcDbSymbolTableRecord
100
AcDbBlockTableRecord
  2
*MODEL_SPACE
  0
BLOCK_RECORD
  5
1B
330
1
100
AcDbSymbolTableRecord
100
AcDbBlockTableRecord
  2
*PAPER_SPACE
  0
BLOCK_RECORD
  5
3C
330
1
100
AcDbSymbolTableRecord
100
AcDbBlockTableRecord
  2
BLOCK_2
  0
BLOCK_RECORD
  5
40
330
1
100
AcDbSymbolTableRecord
100
AcDbBlockTableRecord
  2
BLOCK_3
  0
BLOCK_RECORD
  5
44
330
1
100
AcDbSymbolTableRecord
100
AcDbBlockTableRecord
  2
BLOCK_4
  0
ENDTAB
  0
ENDSEC
  0
SECTION
  2
BLOCKS
  0
BLOCK
  5
20
330
1F
100
AcDbEntity
  8
0
100
AcDbBlockBegin
  2
*MODEL_SPACE
 70
     0
 71
     0
 10
0.0
 20
0.0
 30
0.0
  3
*MODEL_SPACE
  1

  0
ENDBLK
  5
21
330
1F
100
AcDbEntity
  8
0
100
AcDbBlockEnd
  0
BLOCK
  5
1C
330
1B
100
AcDbEntity
 67
     1
  8
0
100
AcDbBlockBegin
  2
*PAPER_SPACE
 70
     0
 71
     0
 10
0.0
 20
0.0
 30
0.0
  3
*PAPER_SPACE
  1

  0
ENDBLK
  5
1D
330
1B
100
AcDbEntity
 67
     1
  8
0
100
AcDbBlockEnd
  0
BLOCK
  5
3E
330
3C
100
AcDbEntity
  8
0
100
AcDbBlockBegin
  2
BLOCK_2
 70
     0
 71
     0
 10
0.0
 20
0.0
 30
0.0
  3
BLOCK_2
  1

  0
INSERT
  5
41
330
3C
100
AcDbEntity
  8
GRAU_10_
100
AcDbBlockReference
  2
BLOCK_3
 10
0.0
 20
0.0
 30
0.0
  0
INSERT
  5
45
330
3C
100
AcDbEntity
  8
GRAU_10_
100
AcDbBlockReference
  2
BLOCK_4
 10
0.0
 20
0.0
 30
0.0
  0
ENDBLK
  5
3F
330
3C
100
AcDbEntity
  8
0
100
AcDbBlockEnd
  0
BLOCK
  5
42
330
40
100
AcDbEntity
  8
0
100
AcDbBlockBegin
  2
BLOCK_3
 70
     0
 71
     0
 10
0.0
 20
0.0
 30
0.0
  3
BLOCK_3
  1

  0
ENDBLK
  5
43
330
40
100
AcDbEntity
  8
0
100
AcDbBlockEnd
  0
BLOCK
  5
46
330
44
100
AcDbEntity
  8
0
100
AcDbBlockBegin
  2
BLOCK_4
 70
     0
 71
     0
 10
0.0
 20
0.0
 30
0.0
  3
BLOCK_4
  1

  0
POLYLINE
  5
48
330
44
100
AcDbEntity
  8
GRAU_10_
  6
AI-LINETYPE-1
 62
   250
100
AcDb2dPolyline
 66
     1
 10
0.0
 20
0.0
 30
0.0
  0
VERTEX
  5
49
330
48
100
AcDbEntity
  8
GRAU_10_
  6
AI-LINETYPE-1
 62
   250
100
AcDbVertex
100
AcDb2dVertex
 10
50.70663789964973
 20
202.0972248843715
 30
0.0
  0
VERTEX
  5
4A
330
48
100
AcDbEntity
  8
GRAU_10_
  6
AI-LINETYPE-1
 62
   250
100
AcDbVertex
100
AcDb2dVertex
 10
44.70597058344156
 20
202.0972248843715
 30
0.0
  0
VERTEX
  5
4B
330
48
100
AcDbEntity
  8
GRAU_10_
  6
AI-LINETYPE-1
 62
   250
100
AcDbVertex
100
AcDb2dVertex
 10
43.70585936407354
 20
202.0972248843715
 30
0.0
  0
VERTEX
  5
4C
330
48
100
AcDbEntity
  8
GRAU_10_
  6
AI-LINETYPE-1
 62
   250
100
AcDbVertex
100
AcDb2dVertex
 10
41.95781791485777
 20
202.0972248843715
 30
0.0
  0
SEQEND
  5
4D
330
48
100
AcDbEntity
  8
GRAU_10_
  6
AI-LINETYPE-1
  0
POLYLINE
  5
4F
330
44
100
AcDbEntity
  8
GRAU_10_
  6
AI-LINETYPE-2
 62
   250
100
AcDb2dPolyline
 66
     1
 10
0.0
 20
0.0
 30
0.0
  0
VERTEX
  5
50
330
4F
100
AcDbEntity
  8
GRAU_10_
  6
AI-LINETYPE-2
 62
   250
100
AcDbVertex
100
AcDb2dVertex
 10
69.42332490668932
 20
202.0972248843715
 30
0.0
  0
VERTEX
  5
51
330
4F
100
AcDbEntity
  8
GRAU_10_
  6
AI-LINETYPE-2
 62
   250
100
AcDbVertex
100
AcDb2dVertex
 10
67.70525578819522
 20
202.0972248843715
 30
0.0
  0
VERTEX
  5
52
330
4F
100
AcDbEntity
  8
GRAU_10_
  6
AI-LINETYPE-2
 62
   250
100
AcDbVertex
100
AcDb2dVertex
 10
66.70703937134408
 20
202.0972248843715
 30
0.0
  0
VERTEX
  5
53
330
4F
100
AcDbEntity
  8
GRAU_10_
  6
AI-LINETYPE-2
 62
   250
100
AcDbVertex
100
AcDb2dVertex
 10
60.70619980036165
 20
202.0972248843715
 30
0.0
  0
SEQEND
  5
54
330
4F
100
AcDbEntity
  8
GRAU_10_
  6
AI-LINETYPE-2
  0
POLYLINE
  5
56
330
44
100
AcDbEntity
  8
GRAU_10_
 62
     7
100
AcDb2dPolyline
 66
     1
 10
0.0
 20
0.0
 30
0.0
  0
VERTEX
  5
57
330
56
100
AcDbEntity
  8
GRAU_10_
 62
     7
100
AcDbVertex
100
AcDb2dVertex
 10
44.70597058344156
 20
194.5970797582084
 30
0.0
  0
VERTEX
  5
58
330
56
100
AcDbEntity
  8
GRAU_10_
 62
     7
100
AcDbVertex
100
AcDb2dVertex
 10
66.70703937134408
 20
194.5970797582084
 30
0.0
  0
SEQEND
  5
59
330
56
100
AcDbEntity
  8
GRAU_10_
  0
POLYLINE
  5
5A
330
44
100
AcDbEntity
  8
GRAU_10_
 62
     7
100
AcDb2dPolyline
 66
     1
 10
0.0
 20
0.0
 30
0.0
  0
VERTEX
  5
5B
330
5A
100
AcDbEntity
  8
GRAU_10_
 62
     7
100
AcDbVertex
100
AcDb2dVertex
 10
50.70663789964973
 20
209.5971977557604
 30
0.0
  0
VERTEX
  5
5C
330
5A
100
AcDbEntity
  8
GRAU_10_
 62
     7
100
AcDbVertex
100
AcDb2dVertex
 10
44.70597058344156
 20
209.5971977557604
 30
0.0
  0
SEQEND
  5
5D
330
5A
100
AcDbEntity
  8
GRAU_10_
  0
POLYLINE
  5
5E
330
44
100
AcDbEntity
  8
GRAU_10_
 62
     7
100
AcDb2dPolyline
 66
     1
 10
0.0
 20
0.0
 30
0.0
  0
VERTEX
  5
5F
330
5E
100
AcDbEntity
  8
GRAU_10_
 62
     7
100
AcDbVertex
100
AcDb2dVertex
 10
66.70703937134408
 20
209.5971977557604
 30
0.0
  0
VERTEX
  5
60
330
5E
100
AcDbEntity
  8
GRAU_10_
 62
     7
100
AcDbVertex
100
AcDb2dVertex
 10
60.70619980036165
 20
209.5971977557604
 30
0.0
  0
SEQEND
  5
61
330
5E
100
AcDbEntity
  8
GRAU_10_
  0
SPLINE
  5
62
330
44
100
AcDbEntity
  8
GRAU_10_
 62
     7
100
AcDbSpline
210
0.0
220
0.0
230
1.0
 70
     8
 71
     3
 72
     8
 73
     4
 74
     0
 42
0.0000000001
 43
0.0000000001
 40
0.0
 40
0.0
 40
0.0
 40
0.0
 40
1.0
 40
1.0
 40
1.0
 40
1.0
 10
67.70525578819522
 20
208.5970865363924
 30
0.0
 10
67.70525578819522
 20
209.1491630879037
 30
0.0
 10
67.25722112033847
 20
209.5971977557604
 30
0.0
 10
66.70703937134408
 20
209.5971977557604
 30
0.0
  0
SPLINE
  5
63
330
44
100
AcDbEntity
  8
GRAU_10_
 62
     7
100
AcDbSpline
210
0.0
220
0.0
230
1.0
 70
     8
 71
     3
 72
     8
 73
     4
 74
     0
 42
0.0000000001
 43
0.0000000001
 40
0.0
 40
0.0
 40
0.0
 40
0.0
 40
1.0
 40
1.0
 40
1.0
 40
1.0
 10
66.70703937134408
 20
194.5970797582084
 30
0.0
 10
67.25722112033847
 20
194.5970797582084
 30
0.0
 10
67.70525578819522
 20
195.0451144260651
 30
0.0
 10
67.70525578819522
 20
195.5973632323507
 30
0.0
  0
SPLINE
  5
64
330
44
100
AcDbEntity
  8
GRAU_10_
 62
     7
100
AcDbSpline
210
0.0
220
0.0
230
1.0
 70
     8
 71
     3
 72
     8
 73
     4
 74
     0
 42
0.0000000001
 43
0.0000000001
 40
0.0
 40
0.0
 40
0.0
 40
0.0
 40
1.0
 40
1.0
 40
1.0
 40
1.0
 10
43.70585936407354
 20
195.5973632323507
 30
0.0
 10
43.70585936407354
 20
195.0451144260651
 30
0.0
 10
44.15389403193028
 20
194.5970797582084
 30
0.0
 10
44.70597058344156
 20
194.5970797582084
 30
0.0
  0
SPLINE
  5
65
330
44
100
AcDbEntity
  8
GRAU_10_
 62
     7
100
AcDbSpline
210
0.0
220
0.0
230
1.0
 70
     8
 71
     3
 72
     8
 73
     4
 74
     0
 42
0.0000000001
 43
0.0000000001
 40
0.0
 40
0.0
 40
0.0
 40
0.0
 40
1.0
 40
1.0
 40
1.0
 40
1.0
 10
44.70597058344156
 20
209.5971977557604
 30
0.0
 10
44.15389403193028
 20
209.5971977557604
 30
0.0
 10
43.70585936407354
 20
209.1491630879037
 30
0.0
 10
43.70585936407354
 20
208.5970865363924
 30
0.0
  0
POLYLINE
  5
66
330
44
100
AcDbEntity
  8
GRAU_10_
 62
     7
100
AcDb2dPolyline
 66
     1
 10
0.0
 20
0.0
 30
0.0
  0
VERTEX
  5
67
330
66
100
AcDbEntity
  8
GRAU_10_
 62
     7
100
AcDbVertex
100
AcDb2dVertex
 10
50.70663789964973
 20
202.0972248843715
 30
0.0
  0
VERTEX
  5
68
330
66
100
AcDbEntity
  8
GRAU_10_
 62
     7
100
AcDbVertex
100
AcDb2dVertex
 10
60.70619980036165
 20
202.0972248843715
 30
0.0
  0
SEQEND
  5
69
330
66
100
AcDbEntity
  8
GRAU_10_
  0
POLYLINE
  5
6A
330
44
100
AcDbEntity
  8
GRAU_10_
 62
     7
100
AcDb2dPolyline
 66
     1
 10
0.0
 20
0.0
 30
0.0
  0
VERTEX
  5
6B
330
6A
100
AcDbEntity
  8
GRAU_10_
 62
     7
100
AcDbVertex
100
AcDb2dVertex
 10
67.70525578819522
 20
208.5970865363924
 30
0.0
  0
VERTEX
  5
6C
330
6A
100
AcDbEntity
  8
GRAU_10_
 62
     7
100
AcDbVertex
100
AcDb2dVertex
 10
67.70525578819522
 20
208.4859822069931
 30
0.0
  0
VERTEX
  5
6D
330
6A
100
AcDbEntity
  8
GRAU_10_
 62
     7
100
AcDbVertex
100
AcDb2dVertex
 10
67.70525578819522
 20
208.1580091167973
 30
0.0
  0
VERTEX
  5
6E
330
6A
100
AcDbEntity
  8
GRAU_10_
 62
     7
100
AcDbVertex
100
AcDb2dVertex
 10
67.70525578819522
 20
207.6235025522608
 30
0.0
  0
VERTEX
  5
6F
330
6A
100
AcDbEntity
  8
GRAU_10_
 62
     7
100
AcDbVertex
100
AcDb2dVertex
 10
67.70525578819522
 20
206.9002047551326
 30
0.0
  0
VERTEX
  5
70
330
6A
100
AcDbEntity
  8
GRAU_10_
 62
     7
100
AcDbVertex
100
AcDb2dVertex
 10
67.70525578819522
 20
206.0148152154234
 30
0.0
  0
VERTEX
  5
71
330
6A
100
AcDbEntity
  8
GRAU_10_
 62
     7
100
AcDbVertex
100
AcDb2dVertex
 10
67.70525578819522
 20
204.9952392065637
 30
0.0
  0
VERTEX
  5
72
330
6A
100
AcDbEntity
  8
GRAU_10_
 62
     7
100
AcDbVertex
100
AcDb2dVertex
 10
67.70525578819522
 20
203.875238664309
 30
0.0
  0
VERTEX
  5
73
330
6A
100
AcDbEntity
  8
GRAU_10_
 62
     7
100
AcDbVertex
100
AcDb2dVertex
 10
67.70525578819522
 20
202.6970160083535
 30
0.0
  0
VERTEX
  5
74
330
6A
100
AcDbEntity
  8
GRAU_10_
 62
     7
100
AcDbVertex
100
AcDb2dVertex
 10
67.70525578819522
 20
202.0972248843715
 30
0.0
  0
VERTEX
  5
75
330
6A
100
AcDbEntity
  8
GRAU_10_
 62
     7
100
AcDbVertex
100
AcDb2dVertex
 10
67.70525578819522
 20
201.4974337603895
 30
0.0
  0
VERTEX
  5
76
330
6A
100
AcDbEntity
  8
GRAU_10_
 62
     7
100
AcDbVertex
100
AcDb2dVertex
 10
67.70525578819522
 20
200.3192111044341
 30
0.0
  0
VERTEX
  5
77
330
6A
100
AcDbEntity
  8
GRAU_10_
 62
     7
100
AcDbVertex
100
AcDb2dVertex
 10
67.70525578819522
 20
199.1992105621794
 30
0.0
  0
VERTEX
  5
78
330
6A
100
AcDbEntity
  8
GRAU_10_
 62
     7
100
AcDbVertex
100
AcDb2dVertex
 10
67.70525578819522
 20
198.1796345533197
 30
0.0
  0
VERTEX
  5
79
330
6A
100
AcDbEntity
  8
GRAU_10_
 62
     7
100
AcDbVertex
100
AcDb2dVertex
 10
67.70525578819522
 20
197.2940727588362
 30
0.0
  0
VERTEX
  5
7A
330
6A
100
AcDbEntity
  8
GRAU_10_
 62
     7
100
AcDbVertex
100
AcDb2dVertex
 10
67.70525578819522
 20
196.5709472164823
 30
0.0
  0
VERTEX
  5
7B
330
6A
100
AcDbEntity
  8
GRAU_10_
 62
     7
100
AcDbVertex
100
AcDb2dVertex
 10
67.70525578819522
 20
196.0364406519458
 30
0.0
  0
VERTEX
  5
7C
330
6A
100
AcDbEntity
  8
GRAU_10_
 62
     7
100
AcDbVertex
100
AcDb2dVertex
 10
67.70525578819522
 20
195.70846756175
 30
0.0
  0
VERTEX
  5
7D
330
6A
100
AcDbEntity
  8
GRAU_10_
 62
     7
100
AcDbVertex
100
AcDb2dVertex
 10
67.70525578819522
 20
195.5973632323507
 30
0.0
  0
SEQEND
  5
7E
330
6A
100
AcDbEntity
  8
GRAU_10_
  0
POLYLINE
  5
7F
330
44
100
AcDbEntity
  8
GRAU_10_
 62
     7
100
AcDb2dPolyline
 66
     1
 10
0.0
 20
0.0
 30
0.0
  0
VERTEX
  5
80
330
7F
100
AcDbEntity
  8
GRAU_10_
 62
     7
100
AcDbVertex
100
AcDb2dVertex
 10
43.70585936407354
 20
195.5973632323507
 30
0.0
  0
VERTEX
  5
81
330
7F
100
AcDbEntity
  8
GRAU_10_
 62
     7
100
AcDbVertex
100
AcDb2dVertex
 10
43.70585936407354
 20
195.70846756175
 30
0.0
  0
VERTEX
  5
82
330
7F
100
AcDbEntity
  8
GRAU_10_
 62
     7
100
AcDbVertex
100
AcDb2dVertex
 10
43.70585936407354
 20
196.0364406519458
 30
0.0
  0
VERTEX
  5
83
330
7F
100
AcDbEntity
  8
GRAU_10_
 62
     7
100
AcDbVertex
100
AcDb2dVertex
 10
43.70585936407354
 20
196.5709472164823
 30
0.0
  0
VERTEX
  5
84
330
7F
100
AcDbEntity
  8
GRAU_10_
 62
     7
100
AcDbVertex
100
AcDb2dVertex
 10
43.70585936407354
 20
197.2940727588362
 30
0.0
  0
VERTEX
  5
85
330
7F
100
AcDbEntity
  8
GRAU_10_
 62
     7
100
AcDbVertex
100
AcDb2dVertex
 10
43.70585936407354
 20
198.1796345533197
 30
0.0
  0
VERTEX
  5
86
330
7F
100
AcDbEntity
  8
GRAU_10_
 62
     7
100
AcDbVertex
100
AcDb2dVertex
 10
43.70585936407354
 20
199.1992105621794
 30
0.0
  0
VERTEX
  5
87
330
7F
100
AcDbEntity
  8
GRAU_10_
 62
     7
100
AcDbVertex
100
AcDb2dVertex
 10
43.70585936407354
 20
200.3192111044341
 30
0.0
  0
VERTEX
  5
88
330
7F
100
AcDbEntity
  8
GRAU_10_
 62
     7
100
AcDbVertex
100
AcDb2dVertex
 10
43.70585936407354
 20
201.4974337603895
 30
0.0
  0
VERTEX
  5
89
330
7F
100
AcDbEntity
  8
GRAU_10_
 62
     7
100
AcDbVertex
100
AcDb2dVertex
 10
43.70585936407354
 20
202.0972248843715
 30
0.0
  0
VERTEX
  5
8A
330
7F
100
AcDbEntity
  8
GRAU_10_
 62
     7
100
AcDbVertex
100
AcDb2dVertex
 10
43.70585936407354
 20
202.6970160083535
 30
0.0
  0
VERTEX
  5
8B
330
7F
100
AcDbEntity
  8
GRAU_10_
 62
     7
100
AcDbVertex
100
AcDb2dVertex
 10
43.70585936407354
 20
203.875238664309
 30
0.0
  0
VERTEX
  5
8C
330
7F
100
AcDbEntity
  8
GRAU_10_
 62
     7
100
AcDbVertex
100
AcDb2dVertex
 10
43.70585936407354
 20
204.9952392065637
 30
0.0
  0
VERTEX
  5
8D
330
7F
100
AcDbEntity
  8
GRAU_10_
 62
     7
100
AcDbVertex
100
AcDb2dVertex
 10
43.70585936407354
 20
206.0148152154234
 30
0.0
  0
VERTEX
  5
8E
330
7F
100
AcDbEntity
  8
GRAU_10_
 62
     7
100
AcDbVertex
100
AcDb2dVertex
 10
43.70585936407354
 20
206.9002047551326
 30
0.0
  0
VERTEX
  5
8F
330
7F
100
AcDbEntity
  8
GRAU_10_
 62
     7
100
AcDbVertex
100
AcDb2dVertex
 10
43.70585936407354
 20
207.6235025522608
 30
0.0
  0
VERTEX
  5
90
330
7F
100
AcDbEntity
  8
GRAU_10_
 62
     7
100
AcDbVertex
100
AcDb2dVertex
 10
43.70585936407354
 20
208.1580091167973
 30
0.0
  0
VERTEX
  5
91
330
7F
100
AcDbEntity
  8
GRAU_10_
 62
     7
100
AcDbVertex
100
AcDb2dVertex
 10
43.70585936407354
 20
208.4859822069931
 30
0.0
  0
VERTEX
  5
92
330
7F
100
AcDbEntity
  8
GRAU_10_
 62
     7
100
AcDbVertex
100
AcDb2dVertex
 10
43.70585936407354
 20
208.5970865363924
 30
0.0
  0
SEQEND
  5
93
330
7F
100
AcDbEntity
  8
GRAU_10_
  0
POLYLINE
  5
94
330
44
100
AcDbEntity
  8
GRAU_10_
 62
     7
100
AcDb2dPolyline
 66
     1
 10
0.0
 20
0.0
 30
0.0
  0
VERTEX
  5
95
330
94
100
AcDbEntity
  8
GRAU_10_
 62
     7
100
AcDbVertex
100
AcDb2dVertex
 10
50.70663789964973
 20
209.5971977557604
 30
0.0
  0
VERTEX
  5
96
330
94
100
AcDbEntity
  8
GRAU_10_
 62
     7
100
AcDbVertex
100
AcDb2dVertex
 10
50.70663789964973
 20
209.4826483308759
 30
0.0
  0
VERTEX
  5
97
330
94
100
AcDbEntity
  8
GRAU_10_
 62
     7
100
AcDbVertex
100
AcDb2dVertex
 10
50.70663789964973
 20
209.1457179924184
 30
0.0
  0
VERTEX
  5
98
330
94
100
AcDbEntity
  8
GRAU_10_
 62
     7
100
AcDbVertex
100
AcDb2dVertex
 10
50.70663789964973
 20
208.5919188931645
 30
0.0
  0
VERTEX
  5
99
330
94
100
AcDbEntity
  8
GRAU_10_
 62
     7
100
AcDbVertex
100
AcDb2dVertex
 10
50.70663789964973
 20
207.8422661155742
 30
0.0
  0
VERTEX
  5
9A
330
94
100
AcDbEntity
  8
GRAU_10_
 62
     7
100
AcDbVertex
100
AcDb2dVertex
 10
50.70663789964973
 20
206.9179469968816
 30
0.0
  0
VERTEX
  5
9B
330
94
100
AcDbEntity
  8
GRAU_10_
 62
     7
100
AcDbVertex
100
AcDb2dVertex
 10
50.70663789964973
 20
205.847211320066
 30
0.0
  0
VERTEX
  5
9C
330
94
100
AcDbEntity
  8
GRAU_10_
 62
     7
100
AcDbVertex
100
AcDb2dVertex
 10
50.70663789964973
 20
204.6619262183658
 30
0.0
  0
VERTEX
  5
9D
330
94
100
AcDbEntity
  8
GRAU_10_
 62
     7
100
AcDbVertex
100
AcDb2dVertex
 10
50.70663789964973
 20
203.3989542134732
 30
0.0
  0
VERTEX
  5
9E
330
94
100
AcDbEntity
  8
GRAU_10_
 62
     7
100
AcDbVertex
100
AcDb2dVertex
 10
50.70663789964973
 20
202.0972248843715
 30
0.0
  0
SEQEND
  5
9F
330
94
100
AcDbEntity
  8
GRAU_10_
  0
POLYLINE
  5
A0
330
44
100
AcDbEntity
  8
GRAU_10_
 62
     7
100
AcDb2dPolyline
 66
     1
 10
0.0
 20
0.0
 30
0.0
  0
VERTEX
  5
A1
330
A0
100
AcDbEntity
  8
GRAU_10_
 62
     7
100
AcDbVertex
100
AcDb2dVertex
 10
60.70619980036165
 20
202.0972248843715
 30
0.0
  0
VERTEX
  5
A2
330
A0
100
AcDbEntity
  8
GRAU_10_
 62
     7
100
AcDbVertex
100
AcDb2dVertex
 10
60.70619980036165
 20
203.3989542134732
 30
0.0
  0
VERTEX
  5
A3
330
A0
100
AcDbEntity
  8
GRAU_10_
 62
     7
100
AcDbVertex
100
AcDb2dVertex
 10
60.70619980036165
 20
204.6619262183658
 30
0.0
  0
VERTEX
  5
A4
330
A0
100
AcDbEntity
  8
GRAU_10_
 62
     7
100
AcDbVertex
100
AcDb2dVertex
 10
60.70619980036165
 20
205.847211320066
 30
0.0
  0
VERTEX
  5
A5
330
A0
100
AcDbEntity
  8
GRAU_10_
 62
     7
100
AcDbVertex
100
AcDb2dVertex
 10
60.70619980036165
 20
206.9179469968816
 30
0.0
  0
VERTEX
  5
A6
330
A0
100
AcDbEntity
  8
GRAU_10_
 62
     7
100
AcDbVertex
100
AcDb2dVertex
 10
60.70619980036165
 20
207.8422661155742
 30
0.0
  0
VERTEX
  5
A7
330
A0
100
AcDbEntity
  8
GRAU_10_
 62
     7
100
AcDbVertex
100
AcDb2dVertex
 10
60.70619980036165
 20
208.5919188931645
 30
0.0
  0
VERTEX
  5
A8
330
A0
100
AcDbEntity
  8
GRAU_10_
 62
     7
100
AcDbVertex
100
AcDb2dVertex
 10
60.70619980036165
 20
209.1457179924184
 30
0.0
  0
VERTEX
  5
A9
330
A0
100
AcDbEntity
  8
GRAU_10_
 62
     7
100
AcDbVertex
100
AcDb2dVertex
 10
60.70619980036165
 20
209.4826483308759
 30
0.0
  0
VERTEX
  5
AA
330
A0
100
AcDbEntity
  8
GRAU_10_
 62
     7
100
AcDbVertex
100
AcDb2dVertex
 10
60.70619980036165
 20
209.5971977557604
 30
0.0
  0
SEQEND
  5
AB
330
A0
100
AcDbEntity
  8
GRAU_10_
  0
POLYLINE
  5
AC
330
44
100
AcDbEntity
  8
GRAU_10_
 62
     7
100
AcDb2dPolyline
 66
     1
 10
0.0
 20
0.0
 30
0.0
  0
VERTEX
  5
AD
330
AC
100
AcDbEntity
  8
GRAU_10_
 62
     7
100
AcDbVertex
100
AcDb2dVertex
 10
66.70703937134408
 20
194.5970797582084
 30
0.0
  0
VERTEX
  5
AE
330
AC
100
AcDbEntity
  8
GRAU_10_
 62
     7
100
AcDbVertex
100
AcDb2dVertex
 10
66.70703937134408
 20
194.6993990941203
 30
0.0
  0
VERTEX
  5
AF
330
AC
100
AcDbEntity
  8
GRAU_10_
 62
     7
100
AcDbVertex
100
AcDb2dVertex
 10
66.70703937134408
 20
195.0046345541134
 30
0.0
  0
VERTEX
  5
B0
330
AC
100
AcDbEntity
  8
GRAU_10_
 62
     7
100
AcDbVertex
100
AcDb2dVertex
 10
66.70703937134408
 20
195.5021063421835
 30
0.0
  0
VERTEX
  5
B1
330
AC
100
AcDbEntity
  8
GRAU_10_
 62
     7
100
AcDbVertex
100
AcDb2dVertex
 10
66.70703937134408
 20
196.1794121145836
 30
0.0
  0
VERTEX
  5
B2
330
AC
100
AcDbEntity
  8
GRAU_10_
 62
     7
100
AcDbVertex
100
AcDb2dVertex
 10
66.70703937134408
 20
197.0172593365964
 30
0.0
  0
VERTEX
  5
B3
330
AC
100
AcDbEntity
  8
GRAU_10_
 62
     7
100
AcDbVertex
100
AcDb2dVertex
 10
66.70703937134408
 20
197.9961832187301
 30
0.0
  0
VERTEX
  5
B4
330
AC
100
AcDbEntity
  8
GRAU_10_
 62
     7
100
AcDbVertex
100
AcDb2dVertex
 10
66.70703937134408
 20
199.0844888825206
 30
0.0
  0
VERTEX
  5
B5
330
AC
100
AcDbEntity
  8
GRAU_10_
 62
     7
100
AcDbVertex
100
AcDb2dVertex
 10
66.70703937134408
 20
200.2556490927312
 30
0.0
  0
VERTEX
  5
B6
330
AC
100
AcDbEntity
  8
GRAU_10_
 62
     7
100
AcDbVertex
100
AcDb2dVertex
 10
66.70703937134408
 20
201.4781412256721
 30
0.0
  0
VERTEX
  5
B7
330
AC
100
AcDbEntity
  8
GRAU_10_
 62
     7
100
AcDbVertex
100
AcDb2dVertex
 10
66.70703937134408
 20
202.0972248843715
 30
0.0
  0
VERTEX
  5
B8
330
AC
100
AcDbEntity
  8
GRAU_10_
 62
     7
100
AcDbVertex
100
AcDb2dVertex
 10
66.70703937134408
 20
202.7163085430709
 30
0.0
  0
VERTEX
  5
B9
330
AC
100
AcDbEntity
  8
GRAU_10_
 62
     7
100
AcDbVertex
100
AcDb2dVertex
 10
66.70703937134408
 20
203.9386284212376
 30
0.0
  0
VERTEX
  5
BA
330
AC
100
AcDbEntity
  8
GRAU_10_
 62
     7
100
AcDbVertex
100
AcDb2dVertex
 10
66.70703937134408
 20
205.1099608862225
 30
0.0
  0
VERTEX
  5
BB
330
AC
100
AcDbEntity
  8
GRAU_10_
 62
     7
100
AcDbVertex
100
AcDb2dVertex
 10
66.70703937134408
 20
206.1999890977556
 30
0.0
  0
VERTEX
  5
BC
330
AC
100
AcDbEntity
  8
GRAU_10_
 62
     7
100
AcDbVertex
100
AcDb2dVertex
 10
66.70703937134408
 20
207.1771904321467
 30
0.0
  0
VERTEX
  5
BD
330
AC
100
AcDbEntity
  8
GRAU_10_
 62
     7
100
AcDbVertex
100
AcDb2dVertex
 10
66.70703937134408
 20
208.0167602019021
 30
0.0
  0
VERTEX
  5
BE
330
AC
100
AcDbEntity
  8
GRAU_10_
 62
     7
100
AcDbVertex
100
AcDb2dVertex
 10
66.70703937134408
 20
208.6923434265596
 30
0.0
  0
VERTEX
  5
BF
330
AC
100
AcDbEntity
  8
GRAU_10_
 62
     7
100
AcDbVertex
100
AcDb2dVertex
 10
66.70703937134408
 20
209.1915377623723
 30
0.0
  0
VERTEX
  5
C0
330
AC
100
AcDbEntity
  8
GRAU_10_
 62
     7
100
AcDbVertex
100
AcDb2dVertex
 10
66.70703937134408
 20
209.4948784198485
 30
0.0
  0
VERTEX
  5
C1
330
AC
100
AcDbEntity
  8
GRAU_10_
 62
     7
100
AcDbVertex
100
AcDb2dVertex
 10
66.70703937134408
 20
209.5971977557604
 30
0.0
  0
SEQEND
  5
C2
330
AC
100
AcDbEntity
  8
GRAU_10_
  0
POLYLINE
  5
C3
330
44
100
AcDbEntity
  8
GRAU_10_
 62
     7
100
AcDb2dPolyline
 66
     1
 10
0.0
 20
0.0
 30
0.0
  0
VERTEX
  5
C4
330
C3
100
AcDbEntity
  8
GRAU_10_
 62
     7
100
AcDbVertex
100
AcDb2dVertex
 10
44.70597058344156
 20
209.5971977557604
 30
0.0
  0
VERTEX
  5
C5
330
C3
100
AcDbEntity
  8
GRAU_10_
 62
     7
100
AcDbVertex
100
AcDb2dVertex
 10
44.70597058344156
 20
209.4948784198485
 30
0.0
  0
VERTEX
  5
C6
330
C3
100
AcDbEntity
  8
GRAU_10_
 62
     7
100
AcDbVertex
100
AcDb2dVertex
 10
44.70597058344156
 20
209.1915377623723
 30
0.0
  0
VERTEX
  5
C7
330
C3
100
AcDbEntity
  8
GRAU_10_
 62
     7
100
AcDbVertex
100
AcDb2dVertex
 10
44.70597058344156
 20
208.6923434265596
 30
0.0
  0
VERTEX
  5
C8
330
C3
100
AcDbEntity
  8
GRAU_10_
 62
     7
100
AcDbVertex
100
AcDb2dVertex
 10
44.70597058344156
 20
208.0167602019021
 30
0.0
  0
VERTEX
  5
C9
330
C3
100
AcDbEntity
  8
GRAU_10_
 62
     7
100
AcDbVertex
100
AcDb2dVertex
 10
44.70597058344156
 20
207.1771904321467
 30
0.0
  0
VERTEX
  5
CA
330
C3
100
AcDbEntity
  8
GRAU_10_
 62
     7
100
AcDbVertex
100
AcDb2dVertex
 10
44.70597058344156
 20
206.1999890977556
 30
0.0
  0
VERTEX
  5
CB
330
C3
100
AcDbEntity
  8
GRAU_10_
 62
     7
100
AcDbVertex
100
AcDb2dVertex
 10
44.70597058344156
 20
205.1099608862225
 30
0.0
  0
VERTEX
  5
CC
330
C3
100
AcDbEntity
  8
GRAU_10_
 62
     7
100
AcDbVertex
100
AcDb2dVertex
 10
44.70597058344156
 20
203.9386284212376
 30
0.0
  0
VERTEX
  5
CD
330
C3
100
AcDbEntity
  8
GRAU_10_
 62
     7
100
AcDbVertex
100
AcDb2dVertex
 10
44.70597058344156
 20
202.7163085430709
 30
0.0
  0
VERTEX
  5
CE
330
C3
100
AcDbEntity
  8
GRAU_10_
 62
     7
100
AcDbVertex
100
AcDb2dVertex
 10
44.70597058344156
 20
202.0972248843715
 30
0.0
  0
VERTEX
  5
CF
330
C3
100
AcDbEntity
  8
GRAU_10_
 62
     7
100
AcDbVertex
100
AcDb2dVertex
 10
44.70597058344156
 20
201.4781412256721
 30
0.0
  0
VERTEX
  5
D0
330
C3
100
AcDbEntity
  8
GRAU_10_
 62
     7
100
AcDbVertex
100
AcDb2dVertex
 10
44.70597058344156
 20
200.2556490927312
 30
0.0
  0
VERTEX
  5
D1
330
C3
100
AcDbEntity
  8
GRAU_10_
 62
     7
100
AcDbVertex
100
AcDb2dVertex
 10
44.70597058344156
 20
199.0844888825206
 30
0.0
  0
VERTEX
  5
D2
330
C3
100
AcDbEntity
  8
GRAU_10_
 62
     7
100
AcDbVertex
100
AcDb2dVertex
 10
44.70597058344156
 20
197.9961832187301
 30
0.0
  0
VERTEX
  5
D3
330
C3
100
AcDbEntity
  8
GRAU_10_
 62
     7
100
AcDbVertex
100
AcDb2dVertex
 10
44.70597058344156
 20
197.0172593365964
 30
0.0
  0
VERTEX
  5
D4
330
C3
100
AcDbEntity
  8
GRAU_10_
 62
     7
100
AcDbVertex
100
AcDb2dVertex
 10
44.70597058344156
 20
196.1794121145836
 30
0.0
  0
VERTEX
  5
D5
330
C3
100
AcDbEntity
  8
GRAU_10_
 62
     7
100
AcDbVertex
100
AcDb2dVertex
 10
44.70597058344156
 20
195.5021063421835
 30
0.0
  0
VERTEX
  5
D6
330
C3
100
AcDbEntity
  8
GRAU_10_
 62
     7
100
AcDbVertex
100
AcDb2dVertex
 10
44.70597058344156
 20
195.0046345541134
 30
0.0
  0
VERTEX
  5
D7
330
C3
100
AcDbEntity
  8
GRAU_10_
 62
     7
100
AcDbVertex
100
AcDb2dVertex
 10
44.70597058344156
 20
194.6993990941203
 30
0.0
  0
VERTEX
  5
D8
330
C3
100
AcDbEntity
  8
GRAU_10_
 62
     7
100
AcDbVertex
100
AcDb2dVertex
 10
44.70597058344156
 20
194.5970797582084
 30
0.0
  0
SEQEND
  5
D9
330
C3
100
AcDbEntity
  8
GRAU_10_
  0
ENDBLK
  5
47
330
44
100
AcDbEntity
  8
0
100
AcDbBlockEnd
  0
ENDSEC
  0
SECTION
  2
ENTITIES
  0
INSERT
  5
3D
330
1F
100
AcDbEntity
  8
GRAU_10_
100
AcDbBlockReference
  2
BLOCK_2
 10
0.0
 20
0.0
 30
0.0
  0
POLYLINE
  5
DB
330
1F
100
AcDbEntity
  8
STANDARDEBENE
 62
     7
100
AcDb2dPolyline
 66
     1
 10
0.0
 20
0.0
 30
0.0
  0
VERTEX
  5
DC
330
DB
100
AcDbEntity
  8
STANDARDEBENE
 62
     7
100
AcDbVertex
100
AcDb2dVertex
 10
43.70620387362206
 20
199.0974079905902
 30
0.0
  0
VERTEX
  5
DD
330
DB
100
AcDbEntity
  8
STANDARDEBENE
 62
     7
100
AcDbVertex
100
AcDb2dVertex
 10
44.20608722853181
 20
199.0974079905902
 30
0.0
  0
SEQEND
  5
DE
330
DB
100
AcDbEntity
  8
STANDARDEBENE
  0
POLYLINE
  5
DF
330
1F
100
AcDbEntity
  8
STANDARDEBENE
 62
     7
100
AcDb2dPolyline
 66
     1
 10
0.0
 20
0.0
 30
0.0
  0
VERTEX
  5
E0
330
DF
100
AcDbEntity
  8
STANDARDEBENE
 62
     7
100
AcDbVertex
100
AcDb2dVertex
 10
45.20654295744836
 20
199.0974079905902
 30
0.0
  0
VERTEX
  5
E1
330
DF
100
AcDbEntity
  8
STANDARDEBENE
 62
     7
100
AcDbVertex
100
AcDb2dVertex
 10
46.20630966726787
 20
199.0974079905902
 30
0.0
  0
SEQEND
  5
E2
330
DF
100
AcDbEntity
  8
STANDARDEBENE
  0
POLYLINE
  5
E3
330
1F
100
AcDbEntity
  8
STANDARDEBENE
 62
     7
100
AcDb2dPolyline
 66
     1
 10
0.0
 20
0.0
 30
0.0
  0
VERTEX
  5
E4
330
E3
100
AcDbEntity
  8
STANDARDEBENE
 62
     7
100
AcDbVertex
100
AcDb2dVertex
 10
47.20607637708737
 20
199.0974079905902
 30
0.0
  0
VERTEX
  5
E5
330
E3
100
AcDbEntity
  8
STANDARDEBENE
 62
     7
100
AcDbVertex
100
AcDb2dVertex
 10
48.2061875964554
 20
199.0974079905902
 30
0.0
  0
SEQEND
  5
E6
330
E3
100
AcDbEntity
  8
STANDARDEBENE
  0
POLYLINE
  5
E7
330
1F
100
AcDbEntity
  8
STANDARDEBENE
 62
     7
100
AcDb2dPolyline
 66
     1
 10
0.0
 20
0.0
 30
0.0
  0
VERTEX
  5
E8
330
E7
100
AcDbEntity
  8
STANDARDEBENE
 62
     7
100
AcDbVertex
100
AcDb2dVertex
 10
49.20664332537195
 20
199.0974079905902
 30
0.0
  0
VERTEX
  5
E9
330
E7
100
AcDbEntity
  8
STANDARDEBENE
 62
     7
100
AcDbVertex
100
AcDb2dVertex
 10
50.20641003519145
 20
199.0974079905902
 30
0.0
  0
SEQEND
  5
EA
330
E7
100
AcDbEntity
  8
STANDARDEBENE
  0
POLYLINE
  5
EB
330
1F
100
AcDbEntity
  8
STANDARDEBENE
 62
     7
100
AcDb2dPolyline
 66
     1
 10
0.0
 20
0.0
 30
0.0
  0
VERTEX
  5
EC
330
EB
100
AcDbEntity
  8
STANDARDEBENE
 62
     7
100
AcDbVertex
100
AcDb2dVertex
 10
51.20617674501096
 20
199.0974079905902
 30
0.0
  0
VERTEX
  5
ED
330
EB
100
AcDbEntity
  8
STANDARDEBENE
 62
     7
100
AcDbVertex
100
AcDb2dVertex
 10
52.20594345483046
 20
199.0974079905902
 30
0.0
  0
SEQEND
  5
EE
330
EB
100
AcDbEntity
  8
STANDARDEBENE
  0
POLYLINE
  5
EF
330
1F
100
AcDbEntity
  8
STANDARDEBENE
 62
     7
100
AcDb2dPolyline
 66
     1
 10
0.0
 20
0.0
 30
0.0
  0
VERTEX
  5
F0
330
EF
100
AcDbEntity
  8
STANDARDEBENE
 62
     7
100
AcDbVertex
100
AcDb2dVertex
 10
53.20605467419849
 20
199.0974079905902
 30
0.0
  0
VERTEX
  5
F1
330
EF
100
AcDbEntity
  8
STANDARDEBENE
 62
     7
100
AcDbVertex
100
AcDb2dVertex
 10
54.20651040311504
 20
199.0974079905902
 30
0.0
  0
SEQEND
  5
F2
330
EF
100
AcDbEntity
  8
STANDARDEBENE
  0
POLYLINE
  5
F3
330
1F
100
AcDbEntity
  8
STANDARDEBENE
 62
     7
100
AcDb2dPolyline
 66
     1
 10
0.0
 20
0.0
 30
0.0
  0
VERTEX
  5
F4
330
F3
100
AcDbEntity
  8
STANDARDEBENE
 62
     7
100
AcDbVertex
100
AcDb2dVertex
 10
55.20627711293454
 20
199.0974079905902
 30
0.0
  0
VERTEX
  5
F5
330
F3
100
AcDbEntity
  8
STANDARDEBENE
 62
     7
100
AcDbVertex
100
AcDb2dVertex
 10
56.20604382275405
 20
199.0974079905902
 30
0.0
  0
SEQEND
  5
F6
330
F3
100
AcDbEntity
  8
STANDARDEBENE
  0
POLYLINE
  5
F7
330
1F
100
AcDbEntity
  8
STANDARDEBENE
 62
     7
100
AcDb2dPolyline
 66
     1
 10
0.0
 20
0.0
 30
0.0
  0
VERTEX
  5
F8
330
F7
100
AcDbEntity
  8
STANDARDEBENE
 62
     7
100
AcDbVertex
100
AcDb2dVertex
 10
57.20615504212208
 20
199.0974079905902
 30
0.0
  0
VERTEX
  5
F9
330
F7
100
AcDbEntity
  8
STANDARDEBENE
 62
     7
100
AcDbVertex
100
AcDb2dVertex
 10
58.2062662614901
 20
199.0974079905902
 30
0.0
  0
SEQEND
  5
FA
330
F7
100
AcDbEntity
  8
STANDARDEBENE
  0
POLYLINE
  5
FB
330
1F
100
AcDbEntity
  8
STANDARDEBENE
 62
     7
100
AcDb2dPolyline
 66
     1
 10
0.0
 20
0.0
 30
0.0
  0
VERTEX
  5
FC
330
FB
100
AcDbEntity
  8
STANDARDEBENE
 62
     7
100
AcDbVertex
100
AcDb2dVertex
 10
59.20637748085813
 20
199.0974079905902
 30
0.0
  0
VERTEX
  5
FD
330
FB
100
AcDbEntity
  8
STANDARDEBENE
 62
     7
100
AcDbVertex
100
AcDb2dVertex
 10
60.20614419067763
 20
199.0974079905902
 30
0.0
  0
SEQEND
  5
FE
330
FB
100
AcDbEntity
  8
STANDARDEBENE
  0
POLYLINE
  5
FF
330
1F
100
AcDbEntity
  8
STANDARDEBENE
 62
     7
100
AcDb2dPolyline
 66
     1
 10
0.0
 20
0.0
 30
0.0
  0
VERTEX
  5
100
330
FF
100
AcDbEntity
  8
STANDARDEBENE
 62
     7
100
AcDbVertex
100
AcDb2dVertex
 10
61.20591090049714
 20
199.0974079905902
 30
0.0
  0
VERTEX
  5
101
330
FF
100
AcDbEntity
  8
STANDARDEBENE
 62
     7
100
AcDbVertex
100
AcDb2dVertex
 10
62.20636662941369
 20
199.0974079905902
 30
0.0
  0
SEQEND
  5
102
330
FF
100
AcDbEntity
  8
STANDARDEBENE
  0
POLYLINE
  5
103
330
1F
100
AcDbEntity
  8
STANDARDEBENE
 62
     7
100
AcDb2dPolyline
 66
     1
 10
0.0
 20
0.0
 30
0.0
  0
VERTEX
  5
104
330
103
100
AcDbEntity
  8
STANDARDEBENE
 62
     7
100
AcDbVertex
100
AcDb2dVertex
 10
63.20647784878172
 20
199.0974079905902
 30
0.0
  0
VERTEX
  5
105
330
103
100
AcDbEntity
  8
STANDARDEBENE
 62
     7
100
AcDbVertex
100
AcDb2dVertex
 10
64.20624455860121
 20
199.0974079905902
 30
0.0
  0
SEQEND
  5
106
330
103
100
AcDbEntity
  8
STANDARDEBENE
  0
POLYLINE
  5
107
330
1F
100
AcDbEntity
  8
STANDARDEBENE
 62
     7
100
AcDb2dPolyline
 66
     1
 10
0.0
 20
0.0
 30
0.0
  0
VERTEX
  5
108
330
107
100
AcDbEntity
  8
STANDARDEBENE
 62
     7
100
AcDbVertex
100
AcDb2dVertex
 10
65.20601126842072
 20
199.0974079905902
 30
0.0
  0
VERTEX
  5
109
330
107
100
AcDbEntity
  8
STANDARDEBENE
 62
     7
100
AcDbVertex
100
AcDb2dVertex
 10
66.20612248778875
 20
199.0974079905902
 30
0.0
  0
SEQEND
  5
10A
330
107
100
AcDbEntity
  8
STANDARDEBENE
  0
POLYLINE
  5
10B
330
1F
100
AcDbEntity
  8
STANDARDEBENE
 62
     7
100
AcDb2dPolyline
 66
     1
 10
0.0
 20
0.0
 30
0.0
  0
VERTEX
  5
10C
330
10B
100
AcDbEntity
  8
STANDARDEBENE
 62
     7
100
AcDbVertex
100
AcDb2dVertex
 10
67.20623370715678
 20
199.0974079905902
 30
0.0
  0
VERTEX
  5
10D
330
10B
100
AcDbEntity
  8
STANDARDEBENE
 62
     7
100
AcDbVertex
100
AcDb2dVertex
 10
67.70611706206653
 20
199.0974079905902
 30
0.0
  0
SEQEND
  5
10E
330
10B
100
AcDbEntity
  8
STANDARDEBENE
  0
POLYLINE
  5
10F
330
1F
100
AcDbEntity
  8
STANDARDEBENE
 62
     7
100
AcDb2dPolyline
 66
     1
 10
0.0
 20
0.0
 30
0.0
  0
VERTEX
  5
110
330
10F
100
AcDbEntity
  8
STANDARDEBENE
 62
     7
100
AcDbVertex
100
AcDb2dVertex
 10
50.70629339010121
 20
205.0972140329271
 30
0.0
  0
VERTEX
  5
111
330
10F
100
AcDbEntity
  8
STANDARDEBENE
 62
     7
100
AcDbVertex
100
AcDb2dVertex
 10
50.12269421489989
 20
205.0972140329271
 30
0.0
  0
SEQEND
  5
112
330
10F
100
AcDbEntity
  8
STANDARDEBENE
  0
POLYLINE
  5
113
330
1F
100
AcDbEntity
  8
STANDARDEBENE
 62
     7
100
AcDb2dPolyline
 66
     1
 10
0.0
 20
0.0
 30
0.0
  0
VERTEX
  5
114
330
113
100
AcDbEntity
  8
STANDARDEBENE
 62
     7
100
AcDbVertex
100
AcDb2dVertex
 10
48.95652939314282
 20
205.0972140329271
 30
0.0
  0
VERTEX
  5
115
330
113
100
AcDbEntity
  8
STANDARDEBENE
 62
     7
100
AcDbVertex
100
AcDb2dVertex
 10
47.78933104274017
 20
205.0972140329271
 30
0.0
  0
SEQEND
  5
116
330
113
100
AcDbEntity
  8
STANDARDEBENE
  0
POLYLINE
  5
117
330
1F
100
AcDbEntity
  8
STANDARDEBENE
 62
     7
100
AcDb2dPolyline
 66
     1
 10
0.0
 20
0.0
 30
0.0
  0
VERTEX
  5
118
330
117
100
AcDbEntity
  8
STANDARDEBENE
 62
     7
100
AcDbVertex
100
AcDb2dVertex
 10
46.62282171143458
 20
205.0972140329271
 30
0.0
  0
VERTEX
  5
119
330
117
100
AcDbEntity
  8
STANDARDEBENE
 62
     7
100
AcDbVertex
100
AcDb2dVertex
 10
45.4566568896775
 20
205.0972140329271
 30
0.0
  0
SEQEND
  5
11A
330
117
100
AcDbEntity
  8
STANDARDEBENE
  0
POLYLINE
  5
11B
330
1F
100
AcDbEntity
  8
STANDARDEBENE
 62
     7
100
AcDb2dPolyline
 66
     1
 10
0.0
 20
0.0
 30
0.0
  0
VERTEX
  5
11C
330
11B
100
AcDbEntity
  8
STANDARDEBENE
 62
     7
100
AcDbVertex
100
AcDb2dVertex
 10
44.28945853927486
 20
205.0972140329271
 30
0.0
  0
VERTEX
  5
11D
330
11B
100
AcDbEntity
  8
STANDARDEBENE
 62
     7
100
AcDbVertex
100
AcDb2dVertex
 10
43.70620387362206
 20
205.0972140329271
 30
0.0
  0
SEQEND
  5
11E
330
11B
100
AcDbEntity
  8
STANDARDEBENE
  0
POLYLINE
  5
11F
330
1F
100
AcDbEntity
  8
STANDARDEBENE
 62
     7
100
AcDb2dPolyline
 66
     1
 10
0.0
 20
0.0
 30
0.0
  0
VERTEX
  5
120
330
11F
100
AcDbEntity
  8
STANDARDEBENE
 62
     7
100
AcDbVertex
100
AcDb2dVertex
 10
67.70611706206653
 20
205.0972140329271
 30
0.0
  0
VERTEX
  5
121
330
11F
100
AcDbEntity
  8
STANDARDEBENE
 62
     7
100
AcDbVertex
100
AcDb2dVertex
 10
67.2685899354398
 20
205.0972140329271
 30
0.0
  0
SEQEND
  5
122
330
11F
100
AcDbEntity
  8
STANDARDEBENE
  0
POLYLINE
  5
123
330
1F
100
AcDbEntity
  8
STANDARDEBENE
 62
     7
100
AcDb2dPolyline
 66
     1
 10
0.0
 20
0.0
 30
0.0
  0
VERTEX
  5
124
330
123
100
AcDbEntity
  8
STANDARDEBENE
 62
     7
100
AcDbVertex
100
AcDb2dVertex
 10
66.39388019173487
 20
205.0972140329271
 30
0.0
  0
VERTEX
  5
125
330
123
100
AcDbEntity
  8
STANDARDEBENE
 62
     7
100
AcDbVertex
100
AcDb2dVertex
 10
65.51882593848141
 20
205.0972140329271
 30
0.0
  0
SEQEND
  5
126
330
123
100
AcDbEntity
  8
STANDARDEBENE
  0
POLYLINE
  5
127
330
1F
100
AcDbEntity
  8
STANDARDEBENE
 62
     7
100
AcDb2dPolyline
 66
     1
 10
0.0
 20
0.0
 30
0.0
  0
VERTEX
  5
128
330
127
100
AcDbEntity
  8
STANDARDEBENE
 62
     7
100
AcDbVertex
100
AcDb2dVertex
 10
64.64342717567942
 20
205.0972140329271
 30
0.0
  0
VERTEX
  5
129
330
127
100
AcDbEntity
  8
STANDARDEBENE
 62
     7
100
AcDbVertex
100
AcDb2dVertex
 10
63.76906194152301
 20
205.0972140329271
 30
0.0
  0
SEQEND
  5
12A
330
127
100
AcDbEntity
  8
STANDARDEBENE
  0
POLYLINE
  5
12B
330
1F
100
AcDbEntity
  8
STANDARDEBENE
 62
     7
100
AcDb2dPolyline
 66
     1
 10
0.0
 20
0.0
 30
0.0
  0
VERTEX
  5
12C
330
12B
100
AcDbEntity
  8
STANDARDEBENE
 62
     7
100
AcDbVertex
100
AcDb2dVertex
 10
62.89400768826955
 20
205.0972140329271
 30
0.0
  0
VERTEX
  5
12D
330
12B
100
AcDbEntity
  8
STANDARDEBENE
 62
     7
100
AcDbVertex
100
AcDb2dVertex
 10
62.01826441591905
 20
205.0972140329271
 30
0.0
  0
SEQEND
  5
12E
330
12B
100
AcDbEntity
  8
STANDARDEBENE
  0
POLYLINE
  5
12F
330
1F
100
AcDbEntity
  8
STANDARDEBENE
 62
     7
100
AcDb2dPolyline
 66
     1
 10
0.0
 20
0.0
 30
0.0
  0
VERTEX
  5
130
330
12F
100
AcDbEntity
  8
STANDARDEBENE
 62
     7
100
AcDbVertex
100
AcDb2dVertex
 10
61.14355467221412
 20
205.0972140329271
 30
0.0
  0
VERTEX
  5
131
330
12F
100
AcDbEntity
  8
STANDARDEBENE
 62
     7
100
AcDbVertex
100
AcDb2dVertex
 10
60.70602754558738
 20
205.0972140329271
 30
0.0
  0
SEQEND
  5
132
330
12F
100
AcDbEntity
  8
STANDARDEBENE
  0
POLYLINE
  5
133
330
1F
100
AcDbEntity
  8
STANDARDEBENE
 62
     7
100
AcDb2dPolyline
 66
     1
 10
0.0
 20
0.0
 30
0.0
  0
VERTEX
  5
134
330
133
100
AcDbEntity
  8
STANDARDEBENE
 62
     7
100
AcDbVertex
100
AcDb2dVertex
 10
60.70602754558738
 20
202.0972248843715
 30
0.0
  0
VERTEX
  5
135
330
133
100
AcDbEntity
  8
STANDARDEBENE
 62
     7
100
AcDbVertex
100
AcDb2dVertex
 10
60.20614419067763
 20
202.0972248843715
 30
0.0
  0
SEQEND
  5
136
330
133
100
AcDbEntity
  8
STANDARDEBENE
  0
POLYLINE
  5
137
330
1F
100
AcDbEntity
  8
STANDARDEBENE
 62
     7
100
AcDb2dPolyline
 66
     1
 10
0.0
 20
0.0
 30
0.0
  0
VERTEX
  5
138
330
137
100
AcDbEntity
  8
STANDARDEBENE
 62
     7
100
AcDbVertex
100
AcDb2dVertex
 10
59.20637748085813
 20
202.0972248843715
 30
0.0
  0
VERTEX
  5
139
330
137
100
AcDbEntity
  8
STANDARDEBENE
 62
     7
100
AcDbVertex
100
AcDb2dVertex
 10
58.2062662614901
 20
202.0972248843715
 30
0.0
  0
SEQEND
  5
13A
330
137
100
AcDbEntity
  8
STANDARDEBENE
  0
POLYLINE
  5
13B
330
1F
100
AcDbEntity
  8
STANDARDEBENE
 62
     7
100
AcDb2dPolyline
 66
     1
 10
0.0
 20
0.0
 30
0.0
  0
VERTEX
  5
13C
330
13B
100
AcDbEntity
  8
STANDARDEBENE
 62
     7
100
AcDbVertex
100
AcDb2dVertex
 10
57.20615504212208
 20
202.0972248843715
 30
0.0
  0
VERTEX
  5
13D
330
13B
100
AcDbEntity
  8
STANDARDEBENE
 62
     7
100
AcDbVertex
100
AcDb2dVertex
 10
56.20604382275405
 20
202.0972248843715
 30
0.0
  0
SEQEND
  5
13E
330
13B
100
AcDbEntity
  8
STANDARDEBENE
  0
POLYLINE
  5
13F
330
1F
100
AcDbEntity
  8
STANDARDEBENE
 62
     7
100
AcDb2dPolyline
 66
     1
 10
0.0
 20
0.0
 30
0.0
  0
VERTEX
  5
140
330
13F
100
AcDbEntity
  8
STANDARDEBENE
 62
     7
100
AcDbVertex
100
AcDb2dVertex
 10
55.20627711293454
 20
202.0972248843715
 30
0.0
  0
VERTEX
  5
141
330
13F
100
AcDbEntity
  8
STANDARDEBENE
 62
     7
100
AcDbVertex
100
AcDb2dVertex
 10
54.20651040311504
 20
202.0972248843715
 30
0.0
  0
SEQEND
  5
142
330
13F
100
AcDbEntity
  8
STANDARDEBENE
  0
POLYLINE
  5
143
330
1F
100
AcDbEntity
  8
STANDARDEBENE
 62
     7
100
AcDb2dPolyline
 66
     1
 10
0.0
 20
0.0
 30
0.0
  0
VERTEX
  5
144
330
143
100
AcDbEntity
  8
STANDARDEBENE
 62
     7
100
AcDbVertex
100
AcDb2dVertex
 10
53.20605467419849
 20
202.0972248843715
 30
0.0
  0
VERTEX
  5
145
330
143
100
AcDbEntity
  8
STANDARDEBENE
 62
     7
100
AcDbVertex
100
AcDb2dVertex
 10
52.20594345483046
 20
202.0972248843715
 30
0.0
  0
SEQEND
  5
146
330
143
100
AcDbEntity
  8
STANDARDEBENE
  0
POLYLINE
  5
147
330
1F
100
AcDbEntity
  8
STANDARDEBENE
 62
     7
100
AcDb2dPolyline
 66
     1
 10
0.0
 20
0.0
 30
0.0
  0
VERTEX
  5
148
330
147
100
AcDbEntity
  8
STANDARDEBENE
 62
     7
100
AcDbVertex
100
AcDb2dVertex
 10
51.20617674501096
 20
202.0972248843715
 30
0.0
  0
VERTEX
  5
149
330
147
100
AcDbEntity
  8
STANDARDEBENE
 62
     7
100
AcDbVertex
100
AcDb2dVertex
 10
50.70629339010121
 20
202.0972248843715
 30
0.0
  0
SEQEND
  5
14A
330
147
100
AcDbEntity
  8
STANDARDEBENE
  0
POLYLINE
  5
14B
330
1F
100
AcDbEntity
  8
STANDARDEBENE
 62
     7
100
AcDb2dPolyline
 66
     1
 10
0.0
 20
0.0
 30
0.0
  0
VERTEX
  5
14C
330
14B
100
AcDbEntity
  8
STANDARDEBENE
 62
     7
100
AcDbVertex
100
AcDb2dVertex
 10
67.70611706206653
 20
195.5975354871249
 30
0.0
  0
VERTEX
  5
14D
330
14B
100
AcDbEntity
  8
STANDARDEBENE
 62
     7
100
AcDbVertex
100
AcDb2dVertex
 10
67.70611706206653
 20
195.7081230522014
 30
0.0
  0
VERTEX
  5
14E
330
14B
100
AcDbEntity
  8
STANDARDEBENE
 62
     7
100
AcDbVertex
100
AcDb2dVertex
 10
67.70611706206653
 20
196.0364406519458
 30
0.0
  0
VERTEX
  5
14F
330
14B
100
AcDbEntity
  8
STANDARDEBENE
 62
     7
100
AcDbVertex
100
AcDb2dVertex
 10
67.70611706206653
 20
196.1387599878577
 30
0.0
  0
SEQEND
  5
150
330
14B
100
AcDbEntity
  8
STANDARDEBENE
  0
POLYLINE
  5
151
330
1F
100
AcDbEntity
  8
STANDARDEBENE
 62
     7
100
AcDb2dPolyline
 66
     1
 10
0.0
 20
0.0
 30
0.0
  0
VERTEX
  5
152
330
151
100
AcDbEntity
  8
STANDARDEBENE
 62
     7
100
AcDbVertex
100
AcDb2dVertex
 10
67.70611706206653
 20
197.2222425179688
 30
0.0
  0
VERTEX
  5
153
330
151
100
AcDbEntity
  8
STANDARDEBENE
 62
     7
100
AcDbVertex
100
AcDb2dVertex
 10
67.70611706206653
 20
197.2937282492877
 30
0.0
  0
VERTEX
  5
154
330
151
100
AcDbEntity
  8
STANDARDEBENE
 62
     7
100
AcDbVertex
100
AcDb2dVertex
 10
67.70611706206653
 20
198.1803235724167
 30
0.0
  0
VERTEX
  5
155
330
151
100
AcDbEntity
  8
STANDARDEBENE
 62
     7
100
AcDbVertex
100
AcDb2dVertex
 10
67.70611706206653
 20
198.3058973028541
 30
0.0
  0
SEQEND
  5
156
330
151
100
AcDbEntity
  8
STANDARDEBENE
  0
POLYLINE
  5
157
330
1F
100
AcDbEntity
  8
STANDARDEBENE
 62
     7
100
AcDb2dPolyline
 66
     1
 10
0.0
 20
0.0
 30
0.0
  0
VERTEX
  5
158
330
157
100
AcDbEntity
  8
STANDARDEBENE
 62
     7
100
AcDbVertex
100
AcDb2dVertex
 10
67.70611706206653
 20
199.3892075781909
 30
0.0
  0
VERTEX
  5
159
330
157
100
AcDbEntity
  8
STANDARDEBENE
 62
     7
100
AcDbVertex
100
AcDb2dVertex
 10
67.70611706206653
 20
200.3188665948856
 30
0.0
  0
VERTEX
  5
15A
330
157
100
AcDbEntity
  8
STANDARDEBENE
 62
     7
100
AcDbVertex
100
AcDb2dVertex
 10
67.70611706206653
 20
200.4723455987535
 30
0.0
  0
SEQEND
  5
15B
330
157
100
AcDbEntity
  8
STANDARDEBENE
  0
POLYLINE
  5
15C
330
1F
100
AcDbEntity
  8
STANDARDEBENE
 62
     7
100
AcDb2dPolyline
 66
     1
 10
0.0
 20
0.0
 30
0.0
  0
VERTEX
  5
15D
330
15C
100
AcDbEntity
  8
STANDARDEBENE
 62
     7
100
AcDbVertex
100
AcDb2dVertex
 10
67.70611706206653
 20
201.5556558740903
 30
0.0
  0
VERTEX
  5
15E
330
15C
100
AcDbEntity
  8
STANDARDEBENE
 62
     7
100
AcDbVertex
100
AcDb2dVertex
 10
67.70611706206653
 20
202.6389661494271
 30
0.0
  0
SEQEND
  5
15F
330
15C
100
AcDbEntity
  8
STANDARDEBENE
  0
POLYLINE
  5
160
330
1F
100
AcDbEntity
  8
STANDARDEBENE
 62
     7
100
AcDb2dPolyline
 66
     1
 10
0.0
 20
0.0
 30
0.0
  0
VERTEX
  5
161
330
160
100
AcDbEntity
  8
STANDARDEBENE
 62
     7
100
AcDbVertex
100
AcDb2dVertex
 10
67.70611706206653
 20
203.7221041699896
 30
0.0
  0
VERTEX
  5
162
330
160
100
AcDbEntity
  8
STANDARDEBENE
 62
     7
100
AcDbVertex
100
AcDb2dVertex
 10
67.70611706206653
 20
203.875927683406
 30
0.0
  0
VERTEX
  5
163
330
160
100
AcDbEntity
  8
STANDARDEBENE
 62
     7
100
AcDbVertex
100
AcDb2dVertex
 10
67.70611706206653
 20
204.8054144453264
 30
0.0
  0
SEQEND
  5
164
330
160
100
AcDbEntity
  8
STANDARDEBENE
  0
POLYLINE
  5
165
330
1F
100
AcDbEntity
  8
STANDARDEBENE
 62
     7
100
AcDb2dPolyline
 66
     1
 10
0.0
 20
0.0
 30
0.0
  0
VERTEX
  5
166
330
165
100
AcDbEntity
  8
STANDARDEBENE
 62
     7
100
AcDbVertex
100
AcDb2dVertex
 10
67.70611706206653
 20
205.8890692302118
 30
0.0
  0
VERTEX
  5
167
330
165
100
AcDbEntity
  8
STANDARDEBENE
 62
     7
100
AcDbVertex
100
AcDb2dVertex
 10
67.70611706206653
 20
206.0144707058749
 30
0.0
  0
VERTEX
  5
168
330
165
100
AcDbEntity
  8
STANDARDEBENE
 62
     7
100
AcDbVertex
100
AcDb2dVertex
 10
67.70611706206653
 20
206.9008937742296
 30
0.0
  0
VERTEX
  5
169
330
165
100
AcDbEntity
  8
STANDARDEBENE
 62
     7
100
AcDbVertex
100
AcDb2dVertex
 10
67.70611706206653
 20
206.9725517603228
 30
0.0
  0
SEQEND
  5
16A
330
165
100
AcDbEntity
  8
STANDARDEBENE
  0
POLYLINE
  5
16B
330
1F
100
AcDbEntity
  8
STANDARDEBENE
 62
     7
100
AcDb2dPolyline
 66
     1
 10
0.0
 20
0.0
 30
0.0
  0
VERTEX
  5
16C
330
16B
100
AcDbEntity
  8
STANDARDEBENE
 62
     7
100
AcDbVertex
100
AcDb2dVertex
 10
67.70611706206653
 20
208.0560342904339
 30
0.0
  0
VERTEX
  5
16D
330
16B
100
AcDbEntity
  8
STANDARDEBENE
 62
     7
100
AcDbVertex
100
AcDb2dVertex
 10
67.70611706206653
 20
208.1583536263458
 30
0.0
  0
VERTEX
  5
16E
330
16B
100
AcDbEntity
  8
STANDARDEBENE
 62
     7
100
AcDbVertex
100
AcDb2dVertex
 10
67.70611706206653
 20
208.4863267165416
 30
0.0
  0
VERTEX
  5
16F
330
16B
100
AcDbEntity
  8
STANDARDEBENE
 62
     7
100
AcDbVertex
100
AcDb2dVertex
 10
67.70611706206653
 20
208.5974310459409
 30
0.0
  0
SEQEND
  5
170
330
16B
100
AcDbEntity
  8
STANDARDEBENE
  0
POLYLINE
  5
171
330
1F
100
AcDbEntity
  8
STANDARDEBENE
 62
     7
100
AcDb2dPolyline
 66
     1
 10
0.0
 20
0.0
 30
0.0
  0
VERTEX
  5
172
330
171
100
AcDbEntity
  8
STANDARDEBENE
 62
     7
100
AcDbVertex
100
AcDb2dVertex
 10
43.70620387362206
 20
199.0974079905902
 30
0.0
  0
VERTEX
  5
173
330
171
100
AcDbEntity
  8
STANDARDEBENE
 62
     7
100
AcDbVertex
100
AcDb2dVertex
 10
43.70620387362206
 20
199.1997273265022
 30
0.0
  0
VERTEX
  5
174
330
171
100
AcDbEntity
  8
STANDARDEBENE
 62
     7
100
AcDbVertex
100
AcDb2dVertex
 10
43.70620387362206
 20
199.4989338693961
 30
0.0
  0
VERTEX
  5
175
330
171
100
AcDbEntity
  8
STANDARDEBENE
 62
     7
100
AcDbVertex
100
AcDb2dVertex
 10
43.70620387362206
 20
199.5969468359515
 30
0.0
  0
SEQEND
  5
176
330
171
100
AcDbEntity
  8
STANDARDEBENE
  0
POLYLINE
  5
177
330
1F
100
AcDbEntity
  8
STANDARDEBENE
 62
     7
100
AcDb2dPolyline
 66
     1
 10
0.0
 20
0.0
 30
0.0
  0
VERTEX
  5
178
330
177
100
AcDbEntity
  8
STANDARDEBENE
 62
     7
100
AcDbVertex
100
AcDb2dVertex
 10
43.70620387362206
 20
200.597402564868
 30
0.0
  0
VERTEX
  5
179
330
177
100
AcDbEntity
  8
STANDARDEBENE
 62
     7
100
AcDbVertex
100
AcDb2dVertex
 10
43.70620387362206
 20
201.3210448715448
 30
0.0
  0
VERTEX
  5
17A
330
177
100
AcDbEntity
  8
STANDARDEBENE
 62
     7
100
AcDbVertex
100
AcDb2dVertex
 10
43.70620387362206
 20
201.5976860390103
 30
0.0
  0
SEQEND
  5
17B
330
177
100
AcDbEntity
  8
STANDARDEBENE
  0
POLYLINE
  5
17C
330
1F
100
AcDbEntity
  8
STANDARDEBENE
 62
     7
100
AcDb2dPolyline
 66
     1
 10
0.0
 20
0.0
 30
0.0
  0
VERTEX
  5
17D
330
17C
100
AcDbEntity
  8
STANDARDEBENE
 62
     7
100
AcDbVertex
100
AcDb2dVertex
 10
43.70620387362206
 20
202.5971082392813
 30
0.0
  0
VERTEX
  5
17E
330
17C
100
AcDbEntity
  8
STANDARDEBENE
 62
     7
100
AcDbVertex
100
AcDb2dVertex
 10
43.70620387362206
 20
202.8735771519726
 30
0.0
  0
VERTEX
  5
17F
330
17C
100
AcDbEntity
  8
STANDARDEBENE
 62
     7
100
AcDbVertex
100
AcDb2dVertex
 10
43.70620387362206
 20
203.5975639681978
 30
0.0
  0
SEQEND
  5
180
330
17C
100
AcDbEntity
  8
STANDARDEBENE
  0
SPLINE
  5
181
330
1F
100
AcDbEntity
  8
STANDARDEBENE
 62
     7
100
AcDbSpline
210
0.0
220
0.0
230
1.0
 70
    27
 71
     3
 72
    23
 73
    19
 74
     0
 42
0.0000000001
 43
0.0000000001
 40
0.0
 40
0.0
 40
0.0
 40
0.0
 40
1.0
 40
1.0
 40
1.0
 40
2.0
 40
2.0
 40
2.0
 40
3.0
 40
3.0
 40
3.0
 40
4.0
 40
4.0
 40
4.0
 40
5.0
 40
5.0
 40
5.0
 40
6.0
 40
6.0
 40
6.0
 40
6.0
 10
43.70620387362206
 20
204.5973306780174
 30
0.0
 10
43.70620387362206
 20
204.5973306780174
 30
0.0
 10
43.70620387362206
 20
204.6953436445727
 30
0.0
 10
43.70620387362206
 20
204.6953436445727
 30
0.0
 10
43.70620387362206
 20
204.6953436445727
 30
0.0
 10
43.70620387362206
 20
204.9952392065637
 30
0.0
 10
43.70620387362206
 20
204.9952392065637
 30
0.0
 10
43.70620387362206
 20
204.9952392065637
 30
0.0
 10
43.70620387362206
 20
205.0972140329271
 30
0.0
 10
43.70620387362206
 20
205.0972140329271
 30
0.0
 10
43.70620387362206
 20
205.0972140329271
 30
0.0
 10
43.70620387362206
 20
204.9952392065637
 30
0.0
 10
43.70620387362206
 20
204.9952392065637
 30
0.0
 10
43.70620387362206
 20
204.9952392065637
 30
0.0
 10
43.70620387362206
 20
204.6953436445727
 30
0.0
 10
43.70620387362206
 20
204.6953436445727
 30
0.0
 10
43.70620387362206
 20
204.6953436445727
 30
0.0
 10
43.70620387362206
 20
204.5973306780174
 30
0.0
 10
43.70620387362206
 20
204.5973306780174
 30
0.0
  0
POLYLINE
  5
182
330
1F
100
AcDbEntity
  8
STANDARDEBENE
 62
     7
100
AcDb2dPolyline
 66
     1
 10
0.0
 20
0.0
 30
0.0
  0
VERTEX
  5
183
330
182
100
AcDbEntity
  8
STANDARDEBENE
 62
     7
100
AcDbVertex
100
AcDb2dVertex
 10
43.70620387362206
 20
203.5975639681978
 30
0.0
  0
VERTEX
  5
184
330
182
100
AcDbEntity
  8
STANDARDEBENE
 62
     7
100
AcDbVertex
100
AcDb2dVertex
 10
43.70620387362206
 20
202.8735771519726
 30
0.0
  0
VERTEX
  5
185
330
182
100
AcDbEntity
  8
STANDARDEBENE
 62
     7
100
AcDbVertex
100
AcDb2dVertex
 10
43.70620387362206
 20
202.5971082392813
 30
0.0
  0
SEQEND
  5
186
330
182
100
AcDbEntity
  8
STANDARDEBENE
  0
POLYLINE
  5
187
330
1F
100
AcDbEntity
  8
STANDARDEBENE
 62
     7
100
AcDb2dPolyline
 66
     1
 10
0.0
 20
0.0
 30
0.0
  0
VERTEX
  5
188
330
187
100
AcDbEntity
  8
STANDARDEBENE
 62
     7
100
AcDbVertex
100
AcDb2dVertex
 10
43.70620387362206
 20
201.5976860390103
 30
0.0
  0
VERTEX
  5
189
330
187
100
AcDbEntity
  8
STANDARDEBENE
 62
     7
100
AcDbVertex
100
AcDb2dVertex
 10
43.70620387362206
 20
201.3210448715448
 30
0.0
  0
VERTEX
  5
18A
330
187
100
AcDbEntity
  8
STANDARDEBENE
 62
     7
100
AcDbVertex
100
AcDb2dVertex
 10
43.70620387362206
 20
200.597402564868
 30
0.0
  0
SEQEND
  5
18B
330
187
100
AcDbEntity
  8
STANDARDEBENE
  0
POLYLINE
  5
18C
330
1F
100
AcDbEntity
  8
STANDARDEBENE
 62
     7
100
AcDb2dPolyline
 66
     1
 10
0.0
 20
0.0
 30
0.0
  0
VERTEX
  5
18D
330
18C
100
AcDbEntity
  8
STANDARDEBENE
 62
     7
100
AcDbVertex
100
AcDb2dVertex
 10
43.70620387362206
 20
199.5969468359515
 30
0.0
  0
VERTEX
  5
18E
330
18C
100
AcDbEntity
  8
STANDARDEBENE
 62
     7
100
AcDbVertex
100
AcDb2dVertex
 10
43.70620387362206
 20
199.4989338693961
 30
0.0
  0
VERTEX
  5
18F
330
18C
100
AcDbEntity
  8
STANDARDEBENE
 62
     7
100
AcDbVertex
100
AcDb2dVertex
 10
43.70620387362206
 20
199.1997273265022
 30
0.0
  0
VERTEX
  5
190
330
18C
100
AcDbEntity
  8
STANDARDEBENE
 62
     7
100
AcDbVertex
100
AcDb2dVertex
 10
43.70620387362206
 20
199.0974079905902
 30
0.0
  0
SEQEND
  5
191
330
18C
100
AcDbEntity
  8
STANDARDEBENE
  0
POLYLINE
  5
192
330
1F
100
AcDbEntity
  8
STANDARDEBENE
 62
     7
100
AcDb2dPolyline
 66
     1
 10
0.0
 20
0.0
 30
0.0
  0
VERTEX
  5
193
330
192
100
AcDbEntity
  8
STANDARDEBENE
 62
     7
100
AcDbVertex
100
AcDb2dVertex
 10
43.70620387362206
 20
208.5974310459409
 30
0.0
  0
VERTEX
  5
194
330
192
100
AcDbEntity
  8
STANDARDEBENE
 62
     7
100
AcDbVertex
100
AcDb2dVertex
 10
43.70620387362206
 20
208.4863267165416
 30
0.0
  0
VERTEX
  5
195
330
192
100
AcDbEntity
  8
STANDARDEBENE
 62
     7
100
AcDbVertex
100
AcDb2dVertex
 10
43.70620387362206
 20
208.1583536263458
 30
0.0
  0
VERTEX
  5
196
330
192
100
AcDbEntity
  8
STANDARDEBENE
 62
     7
100
AcDbVertex
100
AcDb2dVertex
 10
43.70620387362206
 20
208.0560342904339
 30
0.0
  0
SEQEND
  5
197
330
192
100
AcDbEntity
  8
STANDARDEBENE
  0
POLYLINE
  5
198
330
1F
100
AcDbEntity
  8
STANDARDEBENE
 62
     7
100
AcDb2dPolyline
 66
     1
 10
0.0
 20
0.0
 30
0.0
  0
VERTEX
  5
199
330
198
100
AcDbEntity
  8
STANDARDEBENE
 62
     7
100
AcDbVertex
100
AcDb2dVertex
 10
43.70620387362206
 20
206.9725517603228
 30
0.0
  0
VERTEX
  5
19A
330
198
100
AcDbEntity
  8
STANDARDEBENE
 62
     7
100
AcDbVertex
100
AcDb2dVertex
 10
43.70620387362206
 20
206.9008937742296
 30
0.0
  0
VERTEX
  5
19B
330
198
100
AcDbEntity
  8
STANDARDEBENE
 62
     7
100
AcDbVertex
100
AcDb2dVertex
 10
43.70620387362206
 20
206.0144707058749
 30
0.0
  0
VERTEX
  5
19C
330
198
100
AcDbEntity
  8
STANDARDEBENE
 62
     7
100
AcDbVertex
100
AcDb2dVertex
 10
43.70620387362206
 20
205.8890692302118
 30
0.0
  0
SEQEND
  5
19D
330
198
100
AcDbEntity
  8
STANDARDEBENE
  0
POLYLINE
  5
19E
330
1F
100
AcDbEntity
  8
STANDARDEBENE
 62
     7
100
AcDb2dPolyline
 66
     1
 10
0.0
 20
0.0
 30
0.0
  0
VERTEX
  5
19F
330
19E
100
AcDbEntity
  8
STANDARDEBENE
 62
     7
100
AcDbVertex
100
AcDb2dVertex
 10
43.70620387362206
 20
204.8054144453264
 30
0.0
  0
VERTEX
  5
1A0
330
19E
100
AcDbEntity
  8
STANDARDEBENE
 62
     7
100
AcDbVertex
100
AcDb2dVertex
 10
43.70620387362206
 20
203.875927683406
 30
0.0
  0
VERTEX
  5
1A1
330
19E
100
AcDbEntity
  8
STANDARDEBENE
 62
     7
100
AcDbVertex
100
AcDb2dVertex
 10
43.70620387362206
 20
203.7221041699896
 30
0.0
  0
SEQEND
  5
1A2
330
19E
100
AcDbEntity
  8
STANDARDEBENE
  0
POLYLINE
  5
1A3
330
1F
100
AcDbEntity
  8
STANDARDEBENE
 62
     7
100
AcDb2dPolyline
 66
     1
 10
0.0
 20
0.0
 30
0.0
  0
VERTEX
  5
1A4
330
1A3
100
AcDbEntity
  8
STANDARDEBENE
 62
     7
100
AcDbVertex
100
AcDb2dVertex
 10
43.70620387362206
 20
202.6389661494271
 30
0.0
  0
VERTEX
  5
1A5
330
1A3
100
AcDbEntity
  8
STANDARDEBENE
 62
     7
100
AcDbVertex
100
AcDb2dVertex
 10
43.70620387362206
 20
201.5556558740903
 30
0.0
  0
SEQEND
  5
1A6
330
1A3
100
AcDbEntity
  8
STANDARDEBENE
  0
POLYLINE
  5
1A7
330
1F
100
AcDbEntity
  8
STANDARDEBENE
 62
     7
100
AcDb2dPolyline
 66
     1
 10
0.0
 20
0.0
 30
0.0
  0
VERTEX
  5
1A8
330
1A7
100
AcDbEntity
  8
STANDARDEBENE
 62
     7
100
AcDbVertex
100
AcDb2dVertex
 10
43.70620387362206
 20
200.4723455987535
 30
0.0
  0
VERTEX
  5
1A9
330
1A7
100
AcDbEntity
  8
STANDARDEBENE
 62
     7
100
AcDbVertex
100
AcDb2dVertex
 10
43.70620387362206
 20
200.3188665948856
 30
0.0
  0
VERTEX
  5
1AA
330
1A7
100
AcDbEntity
  8
STANDARDEBENE
 62
     7
100
AcDbVertex
100
AcDb2dVertex
 10
43.70620387362206
 20
199.3892075781909
 30
0.0
  0
SEQEND
  5
1AB
330
1A7
100
AcDbEntity
  8
STANDARDEBENE
  0
POLYLINE
  5
1AC
330
1F
100
AcDbEntity
  8
STANDARDEBENE
 62
     7
100
AcDb2dPolyline
 66
     1
 10
0.0
 20
0.0
 30
0.0
  0
VERTEX
  5
1AD
330
1AC
100
AcDbEntity
  8
STANDARDEBENE
 62
     7
100
AcDbVertex
100
AcDb2dVertex
 10
43.70620387362206
 20
198.3058973028541
 30
0.0
  0
VERTEX
  5
1AE
330
1AC
100
AcDbEntity
  8
STANDARDEBENE
 62
     7
100
AcDbVertex
100
AcDb2dVertex
 10
43.70620387362206
 20
198.1803235724167
 30
0.0
  0
VERTEX
  5
1AF
330
1AC
100
AcDbEntity
  8
STANDARDEBENE
 62
     7
100
AcDbVertex
100
AcDb2dVertex
 10
43.70620387362206
 20
197.2937282492877
 30
0.0
  0
VERTEX
  5
1B0
330
1AC
100
AcDbEntity
  8
STANDARDEBENE
 62
     7
100
AcDbVertex
100
AcDb2dVertex
 10
43.70620387362206
 20
197.2222425179688
 30
0.0
  0
SEQEND
  5
1B1
330
1AC
100
AcDbEntity
  8
STANDARDEBENE
  0
POLYLINE
  5
1B2
330
1F
100
AcDbEntity
  8
STANDARDEBENE
 62
     7
100
AcDb2dPolyline
 66
     1
 10
0.0
 20
0.0
 30
0.0
  0
VERTEX
  5
1B3
330
1B2
100
AcDbEntity
  8
STANDARDEBENE
 62
     7
100
AcDbVertex
100
AcDb2dVertex
 10
43.70620387362206
 20
196.1387599878577
 30
0.0
  0
VERTEX
  5
1B4
330
1B2
100
AcDbEntity
  8
STANDARDEBENE
 62
     7
100
AcDbVertex
100
AcDb2dVertex
 10
43.70620387362206
 20
196.0364406519458
 30
0.0
  0
VERTEX
  5
1B5
330
1B2
100
AcDbEntity
  8
STANDARDEBENE
 62
     7
100
AcDbVertex
100
AcDb2dVertex
 10
43.70620387362206
 20
195.7081230522014
 30
0.0
  0
VERTEX
  5
1B6
330
1B2
100
AcDbEntity
  8
STANDARDEBENE
 62
     7
100
AcDbVertex
100
AcDb2dVertex
 10
43.70620387362206
 20
195.5975354871249
 30
0.0
  0
SEQEND
  5
1B7
330
1B2
100
AcDbEntity
  8
STANDARDEBENE
  0
POLYLINE
  5
1B8
330
1F
100
AcDbEntity
  8
STANDARDEBENE
 62
     7
100
AcDb2dPolyline
 66
     1
 10
0.0
 20
0.0
 30
0.0
  0
VERTEX
  5
1B9
330
1B8
100
AcDbEntity
  8
STANDARDEBENE
 62
     7
100
AcDbVertex
100
AcDb2dVertex
 10
67.70611706206653
 20
199.0974079905902
 30
0.0
  0
VERTEX
  5
1BA
330
1B8
100
AcDbEntity
  8
STANDARDEBENE
 62
     7
100
AcDbVertex
100
AcDb2dVertex
 10
67.70611706206653
 20
199.1997273265022
 30
0.0
  0
VERTEX
  5
1BB
330
1B8
100
AcDbEntity
  8
STANDARDEBENE
 62
     7
100
AcDbVertex
100
AcDb2dVertex
 10
67.70611706206653
 20
199.4989338693961
 30
0.0
  0
VERTEX
  5
1BC
330
1B8
100
AcDbEntity
  8
STANDARDEBENE
 62
     7
100
AcDbVertex
100
AcDb2dVertex
 10
67.70611706206653
 20
199.5969468359515
 30
0.0
  0
SEQEND
  5
1BD
330
1B8
100
AcDbEntity
  8
STANDARDEBENE
  0
POLYLINE
  5
1BE
330
1F
100
AcDbEntity
  8
STANDARDEBENE
 62
     7
100
AcDb2dPolyline
 66
     1
 10
0.0
 20
0.0
 30
0.0
  0
VERTEX
  5
1BF
330
1BE
100
AcDbEntity
  8
STANDARDEBENE
 62
     7
100
AcDbVertex
100
AcDb2dVertex
 10
67.70611706206653
 20
200.597402564868
 30
0.0
  0
VERTEX
  5
1C0
330
1BE
100
AcDbEntity
  8
STANDARDEBENE
 62
     7
100
AcDbVertex
100
AcDb2dVertex
 10
67.70611706206653
 20
201.3210448715448
 30
0.0
  0
VERTEX
  5
1C1
330
1BE
100
AcDbEntity
  8
STANDARDEBENE
 62
     7
100
AcDbVertex
100
AcDb2dVertex
 10
67.70611706206653
 20
201.5976860390103
 30
0.0
  0
SEQEND
  5
1C2
330
1BE
100
AcDbEntity
  8
STANDARDEBENE
  0
POLYLINE
  5
1C3
330
1F
100
AcDbEntity
  8
STANDARDEBENE
 62
     7
100
AcDb2dPolyline
 66
     1
 10
0.0
 20
0.0
 30
0.0
  0
VERTEX
  5
1C4
330
1C3
100
AcDbEntity
  8
STANDARDEBENE
 62
     7
100
AcDbVertex
100
AcDb2dVertex
 10
67.70611706206653
 20
202.5971082392813
 30
0.0
  0
VERTEX
  5
1C5
330
1C3
100
AcDbEntity
  8
STANDARDEBENE
 62
     7
100
AcDbVertex
100
AcDb2dVertex
 10
67.70611706206653
 20
202.8735771519726
 30
0.0
  0
VERTEX
  5
1C6
330
1C3
100
AcDbEntity
  8
STANDARDEBENE
 62
     7
100
AcDbVertex
100
AcDb2dVertex
 10
67.70611706206653
 20
203.5975639681978
 30
0.0
  0
SEQEND
  5
1C7
330
1C3
100
AcDbEntity
  8
STANDARDEBENE
  0
SPLINE
  5
1C8
330
1F
100
AcDbEntity
  8
STANDARDEBENE
 62
     7
100
AcDbSpline
210
0.0
220
0.0
230
1.0
 70
    27
 71
     3
 72
    23
 73
    19
 74
     0
 42
0.0000000001
 43
0.0000000001
 40
0.0
 40
0.0
 40
0.0
 40
0.0
 40
1.0
 40
1.0
 40
1.0
 40
2.0
 40
2.0
 40
2.0
 40
3.0
 40
3.0
 40
3.0
 40
4.0
 40
4.0
 40
4.0
 40
5.0
 40
5.0
 40
5.0
 40
6.0
 40
6.0
 40
6.0
 40
6.0
 10
67.70611706206653
 20
204.5973306780174
 30
0.0
 10
67.70611706206653
 20
204.5973306780174
 30
0.0
 10
67.70611706206653
 20
204.6953436445727
 30
0.0
 10
67.70611706206653
 20
204.6953436445727
 30
0.0
 10
67.70611706206653
 20
204.6953436445727
 30
0.0
 10
67.70611706206653
 20
204.9952392065637
 30
0.0
 10
67.70611706206653
 20
204.9952392065637
 30
0.0
 10
67.70611706206653
 20
204.9952392065637
 30
0.0
 10
67.70611706206653
 20
205.0972140329271
 30
0.0
 10
67.70611706206653
 20
205.0972140329271
 30
0.0
 10
67.70611706206653
 20
205.0972140329271
 30
0.0
 10
67.70611706206653
 20
204.9952392065637
 30
0.0
 10
67.70611706206653
 20
204.9952392065637
 30
0.0
 10
67.70611706206653
 20
204.9952392065637
 30
0.0
 10
67.70611706206653
 20
204.6953436445727
 30
0.0
 10
67.70611706206653
 20
204.6953436445727
 30
0.0
 10
67.70611706206653
 20
204.6953436445727
 30
0.0
 10
67.70611706206653
 20
204.5973306780174
 30
0.0
 10
67.70611706206653
 20
204.5973306780174
 30
0.0
  0
POLYLINE
  5
1C9
330
1F
100
AcDbEntity
  8
STANDARDEBENE
 62
     7
100
AcDb2dPolyline
 66
     1
 10
0.0
 20
0.0
 30
0.0
  0
VERTEX
  5
1CA
330
1C9
100
AcDbEntity
  8
STANDARDEBENE
 62
     7
100
AcDbVertex
100
AcDb2dVertex
 10
67.70611706206653
 20
203.5975639681978
 30
0.0
  0
VERTEX
  5
1CB
330
1C9
100
AcDbEntity
  8
STANDARDEBENE
 62
     7
100
AcDbVertex
100
AcDb2dVertex
 10
67.70611706206653
 20
202.8735771519726
 30
0.0
  0
VERTEX
  5
1CC
330
1C9
100
AcDbEntity
  8
STANDARDEBENE
 62
     7
100
AcDbVertex
100
AcDb2dVertex
 10
67.70611706206653
 20
202.5971082392813
 30
0.0
  0
SEQEND
  5
1CD
330
1C9
100
AcDbEntity
  8
STANDARDEBENE
  0
POLYLINE
  5
1CE
330
1F
100
AcDbEntity
  8
STANDARDEBENE
 62
     7
100
AcDb2dPolyline
 66
     1
 10
0.0
 20
0.0
 30
0.0
  0
VERTEX
  5
1CF
330
1CE
100
AcDbEntity
  8
STANDARDEBENE
 62
     7
100
AcDbVertex
100
AcDb2dVertex
 10
67.70611706206653
 20
201.5976860390103
 30
0.0
  0
VERTEX
  5
1D0
330
1CE
100
AcDbEntity
  8
STANDARDEBENE
 62
     7
100
AcDbVertex
100
AcDb2dVertex
 10
67.70611706206653
 20
201.3210448715448
 30
0.0
  0
VERTEX
  5
1D1
330
1CE
100
AcDbEntity
  8
STANDARDEBENE
 62
     7
100
AcDbVertex
100
AcDb2dVertex
 10
67.70611706206653
 20
200.597402564868
 30
0.0
  0
SEQEND
  5
1D2
330
1CE
100
AcDbEntity
  8
STANDARDEBENE
  0
POLYLINE
  5
1D3
330
1F
100
AcDbEntity
  8
STANDARDEBENE
 62
     7
100
AcDb2dPolyline
 66
     1
 10
0.0
 20
0.0
 30
0.0
  0
VERTEX
  5
1D4
330
1D3
100
AcDbEntity
  8
STANDARDEBENE
 62
     7
100
AcDbVertex
100
AcDb2dVertex
 10
67.70611706206653
 20
199.5969468359515
 30
0.0
  0
VERTEX
  5
1D5
330
1D3
100
AcDbEntity
  8
STANDARDEBENE
 62
     7
100
AcDbVertex
100
AcDb2dVertex
 10
67.70611706206653
 20
199.4989338693961
 30
0.0
  0
VERTEX
  5
1D6
330
1D3
100
AcDbEntity
  8
STANDARDEBENE
 62
     7
100
AcDbVertex
100
AcDb2dVertex
 10
67.70611706206653
 20
199.1997273265022
 30
0.0
  0
VERTEX
  5
1D7
330
1D3
100
AcDbEntity
  8
STANDARDEBENE
 62
     7
100
AcDbVertex
100
AcDb2dVertex
 10
67.70611706206653
 20
199.0974079905902
 30
0.0
  0
SEQEND
  5
1D8
330
1D3
100
AcDbEntity
  8
STANDARDEBENE
  0
POLYLINE
  5
1D9
330
1F
100
AcDbEntity
  8
STANDARDEBENE
 62
     7
100
AcDb2dPolyline
 66
     1
 10
0.0
 20
0.0
 30
0.0
  0
VERTEX
  5
1DA
330
1D9
100
AcDbEntity
  8
STANDARDEBENE
 62
     7
100
AcDbVertex
100
AcDb2dVertex
 10
50.70629339010121
 20
202.0972248843715
 30
0.0
  0
VERTEX
  5
1DB
330
1D9
100
AcDbEntity
  8
STANDARDEBENE
 62
     7
100
AcDbVertex
100
AcDb2dVertex
 10
50.70629339010121
 20
202.5662746346883
 30
0.0
  0
SEQEND
  5
1DC
330
1D9
100
AcDbEntity
  8
STANDARDEBENE
  0
POLYLINE
  5
1DD
330
1F
100
AcDbEntity
  8
STANDARDEBENE
 62
     7
100
AcDb2dPolyline
 66
     1
 10
0.0
 20
0.0
 30
0.0
  0
VERTEX
  5
1DE
330
1DD
100
AcDbEntity
  8
STANDARDEBENE
 62
     7
100
AcDbVertex
100
AcDb2dVertex
 10
50.70629339010121
 20
203.5033406066763
 30
0.0
  0
VERTEX
  5
1DF
330
1DD
100
AcDbEntity
  8
STANDARDEBENE
 62
     7
100
AcDbVertex
100
AcDb2dVertex
 10
50.70629339010121
 20
204.4410955977613
 30
0.0
  0
SEQEND
  5
1E0
330
1DD
100
AcDbEntity
  8
STANDARDEBENE
  0
POLYLINE
  5
1E1
330
1F
100
AcDbEntity
  8
STANDARDEBENE
 62
     7
100
AcDb2dPolyline
 66
     1
 10
0.0
 20
0.0
 30
0.0
  0
VERTEX
  5
1E2
330
1E1
100
AcDbEntity
  8
STANDARDEBENE
 62
     7
100
AcDbVertex
100
AcDb2dVertex
 10
50.70629339010121
 20
205.378678334072
 30
0.0
  0
VERTEX
  5
1E3
330
1E1
100
AcDbEntity
  8
STANDARDEBENE
 62
     7
100
AcDbVertex
100
AcDb2dVertex
 10
50.70629339010121
 20
205.847211320066
 30
0.0
  0
VERTEX
  5
1E4
330
1E1
100
AcDbEntity
  8
STANDARDEBENE
 62
     7
100
AcDbVertex
100
AcDb2dVertex
 10
50.70629339010121
 20
206.316433325157
 30
0.0
  0
SEQEND
  5
1E5
330
1E1
100
AcDbEntity
  8
STANDARDEBENE
  0
POLYLINE
  5
1E6
330
1F
100
AcDbEntity
  8
STANDARDEBENE
 62
     7
100
AcDb2dPolyline
 66
     1
 10
0.0
 20
0.0
 30
0.0
  0
VERTEX
  5
1E7
330
1E6
100
AcDbEntity
  8
STANDARDEBENE
 62
     7
100
AcDbVertex
100
AcDb2dVertex
 10
50.70629339010121
 20
207.2536715519192
 30
0.0
  0
VERTEX
  5
1E8
330
1E6
100
AcDbEntity
  8
STANDARDEBENE
 62
     7
100
AcDbVertex
100
AcDb2dVertex
 10
50.70629339010121
 20
207.842782879897
 30
0.0
  0
VERTEX
  5
1E9
330
1E6
100
AcDbEntity
  8
STANDARDEBENE
 62
     7
100
AcDbVertex
100
AcDb2dVertex
 10
50.70629339010121
 20
208.1910820334557
 30
0.0
  0
SEQEND
  5
1EA
330
1E6
100
AcDbEntity
  8
STANDARDEBENE
  0
POLYLINE
  5
1EB
330
1F
100
AcDbEntity
  8
STANDARDEBENE
 62
     7
100
AcDb2dPolyline
 66
     1
 10
0.0
 20
0.0
 30
0.0
  0
VERTEX
  5
1EC
330
1EB
100
AcDbEntity
  8
STANDARDEBENE
 62
     7
100
AcDbVertex
100
AcDb2dVertex
 10
50.70629339010121
 20
209.1284925149922
 30
0.0
  0
VERTEX
  5
1ED
330
1EB
100
AcDbEntity
  8
STANDARDEBENE
 62
     7
100
AcDbVertex
100
AcDb2dVertex
 10
50.70629339010121
 20
209.1453734828699
 30
0.0
  0
VERTEX
  5
1EE
330
1EB
100
AcDbEntity
  8
STANDARDEBENE
 62
     7
100
AcDbVertex
100
AcDb2dVertex
 10
50.70629339010121
 20
209.4833373499729
 30
0.0
  0
VERTEX
  5
1EF
330
1EB
100
AcDbEntity
  8
STANDARDEBENE
 62
     7
100
AcDbVertex
100
AcDb2dVertex
 10
50.70629339010121
 20
209.5971977557604
 30
0.0
  0
SEQEND
  5
1F0
330
1EB
100
AcDbEntity
  8
STANDARDEBENE
  0
POLYLINE
  5
1F1
330
1F
100
AcDbEntity
  8
STANDARDEBENE
 62
     7
100
AcDb2dPolyline
 66
     1
 10
0.0
 20
0.0
 30
0.0
  0
VERTEX
  5
1F2
330
1F1
100
AcDbEntity
  8
STANDARDEBENE
 62
     7
100
AcDbVertex
100
AcDb2dVertex
 10
50.70629339010121
 20
202.0972248843715
 30
0.0
  0
VERTEX
  5
1F3
330
1F1
100
AcDbEntity
  8
STANDARDEBENE
 62
     7
100
AcDbVertex
100
AcDb2dVertex
 10
51.20617674501096
 20
202.0972248843715
 30
0.0
  0
SEQEND
  5
1F4
330
1F1
100
AcDbEntity
  8
STANDARDEBENE
  0
POLYLINE
  5
1F5
330
1F
100
AcDbEntity
  8
STANDARDEBENE
 62
     7
100
AcDb2dPolyline
 66
     1
 10
0.0
 20
0.0
 30
0.0
  0
VERTEX
  5
1F6
330
1F5
100
AcDbEntity
  8
STANDARDEBENE
 62
     7
100
AcDbVertex
100
AcDb2dVertex
 10
52.20594345483046
 20
202.0972248843715
 30
0.0
  0
VERTEX
  5
1F7
330
1F5
100
AcDbEntity
  8
STANDARDEBENE
 62
     7
100
AcDbVertex
100
AcDb2dVertex
 10
53.20605467419849
 20
202.0972248843715
 30
0.0
  0
SEQEND
  5
1F8
330
1F5
100
AcDbEntity
  8
STANDARDEBENE
  0
POLYLINE
  5
1F9
330
1F
100
AcDbEntity
  8
STANDARDEBENE
 62
     7
100
AcDb2dPolyline
 66
     1
 10
0.0
 20
0.0
 30
0.0
  0
VERTEX
  5
1FA
330
1F9
100
AcDbEntity
  8
STANDARDEBENE
 62
     7
100
AcDbVertex
100
AcDb2dVertex
 10
54.20651040311504
 20
202.0972248843715
 30
0.0
  0
VERTEX
  5
1FB
330
1F9
100
AcDbEntity
  8
STANDARDEBENE
 62
     7
100
AcDbVertex
100
AcDb2dVertex
 10
55.20627711293454
 20
202.0972248843715
 30
0.0
  0
SEQEND
  5
1FC
330
1F9
100
AcDbEntity
  8
STANDARDEBENE
  0
POLYLINE
  5
1FD
330
1F
100
AcDbEntity
  8
STANDARDEBENE
 62
     7
100
AcDb2dPolyline
 66
     1
 10
0.0
 20
0.0
 30
0.0
  0
VERTEX
  5
1FE
330
1FD
100
AcDbEntity
  8
STANDARDEBENE
 62
     7
100
AcDbVertex
100
AcDb2dVertex
 10
56.20604382275405
 20
202.0972248843715
 30
0.0
  0
VERTEX
  5
1FF
330
1FD
100
AcDbEntity
  8
STANDARDEBENE
 62
     7
100
AcDbVertex
100
AcDb2dVertex
 10
57.20615504212208
 20
202.0972248843715
 30
0.0
  0
SEQEND
  5
200
330
1FD
100
AcDbEntity
  8
STANDARDEBENE
  0
POLYLINE
  5
201
330
1F
100
AcDbEntity
  8
STANDARDEBENE
 62
     7
100
AcDb2dPolyline
 66
     1
 10
0.0
 20
0.0
 30
0.0
  0
VERTEX
  5
202
330
201
100
AcDbEntity
  8
STANDARDEBENE
 62
     7
100
AcDbVertex
100
AcDb2dVertex
 10
58.2062662614901
 20
202.0972248843715
 30
0.0
  0
VERTEX
  5
203
330
201
100
AcDbEntity
  8
STANDARDEBENE
 62
     7
100
AcDbVertex
100
AcDb2dVertex
 10
59.20637748085813
 20
202.0972248843715
 30
0.0
  0
SEQEND
  5
204
330
201
100
AcDbEntity
  8
STANDARDEBENE
  0
SPLINE
  5
205
330
1F
100
AcDbEntity
  8
STANDARDEBENE
 62
     7
100
AcDbSpline
210
0.0
220
0.0
230
1.0
 70
    27
 71
     3
 72
    11
 73
     7
 74
     0
 42
0.0000000001
 43
0.0000000001
 40
0.0
 40
0.0
 40
0.0
 40
0.0
 40
1.0
 40
1.0
 40
1.0
 40
2.0
 40
2.0
 40
2.0
 40
2.0
 10
60.20614419067763
 20
202.0972248843715
 30
0.0
 10
60.20614419067763
 20
202.0972248843715
 30
0.0
 10
60.70602754558738
 20
202.0972248843715
 30
0.0
 10
60.70602754558738
 20
202.0972248843715
 30
0.0
 10
60.70602754558738
 20
202.0972248843715
 30
0.0
 10
60.20614419067763
 20
202.0972248843715
 30
0.0
 10
60.20614419067763
 20
202.0972248843715
 30
0.0
  0
POLYLINE
  5
206
330
1F
100
AcDbEntity
  8
STANDARDEBENE
 62
     7
100
AcDb2dPolyline
 66
     1
 10
0.0
 20
0.0
 30
0.0
  0
VERTEX
  5
207
330
206
100
AcDbEntity
  8
STANDARDEBENE
 62
     7
100
AcDbVertex
100
AcDb2dVertex
 10
59.20637748085813
 20
202.0972248843715
 30
0.0
  0
VERTEX
  5
208
330
206
100
AcDbEntity
  8
STANDARDEBENE
 62
     7
100
AcDbVertex
100
AcDb2dVertex
 10
58.2062662614901
 20
202.0972248843715
 30
0.0
  0
SEQEND
  5
209
330
206
100
AcDbEntity
  8
STANDARDEBENE
  0
POLYLINE
  5
20A
330
1F
100
AcDbEntity
  8
STANDARDEBENE
 62
     7
100
AcDb2dPolyline
 66
     1
 10
0.0
 20
0.0
 30
0.0
  0
VERTEX
  5
20B
330
20A
100
AcDbEntity
  8
STANDARDEBENE
 62
     7
100
AcDbVertex
100
AcDb2dVertex
 10
57.20615504212208
 20
202.0972248843715
 30
0.0
  0
VERTEX
  5
20C
330
20A
100
AcDbEntity
  8
STANDARDEBENE
 62
     7
100
AcDbVertex
100
AcDb2dVertex
 10
56.20604382275405
 20
202.0972248843715
 30
0.0
  0
SEQEND
  5
20D
330
20A
100
AcDbEntity
  8
STANDARDEBENE
  0
POLYLINE
  5
20E
330
1F
100
AcDbEntity
  8
STANDARDEBENE
 62
     7
100
AcDb2dPolyline
 66
     1
 10
0.0
 20
0.0
 30
0.0
  0
VERTEX
  5
20F
330
20E
100
AcDbEntity
  8
STANDARDEBENE
 62
     7
100
AcDbVertex
100
AcDb2dVertex
 10
55.20627711293454
 20
202.0972248843715
 30
0.0
  0
VERTEX
  5
210
330
20E
100
AcDbEntity
  8
STANDARDEBENE
 62
     7
100
AcDbVertex
100
AcDb2dVertex
 10
54.20651040311504
 20
202.0972248843715
 30
0.0
  0
SEQEND
  5
211
330
20E
100
AcDbEntity
  8
STANDARDEBENE
  0
POLYLINE
  5
212
330
1F
100
AcDbEntity
  8
STANDARDEBENE
 62
     7
100
AcDb2dPolyline
 66
     1
 10
0.0
 20
0.0
 30
0.0
  0
VERTEX
  5
213
330
212
100
AcDbEntity
  8
STANDARDEBENE
 62
     7
100
AcDbVertex
100
AcDb2dVertex
 10
53.20605467419849
 20
202.0972248843715
 30
0.0
  0
VERTEX
  5
214
330
212
100
AcDbEntity
  8
STANDARDEBENE
 62
     7
100
AcDbVertex
100
AcDb2dVertex
 10
52.20594345483046
 20
202.0972248843715
 30
0.0
  0
SEQEND
  5
215
330
212
100
AcDbEntity
  8
STANDARDEBENE
  0
POLYLINE
  5
216
330
1F
100
AcDbEntity
  8
STANDARDEBENE
 62
     7
100
AcDb2dPolyline
 66
     1
 10
0.0
 20
0.0
 30
0.0
  0
VERTEX
  5
217
330
216
100
AcDbEntity
  8
STANDARDEBENE
 62
     7
100
AcDbVertex
100
AcDb2dVertex
 10
51.20617674501096
 20
202.0972248843715
 30
0.0
  0
VERTEX
  5
218
330
216
100
AcDbEntity
  8
STANDARDEBENE
 62
     7
100
AcDbVertex
100
AcDb2dVertex
 10
50.70629339010121
 20
202.0972248843715
 30
0.0
  0
SEQEND
  5
219
330
216
100
AcDbEntity
  8
STANDARDEBENE
  0
POLYLINE
  5
21A
330
1F
100
AcDbEntity
  8
STANDARDEBENE
 62
     7
100
AcDb2dPolyline
 66
     1
 10
0.0
 20
0.0
 30
0.0
  0
VERTEX
  5
21B
330
21A
100
AcDbEntity
  8
STANDARDEBENE
 62
     7
100
AcDbVertex
100
AcDb2dVertex
 10
60.70602754558738
 20
209.5971977557604
 30
0.0
  0
VERTEX
  5
21C
330
21A
100
AcDbEntity
  8
STANDARDEBENE
 62
     7
100
AcDbVertex
100
AcDb2dVertex
 10
60.70602754558738
 20
209.4833373499729
 30
0.0
  0
VERTEX
  5
21D
330
21A
100
AcDbEntity
  8
STANDARDEBENE
 62
     7
100
AcDbVertex
100
AcDb2dVertex
 10
60.70602754558738
 20
209.1453734828699
 30
0.0
  0
VERTEX
  5
21E
330
21A
100
AcDbEntity
  8
STANDARDEBENE
 62
     7
100
AcDbVertex
100
AcDb2dVertex
 10
60.70602754558738
 20
209.1284925149922
 30
0.0
  0
SEQEND
  5
21F
330
21A
100
AcDbEntity
  8
STANDARDEBENE
  0
POLYLINE
  5
220
330
1F
100
AcDbEntity
  8
STANDARDEBENE
 62
     7
100
AcDb2dPolyline
 66
     1
 10
0.0
 20
0.0
 30
0.0
  0
VERTEX
  5
221
330
220
100
AcDbEntity
  8
STANDARDEBENE
 62
     7
100
AcDbVertex
100
AcDb2dVertex
 10
60.70602754558738
 20
208.1910820334557
 30
0.0
  0
VERTEX
  5
222
330
220
100
AcDbEntity
  8
STANDARDEBENE
 62
     7
100
AcDbVertex
100
AcDb2dVertex
 10
60.70602754558738
 20
207.842782879897
 30
0.0
  0
VERTEX
  5
223
330
220
100
AcDbEntity
  8
STANDARDEBENE
 62
     7
100
AcDbVertex
100
AcDb2dVertex
 10
60.70602754558738
 20
207.2536715519192
 30
0.0
  0
SEQEND
  5
224
330
220
100
AcDbEntity
  8
STANDARDEBENE
  0
POLYLINE
  5
225
330
1F
100
AcDbEntity
  8
STANDARDEBENE
 62
     7
100
AcDb2dPolyline
 66
     1
 10
0.0
 20
0.0
 30
0.0
  0
VERTEX
  5
226
330
225
100
AcDbEntity
  8
STANDARDEBENE
 62
     7
100
AcDbVertex
100
AcDb2dVertex
 10
60.70602754558738
 20
206.316433325157
 30
0.0
  0
VERTEX
  5
227
330
225
100
AcDbEntity
  8
STANDARDEBENE
 62
     7
100
AcDbVertex
100
AcDb2dVertex
 10
60.70602754558738
 20
205.847211320066
 30
0.0
  0
VERTEX
  5
228
330
225
100
AcDbEntity
  8
STANDARDEBENE
 62
     7
100
AcDbVertex
100
AcDb2dVertex
 10
60.70602754558738
 20
205.378678334072
 30
0.0
  0
SEQEND
  5
229
330
225
100
AcDbEntity
  8
STANDARDEBENE
  0
POLYLINE
  5
22A
330
1F
100
AcDbEntity
  8
STANDARDEBENE
 62
     7
100
AcDb2dPolyline
 66
     1
 10
0.0
 20
0.0
 30
0.0
  0
VERTEX
  5
22B
330
22A
100
AcDbEntity
  8
STANDARDEBENE
 62
     7
100
AcDbVertex
100
AcDb2dVertex
 10
60.70602754558738
 20
204.4410955977613
 30
0.0
  0
VERTEX
  5
22C
330
22A
100
AcDbEntity
  8
STANDARDEBENE
 62
     7
100
AcDbVertex
100
AcDb2dVertex
 10
60.70602754558738
 20
203.5033406066763
 30
0.0
  0
SEQEND
  5
22D
330
22A
100
AcDbEntity
  8
STANDARDEBENE
  0
POLYLINE
  5
22E
330
1F
100
AcDbEntity
  8
STANDARDEBENE
 62
     7
100
AcDb2dPolyline
 66
     1
 10
0.0
 20
0.0
 30
0.0
  0
VERTEX
  5
22F
330
22E
100
AcDbEntity
  8
STANDARDEBENE
 62
     7
100
AcDbVertex
100
AcDb2dVertex
 10
60.70602754558738
 20
202.5662746346883
 30
0.0
  0
VERTEX
  5
230
330
22E
100
AcDbEntity
  8
STANDARDEBENE
 62
     7
100
AcDbVertex
100
AcDb2dVertex
 10
60.70602754558738
 20
202.0972248843715
 30
0.0
  0
SEQEND
  5
231
330
22E
100
AcDbEntity
  8
STANDARDEBENE
  0
POLYLINE
  5
232
330
1F
100
AcDbEntity
  8
STANDARDEBENE
 62
     7
100
AcDb2dPolyline
 66
     1
 10
0.0
 20
0.0
 30
0.0
  0
VERTEX
  5
233
330
232
100
AcDbEntity
  8
STANDARDEBENE
 62
     7
100
AcDbVertex
100
AcDb2dVertex
 10
50.70629339010121
 20
202.0972248843715
 30
0.0
  0
VERTEX
  5
234
330
232
100
AcDbEntity
  8
STANDARDEBENE
 62
     7
100
AcDbVertex
100
AcDb2dVertex
 10
50.70629339010121
 20
202.5971082392813
 30
0.0
  0
SEQEND
  5
235
330
232
100
AcDbEntity
  8
STANDARDEBENE
  0
SPLINE
  5
236
330
1F
100
AcDbEntity
  8
STANDARDEBENE
 62
     7
100
AcDbSpline
210
0.0
220
0.0
230
1.0
 70
    27
 71
     3
 72
    17
 73
    13
 74
     0
 42
0.0000000001
 43
0.0000000001
 40
0.0
 40
0.0
 40
0.0
 40
0.0
 40
1.0
 40
1.0
 40
1.0
 40
2.0
 40
2.0
 40
2.0
 40
3.0
 40
3.0
 40
3.0
 40
4.0
 40
4.0
 40
4.0
 40
4.0
 10
50.70629339010121
 20
203.5975639681978
 30
0.0
 10
50.70629339010121
 20
203.5975639681978
 30
0.0
 10
50.70629339010121
 20
204.2183701746399
 30
0.0
 10
50.70629339010121
 20
204.2183701746399
 30
0.0
 10
50.70629339010121
 20
204.2183701746399
 30
0.0
 10
50.70629339010121
 20
204.5973306780174
 30
0.0
 10
50.70629339010121
 20
204.5973306780174
 30
0.0
 10
50.70629339010121
 20
204.5973306780174
 30
0.0
 10
50.70629339010121
 20
204.2183701746399
 30
0.0
 10
50.70629339010121
 20
204.2183701746399
 30
0.0
 10
50.70629339010121
 20
204.2183701746399
 30
0.0
 10
50.70629339010121
 20
203.5975639681978
 30
0.0
 10
50.70629339010121
 20
203.5975639681978
 30
0.0
  0
POLYLINE
  5
237
330
1F
100
AcDbEntity
  8
STANDARDEBENE
 62
     7
100
AcDb2dPolyline
 66
     1
 10
0.0
 20
0.0
 30
0.0
  0
VERTEX
  5
238
330
237
100
AcDbEntity
  8
STANDARDEBENE
 62
     7
100
AcDbVertex
100
AcDb2dVertex
 10
50.70629339010121
 20
202.5971082392813
 30
0.0
  0
VERTEX
  5
239
330
237
100
AcDbEntity
  8
STANDARDEBENE
 62
     7
100
AcDbVertex
100
AcDb2dVertex
 10
50.70629339010121
 20
202.0972248843715
 30
0.0
  0
SEQEND
  5
23A
330
237
100
AcDbEntity
  8
STANDARDEBENE
  0
POLYLINE
  5
23B
330
1F
100
AcDbEntity
  8
STANDARDEBENE
 62
     7
100
AcDb2dPolyline
 66
     1
 10
0.0
 20
0.0
 30
0.0
  0
VERTEX
  5
23C
330
23B
100
AcDbEntity
  8
STANDARDEBENE
 62
     7
100
AcDbVertex
100
AcDb2dVertex
 10
60.70602754558738
 20
202.0972248843715
 30
0.0
  0
VERTEX
  5
23D
330
23B
100
AcDbEntity
  8
STANDARDEBENE
 62
     7
100
AcDbVertex
100
AcDb2dVertex
 10
60.70602754558738
 20
202.5971082392813
 30
0.0
  0
SEQEND
  5
23E
330
23B
100
AcDbEntity
  8
STANDARDEBENE
  0
SPLINE
  5
23F
330
1F
100
AcDbEntity
  8
STANDARDEBENE
 62
     7
100
AcDbSpline
210
0.0
220
0.0
230
1.0
 70
    27
 71
     3
 72
    17
 73
    13
 74
     0
 42
0.0000000001
 43
0.0000000001
 40
0.0
 40
0.0
 40
0.0
 40
0.0
 40
1.0
 40
1.0
 40
1.0
 40
2.0
 40
2.0
 40
2.0
 40
3.0
 40
3.0
 40
3.0
 40
4.0
 40
4.0
 40
4.0
 40
4.0
 10
60.70602754558738
 20
203.5975639681978
 30
0.0
 10
60.70602754558738
 20
203.5975639681978
 30
0.0
 10
60.70602754558738
 20
204.2183701746399
 30
0.0
 10
60.70602754558738
 20
204.2183701746399
 30
0.0
 10
60.70602754558738
 20
204.2183701746399
 30
0.0
 10
60.70602754558738
 20
204.5973306780174
 30
0.0
 10
60.70602754558738
 20
204.5973306780174
 30
0.0
 10
60.70602754558738
 20
204.5973306780174
 30
0.0
 10
60.70602754558738
 20
204.2183701746399
 30
0.0
 10
60.70602754558738
 20
204.2183701746399
 30
0.0
 10
60.70602754558738
 20
204.2183701746399
 30
0.0
 10
60.70602754558738
 20
203.5975639681978
 30
0.0
 10
60.70602754558738
 20
203.5975639681978
 30
0.0
  0
POLYLINE
  5
240
330
1F
100
AcDbEntity
  8
STANDARDEBENE
 62
     7
100
AcDb2dPolyline
 66
     1
 10
0.0
 20
0.0
 30
0.0
  0
VERTEX
  5
241
330
240
100
AcDbEntity
  8
STANDARDEBENE
 62
     7
100
AcDbVertex
100
AcDb2dVertex
 10
60.70602754558738
 20
202.5971082392813
 30
0.0
  0
VERTEX
  5
242
330
240
100
AcDbEntity
  8
STANDARDEBENE
 62
     7
100
AcDbVertex
100
AcDb2dVertex
 10
60.70602754558738
 20
202.0972248843715
 30
0.0
  0
SEQEND
  5
243
330
240
100
AcDbEntity
  8
STANDARDEBENE
  0
POLYLINE
  5
245
330
1F
100
AcDbEntity
  8
BEMAßUNG
 62
     7
100
AcDb2dPolyline
 66
     1
 10
0.0
 20
0.0
 30
0.0
  0
VERTEX
  5
246
330
245
100
AcDbEntity
  8
BEMAßUNG
 62
     7
100
AcDbVertex
100
AcDb2dVertex
 10
43.70620387362206
 20
202.0972248843715
 30
0.0
  0
VERTEX
  5
247
330
245
100
AcDbEntity
  8
BEMAßUNG
 62
     7
100
AcDbVertex
100
AcDb2dVertex
 10
43.70620387362206
 20
182.5926445398553
 30
0.0
  0
SEQEND
  5
248
330
245
100
AcDbEntity
  8
BEMAßUNG
  0
POLYLINE
  5
249
330
1F
100
AcDbEntity
  8
BEMAßUNG
 62
     7
100
AcDb2dPolyline
 66
     1
 10
0.0
 20
0.0
 30
0.0
  0
VERTEX
  5
24A
330
249
100
AcDbEntity
  8
BEMAßUNG
 62
     7
100
AcDbVertex
100
AcDb2dVertex
 10
67.70611706206653
 20
202.0972248843715
 30
0.0
  0
VERTEX
  5
24B
330
249
100
AcDbEntity
  8
BEMAßUNG
 62
     7
100
AcDbVertex
100
AcDb2dVertex
 10
67.70611706206653
 20
182.5926445398553
 30
0.0
  0
SEQEND
  5
24C
330
249
100
AcDbEntity
  8
BEMAßUNG
  0
POLYLINE
  5
24D
330
1F
100
AcDbEntity
  8
BEMAßUNG
 62
     7
100
AcDb2dPolyline
 66
     1
 10
0.0
 20
0.0
 30
0.0
  0
VERTEX
  5
24E
330
24D
100
AcDbEntity
  8
BEMAßUNG
 62
     7
100
AcDbVertex
100
AcDb2dVertex
 10
43.70620387362206
 20
184.5925224690428
 30
0.0
  0
VERTEX
  5
24F
330
24D
100
AcDbEntity
  8
BEMAßUNG
 62
     7
100
AcDbVertex
100
AcDb2dVertex
 10
67.70611706206653
 20
184.5925224690428
 30
0.0
  0
SEQEND
  5
250
330
24D
100
AcDbEntity
  8
BEMAßUNG
  0
POLYLINE
  5
251
330
1F
100
AcDbEntity
  8
BEMAßUNG
 62
     7
100
AcDb2dPolyline
 66
     1
 10
0.0
 20
0.0
 30
0.0
  0
VERTEX
  5
252
330
251
100
AcDbEntity
  8
BEMAßUNG
 62
     7
100
AcDbVertex
100
AcDb2dVertex
 10
43.70620387362206
 20
184.5925224690428
 30
0.0
  0
VERTEX
  5
253
330
251
100
AcDbEntity
  8
BEMAßUNG
 62
     7
100
AcDbVertex
100
AcDb2dVertex
 10
46.20630966726787
 20
184.2633435954272
 30
0.0
  0
VERTEX
  5
254
330
251
100
AcDbEntity
  8
BEMAßUNG
 62
     7
100
AcDbVertex
100
AcDb2dVertex
 10
46.20630966726787
 20
184.9217013426585
 30
0.0
  0
VERTEX
  5
255
330
251
100
AcDbEntity
  8
BEMAßUNG
 62
     7
100
AcDbVertex
100
AcDb2dVertex
 10
43.70620387362206
 20
184.5925224690428
 30
0.0
  0
SEQEND
  5
256
330
251
100
AcDbEntity
  8
BEMAßUNG
  0
POLYLINE
  5
257
330
1F
100
AcDbEntity
  8
BEMAßUNG
 62
     7
100
AcDb2dPolyline
 66
     1
 10
0.0
 20
0.0
 30
0.0
  0
VERTEX
  5
258
330
257
100
AcDbEntity
  8
BEMAßUNG
 62
     7
100
AcDbVertex
100
AcDb2dVertex
 10
46.20630966726787
 20
184.2876315185982
 30
0.0
  0
VERTEX
  5
259
330
257
100
AcDbEntity
  8
BEMAßUNG
 62
     7
100
AcDbVertex
100
AcDb2dVertex
 10
46.02165254925848
 20
184.2876315185982
 30
0.0
  0
SEQEND
  5
25A
330
257
100
AcDbEntity
  8
BEMAßUNG
  0
POLYLINE
  5
25B
330
1F
100
AcDbEntity
  8
BEMAßUNG
 62
     7
100
AcDb2dPolyline
 66
     1
 10
0.0
 20
0.0
 30
0.0
  0
VERTEX
  5
25C
330
25B
100
AcDbEntity
  8
BEMAßUNG
 62
     7
100
AcDbVertex
100
AcDb2dVertex
 10
46.20630966726787
 20
184.2876315185982
 30
0.0
  0
VERTEX
  5
25D
330
25B
100
AcDbEntity
  8
BEMAßUNG
 62
     7
100
AcDbVertex
100
AcDb2dVertex
 10
46.02165254925848
 20
184.2876315185982
 30
0.0
  0
SEQEND
  5
25E
330
25B
100
AcDbEntity
  8
BEMAßUNG
  0
POLYLINE
  5
25F
330
1F
100
AcDbEntity
  8
BEMAßUNG
 62
     7
100
AcDb2dPolyline
 66
     1
 10
0.0
 20
0.0
 30
0.0
  0
VERTEX
  5
260
330
25F
100
AcDbEntity
  8
BEMAßUNG
 62
     7
100
AcDbVertex
100
AcDb2dVertex
 10
46.20630966726787
 20
184.3384466770057
 30
0.0
  0
VERTEX
  5
261
330
25F
100
AcDbEntity
  8
BEMAßUNG
 62
     7
100
AcDbVertex
100
AcDb2dVertex
 10
45.63545734536197
 20
184.3384466770057
 30
0.0
  0
SEQEND
  5
262
330
25F
100
AcDbEntity
  8
BEMAßUNG
  0
POLYLINE
  5
263
330
1F
100
AcDbEntity
  8
BEMAßUNG
 62
     7
100
AcDb2dPolyline
 66
     1
 10
0.0
 20
0.0
 30
0.0
  0
VERTEX
  5
264
330
263
100
AcDbEntity
  8
BEMAßUNG
 62
     7
100
AcDbVertex
100
AcDb2dVertex
 10
46.20630966726787
 20
184.3892618354131
 30
0.0
  0
VERTEX
  5
265
330
263
100
AcDbEntity
  8
BEMAßUNG
 62
     7
100
AcDbVertex
100
AcDb2dVertex
 10
45.24960665101399
 20
184.3892618354131
 30
0.0
  0
SEQEND
  5
266
330
263
100
AcDbEntity
  8
BEMAßUNG
  0
POLYLINE
  5
267
330
1F
100
AcDbEntity
  8
BEMAßUNG
 62
     7
100
AcDb2dPolyline
 66
     1
 10
0.0
 20
0.0
 30
0.0
  0
VERTEX
  5
268
330
267
100
AcDbEntity
  8
BEMAßUNG
 62
     7
100
AcDbVertex
100
AcDb2dVertex
 10
46.20630966726787
 20
184.4400769938206
 30
0.0
  0
VERTEX
  5
269
330
267
100
AcDbEntity
  8
BEMAßUNG
 62
     7
100
AcDbVertex
100
AcDb2dVertex
 10
44.863755956666
 20
184.4400769938206
 30
0.0
  0
SEQEND
  5
26A
330
267
100
AcDbEntity
  8
BEMAßUNG
  0
POLYLINE
  5
26B
330
1F
100
AcDbEntity
  8
BEMAßUNG
 62
     7
100
AcDb2dPolyline
 66
     1
 10
0.0
 20
0.0
 30
0.0
  0
VERTEX
  5
26C
330
26B
100
AcDbEntity
  8
BEMAßUNG
 62
     7
100
AcDbVertex
100
AcDb2dVertex
 10
46.20630966726787
 20
184.490892152228
 30
0.0
  0
VERTEX
  5
26D
330
26B
100
AcDbEntity
  8
BEMAßUNG
 62
     7
100
AcDbVertex
100
AcDb2dVertex
 10
44.47824977186655
 20
184.490892152228
 30
0.0
  0
SEQEND
  5
26E
330
26B
100
AcDbEntity
  8
BEMAßUNG
  0
POLYLINE
  5
26F
330
1F
100
AcDbEntity
  8
BEMAßUNG
 62
     7
100
AcDb2dPolyline
 66
     1
 10
0.0
 20
0.0
 30
0.0
  0
VERTEX
  5
270
330
26F
100
AcDbEntity
  8
BEMAßUNG
 62
     7
100
AcDbVertex
100
AcDb2dVertex
 10
46.20630966726787
 20
184.5417073106354
 30
0.0
  0
VERTEX
  5
271
330
26F
100
AcDbEntity
  8
BEMAßUNG
 62
     7
100
AcDbVertex
100
AcDb2dVertex
 10
44.09205456797005
 20
184.5417073106354
 30
0.0
  0
SEQEND
  5
272
330
26F
100
AcDbEntity
  8
BEMAßUNG
  0
POLYLINE
  5
273
330
1F
100
AcDbEntity
  8
BEMAßUNG
 62
     7
100
AcDb2dPolyline
 66
     1
 10
0.0
 20
0.0
 30
0.0
  0
VERTEX
  5
274
330
273
100
AcDbEntity
  8
BEMAßUNG
 62
     7
100
AcDbVertex
100
AcDb2dVertex
 10
46.20630966726787
 20
184.5925224690428
 30
0.0
  0
VERTEX
  5
275
330
273
100
AcDbEntity
  8
BEMAßUNG
 62
     7
100
AcDbVertex
100
AcDb2dVertex
 10
43.70620387362206
 20
184.5925224690428
 30
0.0
  0
SEQEND
  5
276
330
273
100
AcDbEntity
  8
BEMAßUNG
  0
POLYLINE
  5
277
330
1F
100
AcDbEntity
  8
BEMAßUNG
 62
     7
100
AcDb2dPolyline
 66
     1
 10
0.0
 20
0.0
 30
0.0
  0
VERTEX
  5
278
330
277
100
AcDbEntity
  8
BEMAßUNG
 62
     7
100
AcDbVertex
100
AcDb2dVertex
 10
46.20630966726787
 20
184.8975856742617
 30
0.0
  0
VERTEX
  5
279
330
277
100
AcDbEntity
  8
BEMAßUNG
 62
     7
100
AcDbVertex
100
AcDb2dVertex
 10
46.02165254925848
 20
184.8975856742617
 30
0.0
  0
SEQEND
  5
27A
330
277
100
AcDbEntity
  8
BEMAßUNG
  0
POLYLINE
  5
27B
330
1F
100
AcDbEntity
  8
BEMAßUNG
 62
     7
100
AcDb2dPolyline
 66
     1
 10
0.0
 20
0.0
 30
0.0
  0
VERTEX
  5
27C
330
27B
100
AcDbEntity
  8
BEMAßUNG
 62
     7
100
AcDbVertex
100
AcDb2dVertex
 10
46.20630966726787
 20
184.8975856742617
 30
0.0
  0
VERTEX
  5
27D
330
27B
100
AcDbEntity
  8
BEMAßUNG
 62
     7
100
AcDbVertex
100
AcDb2dVertex
 10
46.02165254925848
 20
184.8975856742617
 30
0.0
  0
SEQEND
  5
27E
330
27B
100
AcDbEntity
  8
BEMAßUNG
  0
POLYLINE
  5
27F
330
1F
100
AcDbEntity
  8
BEMAßUNG
 62
     7
100
AcDb2dPolyline
 66
     1
 10
0.0
 20
0.0
 30
0.0
  0
VERTEX
  5
280
330
27F
100
AcDbEntity
  8
BEMAßUNG
 62
     7
100
AcDbVertex
100
AcDb2dVertex
 10
46.20630966726787
 20
184.8469427706285
 30
0.0
  0
VERTEX
  5
281
330
27F
100
AcDbEntity
  8
BEMAßUNG
 62
     7
100
AcDbVertex
100
AcDb2dVertex
 10
45.63545734536197
 20
184.8469427706285
 30
0.0
  0
SEQEND
  5
282
330
27F
100
AcDbEntity
  8
BEMAßUNG
  0
POLYLINE
  5
283
330
1F
100
AcDbEntity
  8
BEMAßUNG
 62
     7
100
AcDb2dPolyline
 66
     1
 10
0.0
 20
0.0
 30
0.0
  0
VERTEX
  5
284
330
283
100
AcDbEntity
  8
BEMAßUNG
 62
     7
100
AcDbVertex
100
AcDb2dVertex
 10
46.20630966726787
 20
184.7961276122211
 30
0.0
  0
VERTEX
  5
285
330
283
100
AcDbEntity
  8
BEMAßUNG
 62
     7
100
AcDbVertex
100
AcDb2dVertex
 10
45.24960665101399
 20
184.7961276122211
 30
0.0
  0
SEQEND
  5
286
330
283
100
AcDbEntity
  8
BEMAßUNG
  0
POLYLINE
  5
287
330
1F
100
AcDbEntity
  8
BEMAßUNG
 62
     7
100
AcDb2dPolyline
 66
     1
 10
0.0
 20
0.0
 30
0.0
  0
VERTEX
  5
288
330
287
100
AcDbEntity
  8
BEMAßUNG
 62
     7
100
AcDbVertex
100
AcDb2dVertex
 10
46.20630966726787
 20
184.7449679442651
 30
0.0
  0
VERTEX
  5
289
330
287
100
AcDbEntity
  8
BEMAßUNG
 62
     7
100
AcDbVertex
100
AcDb2dVertex
 10
44.863755956666
 20
184.7449679442651
 30
0.0
  0
SEQEND
  5
28A
330
287
100
AcDbEntity
  8
BEMAßUNG
  0
POLYLINE
  5
28B
330
1F
100
AcDbEntity
  8
BEMAßUNG
 62
     7
100
AcDb2dPolyline
 66
     1
 10
0.0
 20
0.0
 30
0.0
  0
VERTEX
  5
28C
330
28B
100
AcDbEntity
  8
BEMAßUNG
 62
     7
100
AcDbVertex
100
AcDb2dVertex
 10
46.20630966726787
 20
184.6941527858577
 30
0.0
  0
VERTEX
  5
28D
330
28B
100
AcDbEntity
  8
BEMAßUNG
 62
     7
100
AcDbVertex
100
AcDb2dVertex
 10
44.47824977186655
 20
184.6941527858577
 30
0.0
  0
SEQEND
  5
28E
330
28B
100
AcDbEntity
  8
BEMAßUNG
  0
POLYLINE
  5
28F
330
1F
100
AcDbEntity
  8
BEMAßUNG
 62
     7
100
AcDb2dPolyline
 66
     1
 10
0.0
 20
0.0
 30
0.0
  0
VERTEX
  5
290
330
28F
100
AcDbEntity
  8
BEMAßUNG
 62
     7
100
AcDbVertex
100
AcDb2dVertex
 10
46.20630966726787
 20
184.6433376274503
 30
0.0
  0
VERTEX
  5
291
330
28F
100
AcDbEntity
  8
BEMAßUNG
 62
     7
100
AcDbVertex
100
AcDb2dVertex
 10
44.09205456797005
 20
184.6433376274503
 30
0.0
  0
SEQEND
  5
292
330
28F
100
AcDbEntity
  8
BEMAßUNG
  0
POLYLINE
  5
293
330
1F
100
AcDbEntity
  8
BEMAßUNG
 62
     7
100
AcDb2dPolyline
 66
     1
 10
0.0
 20
0.0
 30
0.0
  0
VERTEX
  5
294
330
293
100
AcDbEntity
  8
BEMAßUNG
 62
     7
100
AcDbVertex
100
AcDb2dVertex
 10
46.20630966726787
 20
184.5925224690428
 30
0.0
  0
VERTEX
  5
295
330
293
100
AcDbEntity
  8
BEMAßUNG
 62
     7
100
AcDbVertex
100
AcDb2dVertex
 10
43.70620387362206
 20
184.5925224690428
 30
0.0
  0
SEQEND
  5
296
330
293
100
AcDbEntity
  8
BEMAßUNG
  0
POLYLINE
  5
297
330
1F
100
AcDbEntity
  8
BEMAßUNG
 62
     7
100
AcDb2dPolyline
 66
     1
 10
0.0
 20
0.0
 30
0.0
  0
VERTEX
  5
298
330
297
100
AcDbEntity
  8
BEMAßUNG
 62
     7
100
AcDbVertex
100
AcDb2dVertex
 10
67.70611706206653
 20
184.5925224690428
 30
0.0
  0
VERTEX
  5
299
330
297
100
AcDbEntity
  8
BEMAßUNG
 62
     7
100
AcDbVertex
100
AcDb2dVertex
 10
65.20601126842072
 20
184.9217013426585
 30
0.0
  0
VERTEX
  5
29A
330
297
100
AcDbEntity
  8
BEMAßUNG
 62
     7
100
AcDbVertex
100
AcDb2dVertex
 10
65.20601126842072
 20
184.2633435954272
 30
0.0
  0
VERTEX
  5
29B
330
297
100
AcDbEntity
  8
BEMAßUNG
 62
     7
100
AcDbVertex
100
AcDb2dVertex
 10
67.70611706206653
 20
184.5925224690428
 30
0.0
  0
SEQEND
  5
29C
330
297
100
AcDbEntity
  8
BEMAßUNG
  0
POLYLINE
  5
29D
330
1F
100
AcDbEntity
  8
BEMAßUNG
 62
     7
100
AcDb2dPolyline
 66
     1
 10
0.0
 20
0.0
 30
0.0
  0
VERTEX
  5
29E
330
29D
100
AcDbEntity
  8
BEMAßUNG
 62
     7
100
AcDbVertex
100
AcDb2dVertex
 10
65.20601126842072
 20
184.8975856742617
 30
0.0
  0
VERTEX
  5
29F
330
29D
100
AcDbEntity
  8
BEMAßUNG
 62
     7
100
AcDbVertex
100
AcDb2dVertex
 10
65.39101289597863
 20
184.8975856742617
 30
0.0
  0
SEQEND
  5
2A0
330
29D
100
AcDbEntity
  8
BEMAßUNG
  0
POLYLINE
  5
2A1
330
1F
100
AcDbEntity
  8
BEMAßUNG
 62
     7
100
AcDb2dPolyline
 66
     1
 10
0.0
 20
0.0
 30
0.0
  0
VERTEX
  5
2A2
330
2A1
100
AcDbEntity
  8
BEMAßUNG
 62
     7
100
AcDbVertex
100
AcDb2dVertex
 10
65.20601126842072
 20
184.8975856742617
 30
0.0
  0
VERTEX
  5
2A3
330
2A1
100
AcDbEntity
  8
BEMAßUNG
 62
     7
100
AcDbVertex
100
AcDb2dVertex
 10
65.39101289597863
 20
184.8975856742617
 30
0.0
  0
SEQEND
  5
2A4
330
2A1
100
AcDbEntity
  8
BEMAßUNG
  0
POLYLINE
  5
2A5
330
1F
100
AcDbEntity
  8
BEMAßUNG
 62
     7
100
AcDb2dPolyline
 66
     1
 10
0.0
 20
0.0
 30
0.0
  0
VERTEX
  5
2A6
330
2A5
100
AcDbEntity
  8
BEMAßUNG
 62
     7
100
AcDbVertex
100
AcDb2dVertex
 10
65.20601126842072
 20
184.8469427706285
 30
0.0
  0
VERTEX
  5
2A7
330
2A5
100
AcDbEntity
  8
BEMAßUNG
 62
     7
100
AcDbVertex
100
AcDb2dVertex
 10
65.77720809987514
 20
184.8469427706285
 30
0.0
  0
SEQEND
  5
2A8
330
2A5
100
AcDbEntity
  8
BEMAßUNG
  0
POLYLINE
  5
2A9
330
1F
100
AcDbEntity
  8
BEMAßUNG
 62
     7
100
AcDb2dPolyline
 66
     1
 10
0.0
 20
0.0
 30
0.0
  0
VERTEX
  5
2AA
330
2A9
100
AcDbEntity
  8
BEMAßUNG
 62
     7
100
AcDbVertex
100
AcDb2dVertex
 10
65.20601126842072
 20
184.7961276122211
 30
0.0
  0
VERTEX
  5
2AB
330
2A9
100
AcDbEntity
  8
BEMAßUNG
 62
     7
100
AcDbVertex
100
AcDb2dVertex
 10
66.1627142846746
 20
184.7961276122211
 30
0.0
  0
SEQEND
  5
2AC
330
2A9
100
AcDbEntity
  8
BEMAßUNG
  0
POLYLINE
  5
2AD
330
1F
100
AcDbEntity
  8
BEMAßUNG
 62
     7
100
AcDb2dPolyline
 66
     1
 10
0.0
 20
0.0
 30
0.0
  0
VERTEX
  5
2AE
330
2AD
100
AcDbEntity
  8
BEMAßUNG
 62
     7
100
AcDbVertex
100
AcDb2dVertex
 10
65.20601126842072
 20
184.7449679442651
 30
0.0
  0
VERTEX
  5
2AF
330
2AD
100
AcDbEntity
  8
BEMAßUNG
 62
     7
100
AcDbVertex
100
AcDb2dVertex
 10
66.54856497902259
 20
184.7449679442651
 30
0.0
  0
SEQEND
  5
2B0
330
2AD
100
AcDbEntity
  8
BEMAßUNG
  0
POLYLINE
  5
2B1
330
1F
100
AcDbEntity
  8
BEMAßUNG
 62
     7
100
AcDb2dPolyline
 66
     1
 10
0.0
 20
0.0
 30
0.0
  0
VERTEX
  5
2B2
330
2B1
100
AcDbEntity
  8
BEMAßUNG
 62
     7
100
AcDbVertex
100
AcDb2dVertex
 10
65.20601126842072
 20
184.6941527858577
 30
0.0
  0
VERTEX
  5
2B3
330
2B1
100
AcDbEntity
  8
BEMAßUNG
 62
     7
100
AcDbVertex
100
AcDb2dVertex
 10
66.93441567337057
 20
184.6941527858577
 30
0.0
  0
SEQEND
  5
2B4
330
2B1
100
AcDbEntity
  8
BEMAßUNG
  0
POLYLINE
  5
2B5
330
1F
100
AcDbEntity
  8
BEMAßUNG
 62
     7
100
AcDb2dPolyline
 66
     1
 10
0.0
 20
0.0
 30
0.0
  0
VERTEX
  5
2B6
330
2B5
100
AcDbEntity
  8
BEMAßUNG
 62
     7
100
AcDbVertex
100
AcDb2dVertex
 10
65.20601126842072
 20
184.6433376274503
 30
0.0
  0
VERTEX
  5
2B7
330
2B5
100
AcDbEntity
  8
BEMAßUNG
 62
     7
100
AcDbVertex
100
AcDb2dVertex
 10
67.32061087726707
 20
184.6433376274503
 30
0.0
  0
SEQEND
  5
2B8
330
2B5
100
AcDbEntity
  8
BEMAßUNG
  0
POLYLINE
  5
2B9
330
1F
100
AcDbEntity
  8
BEMAßUNG
 62
     7
100
AcDb2dPolyline
 66
     1
 10
0.0
 20
0.0
 30
0.0
  0
VERTEX
  5
2BA
330
2B9
100
AcDbEntity
  8
BEMAßUNG
 62
     7
100
AcDbVertex
100
AcDb2dVertex
 10
65.20601126842072
 20
184.5925224690428
 30
0.0
  0
VERTEX
  5
2BB
330
2B9
100
AcDbEntity
  8
BEMAßUNG
 62
     7
100
AcDbVertex
100
AcDb2dVertex
 10
67.70611706206653
 20
184.5925224690428
 30
0.0
  0
SEQEND
  5
2BC
330
2B9
100
AcDbEntity
  8
BEMAßUNG
  0
POLYLINE
  5
2BD
330
1F
100
AcDbEntity
  8
BEMAßUNG
 62
     7
100
AcDb2dPolyline
 66
     1
 10
0.0
 20
0.0
 30
0.0
  0
VERTEX
  5
2BE
330
2BD
100
AcDbEntity
  8
BEMAßUNG
 62
     7
100
AcDbVertex
100
AcDb2dVertex
 10
65.20601126842072
 20
184.2876315185982
 30
0.0
  0
VERTEX
  5
2BF
330
2BD
100
AcDbEntity
  8
BEMAßUNG
 62
     7
100
AcDbVertex
100
AcDb2dVertex
 10
65.39101289597863
 20
184.2876315185982
 30
0.0
  0
SEQEND
  5
2C0
330
2BD
100
AcDbEntity
  8
BEMAßUNG
  0
POLYLINE
  5
2C1
330
1F
100
AcDbEntity
  8
BEMAßUNG
 62
     7
100
AcDb2dPolyline
 66
     1
 10
0.0
 20
0.0
 30
0.0
  0
VERTEX
  5
2C2
330
2C1
100
AcDbEntity
  8
BEMAßUNG
 62
     7
100
AcDbVertex
100
AcDb2dVertex
 10
65.20601126842072
 20
184.2876315185982
 30
0.0
  0
VERTEX
  5
2C3
330
2C1
100
AcDbEntity
  8
BEMAßUNG
 62
     7
100
AcDbVertex
100
AcDb2dVertex
 10
65.39101289597863
 20
184.2876315185982
 30
0.0
  0
SEQEND
  5
2C4
330
2C1
100
AcDbEntity
  8
BEMAßUNG
  0
POLYLINE
  5
2C5
330
1F
100
AcDbEntity
  8
BEMAßUNG
 62
     7
100
AcDb2dPolyline
 66
     1
 10
0.0
 20
0.0
 30
0.0
  0
VERTEX
  5
2C6
330
2C5
100
AcDbEntity
  8
BEMAßUNG
 62
     7
100
AcDbVertex
100
AcDb2dVertex
 10
65.20601126842072
 20
184.3384466770057
 30
0.0
  0
VERTEX
  5
2C7
330
2C5
100
AcDbEntity
  8
BEMAßUNG
 62
     7
100
AcDbVertex
100
AcDb2dVertex
 10
65.77720809987514
 20
184.3384466770057
 30
0.0
  0
SEQEND
  5
2C8
330
2C5
100
AcDbEntity
  8
BEMAßUNG
  0
POLYLINE
  5
2C9
330
1F
100
AcDbEntity
  8
BEMAßUNG
 62
     7
100
AcDb2dPolyline
 66
     1
 10
0.0
 20
0.0
 30
0.0
  0
VERTEX
  5
2CA
330
2C9
100
AcDbEntity
  8
BEMAßUNG
 62
     7
100
AcDbVertex
100
AcDb2dVertex
 10
65.20601126842072
 20
184.3892618354131
 30
0.0
  0
VERTEX
  5
2CB
330
2C9
100
AcDbEntity
  8
BEMAßUNG
 62
     7
100
AcDbVertex
100
AcDb2dVertex
 10
66.1627142846746
 20
184.3892618354131
 30
0.0
  0
SEQEND
  5
2CC
330
2C9
100
AcDbEntity
  8
BEMAßUNG
  0
POLYLINE
  5
2CD
330
1F
100
AcDbEntity
  8
BEMAßUNG
 62
     7
100
AcDb2dPolyline
 66
     1
 10
0.0
 20
0.0
 30
0.0
  0
VERTEX
  5
2CE
330
2CD
100
AcDbEntity
  8
BEMAßUNG
 62
     7
100
AcDbVertex
100
AcDb2dVertex
 10
65.20601126842072
 20
184.4400769938206
 30
0.0
  0
VERTEX
  5
2CF
330
2CD
100
AcDbEntity
  8
BEMAßUNG
 62
     7
100
AcDbVertex
100
AcDb2dVertex
 10
66.54856497902259
 20
184.4400769938206
 30
0.0
  0
SEQEND
  5
2D0
330
2CD
100
AcDbEntity
  8
BEMAßUNG
  0
POLYLINE
  5
2D1
330
1F
100
AcDbEntity
  8
BEMAßUNG
 62
     7
100
AcDb2dPolyline
 66
     1
 10
0.0
 20
0.0
 30
0.0
  0
VERTEX
  5
2D2
330
2D1
100
AcDbEntity
  8
BEMAßUNG
 62
     7
100
AcDbVertex
100
AcDb2dVertex
 10
65.20601126842072
 20
184.490892152228
 30
0.0
  0
VERTEX
  5
2D3
330
2D1
100
AcDbEntity
  8
BEMAßUNG
 62
     7
100
AcDbVertex
100
AcDb2dVertex
 10
66.93441567337057
 20
184.490892152228
 30
0.0
  0
SEQEND
  5
2D4
330
2D1
100
AcDbEntity
  8
BEMAßUNG
  0
POLYLINE
  5
2D5
330
1F
100
AcDbEntity
  8
BEMAßUNG
 62
     7
100
AcDb2dPolyline
 66
     1
 10
0.0
 20
0.0
 30
0.0
  0
VERTEX
  5
2D6
330
2D5
100
AcDbEntity
  8
BEMAßUNG
 62
     7
100
AcDbVertex
100
AcDb2dVertex
 10
65.20601126842072
 20
184.5417073106354
 30
0.0
  0
VERTEX
  5
2D7
330
2D5
100
AcDbEntity
  8
BEMAßUNG
 62
     7
100
AcDbVertex
100
AcDb2dVertex
 10
67.32061087726707
 20
184.5417073106354
 30
0.0
  0
SEQEND
  5
2D8
330
2D5
100
AcDbEntity
  8
BEMAßUNG
  0
POLYLINE
  5
2D9
330
1F
100
AcDbEntity
  8
BEMAßUNG
 62
     7
100
AcDb2dPolyline
 66
     1
 10
0.0
 20
0.0
 30
0.0
  0
VERTEX
  5
2DA
330
2D9
100
AcDbEntity
  8
BEMAßUNG
 62
     7
100
AcDbVertex
100
AcDb2dVertex
 10
65.20601126842072
 20
184.5925224690428
 30
0.0
  0
VERTEX
  5
2DB
330
2D9
100
AcDbEntity
  8
BEMAßUNG
 62
     7
100
AcDbVertex
100
AcDb2dVertex
 10
67.70611706206653
 20
184.5925224690428
 30
0.0
  0
SEQEND
  5
2DC
330
2D9
100
AcDbEntity
  8
BEMAßUNG
  0
POLYLINE
  5
2DD
330
1F
100
AcDbEntity
  8
BEMAßUNG
 62
     7
100
AcDb2dPolyline
 66
     1
 10
0.0
 20
0.0
 30
0.0
  0
VERTEX
  5
2DE
330
2DD
100
AcDbEntity
  8
BEMAßUNG
 62
     7
100
AcDbVertex
100
AcDb2dVertex
 10
66.70635035224703
 20
209.5971977557604
 30
0.0
  0
VERTEX
  5
2DF
330
2DD
100
AcDbEntity
  8
BEMAßUNG
 62
     7
100
AcDbVertex
100
AcDb2dVertex
 10
79.5975531485034
 20
209.5971977557604
 30
0.0
  0
SEQEND
  5
2E0
330
2DD
100
AcDbEntity
  8
BEMAßUNG
  0
POLYLINE
  5
2E1
330
1F
100
AcDbEntity
  8
BEMAßUNG
 62
     7
100
AcDb2dPolyline
 66
     1
 10
0.0
 20
0.0
 30
0.0
  0
VERTEX
  5
2E2
330
2E1
100
AcDbEntity
  8
BEMAßUNG
 62
     7
100
AcDbVertex
100
AcDb2dVertex
 10
66.70635035224703
 20
194.5970797582084
 30
0.0
  0
VERTEX
  5
2E3
330
2E1
100
AcDbEntity
  8
BEMAßUNG
 62
     7
100
AcDbVertex
100
AcDb2dVertex
 10
79.5975531485034
 20
194.5970797582084
 30
0.0
  0
SEQEND
  5
2E4
330
2E1
100
AcDbEntity
  8
BEMAßUNG
  0
POLYLINE
  5
2E5
330
1F
100
AcDbEntity
  8
BEMAßUNG
 62
     7
100
AcDb2dPolyline
 66
     1
 10
0.0
 20
0.0
 30
0.0
  0
VERTEX
  5
2E6
330
2E5
100
AcDbEntity
  8
BEMAßUNG
 62
     7
100
AcDbVertex
100
AcDb2dVertex
 10
77.59767521931586
 20
194.5970797582084
 30
0.0
  0
VERTEX
  5
2E7
330
2E5
100
AcDbEntity
  8
BEMAßUNG
 62
     7
100
AcDbVertex
100
AcDb2dVertex
 10
77.59767521931586
 20
221.8093722318741
 30
0.0
  0
SEQEND
  5
2E8
330
2E5
100
AcDbEntity
  8
BEMAßUNG
  0
POLYLINE
  5
2E9
330
1F
100
AcDbEntity
  8
BEMAßUNG
 62
     7
100
AcDb2dPolyline
 66
     1
 10
0.0
 20
0.0
 30
0.0
  0
VERTEX
  5
2EA
330
2E9
100
AcDbEntity
  8
BEMAßUNG
 62
     7
100
AcDbVertex
100
AcDb2dVertex
 10
77.59767521931586
 20
209.5971977557604
 30
0.0
  0
VERTEX
  5
2EB
330
2E9
100
AcDbEntity
  8
BEMAßUNG
 62
     7
100
AcDbVertex
100
AcDb2dVertex
 10
77.26901311002302
 20
207.0970919621146
 30
0.0
  0
VERTEX
  5
2EC
330
2E9
100
AcDbEntity
  8
BEMAßUNG
 62
     7
100
AcDbVertex
100
AcDb2dVertex
 10
77.92702634770575
 20
207.0970919621146
 30
0.0
  0
VERTEX
  5
2ED
330
2E9
100
AcDbEntity
  8
BEMAßUNG
 62
     7
100
AcDbVertex
100
AcDb2dVertex
 10
77.59767521931586
 20
209.5971977557604
 30
0.0
  0
SEQEND
  5
2EE
330
2E9
100
AcDbEntity
  8
BEMAßUNG
  0
POLYLINE
  5
2EF
330
1F
100
AcDbEntity
  8
BEMAßUNG
 62
     7
100
AcDb2dPolyline
 66
     1
 10
0.0
 20
0.0
 30
0.0
  0
VERTEX
  5
2F0
330
2EF
100
AcDbEntity
  8
BEMAßUNG
 62
     7
100
AcDbVertex
100
AcDb2dVertex
 10
77.2934732879683
 20
207.0970919621146
 30
0.0
  0
VERTEX
  5
2F1
330
2EF
100
AcDbEntity
  8
BEMAßUNG
 62
     7
100
AcDbVertex
100
AcDb2dVertex
 10
77.2934732879683
 20
207.2819213348983
 30
0.0
  0
SEQEND
  5
2F2
330
2EF
100
AcDbEntity
  8
BEMAßUNG
  0
POLYLINE
  5
2F3
330
1F
100
AcDbEntity
  8
BEMAßUNG
 62
     7
100
AcDb2dPolyline
 66
     1
 10
0.0
 20
0.0
 30
0.0
  0
VERTEX
  5
2F4
330
2F3
100
AcDbEntity
  8
BEMAßUNG
 62
     7
100
AcDbVertex
100
AcDb2dVertex
 10
77.2934732879683
 20
207.0970919621146
 30
0.0
  0
VERTEX
  5
2F5
330
2F3
100
AcDbEntity
  8
BEMAßUNG
 62
     7
100
AcDbVertex
100
AcDb2dVertex
 10
77.2934732879683
 20
207.2819213348983
 30
0.0
  0
SEQEND
  5
2F6
330
2F3
100
AcDbEntity
  8
BEMAßUNG
  0
POLYLINE
  5
2F7
330
1F
100
AcDbEntity
  8
BEMAßUNG
 62
     7
100
AcDb2dPolyline
 66
     1
 10
0.0
 20
0.0
 30
0.0
  0
VERTEX
  5
2F8
330
2F7
100
AcDbEntity
  8
BEMAßUNG
 62
     7
100
AcDbVertex
100
AcDb2dVertex
 10
77.34411619160147
 20
207.0970919621146
 30
0.0
  0
VERTEX
  5
2F9
330
2F7
100
AcDbEntity
  8
BEMAßUNG
 62
     7
100
AcDbVertex
100
AcDb2dVertex
 10
77.34411619160147
 20
207.668288793569
 30
0.0
  0
SEQEND
  5
2FA
330
2F7
100
AcDbEntity
  8
BEMAßUNG
  0
POLYLINE
  5
2FB
330
1F
100
AcDbEntity
  8
BEMAßUNG
 62
     7
100
AcDb2dPolyline
 66
     1
 10
0.0
 20
0.0
 30
0.0
  0
VERTEX
  5
2FC
330
2FB
100
AcDbEntity
  8
BEMAßUNG
 62
     7
100
AcDbVertex
100
AcDb2dVertex
 10
77.39475909523465
 20
207.0970919621146
 30
0.0
  0
VERTEX
  5
2FD
330
2FB
100
AcDbEntity
  8
BEMAßUNG
 62
     7
100
AcDbVertex
100
AcDb2dVertex
 10
77.39475909523465
 20
208.0537949783685
 30
0.0
  0
SEQEND
  5
2FE
330
2FB
100
AcDbEntity
  8
BEMAßUNG
  0
POLYLINE
  5
2FF
330
1F
100
AcDbEntity
  8
BEMAßUNG
 62
     7
100
AcDb2dPolyline
 66
     1
 10
0.0
 20
0.0
 30
0.0
  0
VERTEX
  5
300
330
2FF
100
AcDbEntity
  8
BEMAßUNG
 62
     7
100
AcDbVertex
100
AcDb2dVertex
 10
77.44540199886782
 20
207.0970919621146
 30
0.0
  0
VERTEX
  5
301
330
2FF
100
AcDbEntity
  8
BEMAßUNG
 62
     7
100
AcDbVertex
100
AcDb2dVertex
 10
77.44540199886782
 20
208.4398179274907
 30
0.0
  0
SEQEND
  5
302
330
2FF
100
AcDbEntity
  8
BEMAßUNG
  0
POLYLINE
  5
303
330
1F
100
AcDbEntity
  8
BEMAßUNG
 62
     7
100
AcDb2dPolyline
 66
     1
 10
0.0
 20
0.0
 30
0.0
  0
VERTEX
  5
304
330
303
100
AcDbEntity
  8
BEMAßUNG
 62
     7
100
AcDbVertex
100
AcDb2dVertex
 10
77.496044902501
 20
207.0970919621146
 30
0.0
  0
VERTEX
  5
305
330
303
100
AcDbEntity
  8
BEMAßUNG
 62
     7
100
AcDbVertex
100
AcDb2dVertex
 10
77.496044902501
 20
208.8253241122902
 30
0.0
  0
SEQEND
  5
306
330
303
100
AcDbEntity
  8
BEMAßUNG
  0
POLYLINE
  5
307
330
1F
100
AcDbEntity
  8
BEMAßUNG
 62
     7
100
AcDb2dPolyline
 66
     1
 10
0.0
 20
0.0
 30
0.0
  0
VERTEX
  5
308
330
307
100
AcDbEntity
  8
BEMAßUNG
 62
     7
100
AcDbVertex
100
AcDb2dVertex
 10
77.54703231568269
 20
207.0970919621146
 30
0.0
  0
VERTEX
  5
309
330
307
100
AcDbEntity
  8
BEMAßUNG
 62
     7
100
AcDbVertex
100
AcDb2dVertex
 10
77.54703231568269
 20
209.211691570961
 30
0.0
  0
SEQEND
  5
30A
330
307
100
AcDbEntity
  8
BEMAßUNG
  0
POLYLINE
  5
30B
330
1F
100
AcDbEntity
  8
BEMAßUNG
 62
     7
100
AcDb2dPolyline
 66
     1
 10
0.0
 20
0.0
 30
0.0
  0
VERTEX
  5
30C
330
30B
100
AcDbEntity
  8
BEMAßUNG
 62
     7
100
AcDbVertex
100
AcDb2dVertex
 10
77.59767521931586
 20
207.0970919621146
 30
0.0
  0
VERTEX
  5
30D
330
30B
100
AcDbEntity
  8
BEMAßUNG
 62
     7
100
AcDbVertex
100
AcDb2dVertex
 10
77.59767521931586
 20
209.5971977557604
 30
0.0
  0
SEQEND
  5
30E
330
30B
100
AcDbEntity
  8
BEMAßUNG
  0
POLYLINE
  5
30F
330
1F
100
AcDbEntity
  8
BEMAßUNG
 62
     7
100
AcDb2dPolyline
 66
     1
 10
0.0
 20
0.0
 30
0.0
  0
VERTEX
  5
310
330
30F
100
AcDbEntity
  8
BEMAßUNG
 62
     7
100
AcDbVertex
100
AcDb2dVertex
 10
77.902910679309
 20
207.0970919621146
 30
0.0
  0
VERTEX
  5
311
330
30F
100
AcDbEntity
  8
BEMAßUNG
 62
     7
100
AcDbVertex
100
AcDb2dVertex
 10
77.902910679309
 20
207.2819213348983
 30
0.0
  0
SEQEND
  5
312
330
30F
100
AcDbEntity
  8
BEMAßUNG
  0
POLYLINE
  5
313
330
1F
100
AcDbEntity
  8
BEMAßUNG
 62
     7
100
AcDb2dPolyline
 66
     1
 10
0.0
 20
0.0
 30
0.0
  0
VERTEX
  5
314
330
313
100
AcDbEntity
  8
BEMAßUNG
 62
     7
100
AcDbVertex
100
AcDb2dVertex
 10
77.902910679309
 20
207.0970919621146
 30
0.0
  0
VERTEX
  5
315
330
313
100
AcDbEntity
  8
BEMAßUNG
 62
     7
100
AcDbVertex
100
AcDb2dVertex
 10
77.902910679309
 20
207.2819213348983
 30
0.0
  0
SEQEND
  5
316
330
313
100
AcDbEntity
  8
BEMAßUNG
  0
POLYLINE
  5
317
330
1F
100
AcDbEntity
  8
BEMAßUNG
 62
     7
100
AcDb2dPolyline
 66
     1
 10
0.0
 20
0.0
 30
0.0
  0
VERTEX
  5
318
330
317
100
AcDbEntity
  8
BEMAßUNG
 62
     7
100
AcDbVertex
100
AcDb2dVertex
 10
77.85226777567583
 20
207.0970919621146
 30
0.0
  0
VERTEX
  5
319
330
317
100
AcDbEntity
  8
BEMAßUNG
 62
     7
100
AcDbVertex
100
AcDb2dVertex
 10
77.85226777567583
 20
207.668288793569
 30
0.0
  0
SEQEND
  5
31A
330
317
100
AcDbEntity
  8
BEMAßUNG
  0
POLYLINE
  5
31B
330
1F
100
AcDbEntity
  8
BEMAßUNG
 62
     7
100
AcDb2dPolyline
 66
     1
 10
0.0
 20
0.0
 30
0.0
  0
VERTEX
  5
31C
330
31B
100
AcDbEntity
  8
BEMAßUNG
 62
     7
100
AcDbVertex
100
AcDb2dVertex
 10
77.80128036249413
 20
207.0970919621146
 30
0.0
  0
VERTEX
  5
31D
330
31B
100
AcDbEntity
  8
BEMAßUNG
 62
     7
100
AcDbVertex
100
AcDb2dVertex
 10
77.80128036249413
 20
208.0537949783685
 30
0.0
  0
SEQEND
  5
31E
330
31B
100
AcDbEntity
  8
BEMAßUNG
  0
POLYLINE
  5
31F
330
1F
100
AcDbEntity
  8
BEMAßUNG
 62
     7
100
AcDb2dPolyline
 66
     1
 10
0.0
 20
0.0
 30
0.0
  0
VERTEX
  5
320
330
31F
100
AcDbEntity
  8
BEMAßUNG
 62
     7
100
AcDbVertex
100
AcDb2dVertex
 10
77.75063745886095
 20
207.0970919621146
 30
0.0
  0
VERTEX
  5
321
330
31F
100
AcDbEntity
  8
BEMAßUNG
 62
     7
100
AcDbVertex
100
AcDb2dVertex
 10
77.75063745886095
 20
208.4398179274907
 30
0.0
  0
SEQEND
  5
322
330
31F
100
AcDbEntity
  8
BEMAßUNG
  0
POLYLINE
  5
323
330
1F
100
AcDbEntity
  8
BEMAßUNG
 62
     7
100
AcDb2dPolyline
 66
     1
 10
0.0
 20
0.0
 30
0.0
  0
VERTEX
  5
324
330
323
100
AcDbEntity
  8
BEMAßUNG
 62
     7
100
AcDbVertex
100
AcDb2dVertex
 10
77.69965004567926
 20
207.0970919621146
 30
0.0
  0
VERTEX
  5
325
330
323
100
AcDbEntity
  8
BEMAßUNG
 62
     7
100
AcDbVertex
100
AcDb2dVertex
 10
77.69965004567926
 20
208.8253241122902
 30
0.0
  0
SEQEND
  5
326
330
323
100
AcDbEntity
  8
BEMAßUNG
  0
POLYLINE
  5
327
330
1F
100
AcDbEntity
  8
BEMAßUNG
 62
     7
100
AcDb2dPolyline
 66
     1
 10
0.0
 20
0.0
 30
0.0
  0
VERTEX
  5
328
330
327
100
AcDbEntity
  8
BEMAßUNG
 62
     7
100
AcDbVertex
100
AcDb2dVertex
 10
77.64900714204609
 20
207.0970919621146
 30
0.0
  0
VERTEX
  5
329
330
327
100
AcDbEntity
  8
BEMAßUNG
 62
     7
100
AcDbVertex
100
AcDb2dVertex
 10
77.64900714204609
 20
209.211691570961
 30
0.0
  0
SEQEND
  5
32A
330
327
100
AcDbEntity
  8
BEMAßUNG
  0
POLYLINE
  5
32B
330
1F
100
AcDbEntity
  8
BEMAßUNG
 62
     7
100
AcDb2dPolyline
 66
     1
 10
0.0
 20
0.0
 30
0.0
  0
VERTEX
  5
32C
330
32B
100
AcDbEntity
  8
BEMAßUNG
 62
     7
100
AcDbVertex
100
AcDb2dVertex
 10
77.59767521931586
 20
207.0970919621146
 30
0.0
  0
VERTEX
  5
32D
330
32B
100
AcDbEntity
  8
BEMAßUNG
 62
     7
100
AcDbVertex
100
AcDb2dVertex
 10
77.59767521931586
 20
209.5971977557604
 30
0.0
  0
SEQEND
  5
32E
330
32B
100
AcDbEntity
  8
BEMAßUNG
  0
POLYLINE
  5
32F
330
1F
100
AcDbEntity
  8
BEMAßUNG
 62
     7
100
AcDb2dPolyline
 66
     1
 10
0.0
 20
0.0
 30
0.0
  0
VERTEX
  5
330
330
32F
100
AcDbEntity
  8
BEMAßUNG
 62
     7
100
AcDbVertex
100
AcDb2dVertex
 10
77.59767521931586
 20
194.5970797582084
 30
0.0
  0
VERTEX
  5
331
330
32F
100
AcDbEntity
  8
BEMAßUNG
 62
     7
100
AcDbVertex
100
AcDb2dVertex
 10
77.92702634770575
 20
197.0971855518542
 30
0.0
  0
VERTEX
  5
332
330
32F
100
AcDbEntity
  8
BEMAßUNG
 62
     7
100
AcDbVertex
100
AcDb2dVertex
 10
77.26901311002302
 20
197.0971855518542
 30
0.0
  0
VERTEX
  5
333
330
32F
100
AcDbEntity
  8
BEMAßUNG
 62
     7
100
AcDbVertex
100
AcDb2dVertex
 10
77.59767521931586
 20
194.5970797582084
 30
0.0
  0
SEQEND
  5
334
330
32F
100
AcDbEntity
  8
BEMAßUNG
  0
POLYLINE
  5
335
330
1F
100
AcDbEntity
  8
BEMAßUNG
 62
     7
100
AcDb2dPolyline
 66
     1
 10
0.0
 20
0.0
 30
0.0
  0
VERTEX
  5
336
330
335
100
AcDbEntity
  8
BEMAßUNG
 62
     7
100
AcDbVertex
100
AcDb2dVertex
 10
77.902910679309
 20
197.0971855518542
 30
0.0
  0
VERTEX
  5
337
330
335
100
AcDbEntity
  8
BEMAßUNG
 62
     7
100
AcDbVertex
100
AcDb2dVertex
 10
77.902910679309
 20
196.9123561790705
 30
0.0
  0
SEQEND
  5
338
330
335
100
AcDbEntity
  8
BEMAßUNG
  0
POLYLINE
  5
339
330
1F
100
AcDbEntity
  8
BEMAßUNG
 62
     7
100
AcDb2dPolyline
 66
     1
 10
0.0
 20
0.0
 30
0.0
  0
VERTEX
  5
33A
330
339
100
AcDbEntity
  8
BEMAßUNG
 62
     7
100
AcDbVertex
100
AcDb2dVertex
 10
77.902910679309
 20
197.0971855518542
 30
0.0
  0
VERTEX
  5
33B
330
339
100
AcDbEntity
  8
BEMAßUNG
 62
     7
100
AcDbVertex
100
AcDb2dVertex
 10
77.902910679309
 20
196.9123561790705
 30
0.0
  0
SEQEND
  5
33C
330
339
100
AcDbEntity
  8
BEMAßUNG
  0
POLYLINE
  5
33D
330
1F
100
AcDbEntity
  8
BEMAßUNG
 62
     7
100
AcDb2dPolyline
 66
     1
 10
0.0
 20
0.0
 30
0.0
  0
VERTEX
  5
33E
330
33D
100
AcDbEntity
  8
BEMAßUNG
 62
     7
100
AcDbVertex
100
AcDb2dVertex
 10
77.85226777567583
 20
197.0971855518542
 30
0.0
  0
VERTEX
  5
33F
330
33D
100
AcDbEntity
  8
BEMAßUNG
 62
     7
100
AcDbVertex
100
AcDb2dVertex
 10
77.85226777567583
 20
196.5268499942711
 30
0.0
  0
SEQEND
  5
340
330
33D
100
AcDbEntity
  8
BEMAßUNG
  0
POLYLINE
  5
341
330
1F
100
AcDbEntity
  8
BEMAßUNG
 62
     7
100
AcDb2dPolyline
 66
     1
 10
0.0
 20
0.0
 30
0.0
  0
VERTEX
  5
342
330
341
100
AcDbEntity
  8
BEMAßUNG
 62
     7
100
AcDbVertex
100
AcDb2dVertex
 10
77.80128036249413
 20
197.0971855518542
 30
0.0
  0
VERTEX
  5
343
330
341
100
AcDbEntity
  8
BEMAßUNG
 62
     7
100
AcDbVertex
100
AcDb2dVertex
 10
77.80128036249413
 20
196.1404825356003
 30
0.0
  0
SEQEND
  5
344
330
341
100
AcDbEntity
  8
BEMAßUNG
  0
POLYLINE
  5
345
330
1F
100
AcDbEntity
  8
BEMAßUNG
 62
     7
100
AcDb2dPolyline
 66
     1
 10
0.0
 20
0.0
 30
0.0
  0
VERTEX
  5
346
330
345
100
AcDbEntity
  8
BEMAßUNG
 62
     7
100
AcDbVertex
100
AcDb2dVertex
 10
77.75063745886095
 20
197.0971855518542
 30
0.0
  0
VERTEX
  5
347
330
345
100
AcDbEntity
  8
BEMAßUNG
 62
     7
100
AcDbVertex
100
AcDb2dVertex
 10
77.75063745886095
 20
195.7553208603494
 30
0.0
  0
SEQEND
  5
348
330
345
100
AcDbEntity
  8
BEMAßUNG
  0
POLYLINE
  5
349
330
1F
100
AcDbEntity
  8
BEMAßUNG
 62
     7
100
AcDb2dPolyline
 66
     1
 10
0.0
 20
0.0
 30
0.0
  0
VERTEX
  5
34A
330
349
100
AcDbEntity
  8
BEMAßUNG
 62
     7
100
AcDbVertex
100
AcDb2dVertex
 10
77.69965004567926
 20
197.0971855518542
 30
0.0
  0
VERTEX
  5
34B
330
349
100
AcDbEntity
  8
BEMAßUNG
 62
     7
100
AcDbVertex
100
AcDb2dVertex
 10
77.69965004567926
 20
195.3689534016786
 30
0.0
  0
SEQEND
  5
34C
330
349
100
AcDbEntity
  8
BEMAßUNG
  0
POLYLINE
  5
34D
330
1F
100
AcDbEntity
  8
BEMAßUNG
 62
     7
100
AcDb2dPolyline
 66
     1
 10
0.0
 20
0.0
 30
0.0
  0
VERTEX
  5
34E
330
34D
100
AcDbEntity
  8
BEMAßUNG
 62
     7
100
AcDbVertex
100
AcDb2dVertex
 10
77.64900714204609
 20
197.0971855518542
 30
0.0
  0
VERTEX
  5
34F
330
34D
100
AcDbEntity
  8
BEMAßUNG
 62
     7
100
AcDbVertex
100
AcDb2dVertex
 10
77.64900714204609
 20
194.9834472168791
 30
0.0
  0
SEQEND
  5
350
330
34D
100
AcDbEntity
  8
BEMAßUNG
  0
POLYLINE
  5
351
330
1F
100
AcDbEntity
  8
BEMAßUNG
 62
     7
100
AcDb2dPolyline
 66
     1
 10
0.0
 20
0.0
 30
0.0
  0
VERTEX
  5
352
330
351
100
AcDbEntity
  8
BEMAßUNG
 62
     7
100
AcDbVertex
100
AcDb2dVertex
 10
77.59767521931586
 20
197.0971855518542
 30
0.0
  0
VERTEX
  5
353
330
351
100
AcDbEntity
  8
BEMAßUNG
 62
     7
100
AcDbVertex
100
AcDb2dVertex
 10
77.59767521931586
 20
194.5970797582084
 30
0.0
  0
SEQEND
  5
354
330
351
100
AcDbEntity
  8
BEMAßUNG
  0
POLYLINE
  5
355
330
1F
100
AcDbEntity
  8
BEMAßUNG
 62
     7
100
AcDb2dPolyline
 66
     1
 10
0.0
 20
0.0
 30
0.0
  0
VERTEX
  5
356
330
355
100
AcDbEntity
  8
BEMAßUNG
 62
     7
100
AcDbVertex
100
AcDb2dVertex
 10
77.2934732879683
 20
197.0971855518542
 30
0.0
  0
VERTEX
  5
357
330
355
100
AcDbEntity
  8
BEMAßUNG
 62
     7
100
AcDbVertex
100
AcDb2dVertex
 10
77.2934732879683
 20
196.9123561790705
 30
0.0
  0
SEQEND
  5
358
330
355
100
AcDbEntity
  8
BEMAßUNG
  0
POLYLINE
  5
359
330
1F
100
AcDbEntity
  8
BEMAßUNG
 62
     7
100
AcDb2dPolyline
 66
     1
 10
0.0
 20
0.0
 30
0.0
  0
VERTEX
  5
35A
330
359
100
AcDbEntity
  8
BEMAßUNG
 62
     7
100
AcDbVertex
100
AcDb2dVertex
 10
77.2934732879683
 20
197.0971855518542
 30
0.0
  0
VERTEX
  5
35B
330
359
100
AcDbEntity
  8
BEMAßUNG
 62
     7
100
AcDbVertex
100
AcDb2dVertex
 10
77.2934732879683
 20
196.9123561790705
 30
0.0
  0
SEQEND
  5
35C
330
359
100
AcDbEntity
  8
BEMAßUNG
  0
POLYLINE
  5
35D
330
1F
100
AcDbEntity
  8
BEMAßUNG
 62
     7
100
AcDb2dPolyline
 66
     1
 10
0.0
 20
0.0
 30
0.0
  0
VERTEX
  5
35E
330
35D
100
AcDbEntity
  8
BEMAßUNG
 62
     7
100
AcDbVertex
100
AcDb2dVertex
 10
77.34411619160147
 20
197.0971855518542
 30
0.0
  0
VERTEX
  5
35F
330
35D
100
AcDbEntity
  8
BEMAßUNG
 62
     7
100
AcDbVertex
100
AcDb2dVertex
 10
77.34411619160147
 20
196.5268499942711
 30
0.0
  0
SEQEND
  5
360
330
35D
100
AcDbEntity
  8
BEMAßUNG
  0
POLYLINE
  5
361
330
1F
100
AcDbEntity
  8
BEMAßUNG
 62
     7
100
AcDb2dPolyline
 66
     1
 10
0.0
 20
0.0
 30
0.0
  0
VERTEX
  5
362
330
361
100
AcDbEntity
  8
BEMAßUNG
 62
     7
100
AcDbVertex
100
AcDb2dVertex
 10
77.39475909523465
 20
197.0971855518542
 30
0.0
  0
VERTEX
  5
363
330
361
100
AcDbEntity
  8
BEMAßUNG
 62
     7
100
AcDbVertex
100
AcDb2dVertex
 10
77.39475909523465
 20
196.1404825356003
 30
0.0
  0
SEQEND
  5
364
330
361
100
AcDbEntity
  8
BEMAßUNG
  0
POLYLINE
  5
365
330
1F
100
AcDbEntity
  8
BEMAßUNG
 62
     7
100
AcDb2dPolyline
 66
     1
 10
0.0
 20
0.0
 30
0.0
  0
VERTEX
  5
366
330
365
100
AcDbEntity
  8
BEMAßUNG
 62
     7
100
AcDbVertex
100
AcDb2dVertex
 10
77.44540199886782
 20
197.0971855518542
 30
0.0
  0
VERTEX
  5
367
330
365
100
AcDbEntity
  8
BEMAßUNG
 62
     7
100
AcDbVertex
100
AcDb2dVertex
 10
77.44540199886782
 20
195.7553208603494
 30
0.0
  0
SEQEND
  5
368
330
365
100
AcDbEntity
  8
BEMAßUNG
  0
POLYLINE
  5
369
330
1F
100
AcDbEntity
  8
BEMAßUNG
 62
     7
100
AcDb2dPolyline
 66
     1
 10
0.0
 20
0.0
 30
0.0
  0
VERTEX
  5
36A
330
369
100
AcDbEntity
  8
BEMAßUNG
 62
     7
100
AcDbVertex
100
AcDb2dVertex
 10
77.496044902501
 20
197.0971855518542
 30
0.0
  0
VERTEX
  5
36B
330
369
100
AcDbEntity
  8
BEMAßUNG
 62
     7
100
AcDbVertex
100
AcDb2dVertex
 10
77.496044902501
 20
195.3689534016786
 30
0.0
  0
SEQEND
  5
36C
330
369
100
AcDbEntity
  8
BEMAßUNG
  0
POLYLINE
  5
36D
330
1F
100
AcDbEntity
  8
BEMAßUNG
 62
     7
100
AcDb2dPolyline
 66
     1
 10
0.0
 20
0.0
 30
0.0
  0
VERTEX
  5
36E
330
36D
100
AcDbEntity
  8
BEMAßUNG
 62
     7
100
AcDbVertex
100
AcDb2dVertex
 10
77.54703231568269
 20
197.0971855518542
 30
0.0
  0
VERTEX
  5
36F
330
36D
100
AcDbEntity
  8
BEMAßUNG
 62
     7
100
AcDbVertex
100
AcDb2dVertex
 10
77.54703231568269
 20
194.9834472168791
 30
0.0
  0
SEQEND
  5
370
330
36D
100
AcDbEntity
  8
BEMAßUNG
  0
POLYLINE
  5
371
330
1F
100
AcDbEntity
  8
BEMAßUNG
 62
     7
100
AcDb2dPolyline
 66
     1
 10
0.0
 20
0.0
 30
0.0
  0
VERTEX
  5
372
330
371
100
AcDbEntity
  8
BEMAßUNG
 62
     7
100
AcDbVertex
100
AcDb2dVertex
 10
77.59767521931586
 20
197.0971855518542
 30
0.0
  0
VERTEX
  5
373
330
371
100
AcDbEntity
  8
BEMAßUNG
 62
     7
100
AcDbVertex
100
AcDb2dVertex
 10
77.59767521931586
 20
194.5970797582084
 30
0.0
  0
SEQEND
  5
374
330
371
100
AcDbEntity
  8
BEMAßUNG
  0
POLYLINE
  5
375
330
1F
100
AcDbEntity
  8
BEMAßUNG
 62
     7
100
AcDb2dPolyline
 66
     1
 10
0.0
 20
0.0
 30
0.0
  0
VERTEX
  5
376
330
375
100
AcDbEntity
  8
BEMAßUNG
 62
     7
100
AcDbVertex
100
AcDb2dVertex
 10
43.70620387362206
 20
205.0972140329271
 30
0.0
  0
VERTEX
  5
377
330
375
100
AcDbEntity
  8
BEMAßUNG
 62
     7
100
AcDbVertex
100
AcDb2dVertex
 10
31.70624727939983
 20
205.0972140329271
 30
0.0
  0
SEQEND
  5
378
330
375
100
AcDbEntity
  8
BEMAßUNG
  0
POLYLINE
  5
379
330
1F
100
AcDbEntity
  8
BEMAßUNG
 62
     7
100
AcDb2dPolyline
 66
     1
 10
0.0
 20
0.0
 30
0.0
  0
VERTEX
  5
37A
330
379
100
AcDbEntity
  8
BEMAßUNG
 62
     7
100
AcDbVertex
100
AcDb2dVertex
 10
43.70620387362206
 20
199.0974079905902
 30
0.0
  0
VERTEX
  5
37B
330
379
100
AcDbEntity
  8
BEMAßUNG
 62
     7
100
AcDbVertex
100
AcDb2dVertex
 10
31.70624727939983
 20
199.0974079905902
 30
0.0
  0
SEQEND
  5
37C
330
379
100
AcDbEntity
  8
BEMAßUNG
  0
POLYLINE
  5
37D
330
1F
100
AcDbEntity
  8
BEMAßUNG
 62
     7
100
AcDb2dPolyline
 66
     1
 10
0.0
 20
0.0
 30
0.0
  0
VERTEX
  5
37E
330
37D
100
AcDbEntity
  8
BEMAßUNG
 62
     7
100
AcDbVertex
100
AcDb2dVertex
 10
33.70612520858736
 20
190.3475544771527
 30
0.0
  0
VERTEX
  5
37F
330
37D
100
AcDbEntity
  8
BEMAßUNG
 62
     7
100
AcDbVertex
100
AcDb2dVertex
 10
33.70612520858736
 20
220.0356648212932
 30
0.0
  0
SEQEND
  5
380
330
37D
100
AcDbEntity
  8
BEMAßUNG
  0
POLYLINE
  5
381
330
1F
100
AcDbEntity
  8
BEMAßUNG
 62
     7
100
AcDb2dPolyline
 66
     1
 10
0.0
 20
0.0
 30
0.0
  0
VERTEX
  5
382
330
381
100
AcDbEntity
  8
BEMAßUNG
 62
     7
100
AcDbVertex
100
AcDb2dVertex
 10
33.70612520858736
 20
205.0972140329271
 30
0.0
  0
VERTEX
  5
383
330
381
100
AcDbEntity
  8
BEMAßUNG
 62
     7
100
AcDbVertex
100
AcDb2dVertex
 10
34.03547633697725
 20
207.5973198265729
 30
0.0
  0
VERTEX
  5
384
330
381
100
AcDbEntity
  8
BEMAßUNG
 62
     7
100
AcDbVertex
100
AcDb2dVertex
 10
33.37746309929452
 20
207.5973198265729
 30
0.0
  0
VERTEX
  5
385
330
381
100
AcDbEntity
  8
BEMAßUNG
 62
     7
100
AcDbVertex
100
AcDb2dVertex
 10
33.70612520858736
 20
205.0972140329271
 30
0.0
  0
SEQEND
  5
386
330
381
100
AcDbEntity
  8
BEMAßUNG
  0
POLYLINE
  5
387
330
1F
100
AcDbEntity
  8
BEMAßUNG
 62
     7
100
AcDb2dPolyline
 66
     1
 10
0.0
 20
0.0
 30
0.0
  0
VERTEX
  5
388
330
387
100
AcDbEntity
  8
BEMAßUNG
 62
     7
100
AcDbVertex
100
AcDb2dVertex
 10
34.01101615903197
 20
207.5973198265729
 30
0.0
  0
VERTEX
  5
389
330
387
100
AcDbEntity
  8
BEMAßUNG
 62
     7
100
AcDbVertex
100
AcDb2dVertex
 10
34.01101615903197
 20
207.4124904537892
 30
0.0
  0
SEQEND
  5
38A
330
387
100
AcDbEntity
  8
BEMAßUNG
  0
POLYLINE
  5
38B
330
1F
100
AcDbEntity
  8
BEMAßUNG
 62
     7
100
AcDb2dPolyline
 66
     1
 10
0.0
 20
0.0
 30
0.0
  0
VERTEX
  5
38C
330
38B
100
AcDbEntity
  8
BEMAßUNG
 62
     7
100
AcDbVertex
100
AcDb2dVertex
 10
34.01101615903197
 20
207.5973198265729
 30
0.0
  0
VERTEX
  5
38D
330
38B
100
AcDbEntity
  8
BEMAßUNG
 62
     7
100
AcDbVertex
100
AcDb2dVertex
 10
34.01101615903197
 20
207.4124904537892
 30
0.0
  0
SEQEND
  5
38E
330
38B
100
AcDbEntity
  8
BEMAßUNG
  0
POLYLINE
  5
38F
330
1F
100
AcDbEntity
  8
BEMAßUNG
 62
     7
100
AcDb2dPolyline
 66
     1
 10
0.0
 20
0.0
 30
0.0
  0
VERTEX
  5
390
330
38F
100
AcDbEntity
  8
BEMAßUNG
 62
     7
100
AcDbVertex
100
AcDb2dVertex
 10
33.9603732553988
 20
207.5973198265729
 30
0.0
  0
VERTEX
  5
391
330
38F
100
AcDbEntity
  8
BEMAßUNG
 62
     7
100
AcDbVertex
100
AcDb2dVertex
 10
33.9603732553988
 20
207.0269842689898
 30
0.0
  0
SEQEND
  5
392
330
38F
100
AcDbEntity
  8
BEMAßUNG
  0
POLYLINE
  5
393
330
1F
100
AcDbEntity
  8
BEMAßUNG
 62
     7
100
AcDb2dPolyline
 66
     1
 10
0.0
 20
0.0
 30
0.0
  0
VERTEX
  5
394
330
393
100
AcDbEntity
  8
BEMAßUNG
 62
     7
100
AcDbVertex
100
AcDb2dVertex
 10
33.9093858422171
 20
207.5973198265729
 30
0.0
  0
VERTEX
  5
395
330
393
100
AcDbEntity
  8
BEMAßUNG
 62
     7
100
AcDbVertex
100
AcDb2dVertex
 10
33.9093858422171
 20
206.640616810319
 30
0.0
  0
SEQEND
  5
396
330
393
100
AcDbEntity
  8
BEMAßUNG
  0
POLYLINE
  5
397
330
1F
100
AcDbEntity
  8
BEMAßUNG
 62
     7
100
AcDb2dPolyline
 66
     1
 10
0.0
 20
0.0
 30
0.0
  0
VERTEX
  5
398
330
397
100
AcDbEntity
  8
BEMAßUNG
 62
     7
100
AcDbVertex
100
AcDb2dVertex
 10
33.85908744813245
 20
207.5973198265729
 30
0.0
  0
VERTEX
  5
399
330
397
100
AcDbEntity
  8
BEMAßUNG
 62
     7
100
AcDbVertex
100
AcDb2dVertex
 10
33.85908744813245
 20
206.2549383707453
 30
0.0
  0
SEQEND
  5
39A
330
397
100
AcDbEntity
  8
BEMAßUNG
  0
POLYLINE
  5
39B
330
1F
100
AcDbEntity
  8
BEMAßUNG
 62
     7
100
AcDb2dPolyline
 66
     1
 10
0.0
 20
0.0
 30
0.0
  0
VERTEX
  5
39C
330
39B
100
AcDbEntity
  8
BEMAßUNG
 62
     7
100
AcDbVertex
100
AcDb2dVertex
 10
33.80810003495075
 20
207.5973198265729
 30
0.0
  0
VERTEX
  5
39D
330
39B
100
AcDbEntity
  8
BEMAßUNG
 62
     7
100
AcDbVertex
100
AcDb2dVertex
 10
33.80810003495075
 20
205.8690876763973
 30
0.0
  0
SEQEND
  5
39E
330
39B
100
AcDbEntity
  8
BEMAßUNG
  0
POLYLINE
  5
39F
330
1F
100
AcDbEntity
  8
BEMAßUNG
 62
     7
100
AcDb2dPolyline
 66
     1
 10
0.0
 20
0.0
 30
0.0
  0
VERTEX
  5
3A0
330
39F
100
AcDbEntity
  8
BEMAßUNG
 62
     7
100
AcDbVertex
100
AcDb2dVertex
 10
33.75711262176905
 20
207.5973198265729
 30
0.0
  0
VERTEX
  5
3A1
330
39F
100
AcDbEntity
  8
BEMAßUNG
 62
     7
100
AcDbVertex
100
AcDb2dVertex
 10
33.75711262176905
 20
205.4835814915979
 30
0.0
  0
SEQEND
  5
3A2
330
39F
100
AcDbEntity
  8
BEMAßUNG
  0
POLYLINE
  5
3A3
330
1F
100
AcDbEntity
  8
BEMAßUNG
 62
     7
100
AcDb2dPolyline
 66
     1
 10
0.0
 20
0.0
 30
0.0
  0
VERTEX
  5
3A4
330
3A3
100
AcDbEntity
  8
BEMAßUNG
 62
     7
100
AcDbVertex
100
AcDb2dVertex
 10
33.70612520858736
 20
207.5973198265729
 30
0.0
  0
VERTEX
  5
3A5
330
3A3
100
AcDbEntity
  8
BEMAßUNG
 62
     7
100
AcDbVertex
100
AcDb2dVertex
 10
33.70612520858736
 20
205.0972140329271
 30
0.0
  0
SEQEND
  5
3A6
330
3A3
100
AcDbEntity
  8
BEMAßUNG
  0
POLYLINE
  5
3A7
330
1F
100
AcDbEntity
  8
BEMAßUNG
 62
     7
100
AcDb2dPolyline
 66
     1
 10
0.0
 20
0.0
 30
0.0
  0
VERTEX
  5
3A8
330
3A7
100
AcDbEntity
  8
BEMAßUNG
 62
     7
100
AcDbVertex
100
AcDb2dVertex
 10
33.40157876769128
 20
207.5973198265729
 30
0.0
  0
VERTEX
  5
3A9
330
3A7
100
AcDbEntity
  8
BEMAßUNG
 62
     7
100
AcDbVertex
100
AcDb2dVertex
 10
33.40157876769128
 20
207.4124904537892
 30
0.0
  0
SEQEND
  5
3AA
330
3A7
100
AcDbEntity
  8
BEMAßUNG
  0
POLYLINE
  5
3AB
330
1F
100
AcDbEntity
  8
BEMAßUNG
 62
     7
100
AcDb2dPolyline
 66
     1
 10
0.0
 20
0.0
 30
0.0
  0
VERTEX
  5
3AC
330
3AB
100
AcDbEntity
  8
BEMAßUNG
 62
     7
100
AcDbVertex
100
AcDb2dVertex
 10
33.40157876769128
 20
207.5973198265729
 30
0.0
  0
VERTEX
  5
3AD
330
3AB
100
AcDbEntity
  8
BEMAßUNG
 62
     7
100
AcDbVertex
100
AcDb2dVertex
 10
33.40157876769128
 20
207.4124904537892
 30
0.0
  0
SEQEND
  5
3AE
330
3AB
100
AcDbEntity
  8
BEMAßUNG
  0
POLYLINE
  5
3AF
330
1F
100
AcDbEntity
  8
BEMAßUNG
 62
     7
100
AcDb2dPolyline
 66
     1
 10
0.0
 20
0.0
 30
0.0
  0
VERTEX
  5
3B0
330
3AF
100
AcDbEntity
  8
BEMAßUNG
 62
     7
100
AcDbVertex
100
AcDb2dVertex
 10
33.45222167132444
 20
207.5973198265729
 30
0.0
  0
VERTEX
  5
3B1
330
3AF
100
AcDbEntity
  8
BEMAßUNG
 62
     7
100
AcDbVertex
100
AcDb2dVertex
 10
33.45222167132444
 20
207.0269842689898
 30
0.0
  0
SEQEND
  5
3B2
330
3AF
100
AcDbEntity
  8
BEMAßUNG
  0
POLYLINE
  5
3B3
330
1F
100
AcDbEntity
  8
BEMAßUNG
 62
     7
100
AcDb2dPolyline
 66
     1
 10
0.0
 20
0.0
 30
0.0
  0
VERTEX
  5
3B4
330
3B3
100
AcDbEntity
  8
BEMAßUNG
 62
     7
100
AcDbVertex
100
AcDb2dVertex
 10
33.50355359405467
 20
207.5973198265729
 30
0.0
  0
VERTEX
  5
3B5
330
3B3
100
AcDbEntity
  8
BEMAßUNG
 62
     7
100
AcDbVertex
100
AcDb2dVertex
 10
33.50355359405467
 20
206.640616810319
 30
0.0
  0
SEQEND
  5
3B6
330
3B3
100
AcDbEntity
  8
BEMAßUNG
  0
POLYLINE
  5
3B7
330
1F
100
AcDbEntity
  8
BEMAßUNG
 62
     7
100
AcDb2dPolyline
 66
     1
 10
0.0
 20
0.0
 30
0.0
  0
VERTEX
  5
3B8
330
3B7
100
AcDbEntity
  8
BEMAßUNG
 62
     7
100
AcDbVertex
100
AcDb2dVertex
 10
33.55419649768784
 20
207.5973198265729
 30
0.0
  0
VERTEX
  5
3B9
330
3B7
100
AcDbEntity
  8
BEMAßUNG
 62
     7
100
AcDbVertex
100
AcDb2dVertex
 10
33.55419649768784
 20
206.2549383707453
 30
0.0
  0
SEQEND
  5
3BA
330
3B7
100
AcDbEntity
  8
BEMAßUNG
  0
POLYLINE
  5
3BB
330
1F
100
AcDbEntity
  8
BEMAßUNG
 62
     7
100
AcDb2dPolyline
 66
     1
 10
0.0
 20
0.0
 30
0.0
  0
VERTEX
  5
3BC
330
3BB
100
AcDbEntity
  8
BEMAßUNG
 62
     7
100
AcDbVertex
100
AcDb2dVertex
 10
33.60483940132102
 20
207.5973198265729
 30
0.0
  0
VERTEX
  5
3BD
330
3BB
100
AcDbEntity
  8
BEMAßUNG
 62
     7
100
AcDbVertex
100
AcDb2dVertex
 10
33.60483940132102
 20
205.8690876763973
 30
0.0
  0
SEQEND
  5
3BE
330
3BB
100
AcDbEntity
  8
BEMAßUNG
  0
POLYLINE
  5
3BF
330
1F
100
AcDbEntity
  8
BEMAßUNG
 62
     7
100
AcDb2dPolyline
 66
     1
 10
0.0
 20
0.0
 30
0.0
  0
VERTEX
  5
3C0
330
3BF
100
AcDbEntity
  8
BEMAßUNG
 62
     7
100
AcDbVertex
100
AcDb2dVertex
 10
33.65548230495418
 20
207.5973198265729
 30
0.0
  0
VERTEX
  5
3C1
330
3BF
100
AcDbEntity
  8
BEMAßUNG
 62
     7
100
AcDbVertex
100
AcDb2dVertex
 10
33.65548230495418
 20
205.4835814915979
 30
0.0
  0
SEQEND
  5
3C2
330
3BF
100
AcDbEntity
  8
BEMAßUNG
  0
POLYLINE
  5
3C3
330
1F
100
AcDbEntity
  8
BEMAßUNG
 62
     7
100
AcDb2dPolyline
 66
     1
 10
0.0
 20
0.0
 30
0.0
  0
VERTEX
  5
3C4
330
3C3
100
AcDbEntity
  8
BEMAßUNG
 62
     7
100
AcDbVertex
100
AcDb2dVertex
 10
33.70612520858736
 20
207.5973198265729
 30
0.0
  0
VERTEX
  5
3C5
330
3C3
100
AcDbEntity
  8
BEMAßUNG
 62
     7
100
AcDbVertex
100
AcDb2dVertex
 10
33.70612520858736
 20
205.0972140329271
 30
0.0
  0
SEQEND
  5
3C6
330
3C3
100
AcDbEntity
  8
BEMAßUNG
  0
POLYLINE
  5
3C7
330
1F
100
AcDbEntity
  8
BEMAßUNG
 62
     7
100
AcDb2dPolyline
 66
     1
 10
0.0
 20
0.0
 30
0.0
  0
VERTEX
  5
3C8
330
3C7
100
AcDbEntity
  8
BEMAßUNG
 62
     7
100
AcDbVertex
100
AcDb2dVertex
 10
33.70612520858736
 20
199.0974079905902
 30
0.0
  0
VERTEX
  5
3C9
330
3C7
100
AcDbEntity
  8
BEMAßUNG
 62
     7
100
AcDbVertex
100
AcDb2dVertex
 10
33.37746309929452
 20
196.5969576873959
 30
0.0
  0
VERTEX
  5
3CA
330
3C7
100
AcDbEntity
  8
BEMAßUNG
 62
     7
100
AcDbVertex
100
AcDb2dVertex
 10
34.03547633697725
 20
196.5969576873959
 30
0.0
  0
VERTEX
  5
3CB
330
3C7
100
AcDbEntity
  8
BEMAßUNG
 62
     7
100
AcDbVertex
100
AcDb2dVertex
 10
33.70612520858736
 20
199.0974079905902
 30
0.0
  0
SEQEND
  5
3CC
330
3C7
100
AcDbEntity
  8
BEMAßUNG
  0
POLYLINE
  5
3CD
330
1F
100
AcDbEntity
  8
BEMAßUNG
 62
     7
100
AcDb2dPolyline
 66
     1
 10
0.0
 20
0.0
 30
0.0
  0
VERTEX
  5
3CE
330
3CD
100
AcDbEntity
  8
BEMAßUNG
 62
     7
100
AcDbVertex
100
AcDb2dVertex
 10
33.40157876769128
 20
196.5969576873959
 30
0.0
  0
VERTEX
  5
3CF
330
3CD
100
AcDbEntity
  8
BEMAßUNG
 62
     7
100
AcDbVertex
100
AcDb2dVertex
 10
33.40157876769128
 20
196.7819593149538
 30
0.0
  0
SEQEND
  5
3D0
330
3CD
100
AcDbEntity
  8
BEMAßUNG
  0
POLYLINE
  5
3D1
330
1F
100
AcDbEntity
  8
BEMAßUNG
 62
     7
100
AcDb2dPolyline
 66
     1
 10
0.0
 20
0.0
 30
0.0
  0
VERTEX
  5
3D2
330
3D1
100
AcDbEntity
  8
BEMAßUNG
 62
     7
100
AcDbVertex
100
AcDb2dVertex
 10
33.40157876769128
 20
196.5969576873959
 30
0.0
  0
VERTEX
  5
3D3
330
3D1
100
AcDbEntity
  8
BEMAßUNG
 62
     7
100
AcDbVertex
100
AcDb2dVertex
 10
33.40157876769128
 20
196.7819593149538
 30
0.0
  0
SEQEND
  5
3D4
330
3D1
100
AcDbEntity
  8
BEMAßUNG
  0
POLYLINE
  5
3D5
330
1F
100
AcDbEntity
  8
BEMAßUNG
 62
     7
100
AcDb2dPolyline
 66
     1
 10
0.0
 20
0.0
 30
0.0
  0
VERTEX
  5
3D6
330
3D5
100
AcDbEntity
  8
BEMAßUNG
 62
     7
100
AcDbVertex
100
AcDb2dVertex
 10
33.45222167132444
 20
196.5969576873959
 30
0.0
  0
VERTEX
  5
3D7
330
3D5
100
AcDbEntity
  8
BEMAßUNG
 62
     7
100
AcDbVertex
100
AcDb2dVertex
 10
33.45222167132444
 20
197.1681545188503
 30
0.0
  0
SEQEND
  5
3D8
330
3D5
100
AcDbEntity
  8
BEMAßUNG
  0
POLYLINE
  5
3D9
330
1F
100
AcDbEntity
  8
BEMAßUNG
 62
     7
100
AcDb2dPolyline
 66
     1
 10
0.0
 20
0.0
 30
0.0
  0
VERTEX
  5
3DA
330
3D9
100
AcDbEntity
  8
BEMAßUNG
 62
     7
100
AcDbVertex
100
AcDb2dVertex
 10
33.50355359405467
 20
196.5969576873959
 30
0.0
  0
VERTEX
  5
3DB
330
3D9
100
AcDbEntity
  8
BEMAßUNG
 62
     7
100
AcDbVertex
100
AcDb2dVertex
 10
33.50355359405467
 20
197.5540052131983
 30
0.0
  0
SEQEND
  5
3DC
330
3D9
100
AcDbEntity
  8
BEMAßUNG
  0
POLYLINE
  5
3DD
330
1F
100
AcDbEntity
  8
BEMAßUNG
 62
     7
100
AcDb2dPolyline
 66
     1
 10
0.0
 20
0.0
 30
0.0
  0
VERTEX
  5
3DE
330
3DD
100
AcDbEntity
  8
BEMAßUNG
 62
     7
100
AcDbVertex
100
AcDb2dVertex
 10
33.55419649768784
 20
196.5969576873959
 30
0.0
  0
VERTEX
  5
3DF
330
3DD
100
AcDbEntity
  8
BEMAßUNG
 62
     7
100
AcDbVertex
100
AcDb2dVertex
 10
33.55419649768784
 20
197.939683652772
 30
0.0
  0
SEQEND
  5
3E0
330
3DD
100
AcDbEntity
  8
BEMAßUNG
  0
POLYLINE
  5
3E1
330
1F
100
AcDbEntity
  8
BEMAßUNG
 62
     7
100
AcDb2dPolyline
 66
     1
 10
0.0
 20
0.0
 30
0.0
  0
VERTEX
  5
3E2
330
3E1
100
AcDbEntity
  8
BEMAßUNG
 62
     7
100
AcDbVertex
100
AcDb2dVertex
 10
33.60483940132102
 20
196.5969576873959
 30
0.0
  0
VERTEX
  5
3E3
330
3E1
100
AcDbEntity
  8
BEMAßUNG
 62
     7
100
AcDbVertex
100
AcDb2dVertex
 10
33.60483940132102
 20
198.3253620923458
 30
0.0
  0
SEQEND
  5
3E4
330
3E1
100
AcDbEntity
  8
BEMAßUNG
  0
POLYLINE
  5
3E5
330
1F
100
AcDbEntity
  8
BEMAßUNG
 62
     7
100
AcDb2dPolyline
 66
     1
 10
0.0
 20
0.0
 30
0.0
  0
VERTEX
  5
3E6
330
3E5
100
AcDbEntity
  8
BEMAßUNG
 62
     7
100
AcDbVertex
100
AcDb2dVertex
 10
33.65548230495418
 20
196.5969576873959
 30
0.0
  0
VERTEX
  5
3E7
330
3E5
100
AcDbEntity
  8
BEMAßUNG
 62
     7
100
AcDbVertex
100
AcDb2dVertex
 10
33.65548230495418
 20
198.7115572962423
 30
0.0
  0
SEQEND
  5
3E8
330
3E5
100
AcDbEntity
  8
BEMAßUNG
  0
POLYLINE
  5
3E9
330
1F
100
AcDbEntity
  8
BEMAßUNG
 62
     7
100
AcDb2dPolyline
 66
     1
 10
0.0
 20
0.0
 30
0.0
  0
VERTEX
  5
3EA
330
3E9
100
AcDbEntity
  8
BEMAßUNG
 62
     7
100
AcDbVertex
100
AcDb2dVertex
 10
33.70612520858736
 20
196.5969576873959
 30
0.0
  0
VERTEX
  5
3EB
330
3E9
100
AcDbEntity
  8
BEMAßUNG
 62
     7
100
AcDbVertex
100
AcDb2dVertex
 10
33.70612520858736
 20
199.0974079905902
 30
0.0
  0
SEQEND
  5
3EC
330
3E9
100
AcDbEntity
  8
BEMAßUNG
  0
POLYLINE
  5
3ED
330
1F
100
AcDbEntity
  8
BEMAßUNG
 62
     7
100
AcDb2dPolyline
 66
     1
 10
0.0
 20
0.0
 30
0.0
  0
VERTEX
  5
3EE
330
3ED
100
AcDbEntity
  8
BEMAßUNG
 62
     7
100
AcDbVertex
100
AcDb2dVertex
 10
34.01101615903197
 20
196.5969576873959
 30
0.0
  0
VERTEX
  5
3EF
330
3ED
100
AcDbEntity
  8
BEMAßUNG
 62
     7
100
AcDbVertex
100
AcDb2dVertex
 10
34.01101615903197
 20
196.7819593149538
 30
0.0
  0
SEQEND
  5
3F0
330
3ED
100
AcDbEntity
  8
BEMAßUNG
  0
POLYLINE
  5
3F1
330
1F
100
AcDbEntity
  8
BEMAßUNG
 62
     7
100
AcDb2dPolyline
 66
     1
 10
0.0
 20
0.0
 30
0.0
  0
VERTEX
  5
3F2
330
3F1
100
AcDbEntity
  8
BEMAßUNG
 62
     7
100
AcDbVertex
100
AcDb2dVertex
 10
34.01101615903197
 20
196.5969576873959
 30
0.0
  0
VERTEX
  5
3F3
330
3F1
100
AcDbEntity
  8
BEMAßUNG
 62
     7
100
AcDbVertex
100
AcDb2dVertex
 10
34.01101615903197
 20
196.7819593149538
 30
0.0
  0
SEQEND
  5
3F4
330
3F1
100
AcDbEntity
  8
BEMAßUNG
  0
POLYLINE
  5
3F5
330
1F
100
AcDbEntity
  8
BEMAßUNG
 62
     7
100
AcDb2dPolyline
 66
     1
 10
0.0
 20
0.0
 30
0.0
  0
VERTEX
  5
3F6
330
3F5
100
AcDbEntity
  8
BEMAßUNG
 62
     7
100
AcDbVertex
100
AcDb2dVertex
 10
33.9603732553988
 20
196.5969576873959
 30
0.0
  0
VERTEX
  5
3F7
330
3F5
100
AcDbEntity
  8
BEMAßUNG
 62
     7
100
AcDbVertex
100
AcDb2dVertex
 10
33.9603732553988
 20
197.1681545188503
 30
0.0
  0
SEQEND
  5
3F8
330
3F5
100
AcDbEntity
  8
BEMAßUNG
  0
POLYLINE
  5
3F9
330
1F
100
AcDbEntity
  8
BEMAßUNG
 62
     7
100
AcDb2dPolyline
 66
     1
 10
0.0
 20
0.0
 30
0.0
  0
VERTEX
  5
3FA
330
3F9
100
AcDbEntity
  8
BEMAßUNG
 62
     7
100
AcDbVertex
100
AcDb2dVertex
 10
33.9093858422171
 20
196.5969576873959
 30
0.0
  0
VERTEX
  5
3FB
330
3F9
100
AcDbEntity
  8
BEMAßUNG
 62
     7
100
AcDbVertex
100
AcDb2dVertex
 10
33.9093858422171
 20
197.5540052131983
 30
0.0
  0
SEQEND
  5
3FC
330
3F9
100
AcDbEntity
  8
BEMAßUNG
  0
POLYLINE
  5
3FD
330
1F
100
AcDbEntity
  8
BEMAßUNG
 62
     7
100
AcDb2dPolyline
 66
     1
 10
0.0
 20
0.0
 30
0.0
  0
VERTEX
  5
3FE
330
3FD
100
AcDbEntity
  8
BEMAßUNG
 62
     7
100
AcDbVertex
100
AcDb2dVertex
 10
33.85908744813245
 20
196.5969576873959
 30
0.0
  0
VERTEX
  5
3FF
330
3FD
100
AcDbEntity
  8
BEMAßUNG
 62
     7
100
AcDbVertex
100
AcDb2dVertex
 10
33.85908744813245
 20
197.939683652772
 30
0.0
  0
SEQEND
  5
400
330
3FD
100
AcDbEntity
  8
BEMAßUNG
  0
POLYLINE
  5
401
330
1F
100
AcDbEntity
  8
BEMAßUNG
 62
     7
100
AcDb2dPolyline
 66
     1
 10
0.0
 20
0.0
 30
0.0
  0
VERTEX
  5
402
330
401
100
AcDbEntity
  8
BEMAßUNG
 62
     7
100
AcDbVertex
100
AcDb2dVertex
 10
33.80810003495075
 20
196.5969576873959
 30
0.0
  0
VERTEX
  5
403
330
401
100
AcDbEntity
  8
BEMAßUNG
 62
     7
100
AcDbVertex
100
AcDb2dVertex
 10
33.80810003495075
 20
198.3253620923458
 30
0.0
  0
SEQEND
  5
404
330
401
100
AcDbEntity
  8
BEMAßUNG
  0
POLYLINE
  5
405
330
1F
100
AcDbEntity
  8
BEMAßUNG
 62
     7
100
AcDb2dPolyline
 66
     1
 10
0.0
 20
0.0
 30
0.0
  0
VERTEX
  5
406
330
405
100
AcDbEntity
  8
BEMAßUNG
 62
     7
100
AcDbVertex
100
AcDb2dVertex
 10
33.75711262176905
 20
196.5969576873959
 30
0.0
  0
VERTEX
  5
407
330
405
100
AcDbEntity
  8
BEMAßUNG
 62
     7
100
AcDbVertex
100
AcDb2dVertex
 10
33.75711262176905
 20
198.7115572962423
 30
0.0
  0
SEQEND
  5
408
330
405
100
AcDbEntity
  8
BEMAßUNG
  0
POLYLINE
  5
409
330
1F
100
AcDbEntity
  8
BEMAßUNG
 62
     7
100
AcDb2dPolyline
 66
     1
 10
0.0
 20
0.0
 30
0.0
  0
VERTEX
  5
40A
330
409
100
AcDbEntity
  8
BEMAßUNG
 62
     7
100
AcDbVertex
100
AcDb2dVertex
 10
33.70612520858736
 20
196.5969576873959
 30
0.0
  0
VERTEX
  5
40B
330
409
100
AcDbEntity
  8
BEMAßUNG
 62
     7
100
AcDbVertex
100
AcDb2dVertex
 10
33.70612520858736
 20
199.0974079905902
 30
0.0
  0
SEQEND
  5
40C
330
409
100
AcDbEntity
  8
BEMAßUNG
  0
POLYLINE
  5
40D
330
1F
100
AcDbEntity
  8
BEMAßUNG
 62
     7
100
AcDb2dPolyline
 66
     1
 10
0.0
 20
0.0
 30
0.0
  0
VERTEX
  5
40E
330
40D
100
AcDbEntity
  8
BEMAßUNG
 62
     7
100
AcDbVertex
100
AcDb2dVertex
 10
50.70629339010121
 20
209.5971977557604
 30
0.0
  0
VERTEX
  5
40F
330
40D
100
AcDbEntity
  8
BEMAßUNG
 62
     7
100
AcDbVertex
100
AcDb2dVertex
 10
50.70629339010121
 20
221.6021497384363
 30
0.0
  0
SEQEND
  5
410
330
40D
100
AcDbEntity
  8
BEMAßUNG
  0
POLYLINE
  5
411
330
1F
100
AcDbEntity
  8
BEMAßUNG
 62
     7
100
AcDb2dPolyline
 66
     1
 10
0.0
 20
0.0
 30
0.0
  0
VERTEX
  5
412
330
411
100
AcDbEntity
  8
BEMAßUNG
 62
     7
100
AcDbVertex
100
AcDb2dVertex
 10
43.70620387362206
 20
202.0972248843715
 30
0.0
  0
VERTEX
  5
413
330
411
100
AcDbEntity
  8
BEMAßUNG
 62
     7
100
AcDbVertex
100
AcDb2dVertex
 10
43.70620387362206
 20
221.6021497384363
 30
0.0
  0
SEQEND
  5
414
330
411
100
AcDbEntity
  8
BEMAßUNG
  0
POLYLINE
  5
415
330
1F
100
AcDbEntity
  8
BEMAßUNG
 62
     7
100
AcDb2dPolyline
 66
     1
 10
0.0
 20
0.0
 30
0.0
  0
VERTEX
  5
416
330
415
100
AcDbEntity
  8
BEMAßUNG
 62
     7
100
AcDbVertex
100
AcDb2dVertex
 10
59.45649141308727
 20
219.6022718092487
 30
0.0
  0
VERTEX
  5
417
330
415
100
AcDbEntity
  8
BEMAßUNG
 62
     7
100
AcDbVertex
100
AcDb2dVertex
 10
34.95635036018452
 20
219.6022718092487
 30
0.0
  0
SEQEND
  5
418
330
415
100
AcDbEntity
  8
BEMAßUNG
  0
POLYLINE
  5
419
330
1F
100
AcDbEntity
  8
BEMAßUNG
 62
     7
100
AcDb2dPolyline
 66
     1
 10
0.0
 20
0.0
 30
0.0
  0
VERTEX
  5
41A
330
419
100
AcDbEntity
  8
BEMAßUNG
 62
     7
100
AcDbVertex
100
AcDb2dVertex
 10
50.70629339010121
 20
219.6022718092487
 30
0.0
  0
VERTEX
  5
41B
330
419
100
AcDbEntity
  8
BEMAßUNG
 62
     7
100
AcDbVertex
100
AcDb2dVertex
 10
53.20605467419849
 20
219.2732651904074
 30
0.0
  0
VERTEX
  5
41C
330
419
100
AcDbEntity
  8
BEMAßUNG
 62
     7
100
AcDbVertex
100
AcDb2dVertex
 10
53.20605467419849
 20
219.9314506828644
 30
0.0
  0
VERTEX
  5
41D
330
419
100
AcDbEntity
  8
BEMAßUNG
 62
     7
100
AcDbVertex
100
AcDb2dVertex
 10
50.70629339010121
 20
219.6022718092487
 30
0.0
  0
SEQEND
  5
41E
330
419
100
AcDbEntity
  8
BEMAßUNG
  0
POLYLINE
  5
41F
330
1F
100
AcDbEntity
  8
BEMAßUNG
 62
     7
100
AcDb2dPolyline
 66
     1
 10
0.0
 20
0.0
 30
0.0
  0
VERTEX
  5
420
330
41F
100
AcDbEntity
  8
BEMAßUNG
 62
     7
100
AcDbVertex
100
AcDb2dVertex
 10
53.20605467419849
 20
219.2975531135784
 30
0.0
  0
VERTEX
  5
421
330
41F
100
AcDbEntity
  8
BEMAßUNG
 62
     7
100
AcDbVertex
100
AcDb2dVertex
 10
53.02105304664057
 20
219.2975531135784
 30
0.0
  0
SEQEND
  5
422
330
41F
100
AcDbEntity
  8
BEMAßUNG
  0
POLYLINE
  5
423
330
1F
100
AcDbEntity
  8
BEMAßUNG
 62
     7
100
AcDb2dPolyline
 66
     1
 10
0.0
 20
0.0
 30
0.0
  0
VERTEX
  5
424
330
423
100
AcDbEntity
  8
BEMAßUNG
 62
     7
100
AcDbVertex
100
AcDb2dVertex
 10
53.20605467419849
 20
219.2975531135784
 30
0.0
  0
VERTEX
  5
425
330
423
100
AcDbEntity
  8
BEMAßUNG
 62
     7
100
AcDbVertex
100
AcDb2dVertex
 10
53.02105304664057
 20
219.2975531135784
 30
0.0
  0
SEQEND
  5
426
330
423
100
AcDbEntity
  8
BEMAßUNG
  0
POLYLINE
  5
427
330
1F
100
AcDbEntity
  8
BEMAßUNG
 62
     7
100
AcDb2dPolyline
 66
     1
 10
0.0
 20
0.0
 30
0.0
  0
VERTEX
  5
428
330
427
100
AcDbEntity
  8
BEMAßUNG
 62
     7
100
AcDbVertex
100
AcDb2dVertex
 10
53.20605467419849
 20
219.3483682719858
 30
0.0
  0
VERTEX
  5
429
330
427
100
AcDbEntity
  8
BEMAßUNG
 62
     7
100
AcDbVertex
100
AcDb2dVertex
 10
52.63554686184111
 20
219.3483682719858
 30
0.0
  0
SEQEND
  5
42A
330
427
100
AcDbEntity
  8
BEMAßUNG
  0
POLYLINE
  5
42B
330
1F
100
AcDbEntity
  8
BEMAßUNG
 62
     7
100
AcDb2dPolyline
 66
     1
 10
0.0
 20
0.0
 30
0.0
  0
VERTEX
  5
42C
330
42B
100
AcDbEntity
  8
BEMAßUNG
 62
     7
100
AcDbVertex
100
AcDb2dVertex
 10
53.20605467419849
 20
219.3991834303933
 30
0.0
  0
VERTEX
  5
42D
330
42B
100
AcDbEntity
  8
BEMAßUNG
 62
     7
100
AcDbVertex
100
AcDb2dVertex
 10
52.24969616749313
 20
219.3991834303933
 30
0.0
  0
SEQEND
  5
42E
330
42B
100
AcDbEntity
  8
BEMAßUNG
  0
POLYLINE
  5
42F
330
1F
100
AcDbEntity
  8
BEMAßUNG
 62
     7
100
AcDb2dPolyline
 66
     1
 10
0.0
 20
0.0
 30
0.0
  0
VERTEX
  5
430
330
42F
100
AcDbEntity
  8
BEMAßUNG
 62
     7
100
AcDbVertex
100
AcDb2dVertex
 10
53.20605467419849
 20
219.4499985888007
 30
0.0
  0
VERTEX
  5
431
330
42F
100
AcDbEntity
  8
BEMAßUNG
 62
     7
100
AcDbVertex
100
AcDb2dVertex
 10
51.86384547314515
 20
219.4499985888007
 30
0.0
  0
SEQEND
  5
432
330
42F
100
AcDbEntity
  8
BEMAßUNG
  0
POLYLINE
  5
433
330
1F
100
AcDbEntity
  8
BEMAßUNG
 62
     7
100
AcDb2dPolyline
 66
     1
 10
0.0
 20
0.0
 30
0.0
  0
VERTEX
  5
434
330
433
100
AcDbEntity
  8
BEMAßUNG
 62
     7
100
AcDbVertex
100
AcDb2dVertex
 10
53.20605467419849
 20
219.5008137472081
 30
0.0
  0
VERTEX
  5
435
330
433
100
AcDbEntity
  8
BEMAßUNG
 62
     7
100
AcDbVertex
100
AcDb2dVertex
 10
51.47765026924865
 20
219.5008137472081
 30
0.0
  0
SEQEND
  5
436
330
433
100
AcDbEntity
  8
BEMAßUNG
  0
POLYLINE
  5
437
330
1F
100
AcDbEntity
  8
BEMAßUNG
 62
     7
100
AcDb2dPolyline
 66
     1
 10
0.0
 20
0.0
 30
0.0
  0
VERTEX
  5
438
330
437
100
AcDbEntity
  8
BEMAßUNG
 62
     7
100
AcDbVertex
100
AcDb2dVertex
 10
53.20605467419849
 20
219.5516289056156
 30
0.0
  0
VERTEX
  5
439
330
437
100
AcDbEntity
  8
BEMAßUNG
 62
     7
100
AcDbVertex
100
AcDb2dVertex
 10
51.09214408444919
 20
219.5516289056156
 30
0.0
  0
SEQEND
  5
43A
330
437
100
AcDbEntity
  8
BEMAßUNG
  0
POLYLINE
  5
43B
330
1F
100
AcDbEntity
  8
BEMAßUNG
 62
     7
100
AcDb2dPolyline
 66
     1
 10
0.0
 20
0.0
 30
0.0
  0
VERTEX
  5
43C
330
43B
100
AcDbEntity
  8
BEMAßUNG
 62
     7
100
AcDbVertex
100
AcDb2dVertex
 10
53.20605467419849
 20
219.6022718092487
 30
0.0
  0
VERTEX
  5
43D
330
43B
100
AcDbEntity
  8
BEMAßUNG
 62
     7
100
AcDbVertex
100
AcDb2dVertex
 10
50.70629339010121
 20
219.6022718092487
 30
0.0
  0
SEQEND
  5
43E
330
43B
100
AcDbEntity
  8
BEMAßUNG
  0
POLYLINE
  5
43F
330
1F
100
AcDbEntity
  8
BEMAßUNG
 62
     7
100
AcDb2dPolyline
 66
     1
 10
0.0
 20
0.0
 30
0.0
  0
VERTEX
  5
440
330
43F
100
AcDbEntity
  8
BEMAßUNG
 62
     7
100
AcDbVertex
100
AcDb2dVertex
 10
53.20605467419849
 20
219.9068182501448
 30
0.0
  0
VERTEX
  5
441
330
43F
100
AcDbEntity
  8
BEMAßUNG
 62
     7
100
AcDbVertex
100
AcDb2dVertex
 10
53.02105304664057
 20
219.9068182501448
 30
0.0
  0
SEQEND
  5
442
330
43F
100
AcDbEntity
  8
BEMAßUNG
  0
POLYLINE
  5
443
330
1F
100
AcDbEntity
  8
BEMAßUNG
 62
     7
100
AcDb2dPolyline
 66
     1
 10
0.0
 20
0.0
 30
0.0
  0
VERTEX
  5
444
330
443
100
AcDbEntity
  8
BEMAßUNG
 62
     7
100
AcDbVertex
100
AcDb2dVertex
 10
53.20605467419849
 20
219.9068182501448
 30
0.0
  0
VERTEX
  5
445
330
443
100
AcDbEntity
  8
BEMAßUNG
 62
     7
100
AcDbVertex
100
AcDb2dVertex
 10
53.02105304664057
 20
219.9068182501448
 30
0.0
  0
SEQEND
  5
446
330
443
100
AcDbEntity
  8
BEMAßUNG
  0
POLYLINE
  5
447
330
1F
100
AcDbEntity
  8
BEMAßUNG
 62
     7
100
AcDb2dPolyline
 66
     1
 10
0.0
 20
0.0
 30
0.0
  0
VERTEX
  5
448
330
447
100
AcDbEntity
  8
BEMAßUNG
 62
     7
100
AcDbVertex
100
AcDb2dVertex
 10
53.20605467419849
 20
219.8560030917374
 30
0.0
  0
VERTEX
  5
449
330
447
100
AcDbEntity
  8
BEMAßUNG
 62
     7
100
AcDbVertex
100
AcDb2dVertex
 10
52.63554686184111
 20
219.8560030917374
 30
0.0
  0
SEQEND
  5
44A
330
447
100
AcDbEntity
  8
BEMAßUNG
  0
POLYLINE
  5
44B
330
1F
100
AcDbEntity
  8
BEMAßUNG
 62
     7
100
AcDb2dPolyline
 66
     1
 10
0.0
 20
0.0
 30
0.0
  0
VERTEX
  5
44C
330
44B
100
AcDbEntity
  8
BEMAßUNG
 62
     7
100
AcDbVertex
100
AcDb2dVertex
 10
53.20605467419849
 20
219.80518793333
 30
0.0
  0
VERTEX
  5
44D
330
44B
100
AcDbEntity
  8
BEMAßUNG
 62
     7
100
AcDbVertex
100
AcDb2dVertex
 10
52.24969616749313
 20
219.80518793333
 30
0.0
  0
SEQEND
  5
44E
330
44B
100
AcDbEntity
  8
BEMAßUNG
  0
POLYLINE
  5
44F
330
1F
100
AcDbEntity
  8
BEMAßUNG
 62
     7
100
AcDb2dPolyline
 66
     1
 10
0.0
 20
0.0
 30
0.0
  0
VERTEX
  5
450
330
44F
100
AcDbEntity
  8
BEMAßUNG
 62
     7
100
AcDbVertex
100
AcDb2dVertex
 10
53.20605467419849
 20
219.7543727749225
 30
0.0
  0
VERTEX
  5
451
330
44F
100
AcDbEntity
  8
BEMAßUNG
 62
     7
100
AcDbVertex
100
AcDb2dVertex
 10
51.86384547314515
 20
219.7543727749225
 30
0.0
  0
SEQEND
  5
452
330
44F
100
AcDbEntity
  8
BEMAßUNG
  0
POLYLINE
  5
453
330
1F
100
AcDbEntity
  8
BEMAßUNG
 62
     7
100
AcDb2dPolyline
 66
     1
 10
0.0
 20
0.0
 30
0.0
  0
VERTEX
  5
454
330
453
100
AcDbEntity
  8
BEMAßUNG
 62
     7
100
AcDbVertex
100
AcDb2dVertex
 10
53.20605467419849
 20
219.7039021260636
 30
0.0
  0
VERTEX
  5
455
330
453
100
AcDbEntity
  8
BEMAßUNG
 62
     7
100
AcDbVertex
100
AcDb2dVertex
 10
51.47765026924865
 20
219.7039021260636
 30
0.0
  0
SEQEND
  5
456
330
453
100
AcDbEntity
  8
BEMAßUNG
  0
POLYLINE
  5
457
330
1F
100
AcDbEntity
  8
BEMAßUNG
 62
     7
100
AcDb2dPolyline
 66
     1
 10
0.0
 20
0.0
 30
0.0
  0
VERTEX
  5
458
330
457
100
AcDbEntity
  8
BEMAßUNG
 62
     7
100
AcDbVertex
100
AcDb2dVertex
 10
53.20605467419849
 20
219.6532592224304
 30
0.0
  0
VERTEX
  5
459
330
457
100
AcDbEntity
  8
BEMAßUNG
 62
     7
100
AcDbVertex
100
AcDb2dVertex
 10
51.09214408444919
 20
219.6532592224304
 30
0.0
  0
SEQEND
  5
45A
330
457
100
AcDbEntity
  8
BEMAßUNG
  0
POLYLINE
  5
45B
330
1F
100
AcDbEntity
  8
BEMAßUNG
 62
     7
100
AcDb2dPolyline
 66
     1
 10
0.0
 20
0.0
 30
0.0
  0
VERTEX
  5
45C
330
45B
100
AcDbEntity
  8
BEMAßUNG
 62
     7
100
AcDbVertex
100
AcDb2dVertex
 10
53.20605467419849
 20
219.6022718092487
 30
0.0
  0
VERTEX
  5
45D
330
45B
100
AcDbEntity
  8
BEMAßUNG
 62
     7
100
AcDbVertex
100
AcDb2dVertex
 10
50.70629339010121
 20
219.6022718092487
 30
0.0
  0
SEQEND
  5
45E
330
45B
100
AcDbEntity
  8
BEMAßUNG
  0
POLYLINE
  5
45F
330
1F
100
AcDbEntity
  8
BEMAßUNG
 62
     7
100
AcDb2dPolyline
 66
     1
 10
0.0
 20
0.0
 30
0.0
  0
VERTEX
  5
460
330
45F
100
AcDbEntity
  8
BEMAßUNG
 62
     7
100
AcDbVertex
100
AcDb2dVertex
 10
43.70620387362206
 20
219.6022718092487
 30
0.0
  0
VERTEX
  5
461
330
45F
100
AcDbEntity
  8
BEMAßUNG
 62
     7
100
AcDbVertex
100
AcDb2dVertex
 10
41.20644258952478
 20
219.9314506828644
 30
0.0
  0
VERTEX
  5
462
330
45F
100
AcDbEntity
  8
BEMAßUNG
 62
     7
100
AcDbVertex
100
AcDb2dVertex
 10
41.20644258952478
 20
219.2732651904074
 30
0.0
  0
VERTEX
  5
463
330
45F
100
AcDbEntity
  8
BEMAßUNG
 62
     7
100
AcDbVertex
100
AcDb2dVertex
 10
43.70620387362206
 20
219.6022718092487
 30
0.0
  0
SEQEND
  5
464
330
45F
100
AcDbEntity
  8
BEMAßUNG
  0
POLYLINE
  5
465
330
1F
100
AcDbEntity
  8
BEMAßUNG
 62
     7
100
AcDb2dPolyline
 66
     1
 10
0.0
 20
0.0
 30
0.0
  0
VERTEX
  5
466
330
465
100
AcDbEntity
  8
BEMAßUNG
 62
     7
100
AcDbVertex
100
AcDb2dVertex
 10
41.20644258952478
 20
219.9068182501448
 30
0.0
  0
VERTEX
  5
467
330
465
100
AcDbEntity
  8
BEMAßUNG
 62
     7
100
AcDbVertex
100
AcDb2dVertex
 10
41.39109970753417
 20
219.9068182501448
 30
0.0
  0
SEQEND
  5
468
330
465
100
AcDbEntity
  8
BEMAßUNG
  0
POLYLINE
  5
469
330
1F
100
AcDbEntity
  8
BEMAßUNG
 62
     7
100
AcDb2dPolyline
 66
     1
 10
0.0
 20
0.0
 30
0.0
  0
VERTEX
  5
46A
330
469
100
AcDbEntity
  8
BEMAßUNG
 62
     7
100
AcDbVertex
100
AcDb2dVertex
 10
41.20644258952478
 20
219.9068182501448
 30
0.0
  0
VERTEX
  5
46B
330
469
100
AcDbEntity
  8
BEMAßUNG
 62
     7
100
AcDbVertex
100
AcDb2dVertex
 10
41.39109970753417
 20
219.9068182501448
 30
0.0
  0
SEQEND
  5
46C
330
469
100
AcDbEntity
  8
BEMAßUNG
  0
POLYLINE
  5
46D
330
1F
100
AcDbEntity
  8
BEMAßUNG
 62
     7
100
AcDb2dPolyline
 66
     1
 10
0.0
 20
0.0
 30
0.0
  0
VERTEX
  5
46E
330
46D
100
AcDbEntity
  8
BEMAßUNG
 62
     7
100
AcDbVertex
100
AcDb2dVertex
 10
41.20644258952478
 20
219.8560030917374
 30
0.0
  0
VERTEX
  5
46F
330
46D
100
AcDbEntity
  8
BEMAßUNG
 62
     7
100
AcDbVertex
100
AcDb2dVertex
 10
41.77695040188215
 20
219.8560030917374
 30
0.0
  0
SEQEND
  5
470
330
46D
100
AcDbEntity
  8
BEMAßUNG
  0
POLYLINE
  5
471
330
1F
100
AcDbEntity
  8
BEMAßUNG
 62
     7
100
AcDb2dPolyline
 66
     1
 10
0.0
 20
0.0
 30
0.0
  0
VERTEX
  5
472
330
471
100
AcDbEntity
  8
BEMAßUNG
 62
     7
100
AcDbVertex
100
AcDb2dVertex
 10
41.20644258952478
 20
219.80518793333
 30
0.0
  0
VERTEX
  5
473
330
471
100
AcDbEntity
  8
BEMAßUNG
 62
     7
100
AcDbVertex
100
AcDb2dVertex
 10
42.16280109623013
 20
219.80518793333
 30
0.0
  0
SEQEND
  5
474
330
471
100
AcDbEntity
  8
BEMAßUNG
  0
POLYLINE
  5
475
330
1F
100
AcDbEntity
  8
BEMAßUNG
 62
     7
100
AcDb2dPolyline
 66
     1
 10
0.0
 20
0.0
 30
0.0
  0
VERTEX
  5
476
330
475
100
AcDbEntity
  8
BEMAßUNG
 62
     7
100
AcDbVertex
100
AcDb2dVertex
 10
41.20644258952478
 20
219.7543727749225
 30
0.0
  0
VERTEX
  5
477
330
475
100
AcDbEntity
  8
BEMAßUNG
 62
     7
100
AcDbVertex
100
AcDb2dVertex
 10
42.54865179057812
 20
219.7543727749225
 30
0.0
  0
SEQEND
  5
478
330
475
100
AcDbEntity
  8
BEMAßUNG
  0
POLYLINE
  5
479
330
1F
100
AcDbEntity
  8
BEMAßUNG
 62
     7
100
AcDb2dPolyline
 66
     1
 10
0.0
 20
0.0
 30
0.0
  0
VERTEX
  5
47A
330
479
100
AcDbEntity
  8
BEMAßUNG
 62
     7
100
AcDbVertex
100
AcDb2dVertex
 10
41.20644258952478
 20
219.7039021260636
 30
0.0
  0
VERTEX
  5
47B
330
479
100
AcDbEntity
  8
BEMAßUNG
 62
     7
100
AcDbVertex
100
AcDb2dVertex
 10
42.9345024849261
 20
219.7039021260636
 30
0.0
  0
SEQEND
  5
47C
330
479
100
AcDbEntity
  8
BEMAßUNG
  0
POLYLINE
  5
47D
330
1F
100
AcDbEntity
  8
BEMAßUNG
 62
     7
100
AcDb2dPolyline
 66
     1
 10
0.0
 20
0.0
 30
0.0
  0
VERTEX
  5
47E
330
47D
100
AcDbEntity
  8
BEMAßUNG
 62
     7
100
AcDbVertex
100
AcDb2dVertex
 10
41.20644258952478
 20
219.6532592224304
 30
0.0
  0
VERTEX
  5
47F
330
47D
100
AcDbEntity
  8
BEMAßUNG
 62
     7
100
AcDbVertex
100
AcDb2dVertex
 10
43.32035317927408
 20
219.6532592224304
 30
0.0
  0
SEQEND
  5
480
330
47D
100
AcDbEntity
  8
BEMAßUNG
  0
POLYLINE
  5
481
330
1F
100
AcDbEntity
  8
BEMAßUNG
 62
     7
100
AcDb2dPolyline
 66
     1
 10
0.0
 20
0.0
 30
0.0
  0
VERTEX
  5
482
330
481
100
AcDbEntity
  8
BEMAßUNG
 62
     7
100
AcDbVertex
100
AcDb2dVertex
 10
41.20644258952478
 20
219.6022718092487
 30
0.0
  0
VERTEX
  5
483
330
481
100
AcDbEntity
  8
BEMAßUNG
 62
     7
100
AcDbVertex
100
AcDb2dVertex
 10
43.70620387362206
 20
219.6022718092487
 30
0.0
  0
SEQEND
  5
484
330
481
100
AcDbEntity
  8
BEMAßUNG
  0
POLYLINE
  5
485
330
1F
100
AcDbEntity
  8
BEMAßUNG
 62
     7
100
AcDb2dPolyline
 66
     1
 10
0.0
 20
0.0
 30
0.0
  0
VERTEX
  5
486
330
485
100
AcDbEntity
  8
BEMAßUNG
 62
     7
100
AcDbVertex
100
AcDb2dVertex
 10
41.20644258952478
 20
219.2975531135784
 30
0.0
  0
VERTEX
  5
487
330
485
100
AcDbEntity
  8
BEMAßUNG
 62
     7
100
AcDbVertex
100
AcDb2dVertex
 10
41.39109970753417
 20
219.2975531135784
 30
0.0
  0
SEQEND
  5
488
330
485
100
AcDbEntity
  8
BEMAßUNG
  0
POLYLINE
  5
489
330
1F
100
AcDbEntity
  8
BEMAßUNG
 62
     7
100
AcDb2dPolyline
 66
     1
 10
0.0
 20
0.0
 30
0.0
  0
VERTEX
  5
48A
330
489
100
AcDbEntity
  8
BEMAßUNG
 62
     7
100
AcDbVertex
100
AcDb2dVertex
 10
41.20644258952478
 20
219.2975531135784
 30
0.0
  0
VERTEX
  5
48B
330
489
100
AcDbEntity
  8
BEMAßUNG
 62
     7
100
AcDbVertex
100
AcDb2dVertex
 10
41.39109970753417
 20
219.2975531135784
 30
0.0
  0
SEQEND
  5
48C
330
489
100
AcDbEntity
  8
BEMAßUNG
  0
POLYLINE
  5
48D
330
1F
100
AcDbEntity
  8
BEMAßUNG
 62
     7
100
AcDb2dPolyline
 66
     1
 10
0.0
 20
0.0
 30
0.0
  0
VERTEX
  5
48E
330
48D
100
AcDbEntity
  8
BEMAßUNG
 62
     7
100
AcDbVertex
100
AcDb2dVertex
 10
41.20644258952478
 20
219.3483682719858
 30
0.0
  0
VERTEX
  5
48F
330
48D
100
AcDbEntity
  8
BEMAßUNG
 62
     7
100
AcDbVertex
100
AcDb2dVertex
 10
41.77695040188215
 20
219.3483682719858
 30
0.0
  0
SEQEND
  5
490
330
48D
100
AcDbEntity
  8
BEMAßUNG
  0
POLYLINE
  5
491
330
1F
100
AcDbEntity
  8
BEMAßUNG
 62
     7
100
AcDb2dPolyline
 66
     1
 10
0.0
 20
0.0
 30
0.0
  0
VERTEX
  5
492
330
491
100
AcDbEntity
  8
BEMAßUNG
 62
     7
100
AcDbVertex
100
AcDb2dVertex
 10
41.20644258952478
 20
219.3991834303933
 30
0.0
  0
VERTEX
  5
493
330
491
100
AcDbEntity
  8
BEMAßUNG
 62
     7
100
AcDbVertex
100
AcDb2dVertex
 10
42.16280109623013
 20
219.3991834303933
 30
0.0
  0
SEQEND
  5
494
330
491
100
AcDbEntity
  8
BEMAßUNG
  0
POLYLINE
  5
495
330
1F
100
AcDbEntity
  8
BEMAßUNG
 62
     7
100
AcDb2dPolyline
 66
     1
 10
0.0
 20
0.0
 30
0.0
  0
VERTEX
  5
496
330
495
100
AcDbEntity
  8
BEMAßUNG
 62
     7
100
AcDbVertex
100
AcDb2dVertex
 10
41.20644258952478
 20
219.4499985888007
 30
0.0
  0
VERTEX
  5
497
330
495
100
AcDbEntity
  8
BEMAßUNG
 62
     7
100
AcDbVertex
100
AcDb2dVertex
 10
42.54865179057812
 20
219.4499985888007
 30
0.0
  0
SEQEND
  5
498
330
495
100
AcDbEntity
  8
BEMAßUNG
  0
POLYLINE
  5
499
330
1F
100
AcDbEntity
  8
BEMAßUNG
 62
     7
100
AcDb2dPolyline
 66
     1
 10
0.0
 20
0.0
 30
0.0
  0
VERTEX
  5
49A
330
499
100
AcDbEntity
  8
BEMAßUNG
 62
     7
100
AcDbVertex
100
AcDb2dVertex
 10
41.20644258952478
 20
219.5008137472081
 30
0.0
  0
VERTEX
  5
49B
330
499
100
AcDbEntity
  8
BEMAßUNG
 62
     7
100
AcDbVertex
100
AcDb2dVertex
 10
42.9345024849261
 20
219.5008137472081
 30
0.0
  0
SEQEND
  5
49C
330
499
100
AcDbEntity
  8
BEMAßUNG
  0
POLYLINE
  5
49D
330
1F
100
AcDbEntity
  8
BEMAßUNG
 62
     7
100
AcDb2dPolyline
 66
     1
 10
0.0
 20
0.0
 30
0.0
  0
VERTEX
  5
49E
330
49D
100
AcDbEntity
  8
BEMAßUNG
 62
     7
100
AcDbVertex
100
AcDb2dVertex
 10
41.20644258952478
 20
219.5516289056156
 30
0.0
  0
VERTEX
  5
49F
330
49D
100
AcDbEntity
  8
BEMAßUNG
 62
     7
100
AcDbVertex
100
AcDb2dVertex
 10
43.32035317927408
 20
219.5516289056156
 30
0.0
  0
SEQEND
  5
4A0
330
49D
100
AcDbEntity
  8
BEMAßUNG
  0
POLYLINE
  5
4A1
330
1F
100
AcDbEntity
  8
BEMAßUNG
 62
     7
100
AcDb2dPolyline
 66
     1
 10
0.0
 20
0.0
 30
0.0
  0
VERTEX
  5
4A2
330
4A1
100
AcDbEntity
  8
BEMAßUNG
 62
     7
100
AcDbVertex
100
AcDb2dVertex
 10
41.20644258952478
 20
219.6022718092487
 30
0.0
  0
VERTEX
  5
4A3
330
4A1
100
AcDbEntity
  8
BEMAßUNG
 62
     7
100
AcDbVertex
100
AcDb2dVertex
 10
43.70620387362206
 20
219.6022718092487
 30
0.0
  0
SEQEND
  5
4A4
330
4A1
100
AcDbEntity
  8
BEMAßUNG
  0
POLYLINE
  5
4A5
330
1F
100
AcDbEntity
  8
BEMAßUNG
 62
     7
100
AcDb2dPolyline
 66
     1
 10
0.0
 20
0.0
 30
0.0
  0
VERTEX
  5
4A6
330
4A5
100
AcDbEntity
  8
BEMAßUNG
 62
     7
100
AcDbVertex
100
AcDb2dVertex
 10
60.70602754558738
 20
209.5971977557604
 30
0.0
  0
VERTEX
  5
4A7
330
4A5
100
AcDbEntity
  8
BEMAßUNG
 62
     7
100
AcDbVertex
100
AcDb2dVertex
 10
60.70602754558738
 20
221.6021497384363
 30
0.0
  0
SEQEND
  5
4A8
330
4A5
100
AcDbEntity
  8
BEMAßUNG
  0
POLYLINE
  5
4A9
330
1F
100
AcDbEntity
  8
BEMAßUNG
 62
     7
100
AcDb2dPolyline
 66
     1
 10
0.0
 20
0.0
 30
0.0
  0
VERTEX
  5
4AA
330
4A9
100
AcDbEntity
  8
BEMAßUNG
 62
     7
100
AcDbVertex
100
AcDb2dVertex
 10
50.70629339010121
 20
219.6022718092487
 30
0.0
  0
VERTEX
  5
4AB
330
4A9
100
AcDbEntity
  8
BEMAßUNG
 62
     7
100
AcDbVertex
100
AcDb2dVertex
 10
60.70602754558738
 20
219.6022718092487
 30
0.0
  0
SEQEND
  5
4AC
330
4A9
100
AcDbEntity
  8
BEMAßUNG
  0
POLYLINE
  5
4AD
330
1F
100
AcDbEntity
  8
BEMAßUNG
 62
     7
100
AcDb2dPolyline
 66
     1
 10
0.0
 20
0.0
 30
0.0
  0
VERTEX
  5
4AE
330
4AD
100
AcDbEntity
  8
BEMAßUNG
 62
     7
100
AcDbVertex
100
AcDb2dVertex
 10
50.70629339010121
 20
219.6022718092487
 30
0.0
  0
VERTEX
  5
4AF
330
4AD
100
AcDbEntity
  8
BEMAßUNG
 62
     7
100
AcDbVertex
100
AcDb2dVertex
 10
53.20605467419849
 20
219.2732651904074
 30
0.0
  0
VERTEX
  5
4B0
330
4AD
100
AcDbEntity
  8
BEMAßUNG
 62
     7
100
AcDbVertex
100
AcDb2dVertex
 10
53.20605467419849
 20
219.9314506828644
 30
0.0
  0
VERTEX
  5
4B1
330
4AD
100
AcDbEntity
  8
BEMAßUNG
 62
     7
100
AcDbVertex
100
AcDb2dVertex
 10
50.70629339010121
 20
219.6022718092487
 30
0.0
  0
SEQEND
  5
4B2
330
4AD
100
AcDbEntity
  8
BEMAßUNG
  0
POLYLINE
  5
4B3
330
1F
100
AcDbEntity
  8
BEMAßUNG
 62
     7
100
AcDb2dPolyline
 66
     1
 10
0.0
 20
0.0
 30
0.0
  0
VERTEX
  5
4B4
330
4B3
100
AcDbEntity
  8
BEMAßUNG
 62
     7
100
AcDbVertex
100
AcDb2dVertex
 10
53.20605467419849
 20
219.2975531135784
 30
0.0
  0
VERTEX
  5
4B5
330
4B3
100
AcDbEntity
  8
BEMAßUNG
 62
     7
100
AcDbVertex
100
AcDb2dVertex
 10
53.02105304664057
 20
219.2975531135784
 30
0.0
  0
SEQEND
  5
4B6
330
4B3
100
AcDbEntity
  8
BEMAßUNG
  0
POLYLINE
  5
4B7
330
1F
100
AcDbEntity
  8
BEMAßUNG
 62
     7
100
AcDb2dPolyline
 66
     1
 10
0.0
 20
0.0
 30
0.0
  0
VERTEX
  5
4B8
330
4B7
100
AcDbEntity
  8
BEMAßUNG
 62
     7
100
AcDbVertex
100
AcDb2dVertex
 10
53.20605467419849
 20
219.2975531135784
 30
0.0
  0
VERTEX
  5
4B9
330
4B7
100
AcDbEntity
  8
BEMAßUNG
 62
     7
100
AcDbVertex
100
AcDb2dVertex
 10
53.02105304664057
 20
219.2975531135784
 30
0.0
  0
SEQEND
  5
4BA
330
4B7
100
AcDbEntity
  8
BEMAßUNG
  0
POLYLINE
  5
4BB
330
1F
100
AcDbEntity
  8
BEMAßUNG
 62
     7
100
AcDb2dPolyline
 66
     1
 10
0.0
 20
0.0
 30
0.0
  0
VERTEX
  5
4BC
330
4BB
100
AcDbEntity
  8
BEMAßUNG
 62
     7
100
AcDbVertex
100
AcDb2dVertex
 10
53.20605467419849
 20
219.3483682719858
 30
0.0
  0
VERTEX
  5
4BD
330
4BB
100
AcDbEntity
  8
BEMAßUNG
 62
     7
100
AcDbVertex
100
AcDb2dVertex
 10
52.63554686184111
 20
219.3483682719858
 30
0.0
  0
SEQEND
  5
4BE
330
4BB
100
AcDbEntity
  8
BEMAßUNG
  0
POLYLINE
  5
4BF
330
1F
100
AcDbEntity
  8
BEMAßUNG
 62
     7
100
AcDb2dPolyline
 66
     1
 10
0.0
 20
0.0
 30
0.0
  0
VERTEX
  5
4C0
330
4BF
100
AcDbEntity
  8
BEMAßUNG
 62
     7
100
AcDbVertex
100
AcDb2dVertex
 10
53.20605467419849
 20
219.3991834303933
 30
0.0
  0
VERTEX
  5
4C1
330
4BF
100
AcDbEntity
  8
BEMAßUNG
 62
     7
100
AcDbVertex
100
AcDb2dVertex
 10
52.24969616749313
 20
219.3991834303933
 30
0.0
  0
SEQEND
  5
4C2
330
4BF
100
AcDbEntity
  8
BEMAßUNG
  0
POLYLINE
  5
4C3
330
1F
100
AcDbEntity
  8
BEMAßUNG
 62
     7
100
AcDb2dPolyline
 66
     1
 10
0.0
 20
0.0
 30
0.0
  0
VERTEX
  5
4C4
330
4C3
100
AcDbEntity
  8
BEMAßUNG
 62
     7
100
AcDbVertex
100
AcDb2dVertex
 10
53.20605467419849
 20
219.4499985888007
 30
0.0
  0
VERTEX
  5
4C5
330
4C3
100
AcDbEntity
  8
BEMAßUNG
 62
     7
100
AcDbVertex
100
AcDb2dVertex
 10
51.86384547314515
 20
219.4499985888007
 30
0.0
  0
SEQEND
  5
4C6
330
4C3
100
AcDbEntity
  8
BEMAßUNG
  0
POLYLINE
  5
4C7
330
1F
100
AcDbEntity
  8
BEMAßUNG
 62
     7
100
AcDb2dPolyline
 66
     1
 10
0.0
 20
0.0
 30
0.0
  0
VERTEX
  5
4C8
330
4C7
100
AcDbEntity
  8
BEMAßUNG
 62
     7
100
AcDbVertex
100
AcDb2dVertex
 10
53.20605467419849
 20
219.5008137472081
 30
0.0
  0
VERTEX
  5
4C9
330
4C7
100
AcDbEntity
  8
BEMAßUNG
 62
     7
100
AcDbVertex
100
AcDb2dVertex
 10
51.47765026924865
 20
219.5008137472081
 30
0.0
  0
SEQEND
  5
4CA
330
4C7
100
AcDbEntity
  8
BEMAßUNG
  0
POLYLINE
  5
4CB
330
1F
100
AcDbEntity
  8
BEMAßUNG
 62
     7
100
AcDb2dPolyline
 66
     1
 10
0.0
 20
0.0
 30
0.0
  0
VERTEX
  5
4CC
330
4CB
100
AcDbEntity
  8
BEMAßUNG
 62
     7
100
AcDbVertex
100
AcDb2dVertex
 10
53.20605467419849
 20
219.5516289056156
 30
0.0
  0
VERTEX
  5
4CD
330
4CB
100
AcDbEntity
  8
BEMAßUNG
 62
     7
100
AcDbVertex
100
AcDb2dVertex
 10
51.09214408444919
 20
219.5516289056156
 30
0.0
  0
SEQEND
  5
4CE
330
4CB
100
AcDbEntity
  8
BEMAßUNG
  0
POLYLINE
  5
4CF
330
1F
100
AcDbEntity
  8
BEMAßUNG
 62
     7
100
AcDb2dPolyline
 66
     1
 10
0.0
 20
0.0
 30
0.0
  0
VERTEX
  5
4D0
330
4CF
100
AcDbEntity
  8
BEMAßUNG
 62
     7
100
AcDbVertex
100
AcDb2dVertex
 10
53.20605467419849
 20
219.6022718092487
 30
0.0
  0
VERTEX
  5
4D1
330
4CF
100
AcDbEntity
  8
BEMAßUNG
 62
     7
100
AcDbVertex
100
AcDb2dVertex
 10
50.70629339010121
 20
219.6022718092487
 30
0.0
  0
SEQEND
  5
4D2
330
4CF
100
AcDbEntity
  8
BEMAßUNG
  0
POLYLINE
  5
4D3
330
1F
100
AcDbEntity
  8
BEMAßUNG
 62
     7
100
AcDb2dPolyline
 66
     1
 10
0.0
 20
0.0
 30
0.0
  0
VERTEX
  5
4D4
330
4D3
100
AcDbEntity
  8
BEMAßUNG
 62
     7
100
AcDbVertex
100
AcDb2dVertex
 10
53.20605467419849
 20
219.9068182501448
 30
0.0
  0
VERTEX
  5
4D5
330
4D3
100
AcDbEntity
  8
BEMAßUNG
 62
     7
100
AcDbVertex
100
AcDb2dVertex
 10
53.02105304664057
 20
219.9068182501448
 30
0.0
  0
SEQEND
  5
4D6
330
4D3
100
AcDbEntity
  8
BEMAßUNG
  0
POLYLINE
  5
4D7
330
1F
100
AcDbEntity
  8
BEMAßUNG
 62
     7
100
AcDb2dPolyline
 66
     1
 10
0.0
 20
0.0
 30
0.0
  0
VERTEX
  5
4D8
330
4D7
100
AcDbEntity
  8
BEMAßUNG
 62
     7
100
AcDbVertex
100
AcDb2dVertex
 10
53.20605467419849
 20
219.9068182501448
 30
0.0
  0
VERTEX
  5
4D9
330
4D7
100
AcDbEntity
  8
BEMAßUNG
 62
     7
100
AcDbVertex
100
AcDb2dVertex
 10
53.02105304664057
 20
219.9068182501448
 30
0.0
  0
SEQEND
  5
4DA
330
4D7
100
AcDbEntity
  8
BEMAßUNG
  0
POLYLINE
  5
4DB
330
1F
100
AcDbEntity
  8
BEMAßUNG
 62
     7
100
AcDb2dPolyline
 66
     1
 10
0.0
 20
0.0
 30
0.0
  0
VERTEX
  5
4DC
330
4DB
100
AcDbEntity
  8
BEMAßUNG
 62
     7
100
AcDbVertex
100
AcDb2dVertex
 10
53.20605467419849
 20
219.8560030917374
 30
0.0
  0
VERTEX
  5
4DD
330
4DB
100
AcDbEntity
  8
BEMAßUNG
 62
     7
100
AcDbVertex
100
AcDb2dVertex
 10
52.63554686184111
 20
219.8560030917374
 30
0.0
  0
SEQEND
  5
4DE
330
4DB
100
AcDbEntity
  8
BEMAßUNG
  0
POLYLINE
  5
4DF
330
1F
100
AcDbEntity
  8
BEMAßUNG
 62
     7
100
AcDb2dPolyline
 66
     1
 10
0.0
 20
0.0
 30
0.0
  0
VERTEX
  5
4E0
330
4DF
100
AcDbEntity
  8
BEMAßUNG
 62
     7
100
AcDbVertex
100
AcDb2dVertex
 10
53.20605467419849
 20
219.80518793333
 30
0.0
  0
VERTEX
  5
4E1
330
4DF
100
AcDbEntity
  8
BEMAßUNG
 62
     7
100
AcDbVertex
100
AcDb2dVertex
 10
52.24969616749313
 20
219.80518793333
 30
0.0
  0
SEQEND
  5
4E2
330
4DF
100
AcDbEntity
  8
BEMAßUNG
  0
POLYLINE
  5
4E3
330
1F
100
AcDbEntity
  8
BEMAßUNG
 62
     7
100
AcDb2dPolyline
 66
     1
 10
0.0
 20
0.0
 30
0.0
  0
VERTEX
  5
4E4
330
4E3
100
AcDbEntity
  8
BEMAßUNG
 62
     7
100
AcDbVertex
100
AcDb2dVertex
 10
53.20605467419849
 20
219.7543727749225
 30
0.0
  0
VERTEX
  5
4E5
330
4E3
100
AcDbEntity
  8
BEMAßUNG
 62
     7
100
AcDbVertex
100
AcDb2dVertex
 10
51.86384547314515
 20
219.7543727749225
 30
0.0
  0
SEQEND
  5
4E6
330
4E3
100
AcDbEntity
  8
BEMAßUNG
  0
POLYLINE
  5
4E7
330
1F
100
AcDbEntity
  8
BEMAßUNG
 62
     7
100
AcDb2dPolyline
 66
     1
 10
0.0
 20
0.0
 30
0.0
  0
VERTEX
  5
4E8
330
4E7
100
AcDbEntity
  8
BEMAßUNG
 62
     7
100
AcDbVertex
100
AcDb2dVertex
 10
53.20605467419849
 20
219.7039021260636
 30
0.0
  0
VERTEX
  5
4E9
330
4E7
100
AcDbEntity
  8
BEMAßUNG
 62
     7
100
AcDbVertex
100
AcDb2dVertex
 10
51.47765026924865
 20
219.7039021260636
 30
0.0
  0
SEQEND
  5
4EA
330
4E7
100
AcDbEntity
  8
BEMAßUNG
  0
POLYLINE
  5
4EB
330
1F
100
AcDbEntity
  8
BEMAßUNG
 62
     7
100
AcDb2dPolyline
 66
     1
 10
0.0
 20
0.0
 30
0.0
  0
VERTEX
  5
4EC
330
4EB
100
AcDbEntity
  8
BEMAßUNG
 62
     7
100
AcDbVertex
100
AcDb2dVertex
 10
53.20605467419849
 20
219.6532592224304
 30
0.0
  0
VERTEX
  5
4ED
330
4EB
100
AcDbEntity
  8
BEMAßUNG
 62
     7
100
AcDbVertex
100
AcDb2dVertex
 10
51.09214408444919
 20
219.6532592224304
 30
0.0
  0
SEQEND
  5
4EE
330
4EB
100
AcDbEntity
  8
BEMAßUNG
  0
POLYLINE
  5
4EF
330
1F
100
AcDbEntity
  8
BEMAßUNG
 62
     7
100
AcDb2dPolyline
 66
     1
 10
0.0
 20
0.0
 30
0.0
  0
VERTEX
  5
4F0
330
4EF
100
AcDbEntity
  8
BEMAßUNG
 62
     7
100
AcDbVertex
100
AcDb2dVertex
 10
53.20605467419849
 20
219.6022718092487
 30
0.0
  0
VERTEX
  5
4F1
330
4EF
100
AcDbEntity
  8
BEMAßUNG
 62
     7
100
AcDbVertex
100
AcDb2dVertex
 10
50.70629339010121
 20
219.6022718092487
 30
0.0
  0
SEQEND
  5
4F2
330
4EF
100
AcDbEntity
  8
BEMAßUNG
  0
POLYLINE
  5
4F3
330
1F
100
AcDbEntity
  8
BEMAßUNG
 62
     7
100
AcDb2dPolyline
 66
     1
 10
0.0
 20
0.0
 30
0.0
  0
VERTEX
  5
4F4
330
4F3
100
AcDbEntity
  8
BEMAßUNG
 62
     7
100
AcDbVertex
100
AcDb2dVertex
 10
60.70602754558738
 20
219.6022718092487
 30
0.0
  0
VERTEX
  5
4F5
330
4F3
100
AcDbEntity
  8
BEMAßUNG
 62
     7
100
AcDbVertex
100
AcDb2dVertex
 10
58.2062662614901
 20
219.9314506828644
 30
0.0
  0
VERTEX
  5
4F6
330
4F3
100
AcDbEntity
  8
BEMAßUNG
 62
     7
100
AcDbVertex
100
AcDb2dVertex
 10
58.2062662614901
 20
219.2732651904074
 30
0.0
  0
VERTEX
  5
4F7
330
4F3
100
AcDbEntity
  8
BEMAßUNG
 62
     7
100
AcDbVertex
100
AcDb2dVertex
 10
60.70602754558738
 20
219.6022718092487
 30
0.0
  0
SEQEND
  5
4F8
330
4F3
100
AcDbEntity
  8
BEMAßUNG
  0
POLYLINE
  5
4F9
330
1F
100
AcDbEntity
  8
BEMAßUNG
 62
     7
100
AcDb2dPolyline
 66
     1
 10
0.0
 20
0.0
 30
0.0
  0
VERTEX
  5
4FA
330
4F9
100
AcDbEntity
  8
BEMAßUNG
 62
     7
100
AcDbVertex
100
AcDb2dVertex
 10
58.2062662614901
 20
219.9068182501448
 30
0.0
  0
VERTEX
  5
4FB
330
4F9
100
AcDbEntity
  8
BEMAßUNG
 62
     7
100
AcDbVertex
100
AcDb2dVertex
 10
58.39126788904802
 20
219.9068182501448
 30
0.0
  0
SEQEND
  5
4FC
330
4F9
100
AcDbEntity
  8
BEMAßUNG
  0
POLYLINE
  5
4FD
330
1F
100
AcDbEntity
  8
BEMAßUNG
 62
     7
100
AcDb2dPolyline
 66
     1
 10
0.0
 20
0.0
 30
0.0
  0
VERTEX
  5
4FE
330
4FD
100
AcDbEntity
  8
BEMAßUNG
 62
     7
100
AcDbVertex
100
AcDb2dVertex
 10
58.2062662614901
 20
219.9068182501448
 30
0.0
  0
VERTEX
  5
4FF
330
4FD
100
AcDbEntity
  8
BEMAßUNG
 62
     7
100
AcDbVertex
100
AcDb2dVertex
 10
58.39126788904802
 20
219.9068182501448
 30
0.0
  0
SEQEND
  5
500
330
4FD
100
AcDbEntity
  8
BEMAßUNG
  0
POLYLINE
  5
501
330
1F
100
AcDbEntity
  8
BEMAßUNG
 62
     7
100
AcDb2dPolyline
 66
     1
 10
0.0
 20
0.0
 30
0.0
  0
VERTEX
  5
502
330
501
100
AcDbEntity
  8
BEMAßUNG
 62
     7
100
AcDbVertex
100
AcDb2dVertex
 10
58.2062662614901
 20
219.8560030917374
 30
0.0
  0
VERTEX
  5
503
330
501
100
AcDbEntity
  8
BEMAßUNG
 62
     7
100
AcDbVertex
100
AcDb2dVertex
 10
58.77677407384748
 20
219.8560030917374
 30
0.0
  0
SEQEND
  5
504
330
501
100
AcDbEntity
  8
BEMAßUNG
  0
POLYLINE
  5
505
330
1F
100
AcDbEntity
  8
BEMAßUNG
 62
     7
100
AcDb2dPolyline
 66
     1
 10
0.0
 20
0.0
 30
0.0
  0
VERTEX
  5
506
330
505
100
AcDbEntity
  8
BEMAßUNG
 62
     7
100
AcDbVertex
100
AcDb2dVertex
 10
58.2062662614901
 20
219.80518793333
 30
0.0
  0
VERTEX
  5
507
330
505
100
AcDbEntity
  8
BEMAßUNG
 62
     7
100
AcDbVertex
100
AcDb2dVertex
 10
59.16262476819546
 20
219.80518793333
 30
0.0
  0
SEQEND
  5
508
330
505
100
AcDbEntity
  8
BEMAßUNG
  0
POLYLINE
  5
509
330
1F
100
AcDbEntity
  8
BEMAßUNG
 62
     7
100
AcDb2dPolyline
 66
     1
 10
0.0
 20
0.0
 30
0.0
  0
VERTEX
  5
50A
330
509
100
AcDbEntity
  8
BEMAßUNG
 62
     7
100
AcDbVertex
100
AcDb2dVertex
 10
58.2062662614901
 20
219.7543727749225
 30
0.0
  0
VERTEX
  5
50B
330
509
100
AcDbEntity
  8
BEMAßUNG
 62
     7
100
AcDbVertex
100
AcDb2dVertex
 10
59.54881997209196
 20
219.7543727749225
 30
0.0
  0
SEQEND
  5
50C
330
509
100
AcDbEntity
  8
BEMAßUNG
  0
POLYLINE
  5
50D
330
1F
100
AcDbEntity
  8
BEMAßUNG
 62
     7
100
AcDb2dPolyline
 66
     1
 10
0.0
 20
0.0
 30
0.0
  0
VERTEX
  5
50E
330
50D
100
AcDbEntity
  8
BEMAßUNG
 62
     7
100
AcDbVertex
100
AcDb2dVertex
 10
58.2062662614901
 20
219.7039021260636
 30
0.0
  0
VERTEX
  5
50F
330
50D
100
AcDbEntity
  8
BEMAßUNG
 62
     7
100
AcDbVertex
100
AcDb2dVertex
 10
59.93467066643995
 20
219.7039021260636
 30
0.0
  0
SEQEND
  5
510
330
50D
100
AcDbEntity
  8
BEMAßUNG
  0
POLYLINE
  5
511
330
1F
100
AcDbEntity
  8
BEMAßUNG
 62
     7
100
AcDb2dPolyline
 66
     1
 10
0.0
 20
0.0
 30
0.0
  0
VERTEX
  5
512
330
511
100
AcDbEntity
  8
BEMAßUNG
 62
     7
100
AcDbVertex
100
AcDb2dVertex
 10
58.2062662614901
 20
219.6532592224304
 30
0.0
  0
VERTEX
  5
513
330
511
100
AcDbEntity
  8
BEMAßUNG
 62
     7
100
AcDbVertex
100
AcDb2dVertex
 10
60.3201768512394
 20
219.6532592224304
 30
0.0
  0
SEQEND
  5
514
330
511
100
AcDbEntity
  8
BEMAßUNG
  0
POLYLINE
  5
515
330
1F
100
AcDbEntity
  8
BEMAßUNG
 62
     7
100
AcDb2dPolyline
 66
     1
 10
0.0
 20
0.0
 30
0.0
  0
VERTEX
  5
516
330
515
100
AcDbEntity
  8
BEMAßUNG
 62
     7
100
AcDbVertex
100
AcDb2dVertex
 10
58.2062662614901
 20
219.6022718092487
 30
0.0
  0
VERTEX
  5
517
330
515
100
AcDbEntity
  8
BEMAßUNG
 62
     7
100
AcDbVertex
100
AcDb2dVertex
 10
60.70602754558738
 20
219.6022718092487
 30
0.0
  0
SEQEND
  5
518
330
515
100
AcDbEntity
  8
BEMAßUNG
  0
POLYLINE
  5
519
330
1F
100
AcDbEntity
  8
BEMAßUNG
 62
     7
100
AcDb2dPolyline
 66
     1
 10
0.0
 20
0.0
 30
0.0
  0
VERTEX
  5
51A
330
519
100
AcDbEntity
  8
BEMAßUNG
 62
     7
100
AcDbVertex
100
AcDb2dVertex
 10
58.2062662614901
 20
219.2975531135784
 30
0.0
  0
VERTEX
  5
51B
330
519
100
AcDbEntity
  8
BEMAßUNG
 62
     7
100
AcDbVertex
100
AcDb2dVertex
 10
58.39126788904802
 20
219.2975531135784
 30
0.0
  0
SEQEND
  5
51C
330
519
100
AcDbEntity
  8
BEMAßUNG
  0
POLYLINE
  5
51D
330
1F
100
AcDbEntity
  8
BEMAßUNG
 62
     7
100
AcDb2dPolyline
 66
     1
 10
0.0
 20
0.0
 30
0.0
  0
VERTEX
  5
51E
330
51D
100
AcDbEntity
  8
BEMAßUNG
 62
     7
100
AcDbVertex
100
AcDb2dVertex
 10
58.2062662614901
 20
219.2975531135784
 30
0.0
  0
VERTEX
  5
51F
330
51D
100
AcDbEntity
  8
BEMAßUNG
 62
     7
100
AcDbVertex
100
AcDb2dVertex
 10
58.39126788904802
 20
219.2975531135784
 30
0.0
  0
SEQEND
  5
520
330
51D
100
AcDbEntity
  8
BEMAßUNG
  0
POLYLINE
  5
521
330
1F
100
AcDbEntity
  8
BEMAßUNG
 62
     7
100
AcDb2dPolyline
 66
     1
 10
0.0
 20
0.0
 30
0.0
  0
VERTEX
  5
522
330
521
100
AcDbEntity
  8
BEMAßUNG
 62
     7
100
AcDbVertex
100
AcDb2dVertex
 10
58.2062662614901
 20
219.3483682719858
 30
0.0
  0
VERTEX
  5
523
330
521
100
AcDbEntity
  8
BEMAßUNG
 62
     7
100
AcDbVertex
100
AcDb2dVertex
 10
58.77677407384748
 20
219.3483682719858
 30
0.0
  0
SEQEND
  5
524
330
521
100
AcDbEntity
  8
BEMAßUNG
  0
POLYLINE
  5
525
330
1F
100
AcDbEntity
  8
BEMAßUNG
 62
     7
100
AcDb2dPolyline
 66
     1
 10
0.0
 20
0.0
 30
0.0
  0
VERTEX
  5
526
330
525
100
AcDbEntity
  8
BEMAßUNG
 62
     7
100
AcDbVertex
100
AcDb2dVertex
 10
58.2062662614901
 20
219.3991834303933
 30
0.0
  0
VERTEX
  5
527
330
525
100
AcDbEntity
  8
BEMAßUNG
 62
     7
100
AcDbVertex
100
AcDb2dVertex
 10
59.16262476819546
 20
219.3991834303933
 30
0.0
  0
SEQEND
  5
528
330
525
100
AcDbEntity
  8
BEMAßUNG
  0
POLYLINE
  5
529
330
1F
100
AcDbEntity
  8
BEMAßUNG
 62
     7
100
AcDb2dPolyline
 66
     1
 10
0.0
 20
0.0
 30
0.0
  0
VERTEX
  5
52A
330
529
100
AcDbEntity
  8
BEMAßUNG
 62
     7
100
AcDbVertex
100
AcDb2dVertex
 10
58.2062662614901
 20
219.4499985888007
 30
0.0
  0
VERTEX
  5
52B
330
529
100
AcDbEntity
  8
BEMAßUNG
 62
     7
100
AcDbVertex
100
AcDb2dVertex
 10
59.54881997209196
 20
219.4499985888007
 30
0.0
  0
SEQEND
  5
52C
330
529
100
AcDbEntity
  8
BEMAßUNG
  0
POLYLINE
  5
52D
330
1F
100
AcDbEntity
  8
BEMAßUNG
 62
     7
100
AcDb2dPolyline
 66
     1
 10
0.0
 20
0.0
 30
0.0
  0
VERTEX
  5
52E
330
52D
100
AcDbEntity
  8
BEMAßUNG
 62
     7
100
AcDbVertex
100
AcDb2dVertex
 10
58.2062662614901
 20
219.5008137472081
 30
0.0
  0
VERTEX
  5
52F
330
52D
100
AcDbEntity
  8
BEMAßUNG
 62
     7
100
AcDbVertex
100
AcDb2dVertex
 10
59.93467066643995
 20
219.5008137472081
 30
0.0
  0
SEQEND
  5
530
330
52D
100
AcDbEntity
  8
BEMAßUNG
  0
POLYLINE
  5
531
330
1F
100
AcDbEntity
  8
BEMAßUNG
 62
     7
100
AcDb2dPolyline
 66
     1
 10
0.0
 20
0.0
 30
0.0
  0
VERTEX
  5
532
330
531
100
AcDbEntity
  8
BEMAßUNG
 62
     7
100
AcDbVertex
100
AcDb2dVertex
 10
58.2062662614901
 20
219.5516289056156
 30
0.0
  0
VERTEX
  5
533
330
531
100
AcDbEntity
  8
BEMAßUNG
 62
     7
100
AcDbVertex
100
AcDb2dVertex
 10
60.3201768512394
 20
219.5516289056156
 30
0.0
  0
SEQEND
  5
534
330
531
100
AcDbEntity
  8
BEMAßUNG
  0
POLYLINE
  5
535
330
1F
100
AcDbEntity
  8
BEMAßUNG
 62
     7
100
AcDb2dPolyline
 66
     1
 10
0.0
 20
0.0
 30
0.0
  0
VERTEX
  5
536
330
535
100
AcDbEntity
  8
BEMAßUNG
 62
     7
100
AcDbVertex
100
AcDb2dVertex
 10
58.2062662614901
 20
219.6022718092487
 30
0.0
  0
VERTEX
  5
537
330
535
100
AcDbEntity
  8
BEMAßUNG
 62
     7
100
AcDbVertex
100
AcDb2dVertex
 10
60.70602754558738
 20
219.6022718092487
 30
0.0
  0
SEQEND
  5
538
330
535
100
AcDbEntity
  8
BEMAßUNG
  0
MTEXT
  5
53A
330
1F
100
AcDbEntity
  8
TEXT
 62
     7
100
AcDbMText
 10
87.85114065729068
 20
191.6933810284656
 30
0.0
 40
2.878666665947001
 41
0.0
 71
     7
 72
     1
  1
\fINDEX Univers 45 Light|b0|i0|c0|p34;\W1; 
  0
MTEXT
  5
53B
330
1F
100
AcDbEntity
  8
TEXT
 62
     7
100
AcDbMText
 10
53.36332328310014
 20
185.3430365205045
 30
0.0
 40
2.878666665947001
 41
0.0
 71
     7
 72
     1
  1
\fINDEX Univers 45 Light|b0|i0|c0|p34;\W1;24
  0
MTEXT
  5
53C
330
1F
100
AcDbEntity
  8
TEXT
 62
     7
100
AcDbMText
 10
76.91330700117098
 20
210.3327256418613
 30
0.0
 40
2.878666665947001
 41
0.0
 71
     7
 72
     1
  1
\fINDEX Univers 45 Light|b0|i0|c0|p34;\W1;ø15h6
 11
-4.371139000186241E-8
 21
0.999999999999999
 31
0.0
  0
MTEXT
  5
53D
330
1F
100
AcDbEntity
  8
TEXT
 62
     7
100
AcDbMText
 10
33.13940700126376
 20
200.3359198175376
 30
0.0
 40
2.878666665947001
 41
0.0
 71
     7
 72
     1
  1
\fINDEX Univers 45 Light|b0|i0|c0|p34;\W1;D
 11
-4.371139000186241E-8
 21
0.999999999999999
 31
0.0
  0
MTEXT
  5
53E
330
1F
100
AcDbEntity
  8
TEXT
 62
     7
100
AcDbMText
 10
37.76754827614839
 20
220.3520968416134
 30
0.0
 40
2.878666665947001
 41
0.0
 71
     7
 72
     1
  1
\fINDEX Univers 45 Light|b0|i0|c0|p34;\W1;7
  0
MTEXT
  5
53F
330
1F
100
AcDbEntity
  8
TEXT
 62
     7
100
AcDbMText
 10
53.24722356524722
 20
220.2344468307921
 30
0.0
 40
2.878666665947001
 41
0.0
 71
     7
 72
     1
  1
\fINDEX Univers 45 Light|b0|i0|c0|p34;\W1;10
  0
ENDSEC
  0
SECTION
  2
OBJECTS
  0
DICTIONARY
  5
C
330
0
100
AcDbDictionary
  3
ACAD_GROUP
350
D
  3
ACAD_LAYOUT
350
1A
  3
ACAD_MLINESTYLE
350
17
  3
ACAD_PLOTSETTINGS
350
19
  3
ACAD_TABLESTYLE
350
560
  3
ACAD_VISUALSTYLE
350
2A
  3
ACDBHEADERROUNDTRIPXREC
350
540
  0
DICTIONARY
  5
D
102
{ACAD_REACTORS
330
C
102
}
330
C
100
AcDbDictionary
  0
DICTIONARY
  5
1A
102
{ACAD_REACTORS
330
C
102
}
330
C
100
AcDbDictionary
  0
DICTIONARY
  5
17
102
{ACAD_REACTORS
330
C
102
}
330
C
100
AcDbDictionary
  3
STANDARD
350
18
  0
DICTIONARY
  5
19
102
{ACAD_REACTORS
330
C
102
}
330
C
100
AcDbDictionary
  0
DICTIONARY
  5
560
102
{ACAD_REACTORS
330
C
102
}
330
C
100
AcDbDictionary
  0
DICTIONARY
  5
2A
102
{ACAD_REACTORS
330
C
102
}
330
C
100
AcDbDictionary
  3
2DWIREFRAME
350
2F
  3
3D_HIDDEN
350
31
  3
3DWIREFRAME
350
30
  3
BASIC
350
32
  3
BRIGHTEN
350
36
  3
COLORCHANGE
350
3A
  3
CONCEPTUAL
350
34
  3
DIM
350
35
  3
FACEPATTERN
350
39
  3
FLAT
350
2B
  3
FLATWITHEDGES
350
2C
  3
GOURAUD
350
2D
  3
GOURAUDWITHEDGES
350
2E
  3
LINEPATTERN
350
38
  3
REALISTIC
350
33
  3
THICKEN
350
37
  0
DICTIONARY
  5
540
102
{ACAD_REACTORS
330
C
102
}
330
C
100
AcDbDictionary
  3
CEPSNTYPE
350
549
  3
DIMSTYLEDATA
350
55F
  3
FINGERPRINTGUID
350
54A
  3
HYPERLINKBASE
350
543
  3
INSUNITS
350
548
  3
LAYOUTDICT
350
545
  3
LWETCUNION
350
547
  3
PLOTSETDICT
350
546
  3
PSVPSCALE
350
54C
  3
PUCSBASE
350
54F
  3
PUCSORGBACK
350
555
  3
PUCSORGBOTTOM
350
551
  3
PUCSORGFRONT
350
554
  3
PUCSORGLEFT
350
552
  3
PUCSORGRIGHT
350
553
  3
PUCSORGTOP
350
550
  3
PUCSORTHOREF
350
54D
  3
PUCSORTHOVIEW
350
54E
  3
STYLESHEET
350
544
  3
TSTACKALIGN
350
541
  3
TSTACKSIZE
350
542
  3
UCSBASE
350
558
  3
UCSORGBACK
350
55E
  3
UCSORGBOTTOM
350
55A
  3
UCSORGFRONT
350
55D
  3
UCSORGLEFT
350
55B
  3
UCSORGRIGHT
350
55C
  3
UCSORGTOP
350
559
  3
UCSORTHOREF
350
556
  3
UCSORTHOVIEW
350
557
  3
VERSIONGUID
350
54B
  0
MLINESTYLE
  5
18
102
{ACAD_REACTORS
330
17
102
}
330
17
100
AcDbMlineStyle
  2
Standard
 70
     0
  3

 62
   256
 51
90.0
 52
90.0
 71
     2
 49
0.5
 62
   256
  6
BYLAYER
 49
-0.5
 62
   256
  6
BYLAYER
  0
VISUALSTYLE
  5
2F
102
{ACAD_REACTORS
330
2A
102
}
330
2A
100
AcDbVisualStyle
  2
2dWireframe
 70
     4
 71
     0
 72
     2
 73
     0
 90
        0
 40
-0.6
 41
-30.0
 62
     5
 63
     7
 74
     1
 91
        4
 64
     7
 65
   257
 75
     1
175
     1
 42
1.0
 92
        0
 66
   257
 43
1.0
 76
     1
 77
     6
 78
     2
 67
     7
 79
     5
170
     0
171
     0
290
     0
174
     0
 93
        1
 44
0.0
173
     0
291
     0
 45
0.0
1001
ACAD
1000
AcDbSavedByObjectVersion
1070
     0
  0
VISUALSTYLE
  5
31
102
{ACAD_REACTORS
330
2A
102
}
330
2A
100
AcDbVisualStyle
  2
3D Hidden
 70
     6
 71
     1
 72
     2
 73
     2
 90
        0
 40
-0.6
 41
-30.0
 62
     5
 63
     7
 74
     2
 91
        2
 64
     7
 65
   257
 75
     2
175
     1
 42
40.0
 92
        0
 66
   257
 43
1.0
 76
     1
 77
     6
 78
     2
 67
     7
 79
     3
170
     0
171
     0
290
     0
174
     0
 93
        1
 44
0.0
173
     0
291
     0
 45
0.0
1001
ACAD
1000
AcDbSavedByObjectVersion
1070
     0
  0
VISUALSTYLE
  5
30
102
{ACAD_REACTORS
330
2A
102
}
330
2A
100
AcDbVisualStyle
  2
3dWireframe
 70
     5
 71
     0
 72
     2
 73
     0
 90
        0
 40
-0.6
 41
-30.0
 62
     5
 63
     7
 74
     1
 91
        4
 64
     7
 65
   257
 75
     1
175
     1
 42
1.0
 92
        0
 66
   257
 43
1.0
 76
     1
 77
     6
 78
     2
 67
     7
 79
     5
170
     0
171
     0
290
     0
174
     0
 93
        1
 44
0.0
173
     0
291
     0
 45
0.0
1001
ACAD
1000
AcDbSavedByObjectVersion
1070
     0
  0
VISUALSTYLE
  5
32
102
{ACAD_REACTORS
330
2A
102
}
330
2A
100
AcDbVisualStyle
  2
Basic
 70
     7
 71
     1
 72
     0
 73
     1
 90
        0
 40
-0.6
 41
-30.0
 62
     5
 63
     7
 74
     0
 91
        4
 64
     7
 65
   257
 75
     1
175
     1
 42
1.0
 92
        8
 66
     7
 43
1.0
 76
     1
 77
     6
 78
     2
 67
     7
 79
     5
170
     0
171
     0
290
     0
174
     0
 93
        1
 44
0.0
173
     0
291
     1
 45
0.0
1001
ACAD
1000
AcDbSavedByObjectVersion
1070
     0
  0
VISUALSTYLE
  5
36
102
{ACAD_REACTORS
330
2A
102
}
330
2A
100
AcDbVisualStyle
  2
Brighten
 70
    12
 71
     2
 72
     2
 73
     0
 90
        0
 40
-0.6
 41
-30.0
 62
     5
 63
     7
 74
     1
 91
        4
 64
     7
 65
   257
 75
     1
175
     1
 42
1.0
 92
        8
 66
     7
 43
1.0
 76
     1
 77
     6
 78
     2
 67
     7
 79
     5
170
     0
171
     0
290
     0
174
     0
 93
        1
 44
50.0
173
     0
291
     1
 45
0.0
1001
ACAD
1000
AcDbSavedByObjectVersion
1070
     0
  0
VISUALSTYLE
  5
3A
102
{ACAD_REACTORS
330
2A
102
}
330
2A
100
AcDbVisualStyle
  2
ColorChange
 70
    16
 71
     2
 72
     2
 73
     3
 90
        0
 40
-0.6
 41
-30.0
 62
     5
 63
     8
 74
     1
 91
        4
 64
     7
 65
   257
 75
     1
175
     1
 42
1.0
 92
        8
 66
     8
 43
1.0
 76
     1
 77
     6
 78
     2
 67
     7
 79
     5
170
     0
171
     0
290
     0
174
     0
 93
        1
 44
0.0
173
     0
291
     1
 45
0.0
1001
ACAD
1000
AcDbSavedByObjectVersion
1070
     0
  0
VISUALSTYLE
  5
34
102
{ACAD_REACTORS
330
2A
102
}
330
2A
100
AcDbVisualStyle
  2
Conceptual
 70
     9
 71
     3
 72
     2
 73
     0
 90
        0
 40
-0.6
 41
-30.0
 62
     5
 63
     7
 74
     2
 91
        2
 64
     7
 65
   257
 75
     1
175
     1
 42
40.0
 92
        8
 66
     7
 43
1.0
 76
     1
 77
     6
 78
     2
 67
     7
 79
     3
170
     0
171
     0
290
     0
174
     0
 93
        1
 44
0.0
173
     0
291
     0
 45
0.0
1001
ACAD
1000
AcDbSavedByObjectVersion
1070
     0
  0
VISUALSTYLE
  5
35
102
{ACAD_REACTORS
330
2A
102
}
330
2A
100
AcDbVisualStyle
  2
Dim
 70
    11
 71
     2
 72
     2
 73
     0
 90
        0
 40
-0.6
 41
-30.0
 62
     5
 63
     7
 74
     1
 91
        4
 64
     7
 65
   257
 75
     1
175
     1
 42
1.0
 92
        8
 66
     7
 43
1.0
 76
     1
 77
     6
 78
     2
 67
     7
 79
     5
170
     0
171
     0
290
     0
174
     0
 93
        1
 44
-50.0
173
     0
291
     1
 45
0.0
1001
ACAD
1000
AcDbSavedByObjectVersion
1070
     0
  0
VISUALSTYLE
  5
39
102
{ACAD_REACTORS
330
2A
102
}
330
2A
100
AcDbVisualStyle
  2
Facepattern
 70
    15
 71
     2
 72
     2
 73
     0
 90
        0
 40
-0.6
 41
-30.0
 62
     5
 63
     7
 74
     1
 91
        4
 64
     7
 65
   257
 75
     1
175
     1
 42
1.0
 92
        8
 66
     7
 43
1.0
 76
     1
 77
     6
 78
     2
 67
     7
 79
     5
170
     0
171
     0
290
     0
174
     0
 93
        1
 44
0.0
173
     0
291
     1
 45
0.0
1001
ACAD
1000
AcDbSavedByObjectVersion
1070
     0
  0
VISUALSTYLE
  5
2B
102
{ACAD_REACTORS
330
2A
102
}
330
2A
100
AcDbVisualStyle
  2
Flat
 70
     0
 71
     2
 72
     1
 73
     1
 90
        2
 40
-0.6
 41
30.0
 62
     5
 63
     7
 74
     0
 91
        4
 64
     7
 65
   257
 75
     1
175
     1
 42
1.0
 92
        8
 66
     7
 43
1.0
 76
     1
 77
     6
 78
     2
 67
     7
 79
     5
170
     0
171
     0
290
     0
174
     0
 93
       13
 44
0.0
173
     0
291
     1
 45
0.0
1001
ACAD
1000
AcDbSavedByObjectVersion
1070
     0
  0
VISUALSTYLE
  5
2C
102
{ACAD_REACTORS
330
2A
102
}
330
2A
100
AcDbVisualStyle
  2
FlatWithEdges
 70
     1
 71
     2
 72
     1
 73
     1
 90
        2
 40
-0.6
 41
30.0
 62
     5
 63
     7
 74
     1
 91
        4
 64
     7
 65
   257
 75
     1
175
     1
 42
1.0
 92
        0
 66
   257
 43
1.0
 76
     1
 77
     6
 78
     2
 67
     7
 79
     5
170
     0
171
     0
290
     0
174
     0
 93
       13
 44
0.0
173
     0
291
     1
 45
0.0
1001
ACAD
1000
AcDbSavedByObjectVersion
1070
     0
  0
VISUALSTYLE
  5
2D
102
{ACAD_REACTORS
330
2A
102
}
330
2A
100
AcDbVisualStyle
  2
Gouraud
 70
     2
 71
     2
 72
     2
 73
     1
 90
        2
 40
-0.6
 41
30.0
 62
     5
 63
     7
 74
     0
 91
        4
 64
     7
 65
   257
 75
     1
175
     1
 42
1.0
 92
        0
 66
     7
 43
1.0
 76
     1
 77
     6
 78
     2
 67
     7
 79
     5
170
     0
171
     0
290
     0
174
     0
 93
       13
 44
0.0
173
     0
291
     1
 45
0.0
1001
ACAD
1000
AcDbSavedByObjectVersion
1070
     0
  0
VISUALSTYLE
  5
2E
102
{ACAD_REACTORS
330
2A
102
}
330
2A
100
AcDbVisualStyle
  2
GouraudWithEdges
 70
     3
 71
     2
 72
     2
 73
     1
 90
        2
 40
-0.6
 41
30.0
 62
     5
 63
     7
 74
     1
 91
        4
 64
     7
 65
   257
 75
     1
175
     1
 42
1.0
 92
        0
 66
   257
 43
1.0
 76
     1
 77
     6
 78
     2
 67
     7
 79
     5
170
     0
171
     0
290
     0
174
     0
 93
       13
 44
0.0
173
     0
291
     1
 45
0.0
1001
ACAD
1000
AcDbSavedByObjectVersion
1070
     0
  0
VISUALSTYLE
  5
38
102
{ACAD_REACTORS
330
2A
102
}
330
2A
100
AcDbVisualStyle
  2
Linepattern
 70
    14
 71
     2
 72
     2
 73
     0
 90
        0
 40
-0.6
 41
-30.0
 62
     5
 63
     7
 74
     1
 91
        4
 64
     7
 65
   257
 75
     7
175
     7
 42
1.0
 92
        8
 66
     7
 43
1.0
 76
     1
 77
     6
 78
     2
 67
     7
 79
     5
170
     0
171
     0
290
     0
174
     0
 93
        1
 44
0.0
173
     0
291
     1
 45
0.0
1001
ACAD
1000
AcDbSavedByObjectVersion
1070
     0
  0
VISUALSTYLE
  5
33
102
{ACAD_REACTORS
330
2A
102
}
330
2A
100
AcDbVisualStyle
  2
Realistic
 70
     8
 71
     2
 72
     2
 73
     0
 90
        0
 40
-0.6
 41
-30.0
 62
     5
 63
     7
 74
     1
 91
        0
 64
     7
 65
   257
 75
     1
175
     1
 42
1.0
 92
        8
 66
     8
 43
1.0
 76
     1
 77
     6
 78
     2
 67
     7
 79
     5
170
     0
171
     0
290
     0
174
     0
 93
       13
 44
0.0
173
     0
291
     0
 45
0.0
1001
ACAD
1000
AcDbSavedByObjectVersion
1070
     0
  0
VISUALSTYLE
  5
37
102
{ACAD_REACTORS
330
2A
102
}
330
2A
100
AcDbVisualStyle
  2
Thicken
 70
    13
 71
     2
 72
     2
 73
     0
 90
        0
 40
-0.6
 41
-30.0
 62
     5
 63
     7
 74
     1
 91
        4
 64
     7
 65
   257
 75
     1
175
     1
 42
1.0
 92
       12
 66
     7
 43
1.0
 76
     1
 77
     6
 78
     2
 67
     7
 79
     5
170
     0
171
     0
290
     0
174
     0
 93
        1
 44
0.0
173
     0
291
     1
 45
0.0
1001
ACAD
1000
AcDbSavedByObjectVersion
1070
     0
  0
XRECORD
  5
549
102
{ACAD_REACTORS
330
540
102
}
330
540
100
AcDbXrecord
 90
        0
  0
XRECORD
  5
55F
102
{ACAD_REACTORS
330
540
102
}
330
540
100
AcDbXrecord
1000
DSTYLE
1002
{
1070
   340
340
11
1002
}
  0
XRECORD
  5
54A
102
{ACAD_REACTORS
330
540
102
}
330
540
100
AcDbXrecord
  1
{5B73004C-28A3-472A-B5DF-6328AC899775}
  0
XRECORD
  5
543
102
{ACAD_REACTORS
330
540
102
}
330
540
100
AcDbXrecord
  1

  0
XRECORD
  5
548
102
{ACAD_REACTORS
330
540
102
}
330
540
100
AcDbXrecord
 90
        1
  0
XRECORD
  5
545
102
{ACAD_REACTORS
330
540
102
}
330
540
100
AcDbXrecord
340
1A
  0
XRECORD
  5
547
102
{ACAD_REACTORS
330
540
102
}
330
540
100
AcDbXrecord
 90
    10269
  0
XRECORD
  5
546
102
{ACAD_REACTORS
330
540
102
}
330
540
100
AcDbXrecord
340
19
  0
XRECORD
  5
54C
102
{ACAD_REACTORS
330
540
102
}
330
540
100
AcDbXrecord
 40
0.0
  0
XRECORD
  5
54F
102
{ACAD_REACTORS
330
540
102
}
330
540
100
AcDbXrecord
340
0
  0
XRECORD
  5
555
102
{ACAD_REACTORS
330
540
102
}
330
540
100
AcDbXrecord
 10
0.0
 20
0.0
 30
0.0
  0
XRECORD
  5
551
102
{ACAD_REACTORS
330
540
102
}
330
540
100
AcDbXrecord
 10
0.0
 20
0.0
 30
0.0
  0
XRECORD
  5
554
102
{ACAD_REACTORS
330
540
102
}
330
540
100
AcDbXrecord
 10
0.0
 20
0.0
 30
0.0
  0
XRECORD
  5
552
102
{ACAD_REACTORS
330
540
102
}
330
540
100
AcDbXrecord
 10
0.0
 20
0.0
 30
0.0
  0
XRECORD
  5
553
102
{ACAD_REACTORS
330
540
102
}
330
540
100
AcDbXrecord
 10
0.0
 20
0.0
 30
0.0
  0
XRECORD
  5
550
102
{ACAD_REACTORS
330
540
102
}
330
540
100
AcDbXrecord
 10
0.0
 20
0.0
 30
0.0
  0
XRECORD
  5
54D
102
{ACAD_REACTORS
330
540
102
}
330
540
100
AcDbXrecord
340
0
  0
XRECORD
  5
54E
102
{ACAD_REACTORS
330
540
102
}
330
540
100
AcDbXrecord
 70
     0
  0
XRECORD
  5
544
102
{ACAD_REACTORS
330
540
102
}
330
540
100
AcDbXrecord
  1

  0
XRECORD
  5
541
102
{ACAD_REACTORS
330
540
102
}
330
540
100
AcDbXrecord
 90
        1
  0
XRECORD
  5
542
102
{ACAD_REACTORS
330
540
102
}
330
540
100
AcDbXrecord
 90
       70
  0
XRECORD
  5
558
102
{ACAD_REACTORS
330
540
102
}
330
540
100
AcDbXrecord
340
0
  0
XRECORD
  5
55E
102
{ACAD_REACTORS
330
540
102
}
330
540
100
AcDbXrecord
 10
0.0
 20
0.0
 30
0.0
  0
XRECORD
  5
55A
102
{ACAD_REACTORS
330
540
102
}
330
540
100
AcDbXrecord
 10
0.0
 20
0.0
 30
0.0
  0
XRECORD
  5
55D
102
{ACAD_REACTORS
330
540
102
}
330
540
100
AcDbXrecord
 10
0.0
 20
0.0
 30
0.0
  0
XRECORD
  5
55B
102
{ACAD_REACTORS
330
540
102
}
330
540
100
AcDbXrecord
 10
0.0
 20
0.0
 30
0.0
  0
XRECORD
  5
55C
102
{ACAD_REACTORS
330
540
102
}
330
540
100
AcDbXrecord
 10
0.0
 20
0.0
 30
0.0
  0
XRECORD
  5
559
102
{ACAD_REACTORS
330
540
102
}
330
540
100
AcDbXrecord
 10
0.0
 20
0.0
 30
0.0
  0
XRECORD
  5
556
102
{ACAD_REACTORS
330
540
102
}
330
540
100
AcDbXrecord
340
0
  0
XRECORD
  5
557
102
{ACAD_REACTORS
330
540
102
}
330
540
100
AcDbXrecord
 70
     0
  0
XRECORD
  5
54B
102
{ACAD_REACTORS
330
540
102
}
330
540
100
AcDbXrecord
  1
{FAEB1C32-E019-11D5-929B-00C0DF256EC4}
  0
ENDSEC
  0
EOF
