ISO-10303-21;
HEADER;
/* Generated by software containing ST-Developer
 * from STEP Tools, Inc. (www.steptools.com) 
 */
/* OPTION: using custom schema-name function */

FILE_DESCRIPTION(
/* description */ (''),
/* implementation_level */ '2;1');

FILE_NAME(
/* name */ '10001100274nxv000_00_214.stp',
/* time_stamp */ '2022-09-21T12:33:16+02:00',
/* author */ (''),
/* organization */ (''),
/* preprocessor_version */ 'ST-DEVELOPER v16.7',
/* originating_system */ 'SIEMENS PLM Software NX 12.0',
/* authorisation */ '');

FILE_SCHEMA (('AUTOMOTIVE_DESIGN { 1 0 10303 214 3 1 1 1 }'));
ENDSEC;

DATA;
#10=SHAPE_REPRESENTATION_RELATIONSHIP('None',
'relationship between 10001100274nxv000_00-None and 10001100274nxv000_
00-None',#22,#11);
#11=ADVANCED_BREP_SHAPE_REPRESENTATION('10001100274nxv000_00-None',(#32),
#553);
#12=SHAPE_DEFINITION_REPRESENTATION(#13,#22);
#13=PRODUCT_DEFINITION_SHAPE('','',#14);
#14=PRODUCT_DEFINITION(' ','',#16,#15);
#15=PRODUCT_DEFINITION_CONTEXT('part definition',#21,'design');
#16=PRODUCT_DEFINITION_FORMATION_WITH_SPECIFIED_SOURCE(' ',' ',#18,
 .NOT_KNOWN.);
#17=PRODUCT_RELATED_PRODUCT_CATEGORY('part','',(#18));
#18=PRODUCT('10001100274nxv000_00','10001100274nxv000_00',' ',(#19));
#19=PRODUCT_CONTEXT(' ',#21,'mechanical');
#20=APPLICATION_PROTOCOL_DEFINITION('international standard',
'automotive_design',2010,#21);
#21=APPLICATION_CONTEXT(
'core data for automotive mechanical design processes');
#22=SHAPE_REPRESENTATION('10001100274nxv000_00-None',(#310),#553);
#23=PRESENTATION_LAYER_ASSIGNMENT('10','Layer 10',(#32));
#24=STYLED_ITEM('',(#25),#32);
#25=PRESENTATION_STYLE_ASSIGNMENT((#26));
#26=SURFACE_STYLE_USAGE(.BOTH.,#27);
#27=SURFACE_SIDE_STYLE('',(#28));
#28=SURFACE_STYLE_FILL_AREA(#29);
#29=FILL_AREA_STYLE('',(#30));
#30=FILL_AREA_STYLE_COLOUR('',#31);
#31=COLOUR_RGB('Orange Orange Red',1.,0.4,0.);
#32=MANIFOLD_SOLID_BREP('',#33);
#33=CLOSED_SHELL('',(#54,#55,#56,#57,#58,#59,#60,#61,#62,#63,#64,#65,#66,
#67,#68,#69,#70,#71,#72,#73));
#34=TOROIDAL_SURFACE('',#346,12.6,0.4);
#35=TOROIDAL_SURFACE('',#347,12.6,0.4);
#36=CONICAL_SURFACE('',#337,12.5,45.);
#37=CONICAL_SURFACE('',#338,6.,29.9999999999999);
#38=CONICAL_SURFACE('',#340,13.2,55.);
#39=CONICAL_SURFACE('',#345,12.2,15.0000000000001);
#40=CONICAL_SURFACE('',#348,6.5,45.);
#41=FACE_OUTER_BOUND('',#142,.T.);
#42=FACE_OUTER_BOUND('',#143,.T.);
#43=FACE_OUTER_BOUND('',#144,.T.);
#44=FACE_OUTER_BOUND('',#145,.T.);
#45=FACE_OUTER_BOUND('',#146,.T.);
#46=FACE_OUTER_BOUND('',#147,.T.);
#47=PLANE('',#316);
#48=PLANE('',#319);
#49=PLANE('',#323);
#50=PLANE('',#327);
#51=PLANE('',#328);
#52=PLANE('',#335);
#53=PLANE('',#336);
#54=ADVANCED_FACE('',(#98,#99,#100),#74,.T.);
#55=ADVANCED_FACE('',(#101,#102),#47,.F.);
#56=ADVANCED_FACE('',(#103,#104),#48,.F.);
#57=ADVANCED_FACE('',(#105,#106),#75,.T.);
#58=ADVANCED_FACE('',(#107,#108),#49,.F.);
#59=ADVANCED_FACE('',(#109,#110,#111),#76,.F.);
#60=ADVANCED_FACE('',(#41),#50,.T.);
#61=ADVANCED_FACE('',(#42),#51,.T.);
#62=ADVANCED_FACE('',(#43),#77,.F.);
#63=ADVANCED_FACE('',(#44),#78,.F.);
#64=ADVANCED_FACE('',(#45),#52,.F.);
#65=ADVANCED_FACE('',(#46),#53,.F.);
#66=ADVANCED_FACE('',(#112,#113),#36,.T.);
#67=ADVANCED_FACE('',(#114,#115),#37,.F.);
#68=ADVANCED_FACE('',(#116,#117),#38,.F.);
#69=ADVANCED_FACE('',(#118,#119),#79,.T.);
#70=ADVANCED_FACE('',(#120,#121),#39,.T.);
#71=ADVANCED_FACE('',(#122,#123),#34,.F.);
#72=ADVANCED_FACE('',(#124,#125),#35,.F.);
#73=ADVANCED_FACE('',(#126,#127),#40,.F.);
#74=CYLINDRICAL_SURFACE('',#313,12.5);
#75=CYLINDRICAL_SURFACE('',#321,14.5);
#76=CYLINDRICAL_SURFACE('',#326,6.);
#77=CYLINDRICAL_SURFACE('',#331,7.25);
#78=CYLINDRICAL_SURFACE('',#334,7.25);
#79=CYLINDRICAL_SURFACE('',#343,12.2);
#80=CIRCLE('',#311,12.5);
#81=CIRCLE('',#312,12.5);
#82=CIRCLE('',#314,14.5);
#83=CIRCLE('',#315,13.2);
#84=CIRCLE('',#317,6.5);
#85=CIRCLE('',#318,12.);
#86=CIRCLE('',#320,14.5);
#87=CIRCLE('',#322,6.28867513459481);
#88=CIRCLE('',#324,6.);
#89=CIRCLE('',#325,6.);
#90=CIRCLE('',#329,7.25);
#91=CIRCLE('',#330,7.25);
#92=CIRCLE('',#332,7.25);
#93=CIRCLE('',#333,7.25);
#94=CIRCLE('',#339,12.8294305745404);
#95=CIRCLE('',#341,12.2);
#96=CIRCLE('',#342,12.2);
#97=CIRCLE('',#344,12.2136296694844);
#98=FACE_BOUND('',#128,.T.);
#99=FACE_BOUND('',#129,.T.);
#100=FACE_BOUND('',#130,.T.);
#101=FACE_BOUND('',#131,.T.);
#102=FACE_BOUND('',#132,.T.);
#103=FACE_BOUND('',#133,.T.);
#104=FACE_BOUND('',#134,.T.);
#105=FACE_BOUND('',#135,.T.);
#106=FACE_BOUND('',#136,.T.);
#107=FACE_BOUND('',#137,.T.);
#108=FACE_BOUND('',#138,.T.);
#109=FACE_BOUND('',#139,.T.);
#110=FACE_BOUND('',#140,.T.);
#111=FACE_BOUND('',#141,.T.);
#112=FACE_BOUND('',#148,.T.);
#113=FACE_BOUND('',#149,.T.);
#114=FACE_BOUND('',#150,.T.);
#115=FACE_BOUND('',#151,.T.);
#116=FACE_BOUND('',#152,.T.);
#117=FACE_BOUND('',#153,.T.);
#118=FACE_BOUND('',#154,.T.);
#119=FACE_BOUND('',#155,.T.);
#120=FACE_BOUND('',#156,.T.);
#121=FACE_BOUND('',#157,.T.);
#122=FACE_BOUND('',#158,.T.);
#123=FACE_BOUND('',#159,.T.);
#124=FACE_BOUND('',#160,.T.);
#125=FACE_BOUND('',#161,.T.);
#126=FACE_BOUND('',#162,.T.);
#127=FACE_BOUND('',#163,.T.);
#128=EDGE_LOOP('',(#184,#185,#186,#187));
#129=EDGE_LOOP('',(#188));
#130=EDGE_LOOP('',(#189));
#131=EDGE_LOOP('',(#190));
#132=EDGE_LOOP('',(#191));
#133=EDGE_LOOP('',(#192));
#134=EDGE_LOOP('',(#193));
#135=EDGE_LOOP('',(#194));
#136=EDGE_LOOP('',(#195));
#137=EDGE_LOOP('',(#196));
#138=EDGE_LOOP('',(#197));
#139=EDGE_LOOP('',(#198));
#140=EDGE_LOOP('',(#199));
#141=EDGE_LOOP('',(#200,#201,#202,#203));
#142=EDGE_LOOP('',(#204,#205,#206,#207));
#143=EDGE_LOOP('',(#208,#209,#210,#211));
#144=EDGE_LOOP('',(#212,#213,#214,#215,#216,#217));
#145=EDGE_LOOP('',(#218,#219,#220,#221,#222,#223));
#146=EDGE_LOOP('',(#224,#225,#226,#227));
#147=EDGE_LOOP('',(#228,#229,#230,#231));
#148=EDGE_LOOP('',(#232));
#149=EDGE_LOOP('',(#233));
#150=EDGE_LOOP('',(#234));
#151=EDGE_LOOP('',(#235));
#152=EDGE_LOOP('',(#236));
#153=EDGE_LOOP('',(#237));
#154=EDGE_LOOP('',(#238));
#155=EDGE_LOOP('',(#239));
#156=EDGE_LOOP('',(#240));
#157=EDGE_LOOP('',(#241));
#158=EDGE_LOOP('',(#242));
#159=EDGE_LOOP('',(#243));
#160=EDGE_LOOP('',(#244));
#161=EDGE_LOOP('',(#245));
#162=EDGE_LOOP('',(#246));
#163=EDGE_LOOP('',(#247));
#164=LINE('',#450,#174);
#165=LINE('',#463,#175);
#166=LINE('',#501,#176);
#167=LINE('',#514,#177);
#168=LINE('',#516,#178);
#169=LINE('',#518,#179);
#170=LINE('',#520,#180);
#171=LINE('',#522,#181);
#172=LINE('',#524,#182);
#173=LINE('',#526,#183);
#174=VECTOR('',#351,1.);
#175=VECTOR('',#352,1.);
#176=VECTOR('',#383,1.);
#177=VECTOR('',#384,1.);
#178=VECTOR('',#387,1.);
#179=VECTOR('',#388,1.);
#180=VECTOR('',#389,1.);
#181=VECTOR('',#392,1.);
#182=VECTOR('',#393,1.);
#183=VECTOR('',#394,1.);
#184=ORIENTED_EDGE('',*,*,#274,.F.);
#185=ORIENTED_EDGE('',*,*,#275,.F.);
#186=ORIENTED_EDGE('',*,*,#276,.F.);
#187=ORIENTED_EDGE('',*,*,#277,.F.);
#188=ORIENTED_EDGE('',*,*,#278,.T.);
#189=ORIENTED_EDGE('',*,*,#279,.F.);
#190=ORIENTED_EDGE('',*,*,#280,.F.);
#191=ORIENTED_EDGE('',*,*,#281,.T.);
#192=ORIENTED_EDGE('',*,*,#282,.T.);
#193=ORIENTED_EDGE('',*,*,#283,.T.);
#194=ORIENTED_EDGE('',*,*,#284,.F.);
#195=ORIENTED_EDGE('',*,*,#280,.T.);
#196=ORIENTED_EDGE('',*,*,#285,.T.);
#197=ORIENTED_EDGE('',*,*,#284,.T.);
#198=ORIENTED_EDGE('',*,*,#286,.T.);
#199=ORIENTED_EDGE('',*,*,#287,.T.);
#200=ORIENTED_EDGE('',*,*,#288,.F.);
#201=ORIENTED_EDGE('',*,*,#289,.T.);
#202=ORIENTED_EDGE('',*,*,#290,.F.);
#203=ORIENTED_EDGE('',*,*,#291,.T.);
#204=ORIENTED_EDGE('',*,*,#275,.T.);
#205=ORIENTED_EDGE('',*,*,#292,.F.);
#206=ORIENTED_EDGE('',*,*,#293,.T.);
#207=ORIENTED_EDGE('',*,*,#294,.T.);
#208=ORIENTED_EDGE('',*,*,#277,.T.);
#209=ORIENTED_EDGE('',*,*,#295,.F.);
#210=ORIENTED_EDGE('',*,*,#296,.T.);
#211=ORIENTED_EDGE('',*,*,#297,.T.);
#212=ORIENTED_EDGE('',*,*,#276,.T.);
#213=ORIENTED_EDGE('',*,*,#294,.F.);
#214=ORIENTED_EDGE('',*,*,#298,.T.);
#215=ORIENTED_EDGE('',*,*,#288,.T.);
#216=ORIENTED_EDGE('',*,*,#299,.T.);
#217=ORIENTED_EDGE('',*,*,#295,.T.);
#218=ORIENTED_EDGE('',*,*,#274,.T.);
#219=ORIENTED_EDGE('',*,*,#297,.F.);
#220=ORIENTED_EDGE('',*,*,#300,.T.);
#221=ORIENTED_EDGE('',*,*,#290,.T.);
#222=ORIENTED_EDGE('',*,*,#301,.T.);
#223=ORIENTED_EDGE('',*,*,#292,.T.);
#224=ORIENTED_EDGE('',*,*,#298,.F.);
#225=ORIENTED_EDGE('',*,*,#293,.F.);
#226=ORIENTED_EDGE('',*,*,#301,.F.);
#227=ORIENTED_EDGE('',*,*,#289,.F.);
#228=ORIENTED_EDGE('',*,*,#300,.F.);
#229=ORIENTED_EDGE('',*,*,#296,.F.);
#230=ORIENTED_EDGE('',*,*,#299,.F.);
#231=ORIENTED_EDGE('',*,*,#291,.F.);
#232=ORIENTED_EDGE('',*,*,#283,.F.);
#233=ORIENTED_EDGE('',*,*,#278,.F.);
#234=ORIENTED_EDGE('',*,*,#285,.F.);
#235=ORIENTED_EDGE('',*,*,#287,.F.);
#236=ORIENTED_EDGE('',*,*,#302,.F.);
#237=ORIENTED_EDGE('',*,*,#281,.F.);
#238=ORIENTED_EDGE('',*,*,#303,.F.);
#239=ORIENTED_EDGE('',*,*,#304,.F.);
#240=ORIENTED_EDGE('',*,*,#305,.F.);
#241=ORIENTED_EDGE('',*,*,#279,.T.);
#242=ORIENTED_EDGE('',*,*,#302,.T.);
#243=ORIENTED_EDGE('',*,*,#304,.T.);
#244=ORIENTED_EDGE('',*,*,#303,.T.);
#245=ORIENTED_EDGE('',*,*,#305,.T.);
#246=ORIENTED_EDGE('',*,*,#286,.F.);
#247=ORIENTED_EDGE('',*,*,#282,.F.);
#248=VERTEX_POINT('',#448);
#249=VERTEX_POINT('',#449);
#250=VERTEX_POINT('',#451);
#251=VERTEX_POINT('',#462);
#252=VERTEX_POINT('',#465);
#253=VERTEX_POINT('',#467);
#254=VERTEX_POINT('',#470);
#255=VERTEX_POINT('',#472);
#256=VERTEX_POINT('',#475);
#257=VERTEX_POINT('',#477);
#258=VERTEX_POINT('',#480);
#259=VERTEX_POINT('',#483);
#260=VERTEX_POINT('',#486);
#261=VERTEX_POINT('',#488);
#262=VERTEX_POINT('',#499);
#263=VERTEX_POINT('',#500);
#264=VERTEX_POINT('',#502);
#265=VERTEX_POINT('',#513);
#266=VERTEX_POINT('',#517);
#267=VERTEX_POINT('',#519);
#268=VERTEX_POINT('',#523);
#269=VERTEX_POINT('',#525);
#270=VERTEX_POINT('',#539);
#271=VERTEX_POINT('',#542);
#272=VERTEX_POINT('',#544);
#273=VERTEX_POINT('',#547);
#274=EDGE_CURVE('',#248,#249,#306,.T.);
#275=EDGE_CURVE('',#250,#248,#164,.T.);
#276=EDGE_CURVE('',#251,#250,#307,.T.);
#277=EDGE_CURVE('',#249,#251,#165,.T.);
#278=EDGE_CURVE('',#252,#252,#80,.T.);
#279=EDGE_CURVE('',#253,#253,#81,.T.);
#280=EDGE_CURVE('',#254,#254,#82,.T.);
#281=EDGE_CURVE('',#255,#255,#83,.T.);
#282=EDGE_CURVE('',#256,#256,#84,.T.);
#283=EDGE_CURVE('',#257,#257,#85,.T.);
#284=EDGE_CURVE('',#258,#258,#86,.T.);
#285=EDGE_CURVE('',#259,#259,#87,.T.);
#286=EDGE_CURVE('',#260,#260,#88,.T.);
#287=EDGE_CURVE('',#261,#261,#89,.T.);
#288=EDGE_CURVE('',#262,#263,#308,.T.);
#289=EDGE_CURVE('',#262,#264,#166,.T.);
#290=EDGE_CURVE('',#265,#264,#309,.T.);
#291=EDGE_CURVE('',#265,#263,#167,.T.);
#292=EDGE_CURVE('',#266,#248,#168,.T.);
#293=EDGE_CURVE('',#266,#267,#169,.T.);
#294=EDGE_CURVE('',#267,#250,#170,.T.);
#295=EDGE_CURVE('',#268,#251,#171,.T.);
#296=EDGE_CURVE('',#268,#269,#172,.T.);
#297=EDGE_CURVE('',#269,#249,#173,.T.);
#298=EDGE_CURVE('',#267,#262,#90,.T.);
#299=EDGE_CURVE('',#263,#268,#91,.T.);
#300=EDGE_CURVE('',#269,#265,#92,.T.);
#301=EDGE_CURVE('',#264,#266,#93,.T.);
#302=EDGE_CURVE('',#270,#270,#94,.T.);
#303=EDGE_CURVE('',#271,#271,#95,.T.);
#304=EDGE_CURVE('',#272,#272,#96,.T.);
#305=EDGE_CURVE('',#273,#273,#97,.T.);
#306=B_SPLINE_CURVE_WITH_KNOTS('',3,(#438,#439,#440,#441,#442,#443,#444,
#445,#446,#447),.UNSPECIFIED.,.F.,.F.,(4,2,2,2,4),(0.,0.25,0.5,0.75,1.),
 .UNSPECIFIED.);
#307=B_SPLINE_CURVE_WITH_KNOTS('',3,(#452,#453,#454,#455,#456,#457,#458,
#459,#460,#461),.UNSPECIFIED.,.F.,.F.,(4,2,2,2,4),(0.,0.25,0.5,0.75,1.),
 .UNSPECIFIED.);
#308=B_SPLINE_CURVE_WITH_KNOTS('',3,(#489,#490,#491,#492,#493,#494,#495,
#496,#497,#498),.UNSPECIFIED.,.F.,.F.,(4,2,2,2,4),(0.,0.25,0.5,0.75,1.),
 .UNSPECIFIED.);
#309=B_SPLINE_CURVE_WITH_KNOTS('',3,(#503,#504,#505,#506,#507,#508,#509,
#510,#511,#512),.UNSPECIFIED.,.F.,.F.,(4,2,2,2,4),(0.,0.25,0.5,0.75,1.),
 .UNSPECIFIED.);
#310=AXIS2_PLACEMENT_3D('',#437,#349,#350);
#311=AXIS2_PLACEMENT_3D('',#464,#353,#354);
#312=AXIS2_PLACEMENT_3D('',#466,#355,#356);
#313=AXIS2_PLACEMENT_3D('',#468,#357,#358);
#314=AXIS2_PLACEMENT_3D('',#469,#359,#360);
#315=AXIS2_PLACEMENT_3D('',#471,#361,#362);
#316=AXIS2_PLACEMENT_3D('',#473,#363,#364);
#317=AXIS2_PLACEMENT_3D('',#474,#365,#366);
#318=AXIS2_PLACEMENT_3D('',#476,#367,#368);
#319=AXIS2_PLACEMENT_3D('',#478,#369,#370);
#320=AXIS2_PLACEMENT_3D('',#479,#371,#372);
#321=AXIS2_PLACEMENT_3D('',#481,#373,#374);
#322=AXIS2_PLACEMENT_3D('',#482,#375,#376);
#323=AXIS2_PLACEMENT_3D('',#484,#377,#378);
#324=AXIS2_PLACEMENT_3D('',#485,#379,#380);
#325=AXIS2_PLACEMENT_3D('',#487,#381,#382);
#326=AXIS2_PLACEMENT_3D('',#515,#385,#386);
#327=AXIS2_PLACEMENT_3D('',#521,#390,#391);
#328=AXIS2_PLACEMENT_3D('',#527,#395,#396);
#329=AXIS2_PLACEMENT_3D('',#528,#397,#398);
#330=AXIS2_PLACEMENT_3D('',#529,#399,#400);
#331=AXIS2_PLACEMENT_3D('',#530,#401,#402);
#332=AXIS2_PLACEMENT_3D('',#531,#403,#404);
#333=AXIS2_PLACEMENT_3D('',#532,#405,#406);
#334=AXIS2_PLACEMENT_3D('',#533,#407,#408);
#335=AXIS2_PLACEMENT_3D('',#534,#409,#410);
#336=AXIS2_PLACEMENT_3D('',#535,#411,#412);
#337=AXIS2_PLACEMENT_3D('',#536,#413,#414);
#338=AXIS2_PLACEMENT_3D('',#537,#415,#416);
#339=AXIS2_PLACEMENT_3D('',#538,#417,#418);
#340=AXIS2_PLACEMENT_3D('',#540,#419,#420);
#341=AXIS2_PLACEMENT_3D('',#541,#421,#422);
#342=AXIS2_PLACEMENT_3D('',#543,#423,#424);
#343=AXIS2_PLACEMENT_3D('',#545,#425,#426);
#344=AXIS2_PLACEMENT_3D('',#546,#427,#428);
#345=AXIS2_PLACEMENT_3D('',#548,#429,#430);
#346=AXIS2_PLACEMENT_3D('',#549,#431,#432);
#347=AXIS2_PLACEMENT_3D('',#550,#433,#434);
#348=AXIS2_PLACEMENT_3D('',#551,#435,#436);
#349=DIRECTION('',(0.,0.,1.));
#350=DIRECTION('',(1.,0.,0.));
#351=DIRECTION('',(-1.,0.,0.));
#352=DIRECTION('',(1.,0.,0.));
#353=DIRECTION('',(1.,0.,0.));
#354=DIRECTION('',(0.,0.,1.));
#355=DIRECTION('',(1.,0.,0.));
#356=DIRECTION('',(0.,0.,1.));
#357=DIRECTION('',(1.,0.,0.));
#358=DIRECTION('',(0.,0.,-1.));
#359=DIRECTION('',(1.,0.,0.));
#360=DIRECTION('',(0.,0.,1.));
#361=DIRECTION('',(1.,0.,0.));
#362=DIRECTION('',(0.,0.,1.));
#363=DIRECTION('',(1.,0.,0.));
#364=DIRECTION('',(0.,0.,-1.));
#365=DIRECTION('',(1.,0.,0.));
#366=DIRECTION('',(0.,0.,1.));
#367=DIRECTION('',(-1.,0.,0.));
#368=DIRECTION('',(0.,0.,1.));
#369=DIRECTION('',(1.,0.,0.));
#370=DIRECTION('',(0.,0.,-1.));
#371=DIRECTION('',(1.,0.,0.));
#372=DIRECTION('',(0.,0.,1.));
#373=DIRECTION('',(1.,0.,0.));
#374=DIRECTION('',(0.,0.,-1.));
#375=DIRECTION('',(-1.,0.,0.));
#376=DIRECTION('',(0.,0.,-1.));
#377=DIRECTION('',(-1.,0.,0.));
#378=DIRECTION('',(0.,0.,1.));
#379=DIRECTION('',(-1.,0.,0.));
#380=DIRECTION('',(0.,0.,1.));
#381=DIRECTION('',(1.,0.,0.));
#382=DIRECTION('',(0.,0.,-1.));
#383=DIRECTION('',(-1.,0.,0.));
#384=DIRECTION('',(1.,0.,0.));
#385=DIRECTION('',(1.,0.,0.));
#386=DIRECTION('',(0.,0.,-1.));
#387=DIRECTION('',(0.,-1.,0.));
#388=DIRECTION('',(1.,0.,3.01691039300314E-16));
#389=DIRECTION('',(0.,-1.,0.));
#390=DIRECTION('',(3.01691039300314E-16,0.,-1.));
#391=DIRECTION('',(-1.,0.,-3.01841884819964E-16));
#392=DIRECTION('',(0.,-1.,0.));
#393=DIRECTION('',(-1.,0.,-3.01691039300314E-16));
#394=DIRECTION('',(0.,-1.,0.));
#395=DIRECTION('',(-3.01691039300314E-16,0.,1.));
#396=DIRECTION('',(1.,0.,3.01841884819964E-16));
#397=DIRECTION('',(0.,1.,0.));
#398=DIRECTION('',(1.,0.,1.83690953073357E-16));
#399=DIRECTION('',(0.,1.,0.));
#400=DIRECTION('',(1.,0.,1.83690953073357E-16));
#401=DIRECTION('',(0.,-1.,0.));
#402=DIRECTION('',(0.,0.,-1.));
#403=DIRECTION('',(0.,1.,0.));
#404=DIRECTION('',(1.,0.,1.83690953073357E-16));
#405=DIRECTION('',(0.,1.,0.));
#406=DIRECTION('',(1.,0.,1.83690953073357E-16));
#407=DIRECTION('',(0.,-1.,0.));
#408=DIRECTION('',(0.,0.,-1.));
#409=DIRECTION('',(0.,1.,0.));
#410=DIRECTION('',(0.,0.,1.));
#411=DIRECTION('',(0.,1.,0.));
#412=DIRECTION('',(0.,0.,1.));
#413=DIRECTION('',(1.,0.,0.));
#414=DIRECTION('',(1.37064570941377E-17,0.,-1.));
#415=DIRECTION('',(1.,0.,0.));
#416=DIRECTION('',(9.73895047947138E-17,0.,-1.));
#417=DIRECTION('',(-1.,0.,0.));
#418=DIRECTION('',(0.,0.,-1.));
#419=DIRECTION('',(-1.,0.,0.));
#420=DIRECTION('',(0.,0.,1.));
#421=DIRECTION('',(-1.,0.,0.));
#422=DIRECTION('',(0.,0.,-1.));
#423=DIRECTION('',(1.,0.,0.));
#424=DIRECTION('',(0.,0.,-1.));
#425=DIRECTION('',(1.,0.,0.));
#426=DIRECTION('',(0.,0.,-1.));
#427=DIRECTION('',(1.,0.,0.));
#428=DIRECTION('',(0.,0.,-1.));
#429=DIRECTION('',(-1.,0.,0.));
#430=DIRECTION('',(2.15176921507687E-16,0.,1.));
#431=DIRECTION('',(-1.,0.,0.));
#432=DIRECTION('',(0.,0.,1.));
#433=DIRECTION('',(-1.,0.,0.));
#434=DIRECTION('',(0.,0.,1.));
#435=DIRECTION('',(-1.,0.,0.));
#436=DIRECTION('',(6.8940823685119E-17,0.,1.));
#437=CARTESIAN_POINT('',(0.,0.,0.));
#438=CARTESIAN_POINT('',(-35.,-10.1827059272082,7.25));
#439=CARTESIAN_POINT('',(-36.9664797657526,-10.1827059272082,7.25));
#440=CARTESIAN_POINT('',(-38.8096614149021,-10.8089727827735,6.43918546056211));
#441=CARTESIAN_POINT('',(-41.4269400972647,-11.9844036787974,3.83028334172286));
#442=CARTESIAN_POINT('',(-42.2465606964163,-12.4980052059632,1.96298751928641));
#443=CARTESIAN_POINT('',(-42.2534169026038,-12.5019818014751,-1.93749971993324));
#444=CARTESIAN_POINT('',(-41.4292694430986,-11.9856386256526,-3.8269140552006));
#445=CARTESIAN_POINT('',(-38.8114483699748,-10.8095867807126,-6.43844997502267));
#446=CARTESIAN_POINT('',(-36.9690766155416,-10.1827059272081,-7.25));
#447=CARTESIAN_POINT('',(-35.,-10.1827059272082,-7.25));
#448=CARTESIAN_POINT('',(-35.,-10.1827059272081,7.25));
#449=CARTESIAN_POINT('',(-35.,-10.1827059272082,-7.25));
#450=CARTESIAN_POINT('',(2.,-10.1827059272081,7.25000000000001));
#451=CARTESIAN_POINT('',(-12.,-10.1827059272081,7.25000000000001));
#452=CARTESIAN_POINT('',(-12.,-10.1827059272082,-7.25));
#453=CARTESIAN_POINT('',(-10.0335202342474,-10.1827059272082,-7.24999999999999));
#454=CARTESIAN_POINT('',(-8.19033858509789,-10.8089727827735,-6.4391854605621));
#455=CARTESIAN_POINT('',(-5.57305990273531,-11.9844036787974,-3.83028334172286));
#456=CARTESIAN_POINT('',(-4.75343930358367,-12.4980052059632,-1.9629875192864));
#457=CARTESIAN_POINT('',(-4.74658309739619,-12.5019818014751,1.93749971993325));
#458=CARTESIAN_POINT('',(-5.57073055690143,-11.9856386256526,3.82691405520061));
#459=CARTESIAN_POINT('',(-8.1885516300252,-10.8095867807126,6.43844997502267));
#460=CARTESIAN_POINT('',(-10.0309233844584,-10.1827059272081,7.25000000000001));
#461=CARTESIAN_POINT('',(-12.,-10.1827059272081,7.25000000000001));
#462=CARTESIAN_POINT('',(-12.,-10.1827059272082,-7.25));
#463=CARTESIAN_POINT('',(2.,-10.1827059272082,-7.24999999999999));
#464=CARTESIAN_POINT('',(-44.5,0.,0.));
#465=CARTESIAN_POINT('',(-44.5,0.,12.5));
#466=CARTESIAN_POINT('',(-1.5,0.,0.));
#467=CARTESIAN_POINT('',(-1.5,0.,12.5));
#468=CARTESIAN_POINT('',(2.,0.,0.));
#469=CARTESIAN_POINT('',(0.,0.,0.));
#470=CARTESIAN_POINT('',(0.,0.,14.5));
#471=CARTESIAN_POINT('',(0.,0.,0.));
#472=CARTESIAN_POINT('',(0.,0.,13.2));
#473=CARTESIAN_POINT('',(0.,-12.5,0.));
#474=CARTESIAN_POINT('',(-45.,0.,0.));
#475=CARTESIAN_POINT('',(-45.,0.,6.5));
#476=CARTESIAN_POINT('',(-45.,0.,0.));
#477=CARTESIAN_POINT('',(-45.,0.,12.));
#478=CARTESIAN_POINT('',(-45.,-6.,0.));
#479=CARTESIAN_POINT('',(2.,0.,0.));
#480=CARTESIAN_POINT('',(2.,0.,14.5));
#481=CARTESIAN_POINT('',(2.,0.,0.));
#482=CARTESIAN_POINT('',(2.,0.,0.));
#483=CARTESIAN_POINT('',(2.,0.,-6.28867513459481));
#484=CARTESIAN_POINT('',(2.,-14.5,0.));
#485=CARTESIAN_POINT('',(-44.5,0.,0.));
#486=CARTESIAN_POINT('',(-44.5,0.,6.));
#487=CARTESIAN_POINT('',(1.5,0.,0.));
#488=CARTESIAN_POINT('',(1.5,0.,-6.));
#489=CARTESIAN_POINT('',(-7.66266210677562,-1.5,5.80947501931112));
#490=CARTESIAN_POINT('',(-7.20691991412395,-2.81780525448618,5.46921916569981));
#491=CARTESIAN_POINT('',(-6.4223805769864,-3.85102059940461,4.77679479421064));
#492=CARTESIAN_POINT('',(-5.20411999295485,-5.46850128455833,2.78273639855098));
#493=CARTESIAN_POINT('',(-4.75193629790252,-5.99766030572131,1.43874968292772));
#494=CARTESIAN_POINT('',(-4.74807692332066,-6.00232371863067,-1.41916868966071));
#495=CARTESIAN_POINT('',(-5.20419703212085,-5.46789522125411,-2.77985043697801));
#496=CARTESIAN_POINT('',(-6.41213314067429,-3.86512563960462,-4.76300854425555));
#497=CARTESIAN_POINT('',(-7.20808226296559,-2.81444425470223,-5.47008697211247));
#498=CARTESIAN_POINT('',(-7.66266210677564,-1.5,-5.80947501931113));
#499=CARTESIAN_POINT('',(-7.66266210677562,-1.5,5.80947501931112));
#500=CARTESIAN_POINT('',(-7.66266210677564,-1.5,-5.80947501931112));
#501=CARTESIAN_POINT('',(2.,-1.5,5.80947501931112));
#502=CARTESIAN_POINT('',(-39.3373378932244,-1.50000000000001,5.80947501931112));
#503=CARTESIAN_POINT('',(-39.3373378932244,-1.50000000000001,-5.80947501931112));
#504=CARTESIAN_POINT('',(-39.793080085876,-2.81780525448619,-5.46921916569981));
#505=CARTESIAN_POINT('',(-40.5776194230136,-3.85102059940462,-4.77679479421063));
#506=CARTESIAN_POINT('',(-41.7958800070451,-5.46850128455833,-2.78273639855097));
#507=CARTESIAN_POINT('',(-42.2480637020975,-5.99766030572131,-1.43874968292772));
#508=CARTESIAN_POINT('',(-42.2519230766793,-6.00232371863067,1.4191686896607));
#509=CARTESIAN_POINT('',(-41.7958029678792,-5.46789522125412,2.779850436978));
#510=CARTESIAN_POINT('',(-40.5878668593257,-3.86512563960463,4.76300854425554));
#511=CARTESIAN_POINT('',(-39.7919177370344,-2.81444425470224,5.47008697211247));
#512=CARTESIAN_POINT('',(-39.3373378932244,-1.50000000000001,5.80947501931112));
#513=CARTESIAN_POINT('',(-39.3373378932244,-1.50000000000001,-5.80947501931112));
#514=CARTESIAN_POINT('',(2.,-1.5,-5.80947501931112));
#515=CARTESIAN_POINT('',(2.,0.,0.));
#516=CARTESIAN_POINT('',(-35.,-1.5,7.25));
#517=CARTESIAN_POINT('',(-35.,-1.5,7.25));
#518=CARTESIAN_POINT('',(-35.,-1.5,7.25));
#519=CARTESIAN_POINT('',(-12.,-1.5,7.25000000000001));
#520=CARTESIAN_POINT('',(-12.,-1.5,7.25000000000001));
#521=CARTESIAN_POINT('',(-35.,-1.5,7.25));
#522=CARTESIAN_POINT('',(-12.,-1.5,-7.25));
#523=CARTESIAN_POINT('',(-12.,-1.5,-7.25));
#524=CARTESIAN_POINT('',(-12.,-1.5,-7.25));
#525=CARTESIAN_POINT('',(-35.,-1.5,-7.25));
#526=CARTESIAN_POINT('',(-35.,-1.5,-7.25));
#527=CARTESIAN_POINT('',(-12.,-1.5,-7.25));
#528=CARTESIAN_POINT('',(-12.,-1.5,5.20417042793042E-15));
#529=CARTESIAN_POINT('',(-12.,-1.5,5.20417042793042E-15));
#530=CARTESIAN_POINT('',(-12.,-1.5,5.20417042793042E-15));
#531=CARTESIAN_POINT('',(-35.,-1.5,0.));
#532=CARTESIAN_POINT('',(-35.,-1.5,0.));
#533=CARTESIAN_POINT('',(-35.,-1.5,0.));
#534=CARTESIAN_POINT('',(-12.,-1.5,5.20417042793042E-15));
#535=CARTESIAN_POINT('',(-12.,-1.5,5.20417042793042E-15));
#536=CARTESIAN_POINT('',(-44.5,0.,0.));
#537=CARTESIAN_POINT('',(1.5,0.,0.));
#538=CARTESIAN_POINT('',(0.25947550513684,0.,0.));
#539=CARTESIAN_POINT('',(0.25947550513684,0.,-12.8294305745404));
#540=CARTESIAN_POINT('',(0.,0.,0.));
#541=CARTESIAN_POINT('',(-0.32772375869437,0.,0.));
#542=CARTESIAN_POINT('',(-0.32772375869437,0.,-12.2));
#543=CARTESIAN_POINT('',(-0.0681853125787599,0.,0.));
#544=CARTESIAN_POINT('',(-0.0681853125787599,0.,-12.2));
#545=CARTESIAN_POINT('',(9.05,0.,0.));
#546=CARTESIAN_POINT('',(-0.43125137673538,0.,0.));
#547=CARTESIAN_POINT('',(-0.43125137673538,0.,-12.2136296694844));
#548=CARTESIAN_POINT('',(-0.38038475772934,0.,0.));
#549=CARTESIAN_POINT('',(-0.0681853125787599,0.,0.));
#550=CARTESIAN_POINT('',(-0.32772375869437,0.,0.));
#551=CARTESIAN_POINT('',(-45.,0.,0.));
#552=MECHANICAL_DESIGN_GEOMETRIC_PRESENTATION_REPRESENTATION('',(#24),#553);
#553=(
GEOMETRIC_REPRESENTATION_CONTEXT(3)
GLOBAL_UNCERTAINTY_ASSIGNED_CONTEXT((#554))
GLOBAL_UNIT_ASSIGNED_CONTEXT((#560,#556,#555))
REPRESENTATION_CONTEXT('10001100274nxv000_00_214',
'TOP_LEVEL_ASSEMBLY_PART')
);
#554=UNCERTAINTY_MEASURE_WITH_UNIT(LENGTH_MEASURE(0.0508),#560,
'DISTANCE_ACCURACY_VALUE','Maximum Tolerance applied to model');
#555=(
NAMED_UNIT(*)
SI_UNIT($,.STERADIAN.)
SOLID_ANGLE_UNIT()
);
#556=(
CONVERSION_BASED_UNIT('DEGREE',#558)
NAMED_UNIT(#557)
PLANE_ANGLE_UNIT()
);
#557=DIMENSIONAL_EXPONENTS(0.,0.,0.,0.,0.,0.,0.);
#558=PLANE_ANGLE_MEASURE_WITH_UNIT(PLANE_ANGLE_MEASURE(0.0174532925),#559);
#559=(
NAMED_UNIT(*)
PLANE_ANGLE_UNIT()
SI_UNIT($,.RADIAN.)
);
#560=(
LENGTH_UNIT()
NAMED_UNIT(*)
SI_UNIT(.MILLI.,.METRE.)
);
ENDSEC;
END-ISO-10303-21;
