  0
SECTION
  2
HEADER
  9
$ACADVER
  1
AC1032
  9
$ACADMAINTVER
 90
      228
  9
$DWGCODEPAGE
  3
ANSI_1252
  9
$REQUIREDVERSIONS
160
                 0
  9
$INSBASE
 10
0.0
 20
0.0
 30
0.0
  9
$EXTMIN
 10
1.000000000000000E+20
 20
1.000000000000000E+20
 30
1.000000000000000E+20
  9
$EXTMAX
 10
-1.000000000000000E+20
 20
-1.000000000000000E+20
 30
-1.000000000000000E+20
  9
$LIMMIN
 10
0.0
 20
0.0
  9
$LIMMAX
 10
12.0
 20
9.0
  9
$ORTHOMODE
 70
     0
  9
$REGENMODE
 70
     1
  9
$FILLMODE
 70
     1
  9
$QTEXTMODE
 70
     0
  9
$MIRRTEXT
 70
     0
  9
$LTSCALE
 40
1.0
  9
$ATTMODE
 70
     1
  9
$TEXTSIZE
 40
0.2
  9
$TRACEWID
 40
0.05
  9
$TEXTSTYLE
  7
Standard
  9
$CLAYER
  8
0
  9
$CELTYPE
  6
ByLayer
  9
$CECOLOR
 62
   256
  9
$CELTSCALE
 40
1.0
  9
$DISPSILH
 70
     0
  9
$DIMSCALE
 40
1.0
  9
$DIMASZ
 40
0.18
  9
$DIMEXO
 40
0.0625
  9
$DIMDLI
 40
0.38
  9
$DIMRND
 40
0.0
  9
$DIMDLE
 40
0.0
  9
$DIMEXE
 40
0.18
  9
$DIMTP
 40
0.0
  9
$DIMTM
 40
0.0
  9
$DIMTXT
 40
0.18
  9
$DIMCEN
 40
0.09
  9
$DIMTSZ
 40
0.0
  9
$DIMTOL
 70
     0
  9
$DIMLIM
 70
     0
  9
$DIMTIH
 70
     1
  9
$DIMTOH
 70
     1
  9
$DIMSE1
 70
     0
  9
$DIMSE2
 70
     0
  9
$DIMTAD
 70
     0
  9
$DIMZIN
 70
     0
  9
$DIMBLK
  1

  9
$DIMASO
 70
     1
  9
$DIMSHO
 70
     1
  9
$DIMPOST
  1

  9
$DIMAPOST
  1

  9
$DIMALT
 70
     0
  9
$DIMALTD
 70
     2
  9
$DIMALTF
 40
25.4
  9
$DIMLFAC
 40
1.0
  9
$DIMTOFL
 70
     0
  9
$DIMTVP
 40
0.0
  9
$DIMTIX
 70
     0
  9
$DIMSOXD
 70
     0
  9
$DIMSAH
 70
     0
  9
$DIMBLK1
  1

  9
$DIMBLK2
  1

  9
$DIMSTYLE
  2
Standard
  9
$DIMCLRD
 70
     0
  9
$DIMCLRE
 70
     0
  9
$DIMCLRT
 70
     0
  9
$DIMTFAC
 40
1.0
  9
$DIMGAP
 40
0.09
  9
$DIMJUST
 70
     0
  9
$DIMSD1
 70
     0
  9
$DIMSD2
 70
     0
  9
$DIMTOLJ
 70
     1
  9
$DIMTZIN
 70
     0
  9
$DIMALTZ
 70
     0
  9
$DIMALTTZ
 70
     0
  9
$DIMUPT
 70
     0
  9
$DIMDEC
 70
     4
  9
$DIMTDEC
 70
     4
  9
$DIMALTU
 70
     2
  9
$DIMALTTD
 70
     2
  9
$DIMTXSTY
  7
Standard
  9
$DIMAUNIT
 70
     0
  9
$DIMADEC
 70
     0
  9
$DIMALTRND
 40
0.0
  9
$DIMAZIN
 70
     0
  9
$DIMDSEP
 70
    46
  9
$DIMATFIT
 70
     3
  9
$DIMFRAC
 70
     0
  9
$DIMLDRBLK
  1

  9
$DIMLUNIT
 70
     2
  9
$DIMLWD
 70
    -2
  9
$DIMLWE
 70
    -2
  9
$DIMTMOVE
 70
     0
  9
$DIMFXL
 40
1.0
  9
$DIMFXLON
 70
     0
  9
$DIMJOGANG
 40
0.7853981633974483
  9
$DIMTFILL
 70
     0
  9
$DIMTFILLCLR
 70
     0
  9
$DIMARCSYM
 70
     0
  9
$DIMLTYPE
  6

  9
$DIMLTEX1
  6

  9
$DIMLTEX2
  6

  9
$DIMTXTDIRECTION
 70
     0
  9
$LUNITS
 70
     2
  9
$LUPREC
 70
     4
  9
$SKETCHINC
 40
0.1
  9
$FILLETRAD
 40
0.0
  9
$AUNITS
 70
     0
  9
$AUPREC
 70
     0
  9
$MENU
  1
.
  9
$ELEVATION
 40
0.0
  9
$PELEVATION
 40
0.0
  9
$THICKNESS
 40
0.0
  9
$LIMCHECK
 70
     0
  9
$CHAMFERA
 40
0.0
  9
$CHAMFERB
 40
0.0
  9
$CHAMFERC
 40
0.0
  9
$CHAMFERD
 40
0.0
  9
$SKPOLY
 70
     0
  9
$TDCREATE
 40
2460425.433310185
  9
$TDUCREATE
 40
2460425.349976852
  9
$TDUPDATE
 40
2460425.433310185
  9
$TDUUPDATE
 40
2460425.349976852
  9
$TDINDWG
 40
0.0000000000
  9
$TDUSRTIMER
 40
0.0000000000
  9
$USRTIMER
 70
     1
  9
$ANGBASE
 50
0.0
  9
$ANGDIR
 70
     0
  9
$PDMODE
 70
     0
  9
$PDSIZE
 40
0.0
  9
$PLINEWID
 40
0.0
  9
$SPLFRAME
 70
     0
  9
$SPLINETYPE
 70
     6
  9
$SPLINESEGS
 70
     8
  9
$HANDSEED
  5
1FE
  9
$SURFTAB1
 70
     6
  9
$SURFTAB2
 70
     6
  9
$SURFTYPE
 70
     6
  9
$SURFU
 70
     6
  9
$SURFV
 70
     6
  9
$UCSBASE
  2

  9
$UCSNAME
  2

  9
$UCSORG
 10
0.0
 20
0.0
 30
0.0
  9
$UCSXDIR
 10
1.0
 20
0.0
 30
0.0
  9
$UCSYDIR
 10
0.0
 20
1.0
 30
0.0
  9
$UCSORTHOREF
  2

  9
$UCSORTHOVIEW
 70
     0
  9
$UCSORGTOP
 10
0.0
 20
0.0
 30
0.0
  9
$UCSORGBOTTOM
 10
0.0
 20
0.0
 30
0.0
  9
$UCSORGLEFT
 10
0.0
 20
0.0
 30
0.0
  9
$UCSORGRIGHT
 10
0.0
 20
0.0
 30
0.0
  9
$UCSORGFRONT
 10
0.0
 20
0.0
 30
0.0
  9
$UCSORGBACK
 10
0.0
 20
0.0
 30
0.0
  9
$PUCSBASE
  2

  9
$PUCSNAME
  2

  9
$PUCSORG
 10
0.0
 20
0.0
 30
0.0
  9
$PUCSXDIR
 10
1.0
 20
0.0
 30
0.0
  9
$PUCSYDIR
 10
0.0
 20
1.0
 30
0.0
  9
$PUCSORTHOREF
  2

  9
$PUCSORTHOVIEW
 70
     0
  9
$PUCSORGTOP
 10
0.0
 20
0.0
 30
0.0
  9
$PUCSORGBOTTOM
 10
0.0
 20
0.0
 30
0.0
  9
$PUCSORGLEFT
 10
0.0
 20
0.0
 30
0.0
  9
$PUCSORGRIGHT
 10
0.0
 20
0.0
 30
0.0
  9
$PUCSORGFRONT
 10
0.0
 20
0.0
 30
0.0
  9
$PUCSORGBACK
 10
0.0
 20
0.0
 30
0.0
  9
$USERI1
 70
     0
  9
$USERI2
 70
     0
  9
$USERI3
 70
     0
  9
$USERI4
 70
     0
  9
$USERI5
 70
     0
  9
$USERR1
 40
0.0
  9
$USERR2
 40
0.0
  9
$USERR3
 40
0.0
  9
$USERR4
 40
0.0
  9
$USERR5
 40
0.0
  9
$WORLDVIEW
 70
     1
  9
$SHADEDGE
 70
     3
  9
$SHADEDIF
 70
    70
  9
$TILEMODE
 70
     1
  9
$MAXACTVP
 70
    64
  9
$PINSBASE
 10
0.0
 20
0.0
 30
0.0
  9
$PLIMCHECK
 70
     0
  9
$PEXTMIN
 10
1.000000000000000E+20
 20
1.000000000000000E+20
 30
1.000000000000000E+20
  9
$PEXTMAX
 10
-1.000000000000000E+20
 20
-1.000000000000000E+20
 30
-1.000000000000000E+20
  9
$PLIMMIN
 10
0.0
 20
0.0
  9
$PLIMMAX
 10
12.0
 20
9.0
  9
$UNITMODE
 70
     0
  9
$VISRETAIN
 70
     1
  9
$PLINEGEN
 70
     0
  9
$PSLTSCALE
 70
     1
  9
$TREEDEPTH
 70
  3020
  9
$CMLSTYLE
  2
Standard
  9
$CMLJUST
 70
     0
  9
$CMLSCALE
 40
1.0
  9
$PROXYGRAPHICS
 70
     1
  9
$MEASUREMENT
 70
     0
  9
$CELWEIGHT
370
    -1
  9
$ENDCAPS
280
     0
  9
$JOINSTYLE
280
     0
  9
$LWDISPLAY
290
     1
  9
$INSUNITS
 70
     4
  9
$HYPERLINKBASE
  1

  9
$STYLESHEET
  1

  9
$XEDIT
290
     1
  9
$CEPSNTYPE
380
     0
  9
$PSTYLEMODE
290
     1
  9
$FINGERPRINTGUID
  2
{A9EB5DD9-C195-AF4E-AE80-113AE8624A9C}
  9
$VERSIONGUID
  2
{8D6C23B1-E5E0-EE46-A4AC-CFC5820A65C2}
  9
$EXTNAMES
290
     1
  9
$PSVPSCALE
 40
0.0
  9
$OLESTARTUP
290
     0
  9
$SORTENTS
280
   127
  9
$INDEXCTL
280
     0
  9
$HIDETEXT
280
     1
  9
$XCLIPFRAME
280
     2
  9
$HALOGAP
280
     0
  9
$OBSCOLOR
 70
   257
  9
$OBSLTYPE
280
     0
  9
$INTERSECTIONDISPLAY
280
     0
  9
$INTERSECTIONCOLOR
 70
   257
  9
$DIMASSOC
280
     2
  9
$PROJECTNAME
  1

  9
$CAMERADISPLAY
290
     0
  9
$LENSLENGTH
 40
50.0
  9
$CAMERAHEIGHT
 40
0.0
  9
$STEPSPERSEC
 40
2.0
  9
$STEPSIZE
 40
6.0
  9
$3DDWFPREC
 40
2.0
  9
$PSOLWIDTH
 40
0.25
  9
$PSOLHEIGHT
 40
4.0
  9
$LOFTANG1
 40
1.570796326794896
  9
$LOFTANG2
 40
1.570796326794896
  9
$LOFTMAG1
 40
0.0
  9
$LOFTMAG2
 40
0.0
  9
$LOFTPARAM
 70
     7
  9
$LOFTNORMALS
280
     1
  9
$LATITUDE
 40
37.795
  9
$LONGITUDE
 40
-122.394
  9
$NORTHDIRECTION
 40
0.0
  9
$TIMEZONE
 70
 -8000
  9
$LIGHTGLYPHDISPLAY
280
     1
  9
$TILEMODELIGHTSYNCH
280
     1
  9
$CMATERIAL
347
11
  9
$SOLIDHIST
280
     0
  9
$SHOWHIST
280
     1
  9
$DWFFRAME
280
     2
  9
$DGNFRAME
280
     0
  9
$REALWORLDSCALE
290
     1
  9
$INTERFERECOLOR
 62
     1
  9
$INTERFEREOBJVS
345
33
  9
$INTERFEREVPVS
346
30
  9
$CSHADOW
280
     0
  9
$SHADOWPLANELOCATION
 40
0.0
  0
ENDSEC
  0
SECTION
  2
CLASSES
  0
CLASS
  1
ACDBDICTIONARYWDFLT
  2
AcDbDictionaryWithDefault
  3
ObjectDBX Classes
 90
        0
 91
        1
280
     0
281
     0
  0
CLASS
  1
MATERIAL
  2
AcDbMaterial
  3
ObjectDBX Classes
 90
     1153
 91
        3
280
     0
281
     0
  0
CLASS
  1
VISUALSTYLE
  2
AcDbVisualStyle
  3
ObjectDBX Classes
 90
     4095
 91
       24
280
     0
281
     0
  0
CLASS
  1
SCALE
  2
AcDbScale
  3
ObjectDBX Classes
 90
     1153
 91
       17
280
     0
281
     0
  0
CLASS
  1
TABLESTYLE
  2
AcDbTableStyle
  3
ObjectDBX Classes
 90
     4095
 91
        1
280
     0
281
     0
  0
CLASS
  1
MLEADERSTYLE
  2
AcDbMLeaderStyle
  3
ACDB_MLEADERSTYLE_CLASS
 90
     4095
 91
        1
280
     0
281
     0
  0
CLASS
  1
ACDBSECTIONVIEWSTYLE
  2
AcDbSectionViewStyle
  3
ObjectDBX Classes
 90
     1025
 91
        1
280
     0
281
     0
  0
CLASS
  1
ACDBDETAILVIEWSTYLE
  2
AcDbDetailViewStyle
  3
ObjectDBX Classes
 90
     1025
 91
        1
280
     0
281
     0
  0
CLASS
  1
DICTIONARYVAR
  2
AcDbDictionaryVar
  3
ObjectDBX Classes
 90
        0
 91
        5
280
     0
281
     0
  0
CLASS
  1
CELLSTYLEMAP
  2
AcDbCellStyleMap
  3
ObjectDBX Classes
 90
     1152
 91
        1
280
     0
281
     0
  0
ENDSEC
  0
SECTION
  2
TABLES
  0
TABLE
  2
VPORT
  5
8
330
0
100
AcDbSymbolTable
 70
     1
  0
VPORT
  5
57
330
8
100
AcDbSymbolTableRecord
100
AcDbViewportTableRecord
  2
*Active
 70
     0
 10
0.0
 20
0.0
 11
1.0
 21
1.0
 12
0.0
 22
0.0
 13
0.0
 23
0.0
 14
1.0
 24
1.0
 15
0.0
 25
0.0
 16
0.0
 26
0.0
 36
1.0
 17
130.9031884005716
 27
136.5802214261099
 37
0.0
 40
106.9416302581464
 41
1.236794034760711
 42
50.0
 43
0.0
 44
0.0
 50
0.0
 51
0.0
 71
     0
 72
   100
 73
     1
 74
     1
 75
     0
 76
     0
 77
     0
 78
     0
281
     0
 65
     1
110
0.0
120
0.0
130
0.0
111
1.0
121
0.0
131
0.0
112
0.0
122
1.0
132
0.0
 79
     0
146
0.0
 60
     3
 61
     5
292
     1
282
     1
141
0.0
142
0.0
 63
   250
421
  3355443
  0
ENDTAB
  0
TABLE
  2
LTYPE
  5
5
330
0
100
AcDbSymbolTable
 70
     4
  0
LTYPE
  5
5B
330
5
100
AcDbSymbolTableRecord
100
AcDbLinetypeTableRecord
  2
ByBlock
 70
     0
  3

 72
    65
 73
     0
 40
0.0
  0
LTYPE
  5
5C
330
5
100
AcDbSymbolTableRecord
100
AcDbLinetypeTableRecord
  2
ByLayer
 70
     0
  3

 72
    65
 73
     0
 40
0.0
  0
LTYPE
  5
5D
330
5
100
AcDbSymbolTableRecord
100
AcDbLinetypeTableRecord
  2
Continuous
 70
     0
  3
Solid line
 72
    65
 73
     0
 40
0.0
  0
LTYPE
  5
126
330
5
100
AcDbSymbolTableRecord
100
AcDbLinetypeTableRecord
  2
AI-Linetype-0
 70
     0
  3
Adobe Illustrator Linetype No. 0
 72
    65
 73
     4
 40
8.819444442239584
 49
7.055555553791666
 74
     0
 49
-0.7055555553791667
 74
     0
 49
0.3527777776895833
 74
     0
 49
-0.7055555553791667
 74
     0
  0
LTYPE
  5
128
330
5
100
AcDbSymbolTableRecord
100
AcDbLinetypeTableRecord
  2
AI-Linetype-1
 70
     0
  3
Adobe Illustrator Linetype No. 1
 72
    65
 73
     4
 40
8.819444442239584
 49
7.055555553791666
 74
     0
 49
-0.7055555553791667
 74
     0
 49
0.3527777776895833
 74
     0
 49
-0.7055555553791667
 74
     0
  0
LTYPE
  5
12A
330
5
100
AcDbSymbolTableRecord
100
AcDbLinetypeTableRecord
  2
AI-Linetype-2
 70
     0
  3
Adobe Illustrator Linetype No. 2
 72
    65
 73
     4
 40
8.819444442239584
 49
7.055555553791666
 74
     0
 49
-0.7055555553791667
 74
     0
 49
0.3527777776895833
 74
     0
 49
-0.7055555553791667
 74
     0
  0
ENDTAB
  0
TABLE
  2
LAYER
  5
2
330
0
100
AcDbSymbolTable
 70
     5
  0
LAYER
  5
54
330
2
100
AcDbSymbolTableRecord
100
AcDbLayerTableRecord
  2
0
 70
     0
 62
     7
  6
Continuous
370
    -3
390
F
347
21
348
0
  0
LAYER
  5
78
330
2
100
AcDbSymbolTableRecord
100
AcDbLayerTableRecord
  2
grau 10%
 70
     0
 62
     7
  6
Continuous
370
     0
390
F
347
21
348
0
  0
LAYER
  5
79
330
2
100
AcDbSymbolTableRecord
100
AcDbLayerTableRecord
  2
Standardebene
 70
     0
 62
     7
  6
Continuous
370
     0
390
F
347
21
348
0
  0
LAYER
  5
12B
330
2
100
AcDbSymbolTableRecord
100
AcDbLayerTableRecord
  2
Bemaßung
 70
     1
 62
     7
  6
Continuous
370
     0
390
F
347
21
348
0
  0
LAYER
  5
1F0
330
2
100
AcDbSymbolTableRecord
100
AcDbLayerTableRecord
  2
Text
 70
     1
 62
     7
  6
Continuous
370
     0
390
F
347
21
348
0
  0
ENDTAB
  0
TABLE
  2
STYLE
  5
3
330
0
100
AcDbSymbolTable
 70
     2
  0
STYLE
  5
55
330
3
100
AcDbSymbolTableRecord
100
AcDbTextStyleTableRecord
  2
Standard
 70
     0
 40
0.0
 41
1.0
 50
0.0
 71
     0
 42
0.2
  3
txt
  4

  0
STYLE
  5
5A
330
3
100
AcDbSymbolTableRecord
100
AcDbTextStyleTableRecord
  2
Annotative
 70
     0
 40
0.0
 41
1.0
 50
0.0
 71
     0
 42
0.2
  3
txt
  4

1001
AcadAnnotative
1000
AnnotativeData
1002
{
1070
     1
1070
     1
1002
}
  0
ENDTAB
  0
TABLE
  2
VIEW
  5
6
330
0
100
AcDbSymbolTable
 70
     0
  0
ENDTAB
  0
TABLE
  2
UCS
  5
7
330
0
100
AcDbSymbolTable
 70
     0
  0
ENDTAB
  0
TABLE
  2
APPID
  5
9
330
0
100
AcDbSymbolTable
 70
     2
  0
APPID
  5
56
330
9
100
AcDbSymbolTableRecord
100
AcDbRegAppTableRecord
  2
ACAD
 70
     0
  0
APPID
  5
5E
330
9
100
AcDbSymbolTableRecord
100
AcDbRegAppTableRecord
  2
AcadAnnotative
 70
     0
  0
ENDTAB
  0
TABLE
  2
DIMSTYLE
  5
A
330
0
100
AcDbSymbolTable
 70
     2
100
AcDbDimStyleTable
 71
     0
  0
DIMSTYLE
105
58
330
A
100
AcDbSymbolTableRecord
100
AcDbDimStyleTableRecord
  2
Standard
 70
     0
340
55
  0
DIMSTYLE
105
59
330
A
100
AcDbSymbolTableRecord
100
AcDbDimStyleTableRecord
  2
Annotative
 70
     0
340
55
1001
AcadAnnotative
1000
AnnotativeData
1002
{
1070
     1
1070
     1
1002
}
  0
ENDTAB
  0
TABLE
  2
BLOCK_RECORD
  5
1
330
0
100
AcDbSymbolTable
 70
     1
  0
BLOCK_RECORD
  5
70
330
1
100
AcDbSymbolTableRecord
100
AcDbBlockTableRecord
  2
*Model_Space
340
73
 70
     0
280
     1
281
     0
  0
BLOCK_RECORD
  5
6C
330
1
100
AcDbSymbolTableRecord
100
AcDbBlockTableRecord
  2
*Paper_Space
340
6F
 70
     0
280
     1
281
     0
  0
BLOCK_RECORD
  5
74
330
1
100
AcDbSymbolTableRecord
100
AcDbBlockTableRecord
  2
*Paper_Space0
340
77
 70
     0
280
     1
281
     0
  0
ENDTAB
  0
ENDSEC
  0
SECTION
  2
BLOCKS
  0
BLOCK
  5
71
330
70
100
AcDbEntity
  8
0
100
AcDbBlockBegin
  2
*Model_Space
 70
     0
 10
0.0
 20
0.0
 30
0.0
  3
*Model_Space
  1

  0
ENDBLK
  5
72
330
70
100
AcDbEntity
  8
0
100
AcDbBlockEnd
  0
BLOCK
  5
6D
330
6C
100
AcDbEntity
 67
     1
  8
0
100
AcDbBlockBegin
  2
*Paper_Space
 70
     0
 10
0.0
 20
0.0
 30
0.0
  3
*Paper_Space
  1

  0
ENDBLK
  5
6E
330
6C
100
AcDbEntity
 67
     1
  8
0
100
AcDbBlockEnd
  0
BLOCK
  5
75
330
74
100
AcDbEntity
 67
     1
  8
0
100
AcDbBlockBegin
  2
*Paper_Space0
 70
     0
 10
0.0
 20
0.0
 30
0.0
  3
*Paper_Space0
  1

  0
ENDBLK
  5
76
330
74
100
AcDbEntity
 67
     1
  8
0
100
AcDbBlockEnd
  0
ENDSEC
  0
SECTION
  2
ENTITIES
  0
LINE
  5
7A
330
70
100
AcDbEntity
  8
Standardebene
 62
     7
370
    35
100
AcDbLine
 10
145.924058296852
 20
159.0534591290736
 30
0.0
 11
140.2020027427268
 21
159.0534591290736
 31
0.0
  0
SPLINE
  5
7B
330
70
100
AcDbEntity
  8
Standardebene
 62
     7
370
    35
100
AcDbSpline
210
0.0
220
0.0
230
1.0
 70
     8
 71
     3
 72
     8
 73
     4
 74
     0
 42
0.0000000001
 43
0.0000000001
 40
0.0
 40
0.0
 40
0.0
 40
0.0
 40
1.0
 40
1.0
 40
1.0
 40
1.0
 10
166.0630832918174
 20
136.2315591347791
 30
0.0
 10
166.0630832918174
 20
147.9257896874108
 30
0.0
 10
157.3360666273324
 20
157.5816702405525
 30
0.0
 10
145.924058296852
 20
159.0534591290736
 30
0.0
  0
SPLINE
  5
7C
330
70
100
AcDbEntity
  8
Standardebene
 62
     7
370
    35
100
AcDbSpline
210
0.0
220
0.0
230
1.0
 70
     8
 71
     3
 72
     8
 73
     4
 74
     0
 42
0.0000000001
 43
0.0000000001
 40
0.0
 40
0.0
 40
0.0
 40
0.0
 40
1.0
 40
1.0
 40
1.0
 40
1.0
 10
164.2579194033797
 20
127.2985202481234
 30
0.0
 10
165.5102805141778
 20
130.2710258029357
 30
0.0
 10
166.0913055140325
 20
133.358536913275
 30
0.0
 10
166.0630832918174
 20
136.2315591347791
 30
0.0
  0
LINE
  5
7D
330
70
100
AcDbEntity
  8
Standardebene
 62
     7
370
    35
100
AcDbLine
 10
161.3968916263173
 20
122.3434035826954
 30
0.0
 11
164.2579194033797
 21
127.2985202481234
 31
0.0
  0
SPLINE
  5
7E
330
70
100
AcDbEntity
  8
Standardebene
 62
     7
370
    35
100
AcDbSpline
210
0.0
220
0.0
230
1.0
 70
     8
 71
     3
 72
    11
 73
     7
 74
     0
 42
0.0000000001
 43
0.0000000001
 40
0.0
 40
0.0
 40
0.0
 40
0.0
 40
1.0
 40
1.0
 40
1.0
 40
2.0
 40
2.0
 40
2.0
 40
2.0
 10
124.7302277465948
 20
122.3434035826954
 30
0.0
 10
129.2344944121354
 20
116.3973341397376
 30
0.0
 10
136.0692110770937
 20
113.256906362745
 30
0.0
 10
143.0630305197896
 20
113.2315063627513
 30
0.0
 10
150.5232221845912
 20
113.2315063627513
 30
0.0
 10
157.1533277384892
 20
116.7832730285301
 30
0.0
 10
161.3968916263173
 20
122.3434035826954
 30
0.0
  0
LINE
  5
7F
330
70
100
AcDbEntity
  8
Standardebene
 62
     7
370
    35
100
AcDbLine
 10
121.8688471917547
 20
127.2985202481234
 30
0.0
 11
124.7302277465948
 21
122.3434035826954
 31
0.0
  0
SPLINE
  5
80
330
70
100
AcDbEntity
  8
Standardebene
 62
     7
370
    35
100
AcDbSpline
210
0.0
220
0.0
230
1.0
 70
     8
 71
     3
 72
    11
 73
     7
 74
     0
 42
0.0000000001
 43
0.0000000001
 40
0.0
 40
0.0
 40
0.0
 40
0.0
 40
1.0
 40
1.0
 40
1.0
 40
2.0
 40
2.0
 40
2.0
 40
2.0
 10
140.2020027427268
 20
159.0534591290736
 30
0.0
 10
128.5991416345167
 20
157.5986035738815
 30
0.0
 10
120.1042527477515
 20
147.7377591319025
 30
0.0
 10
120.0633305255395
 20
136.2315591347791
 30
0.0
 10
120.0633305255395
 20
133.006464691141
 30
0.0
 10
120.7276110809289
 20
129.9358869141306
 30
0.0
 10
121.8688471917547
 20
127.2985202481234
 30
0.0
  0
LINE
  5
81
330
70
100
AcDbEntity
  8
Standardebene
 62
     7
370
    35
100
AcDbLine
 10
146.5632916300255
 20
122.8828008047829
 30
0.0
 11
146.5632916300255
 21
120.7816563608637
 31
0.0
  0
SPLINE
  5
82
330
70
100
AcDbEntity
  8
Standardebene
 62
     7
370
    35
100
AcDbSpline
210
0.0
220
0.0
230
1.0
 70
     8
 71
     3
 72
    14
 73
    10
 74
     0
 42
0.0000000001
 43
0.0000000001
 40
0.0
 40
0.0
 40
0.0
 40
0.0
 40
1.0
 40
1.0
 40
1.0
 40
2.0
 40
2.0
 40
2.0
 40
3.0
 40
3.0
 40
3.0
 40
3.0
 10
156.8633444052283
 20
136.2315591347791
 30
0.0
 10
156.8633444052283
 20
143.8529702439846
 30
0.0
 10
150.6847944067729
 20
150.03152024244
 30
0.0
 10
143.0630305197896
 20
150.03152024244
 30
0.0
 10
135.4419721883615
 20
150.03152024244
 30
0.0
 10
129.2634221899061
 20
143.8529702439846
 30
0.0
 10
129.2634221899061
 20
136.2315591347791
 30
0.0
 10
129.2634221899061
 20
129.8543952474844
 30
0.0
 10
133.5891832999356
 20
124.4872341377151
 30
0.0
 10
139.5634749651089
 20
122.8828008047829
 30
0.0
  0
SPLINE
  5
83
330
70
100
AcDbEntity
  8
Standardebene
 62
     7
370
    35
100
AcDbSpline
210
0.0
220
0.0
230
1.0
 70
     8
 71
     3
 72
     8
 73
     4
 74
     0
 42
0.0000000001
 43
0.0000000001
 40
0.0
 40
0.0
 40
0.0
 40
0.0
 40
1.0
 40
1.0
 40
1.0
 40
1.0
 10
146.5632916300255
 20
122.8828008047829
 30
0.0
 10
152.7319638507055
 20
124.5002869154897
 30
0.0
 10
156.826302738571
 20
130.0463063585475
 30
0.0
 10
156.8633444052283
 20
136.2315591347791
 30
0.0
  0
LINE
  5
84
330
70
100
AcDbEntity
  8
Standardebene
 62
     7
370
    35
100
AcDbLine
 10
139.5634749651089
 20
120.7816563608637
 30
0.0
 11
139.5634749651089
 21
122.8828008047829
 31
0.0
  0
SPLINE
  5
85
330
70
100
AcDbEntity
  8
Standardebene
 62
     7
370
    35
100
AcDbSpline
210
0.0
220
0.0
230
1.0
 70
     8
 71
     3
 72
     8
 73
     4
 74
     0
 42
0.0000000001
 43
0.0000000001
 40
0.0
 40
0.0
 40
0.0
 40
0.0
 40
1.0
 40
1.0
 40
1.0
 40
1.0
 10
139.5634749651089
 20
120.7816563608637
 30
0.0
 10
139.5634749651089
 20
120.3124619165366
 30
0.0
 10
139.9437694094581
 20
119.9318146944093
 30
0.0
 10
140.413316631563
 20
119.9318146944093
 30
0.0
  0
LINE
  5
86
330
70
100
AcDbEntity
  8
Standardebene
 62
     7
370
    35
100
AcDbLine
 10
145.7134499635714
 20
119.9318146944093
 30
0.0
 11
140.413316631563
 21
119.9318146944093
 31
0.0
  0
SPLINE
  5
87
330
70
100
AcDbEntity
  8
Standardebene
 62
     7
370
    35
100
AcDbSpline
210
0.0
220
0.0
230
1.0
 70
     8
 71
     3
 72
     8
 73
     4
 74
     0
 42
0.0000000001
 43
0.0000000001
 40
0.0
 40
0.0
 40
0.0
 40
0.0
 40
1.0
 40
1.0
 40
1.0
 40
1.0
 10
145.7134499635714
 20
119.9318146944093
 30
0.0
 10
146.1829971856763
 20
119.9318146944093
 30
0.0
 10
146.5632916300255
 20
120.3124619165366
 30
0.0
 10
146.5632916300255
 20
120.7816563608637
 30
0.0
  0
SPLINE
  5
88
330
70
100
AcDbEntity
  8
Standardebene
 62
     7
370
    35
100
AcDbSpline
210
0.0
220
0.0
230
1.0
 70
     8
 71
     3
 72
    14
 73
    10
 74
     0
 42
0.0000000001
 43
0.0000000001
 40
0.0
 40
0.0
 40
0.0
 40
0.0
 40
1.0
 40
1.0
 40
1.0
 40
2.0
 40
2.0
 40
2.0
 40
3.0
 40
3.0
 40
3.0
 40
3.0
 10
156.5631305164146
 20
136.2315591347791
 30
0.0
 10
156.5631305164146
 20
143.6875174662485
 30
0.0
 10
150.518988851259
 20
149.7320119091818
 30
0.0
 10
143.0630305197896
 20
149.7320119091818
 30
0.0
 10
135.6074249660979
 20
149.7320119091818
 30
0.0
 10
129.5632833009424
 20
143.6875174662485
 30
0.0
 10
129.5632833009424
 20
136.2315591347791
 30
0.0
 10
129.5632833009424
 20
130.0209063585538
 30
0.0
 10
133.7578110776713
 20
124.7892119154173
 30
0.0
 10
139.5634749651089
 20
123.1932452491498
 30
0.0
  0
SPLINE
  5
89
330
70
100
AcDbEntity
  8
Standardebene
 62
     7
370
    35
100
AcDbSpline
210
0.0
220
0.0
230
1.0
 70
     8
 71
     3
 72
     8
 73
     4
 74
     0
 42
0.0000000001
 43
0.0000000001
 40
0.0
 40
0.0
 40
0.0
 40
0.0
 40
1.0
 40
1.0
 40
1.0
 40
1.0
 10
146.5632916300255
 20
123.1932452491498
 30
0.0
 10
152.5619249618591
 20
124.8036758043026
 30
0.0
 10
156.5271471830903
 20
130.210700802951
 30
0.0
 10
156.5631305164146
 20
136.2315591347791
 30
0.0
  0
LWPOLYLINE
  5
8A
330
70
100
AcDbEntity
  8
Standardebene
 62
     7
370
    35
100
AcDbPolyline
 90
        7
 70
     0
 43
0.0
 10
139.5634749651089
 20
123.1932452491498
 10
139.5634749651089
 20
123.1417396936069
 10
139.5634749651089
 20
123.0905869158421
 10
139.5634749651089
 20
123.038375804744
 10
139.5634749651089
 20
122.9865174714236
 10
139.5634749651089
 20
122.9346591381033
 10
139.5634749651089
 20
122.8828008047829
  0
LWPOLYLINE
  5
8B
330
70
100
AcDbEntity
  8
Standardebene
 62
     7
370
    35
100
AcDbPolyline
 90
        7
 70
     0
 43
0.0
 10
146.5632916300255
 20
122.8828008047829
 10
146.5632916300255
 20
122.9346591381033
 10
146.5632916300255
 20
122.9865174714236
 10
146.5632916300255
 20
123.038375804744
 10
146.5632916300255
 20
123.0905869158421
 10
146.5632916300255
 20
123.1417396936069
 10
146.5632916300255
 20
123.1932452491498
  0
LWPOLYLINE
  5
8C
330
70
100
AcDbEntity
  8
Standardebene
 62
     7
370
    35
100
AcDbPolyline
 90
        3
 70
     0
 43
0.0
 10
164.2579194033797
 20
127.2985202481234
 10
165.5702527363851
 20
129.5721730253327
 10
166.8529527360642
 20
131.7939674692216
  0
LWPOLYLINE
  5
8D
330
70
100
AcDbEntity
  8
Standardebene
 62
     7
370
    35
100
AcDbPolyline
 90
        5
 70
     0
 43
0.0
 10
150.0635527402617
 20
159.0534591290736
 10
150.0635527402617
 20
159.1388313512742
 10
150.0635527402617
 20
159.2249091290307
 10
150.0635527402617
 20
159.3109869067868
 10
150.0635527402617
 20
159.3974174623207
  0
SPLINE
  5
8E
330
70
100
AcDbEntity
  8
Standardebene
 62
     7
370
    35
100
AcDbSpline
210
0.0
220
0.0
230
1.0
 70
     8
 71
     3
 72
     8
 73
     4
 74
     0
 42
0.0000000001
 43
0.0000000001
 40
0.0
 40
0.0
 40
0.0
 40
0.0
 40
1.0
 40
1.0
 40
1.0
 40
1.0
 10
167.2635860692951
 20
136.2315591347791
 30
0.0
 10
167.2635860692951
 20
147.0999369098398
 30
0.0
 10
160.0983166266418
 20
156.2950896853186
 30
0.0
 10
150.0635527402617
 20
159.3974174623207
 30
0.0
  0
SPLINE
  5
8F
330
70
100
AcDbEntity
  8
Standardebene
 62
     7
370
    35
100
AcDbSpline
210
0.0
220
0.0
230
1.0
 70
     8
 71
     3
 72
     8
 73
     4
 74
     0
 42
0.0000000001
 43
0.0000000001
 40
0.0
 40
0.0
 40
0.0
 40
0.0
 40
1.0
 40
1.0
 40
1.0
 40
1.0
 10
166.8529527360642
 20
131.7939674692216
 30
0.0
 10
167.1408194026592
 20
133.3366646910583
 30
0.0
 10
167.2752277359587
 20
134.8723063573411
 30
0.0
 10
167.2635860692951
 20
136.2315591347791
 30
0.0
  0
LWPOLYLINE
  5
90
330
70
100
AcDbEntity
  8
Standardebene
 62
     7
370
    35
100
AcDbPolyline
 90
        5
 70
     0
 43
0.0
 10
150.0635527402617
 20
159.0534591290736
 10
149.0412027405172
 20
159.0534591290736
 10
148.0114444074414
 20
159.0534591290736
 10
146.9721610743679
 20
159.0534591290736
 10
145.924058296852
 20
159.0534591290736
  0
LWPOLYLINE
  5
91
330
70
100
AcDbEntity
  8
Standardebene
 62
     7
370
    35
100
AcDbPolyline
 90
        3
 70
     0
 43
0.0
 10
124.7302277465948
 20
122.3434035826954
 10
126.0422083018224
 20
120.0701035832639
 10
127.3249083015019
 20
117.8483091393747
  0
LWPOLYLINE
  5
92
330
70
100
AcDbEntity
  8
Standardebene
 62
     7
370
    35
100
AcDbPolyline
 90
        5
 70
     0
 43
0.0
 10
159.3274971823902
 20
118.7591813613693
 10
159.8383194044845
 20
119.6435952500369
 10
160.3533749599113
 20
120.5357702498141
 10
160.8726638486706
 20
121.4353535829226
 10
161.3968916263173
 20
122.3434035826954
  0
LWPOLYLINE
  5
93
330
70
100
AcDbEntity
  8
Standardebene
 62
     7
370
    35
100
AcDbPolyline
 90
        5
 70
     0
 43
0.0
 10
159.3274971823902
 20
118.7591813613693
 10
159.4012277379273
 20
118.7157896947136
 10
159.4756638490196
 20
118.6727508058354
 10
159.5500999601121
 20
118.6300646947349
 10
159.6248888489825
 20
118.5870258058567
  0
SPLINE
  5
94
330
70
100
AcDbEntity
  8
Standardebene
 62
     7
370
    35
100
AcDbSpline
210
0.0
220
0.0
230
1.0
 70
     8
 71
     3
 72
     8
 73
     4
 74
     0
 42
0.0000000001
 43
0.0000000001
 40
0.0
 40
0.0
 40
0.0
 40
0.0
 40
1.0
 40
1.0
 40
1.0
 40
1.0
 10
127.3249083015019
 20
117.8483091393747
 30
0.0
 10
136.7733555213621
 20
109.759820252508
 30
0.0
 10
150.6590416290017
 20
110.2237230301699
 30
0.0
 10
159.6248888489825
 20
118.5870258058567
 30
0.0
  0
LWPOLYLINE
  5
95
330
70
100
AcDbEntity
  8
Standardebene
 62
     7
370
    35
100
AcDbPolyline
 90
        5
 70
     0
 43
0.0
 10
119.7994527478275
 20
130.8830952472273
 10
120.3102749699222
 20
129.9986813585593
 10
120.8249777475712
 20
129.1065063587825
 10
121.3449721918857
 20
128.206923025674
 10
121.8688471917547
 20
127.2985202481234
  0
LWPOLYLINE
  5
96
330
70
100
AcDbEntity
  8
Standardebene
 62
     7
370
    35
100
AcDbPolyline
 90
        5
 70
     0
 43
0.0
 10
119.7994527478275
 20
130.8830952472273
 10
119.7250166367353
 20
130.840056358349
 10
119.6505805256427
 20
130.7977230250263
 10
119.5757916367724
 20
130.7543313583707
 10
119.5013555256801
 20
130.7109396917147
  0
SPLINE
  5
97
330
70
100
AcDbEntity
  8
Standardebene
 62
     7
370
    35
100
AcDbSpline
210
0.0
220
0.0
230
1.0
 70
     8
 71
     3
 72
     8
 73
     4
 74
     0
 42
0.0000000001
 43
0.0000000001
 40
0.0
 40
0.0
 40
0.0
 40
0.0
 40
1.0
 40
1.0
 40
1.0
 40
1.0
 10
135.0115832995801
 20
159.0534591290736
 30
0.0
 10
123.2831333025122
 20
154.9153757967746
 30
0.0
 10
116.7419277485921
 20
142.6577591331723
 30
0.0
 10
119.5013555256801
 20
130.7109396917147
 30
0.0
  0
LWPOLYLINE
  5
98
330
70
100
AcDbEntity
  8
Standardebene
 62
     7
370
    35
100
AcDbPolyline
 90
        3
 70
     0
 43
0.0
 10
140.2020027427268
 20
159.0534591290736
 10
137.5773360767165
 20
159.0534591290736
 10
135.0115832995801
 20
159.0534591290736
  0
SPLINE
  5
99
330
70
100
AcDbEntity
  8
Standardebene
 62
     7
370
    35
100
AcDbSpline
210
0.0
220
0.0
230
1.0
 70
     8
 71
     3
 72
     8
 73
     4
 74
     0
 42
0.0000000001
 43
0.0000000001
 40
0.0
 40
0.0
 40
0.0
 40
0.0
 40
1.0
 40
1.0
 40
1.0
 40
1.0
 10
181.4974638435144
 20
137.3255230233944
 30
0.0
 10
180.9749999547559
 20
155.6936035743579
 30
0.0
 10
167.652347180309
 20
170.6856007928322
 30
0.0
 10
150.0635527402617
 20
174.0394591253269
 30
0.0
  0
LINE
  5
9A
330
70
100
AcDbEntity
  8
Standardebene
 62
     7
370
    35
100
AcDbLine
 10
181.4974638435144
 20
137.3255230233944
 30
0.0
 11
178.4011332887329
 21
134.2284869130577
 31
0.0
  0
LINE
  5
9B
330
70
100
AcDbEntity
  8
Standardebene
 62
     7
370
    35
100
AcDbLine
 10
178.0402416221564
 20
134.3456091352504
 30
0.0
 11
178.4011332887329
 21
134.2284869130577
 31
0.0
  0
LINE
  5
9C
330
70
100
AcDbEntity
  8
Standardebene
 62
     7
370
    35
100
AcDbLine
 10
173.1126416233884
 20
125.811209137384
 30
0.0
 11
178.0402416221564
 21
134.3456091352504
 31
0.0
  0
LINE
  5
9D
330
70
100
AcDbEntity
  8
Standardebene
 62
     7
370
    35
100
AcDbLine
 10
167.5701499581073
 20
129.0109035810287
 30
0.0
 11
173.1126416233884
 21
125.811209137384
 31
0.0
  0
LINE
  5
9E
330
70
100
AcDbEntity
  8
Standardebene
 62
     7
370
    35
100
AcDbLine
 10
167.5701499581073
 20
129.0109035810287
 30
0.0
 11
171.8175944014898
 21
136.3680841347448
 31
0.0
  0
LINE
  5
9F
330
70
100
AcDbEntity
  8
Standardebene
 62
     7
370
    35
100
AcDbLine
 10
169.8603832908681
 20
137.0034369123639
 30
0.0
 11
171.8175944014898
 21
136.3680841347448
 31
0.0
  0
LINE
  5
A0
330
70
100
AcDbEntity
  8
Standardebene
 62
     7
370
    35
100
AcDbLine
 10
150.0635527402617
 20
174.0394591253269
 30
0.0
 11
150.0635527402617
 21
159.3974174623207
 31
0.0
  0
LINE
  5
A1
330
70
100
AcDbEntity
  8
Standardebene
 62
     7
370
    35
100
AcDbLine
 10
166.8529527360642
 20
131.7939674692216
 30
0.0
 11
169.8603832908681
 21
137.0034369123639
 31
0.0
  0
LWPOLYLINE
  5
A2
330
70
100
AcDbEntity
  8
Standardebene
 62
     7
370
    35
100
AcDbPolyline
 90
        7
 70
     0
 43
0.0
 10
181.7885055101083
 20
137.6165646899882
 10
181.7398221767872
 20
137.5675285788893
 10
181.6914916212434
 20
137.5188452455681
 10
181.6428082879223
 20
137.4705146900248
 10
181.5941249546012
 20
137.4221841344814
 10
181.5461471768355
 20
137.3738535789377
 10
181.4974638435144
 20
137.3255230233944
  0
SPLINE
  5
A3
330
70
100
AcDbEntity
  8
Standardebene
 62
     7
370
    35
100
AcDbSpline
210
0.0
220
0.0
230
1.0
 70
     8
 71
     3
 72
     8
 73
     4
 74
     0
 42
0.0000000001
 43
0.0000000001
 40
0.0
 40
0.0
 40
0.0
 40
0.0
 40
1.0
 40
1.0
 40
1.0
 40
1.0
 10
181.7885055101083
 20
137.6165646899882
 30
0.0
 10
181.1298693991617
 20
156.0439119076038
 30
0.0
 10
167.706674958073
 20
171.005217459419
 30
0.0
 10
150.0635527402617
 20
174.3446119030287
 30
0.0
  0
LWPOLYLINE
  5
A4
330
70
100
AcDbEntity
  8
Standardebene
 62
     7
370
    35
100
AcDbPolyline
 90
        7
 70
     0
 43
0.0
 10
150.0635527402617
 20
174.3446119030287
 10
150.0635527402617
 20
174.2931063474858
 10
150.0635527402617
 20
174.2423063474984
 10
150.0635527402617
 20
174.1915063475113
 10
150.0635527402617
 20
174.1410591253017
 10
150.0635527402617
 20
174.0902591253143
 10
150.0635527402617
 20
174.0394591253269
  0
SPLINE
  5
A5
330
70
100
AcDbEntity
  8
Standardebene
 62
     7
370
    35
100
AcDbSpline
210
0.0
220
0.0
230
1.0
 70
     8
 71
     3
 72
     8
 73
     4
 74
     0
 42
0.0000000001
 43
0.0000000001
 40
0.0
 40
0.0
 40
0.0
 40
0.0
 40
1.0
 40
1.0
 40
1.0
 40
1.0
 10
122.8986055248308
 20
168.9703952377054
 30
0.0
 10
107.2532638620754
 20
159.3335646845591
 30
0.0
 10
100.9304277525448
 20
140.2997924670954
 30
0.0
 10
106.8207583066278
 20
123.3900952491006
 30
0.0
  0
LWPOLYLINE
  5
A6
330
70
100
AcDbEntity
  8
Standardebene
 62
     7
370
    35
100
AcDbPolyline
 90
        3
 70
     0
 43
0.0
 10
122.8986055248308
 20
168.9703952377054
 10
127.1294694126618
 20
167.8369202379889
 10
127.2081388570866
 20
167.4657980158592
  0
LINE
  5
A7
330
70
100
AcDbEntity
  8
Standardebene
 62
     7
370
    35
100
AcDbLine
 10
137.063338854623
 20
167.4657980158592
 30
0.0
 11
127.2081388570866
 21
167.4657980158592
 31
0.0
  0
LINE
  5
A8
330
70
100
AcDbEntity
  8
Standardebene
 62
     7
370
    35
100
AcDbLine
 10
137.063338854623
 20
161.0653507952371
 30
0.0
 11
137.063338854623
 21
167.4657980158592
 31
0.0
  0
LWPOLYLINE
  5
A9
330
70
100
AcDbEntity
  8
Standardebene
 62
     7
370
    35
100
AcDbPolyline
 90
        3
 70
     0
 43
0.0
 10
137.063338854623
 20
161.0653507952371
 10
128.5680971900801
 20
161.0653507952371
 10
128.9960166344175
 20
159.0534591290736
  0
LINE
  5
AA
330
70
100
AcDbEntity
  8
Standardebene
 62
     7
370
    35
100
AcDbLine
 10
106.8207583066278
 20
123.3900952491006
 30
0.0
 11
119.5013555256801
 21
130.7109396917147
 31
0.0
  0
LINE
  5
AB
330
70
100
AcDbEntity
  8
Standardebene
 62
     7
370
    35
100
AcDbLine
 10
135.0115832995801
 20
159.0534591290736
 30
0.0
 11
128.9960166344175
 21
159.0534591290736
 31
0.0
  0
LINE
  5
AC
330
70
100
AcDbEntity
  8
Standardebene
 62
     7
370
    35
100
AcDbLine
 10
137.063338854623
 20
167.6658230158092
 30
0.0
 11
127.1658055237639
 21
167.6658230158092
 31
0.0
  0
LINE
  5
AD
330
70
100
AcDbEntity
  8
Standardebene
 62
     7
370
    35
100
AcDbLine
 10
137.1635277434867
 20
167.5659869047233
 30
0.0
 11
137.063338854623
 21
167.6658230158092
 31
0.0
  0
LINE
  5
AE
330
70
100
AcDbEntity
  8
Standardebene
 62
     7
370
    35
100
AcDbLine
 10
137.1635277434867
 20
167.5659869047233
 30
0.0
 11
137.063338854623
 21
167.4657980158592
 31
0.0
  0
SPLINE
  5
AF
330
70
100
AcDbEntity
  8
Standardebene
 62
     7
370
    35
100
AcDbSpline
210
0.0
220
0.0
230
1.0
 70
     8
 71
     3
 72
     8
 73
     4
 74
     0
 42
0.0000000001
 43
0.0000000001
 40
0.0
 40
0.0
 40
0.0
 40
0.0
 40
1.0
 40
1.0
 40
1.0
 40
1.0
 10
122.5013777471523
 20
169.0762285710124
 30
0.0
 10
106.8722638621707
 20
159.2926424623471
 30
0.0
 10
100.6266860859541
 20
140.1869035782345
 30
0.0
 10
106.5568805289161
 20
123.2380480269162
 30
0.0
  0
LWPOLYLINE
  5
B0
330
70
100
AcDbEntity
  8
Standardebene
 62
     7
370
    35
100
AcDbPolyline
 90
        7
 70
     0
 43
0.0
 10
122.5013777471523
 20
169.0762285710124
 10
122.5684055249131
 20
169.0585896821278
 10
122.6347277471188
 20
169.0405980154655
 10
122.7006971915467
 20
169.022959126581
 10
122.7670194137524
 20
169.0056730154745
 10
122.8329888581803
 20
168.9876813488122
 10
122.8986055248308
 20
168.9703952377054
  0
LWPOLYLINE
  5
B1
330
70
100
AcDbEntity
  8
Standardebene
 62
     7
370
    35
100
AcDbPolyline
 90
        7
 70
     0
 43
0.0
 10
106.5568805289161
 20
123.237342471361
 10
106.6009777511273
 20
123.2630952491321
 10
106.6450749733385
 20
123.2884952491258
 10
106.6891721955497
 20
123.3138952491195
 10
106.7332694177609
 20
123.3392952491132
 10
106.7773666399721
 20
123.3646952491069
 10
106.8207583066278
 20
123.3900952491006
  0
LWPOLYLINE
  5
B2
330
70
100
AcDbEntity
  8
Standardebene
 62
     7
370
    35
100
AcDbPolyline
 90
        3
 70
     0
 43
0.0
 10
137.2633638545726
 20
161.0653507952371
 10
137.1635277434867
 20
160.9655146841512
 10
137.063338854623
 20
161.0653507952371
  0
LINE
  5
B3
330
70
100
AcDbEntity
  8
Standardebene
 62
     7
370
    35
100
AcDbLine
 10
137.2633638545726
 20
167.4657980158592
 30
0.0
 11
137.1635277434867
 21
167.5659869047233
 31
0.0
  0
LINE
  5
B4
330
70
100
AcDbEntity
  8
Standardebene
 62
     7
370
    35
100
AcDbLine
 10
137.2633638545726
 20
161.0653507952371
 30
0.0
 11
137.2633638545726
 21
167.4657980158592
 31
0.0
  0
LWPOLYLINE
  5
B5
330
70
100
AcDbEntity
  8
Standardebene
 62
     7
370
    35
100
AcDbPolyline
 90
        3
 70
     0
 43
0.0
 10
137.1635277434867
 20
160.9655146841512
 10
137.063338854623
 20
160.8653257952871
 10
128.6107833011802
 20
160.8653257952871
  0
SPLINE
  5
B6
330
70
100
AcDbEntity
  8
Standardebene
 62
     7
370
    35
100
AcDbSpline
210
0.0
220
0.0
230
1.0
 70
     8
 71
     3
 72
     8
 73
     4
 74
     0
 42
0.0000000001
 43
0.0000000001
 40
0.0
 40
0.0
 40
0.0
 40
0.0
 40
1.0
 40
1.0
 40
1.0
 40
1.0
 10
124.7930221910238
 20
102.3998174765704
 30
0.0
 10
140.9615332980926
 20
93.66856747875322
 30
0.0
 10
160.6066694042924
 20
97.70998969996483
 30
0.0
 10
172.3054860680345
 20
111.2658285854649
 30
0.0
  0
LINE
  5
B7
330
70
100
AcDbEntity
  8
Standardebene
 62
     7
370
    35
100
AcDbLine
 10
123.6598999690847
 20
106.6303285866236
 30
0.0
 11
124.7930221910238
 21
102.3998174765704
 31
0.0
  0
LINE
  5
B8
330
70
100
AcDbEntity
  8
Standardebene
 62
     7
370
    35
100
AcDbLine
 10
123.6598999690847
 20
106.6303285866236
 30
0.0
 11
123.9414166356809
 21
106.8839758087825
 31
0.0
  0
LINE
  5
B9
330
70
100
AcDbEntity
  8
Standardebene
 62
     7
370
    35
100
AcDbLine
 10
119.0138166369129
 20
115.4187285844266
 30
0.0
 11
123.9414166356809
 21
106.8839758087825
 31
0.0
  0
LINE
  5
BA
330
70
100
AcDbEntity
  8
Standardebene
 62
     7
370
    35
100
AcDbLine
 10
124.556308302194
 20
118.618423028071
 30
0.0
 11
119.0138166369129
 21
115.4187285844266
 31
0.0
  0
LWPOLYLINE
  5
BB
330
70
100
AcDbEntity
  8
Standardebene
 62
     7
370
    35
100
AcDbPolyline
 90
        3
 70
     0
 43
0.0
 10
124.556308302194
 20
118.618423028071
 10
128.8041055233544
 20
111.2615952521327
 10
130.3326916340832
 20
112.6388396962326
  0
LINE
  5
BC
330
70
100
AcDbEntity
  8
Standardebene
 62
     7
370
    35
100
AcDbLine
 10
172.3058388458122
 20
111.2658285854649
 30
0.0
 11
159.6248888489825
 21
118.5870258058567
 31
0.0
  0
LINE
  5
BD
330
70
100
AcDbEntity
  8
Standardebene
 62
     7
370
    35
100
AcDbLine
 10
127.3249083015019
 20
117.8483091393747
 30
0.0
 11
130.3326916340832
 21
112.6388396962326
 31
0.0
  0
LINE
  5
BE
330
70
100
AcDbEntity
  8
Standardebene
 62
     7
370
    35
100
AcDbLine
 10
167.4332721803637
 20
128.9742146921489
 30
0.0
 11
167.5701499581073
 21
129.0109035810287
 31
0.0
  0
LWPOLYLINE
  5
BF
330
70
100
AcDbEntity
  8
Standardebene
 62
     7
370
    35
100
AcDbPolyline
 90
        3
 70
     0
 43
0.0
 10
167.4332721803637
 20
128.9742146921489
 10
167.3969360692617
 20
129.1107396921147
 10
171.6228610682053
 20
136.4308785791735
  0
LINE
  5
C0
330
70
100
AcDbEntity
  8
Standardebene
 62
     7
370
    35
100
AcDbLine
 10
173.285855512234
 20
125.7110202485203
 30
0.0
 11
178.234974955441
 21
134.2828146908217
 31
0.0
  0
LINE
  5
C1
330
70
100
AcDbEntity
  8
Standardebene
 62
     7
370
    35
100
AcDbLine
 10
173.1489777344901
 20
125.6746841374182
 30
0.0
 11
173.285855512234
 21
125.7110202485203
 31
0.0
  0
LINE
  5
C2
330
70
100
AcDbEntity
  8
Standardebene
 62
     7
370
    35
100
AcDbLine
 10
173.1489777344901
 20
125.6746841374182
 30
0.0
 11
173.1126416233884
 21
125.811209137384
 31
0.0
  0
LINE
  5
C3
330
70
100
AcDbEntity
  8
Standardebene
 62
     7
370
    35
100
AcDbLine
 10
167.470313847021
 20
128.8376896921832
 30
0.0
 11
167.4332721803637
 21
128.9742146921489
 31
0.0
  0
LINE
  5
C4
330
70
100
AcDbEntity
  8
Standardebene
 62
     7
370
    35
100
AcDbLine
 10
173.0128055123021
 20
125.6379952485384
 30
0.0
 11
173.1489777344901
 21
125.6746841374182
 31
0.0
  0
LINE
  5
C5
330
70
100
AcDbEntity
  8
Standardebene
 62
     7
370
    35
100
AcDbLine
 10
167.470313847021
 20
128.8376896921832
 30
0.0
 11
173.0128055123021
 21
125.6379952485384
 31
0.0
  0
LWPOLYLINE
  5
C6
330
70
100
AcDbEntity
  8
Standardebene
 62
     7
370
    35
100
AcDbPolyline
 90
        7
 70
     0
 43
0.0
 10
124.899561079886
 20
102.0022369211141
 10
124.8819221910014
 20
102.0689119210975
 10
124.8639305243395
 20
102.1352341433032
 10
124.8462916354549
 20
102.2015563655086
 10
124.8286527465704
 20
102.2675258099368
 10
124.8106610799081
 20
102.3334952543647
 10
124.7930221910238
 20
102.3998174765704
  0
SPLINE
  5
C7
330
70
100
AcDbEntity
  8
Standardebene
 62
     7
370
    35
100
AcDbSpline
210
0.0
220
0.0
230
1.0
 70
     8
 71
     3
 72
     8
 73
     4
 74
     0
 42
0.0000000001
 43
0.0000000001
 40
0.0
 40
0.0
 40
0.0
 40
0.0
 40
1.0
 40
1.0
 40
1.0
 40
1.0
 10
124.899561079886
 20
102.0022369211141
 30
0.0
 10
141.1873110758141
 20
93.35918136771931
 30
0.0
 10
160.8560832931191
 20
97.50326192223896
 30
0.0
 10
172.5693638457461
 20
111.1130758077253
 30
0.0
  0
LWPOLYLINE
  5
C8
330
70
100
AcDbEntity
  8
Standardebene
 62
     7
370
    35
100
AcDbPolyline
 90
        7
 70
     0
 43
0.0
 10
172.5693638457461
 20
111.1130758077253
 10
172.5252666235349
 20
111.1388285854967
 10
172.4811694013237
 20
111.1642285854901
 10
172.4370721791125
 20
111.1896285854838
 10
172.3936805124569
 20
111.2150285854775
 10
172.3495832902457
 20
111.2404285854712
 10
172.3058388458122
 20
111.2658285854649
  0
LINE
  5
C9
330
70
100
AcDbEntity
  8
Standardebene
 62
     7
370
    35
100
AcDbLine
 10
124.5933499688513
 20
118.7549480280371
 30
0.0
 11
124.556308302194
 21
118.618423028071
 31
0.0
  0
LWPOLYLINE
  5
CA
330
70
100
AcDbEntity
  8
Standardebene
 62
     7
370
    35
100
AcDbPolyline
 90
        3
 70
     0
 43
0.0
 10
124.5933499688513
 20
118.7549480280371
 10
124.7298749688174
 20
118.7189646947128
 10
128.9561527455384
 20
111.398825807654
  0
LINE
  5
CB
330
70
100
AcDbEntity
  8
Standardebene
 62
     7
370
    35
100
AcDbLine
 10
124.4568249688855
 20
118.7919896946944
 30
0.0
 11
124.5933499688513
 21
118.7549480280371
 31
0.0
  0
LINE
  5
CC
330
70
100
AcDbEntity
  8
Standardebene
 62
     7
370
    35
100
AcDbLine
 10
118.8772916369471
 20
115.4550646955287
 30
0.0
 11
119.0138166369129
 21
115.4187285844266
 31
0.0
  0
LINE
  5
CD
330
70
100
AcDbEntity
  8
Standardebene
 62
     7
370
    35
100
AcDbLine
 10
118.9136277480492
 20
115.5915896954944
 30
0.0
 11
118.8772916369471
 21
115.4550646955287
 31
0.0
  0
LINE
  5
CE
330
70
100
AcDbEntity
  8
Standardebene
 62
     7
370
    35
100
AcDbLine
 10
124.4568249688855
 20
118.7919896946944
 30
0.0
 11
118.9136277480492
 21
115.5915896954944
 31
0.0
  0
LINE
  5
CF
330
70
100
AcDbEntity
  8
Standardebene
 62
     7
370
    35
100
AcDbLine
 10
118.8406027480673
 20
115.3185396955629
 30
0.0
 11
123.7897221912746
 21
106.7467452532611
 31
0.0
  0
LINE
  5
D0
330
70
100
AcDbEntity
  8
Standardebene
 62
     7
370
    35
100
AcDbLine
 10
118.8772916369471
 20
115.4550646955287
 30
0.0
 11
118.8406027480673
 21
115.3185396955629
 31
0.0
  0
LINE
  5
D1
330
70
100
AcDbEntity
  8
Standardebene
 62
     7
370
    35
100
AcDbLine
 10
130.6575999673354
 20
160.8653257952871
 30
0.0
 11
130.84774718951
 21
159.0534591290736
 31
0.0
  0
LINE
  5
D2
330
70
100
AcDbEntity
  8
Standardebene
 62
     7
370
    35
100
AcDbLine
 10
134.6690360774437
 20
159.0534591290736
 30
0.0
 11
134.4785360774913
 21
160.8653257952871
 31
0.0
  0
LINE
  5
D3
330
70
100
AcDbEntity
  8
Standardebene
 62
     7
370
    35
100
AcDbLine
 10
170.5998055129053
 20
134.6585230240613
 30
0.0
 11
168.9346944022104
 21
135.399709134987
 31
0.0
  0
LINE
  5
D4
330
70
100
AcDbEntity
  8
Standardebene
 62
     7
370
    35
100
AcDbLine
 10
167.0244027360213
 20
132.0906535802587
 30
0.0
 11
168.6895138467162
 21
131.349467469333
 31
0.0
  0
LINE
  5
D5
330
70
100
AcDbEntity
  8
Standardebene
 62
     7
370
    35
100
AcDbLine
 10
127.9323916346832
 20
113.1711813627662
 30
0.0
 11
129.4073555232036
 21
114.2425674736096
 31
0.0
  0
LINE
  5
D6
330
70
100
AcDbEntity
  8
Standardebene
 62
     7
370
    35
100
AcDbLine
 10
127.496358301459
 20
117.5512702505602
 30
0.0
 11
126.0224527462719
 21
116.4802369174946
 31
0.0
  0
LWPOLYLINE
  5
D7
330
70
100
AcDbEntity
  8
Standardebene
 62
     7
370
    35
100
AcDbPolyline
 90
       25
 70
     0
 43
0.0
 10
82.91194997927163
 20
137.3255230233944
 10
82.86185553483978
 20
137.3738535789377
 10
82.81246664596343
 20
137.4221841344814
 10
82.76272497930902
 20
137.4705146900248
 10
82.71263053487716
 20
137.5188452455681
 10
82.66218331266754
 20
137.5675285788893
 10
82.61173609045792
 20
137.6165646899882
 10
82.61173609045792
 20
140.5216896892621
 10
82.61173609045792
 20
143.402473021875
 10
82.61173609045792
 20
146.2426869100539
 10
82.61173609045792
 20
149.0264563538026
 10
82.61173609045792
 20
151.7379063531247
 10
82.61173609045792
 20
154.3615146858021
 10
82.61173609045792
 20
156.8828174629495
 10
82.61173609045792
 20
159.2877035734594
 10
82.61173609045792
 20
161.5620619062242
 10
82.61173609045792
 20
163.6935452390245
 10
82.61173609045792
 20
165.6698063496418
 10
82.61173609045792
 20
167.479556349189
 10
82.61173609045792
 20
169.1125646821144
 10
82.61173609045792
 20
170.559659126197
 10
82.61173609045792
 20
171.8130785703281
 10
82.61173609045792
 20
172.8657674589536
 10
82.61173609045792
 20
173.7110230142981
 10
82.61173609045792
 20
174.3446119030287
  0
LWPOLYLINE
  5
D8
330
70
100
AcDbEntity
  8
Standardebene
 62
     7
370
    35
100
AcDbPolyline
 90
        7
 70
     0
 43
0.0
 10
82.91194997927163
 20
174.0394591253269
 10
82.86185553483978
 20
174.0902591253143
 10
82.81176109040792
 20
174.1410591253017
 10
82.76237220153126
 20
174.1915063475113
 10
82.7122777570994
 20
174.2423063474984
 10
82.66218331266754
 20
174.2931063474858
 10
82.61173609045792
 20
174.3446119030287
  0
LWPOLYLINE
  5
D9
330
70
100
AcDbEntity
  8
Standardebene
 62
     7
370
    35
100
AcDbPolyline
 90
       19
 70
     0
 43
0.0
 10
82.91194997927163
 20
174.0394591253269
 10
82.91194997927163
 20
173.4034007921527
 10
82.91194997927163
 20
172.5556757923645
 10
82.91194997927163
 20
171.5008702370727
 10
82.91194997927163
 20
170.2453341262754
 10
82.91194997927163
 20
168.7957702377491
 10
82.91194997927163
 20
167.1602924603801
 10
82.91194997927163
 20
165.3487785719443
 10
82.91194997927163
 20
163.3707535724385
 10
82.91194997927163
 20
161.2385646840827
 10
82.91194997927163
 20
158.9638535735405
 10
82.91194997927163
 20
156.5596730185858
 10
82.91194997927163
 20
154.0394285747713
 10
82.91194997927163
 20
151.4179369087602
 10
82.91194997927163
 20
148.7096619094374
 10
82.91194997927163
 20
145.9304785767986
 10
82.91194997927163
 20
143.0955563552851
 10
82.91194997927163
 20
140.2218285782258
 10
82.91194997927163
 20
137.3255230233944
  0
LWPOLYLINE
  5
DA
330
70
100
AcDbEntity
  8
Standardebene
 62
     7
370
    35
100
AcDbPolyline
 90
        7
 70
     0
 43
0.0
 10
69.6115222048192
 20
137.6165646899882
 10
69.56142776038735
 20
137.5675285788893
 10
69.51098053817773
 20
137.5188452455681
 10
69.46088609374554
 20
137.4705146900248
 10
69.41149720486921
 20
137.4221841344814
 10
69.36140276043736
 20
137.3738535789377
 10
69.31166109378293
 20
137.3255230233944
  0
LWPOLYLINE
  5
DB
330
70
100
AcDbEntity
  8
Standardebene
 62
     7
370
    35
100
AcDbPolyline
 90
        7
 70
     0
 43
0.0
 10
69.6115222048192
 20
174.3446119030287
 10
69.56142776038735
 20
174.2931063474858
 10
69.51133331595517
 20
174.2423063474984
 10
69.46194442707883
 20
174.1915063475113
 10
69.41184998264697
 20
174.1410591253017
 10
69.36140276043736
 20
174.0902591253143
 10
69.31166109378293
 20
174.0394591253269
  0
LWPOLYLINE
  5
DC
330
70
100
AcDbEntity
  8
Standardebene
 62
     7
370
    35
100
AcDbPolyline
 90
       19
 70
     0
 43
0.0
 10
69.6115222048192
 20
174.3446119030287
 10
69.6115222048192
 20
173.7110230142981
 10
69.6115222048192
 20
172.8657674589536
 10
69.6115222048192
 20
171.8130785703281
 10
69.6115222048192
 20
170.559659126197
 10
69.6115222048192
 20
169.1125646821144
 10
69.6115222048192
 20
167.479556349189
 10
69.6115222048192
 20
165.6698063496418
 10
69.6115222048192
 20
163.6935452390245
 10
69.6115222048192
 20
161.5620619062242
 10
69.6115222048192
 20
159.2877035734594
 10
69.6115222048192
 20
156.8828174629495
 10
69.6115222048192
 20
154.3615146858021
 10
69.6115222048192
 20
151.7379063531247
 10
69.6115222048192
 20
149.0264563538026
 10
69.6115222048192
 20
146.2426869100539
 10
69.6115222048192
 20
143.402473021875
 10
69.6115222048192
 20
140.5216896892621
 10
69.6115222048192
 20
137.6165646899882
  0
LWPOLYLINE
  5
DD
330
70
100
AcDbEntity
  8
Standardebene
 62
     7
370
    35
100
AcDbPolyline
 90
       19
 70
     0
 43
0.0
 10
69.31166109378293
 20
137.3255230233944
 10
69.31166109378293
 20
140.2218285782258
 10
69.31166109378293
 20
143.0955563552851
 10
69.31166109378293
 20
145.9304785767986
 10
69.31166109378293
 20
148.7096619094374
 10
69.31166109378293
 20
151.4179369087602
 10
69.31166109378293
 20
154.0394285747713
 10
69.31166109378293
 20
156.5596730185858
 10
69.31166109378293
 20
158.9638535735405
 10
69.31166109378293
 20
161.2385646840827
 10
69.31166109378293
 20
163.3707535724385
 10
69.31166109378293
 20
165.3487785719443
 10
69.31166109378293
 20
167.1602924603801
 10
69.31166109378293
 20
168.7957702377491
 10
69.31166109378293
 20
170.2453341262754
 10
69.31166109378293
 20
171.5008702370727
 10
69.31166109378293
 20
172.5556757923645
 10
69.31166109378293
 20
173.4034007921527
 10
69.31166109378293
 20
174.0394591253269
  0
LINE
  5
DE
330
70
100
AcDbEntity
  8
Standardebene
 62
     7
370
    35
100
AcDbLine
 10
82.61173609045792
 20
137.6165646899882
 30
0.0
 11
69.6115222048192
 21
137.6165646899882
 31
0.0
  0
LINE
  5
DF
330
70
100
AcDbEntity
  8
Standardebene
 62
     7
370
    35
100
AcDbLine
 10
73.69563053713128
 20
174.3446119030287
 30
0.0
 11
69.6115222048192
 21
174.3446119030287
 31
0.0
  0
LWPOLYLINE
  5
E0
330
70
100
AcDbEntity
  8
Standardebene
 62
     7
370
    35
100
AcDbPolyline
 90
        5
 70
     0
 43
0.0
 10
73.96197775928695
 20
174.3255619030334
 10
73.89494998152606
 20
174.3301480141433
 10
73.82792220376487
 20
174.335086903031
 10
73.76124720378175
 20
174.339673014141
 10
73.69563053713128
 20
174.3446119030287
  0
LWPOLYLINE
  5
E1
330
70
100
AcDbEntity
  8
Standardebene
 62
     7
370
    35
100
AcDbPolyline
 90
        3
 70
     0
 43
0.0
 10
73.96197775928695
 20
173.8489591253746
 10
73.96197775928695
 20
174.1033119030889
 10
73.96197775928695
 20
174.3255619030334
  0
LINE
  5
E2
330
70
100
AcDbEntity
  8
Standardebene
 62
     7
370
    35
100
AcDbLine
 10
78.26198609154538
 20
173.8489591253746
 30
0.0
 11
73.96197775928695
 21
173.8489591253746
 31
0.0
  0
LWPOLYLINE
  5
E3
330
70
100
AcDbEntity
  8
Standardebene
 62
     7
370
    35
100
AcDbPolyline
 90
        3
 70
     0
 43
0.0
 10
78.26198609154538
 20
173.8489591253746
 10
78.26198609154538
 20
174.1033119030889
 10
78.26198609154538
 20
174.3255619030334
  0
LWPOLYLINE
  5
E4
330
70
100
AcDbEntity
  8
Standardebene
 62
     7
370
    35
100
AcDbPolyline
 90
        5
 70
     0
 43
0.0
 10
78.5279805359233
 20
174.3446119030287
 10
78.46236386927315
 20
174.339673014141
 10
78.39533609151195
 20
174.335086903031
 10
78.32866109152883
 20
174.3301480141433
 10
78.26198609154538
 20
174.3255619030334
  0
LINE
  5
E5
330
70
100
AcDbEntity
  8
Standardebene
 62
     7
370
    35
100
AcDbLine
 10
82.61173609045792
 20
174.3446119030287
 30
0.0
 11
78.5279805359233
 21
174.3446119030287
 31
0.0
  0
LINE
  5
E6
330
70
100
AcDbEntity
  8
Standardebene
 62
     7
370
    35
100
AcDbLine
 10
69.31166109378293
 20
134.2284869130577
 30
0.0
 11
82.91194997927163
 21
134.2284869130577
 31
0.0
  0
LINE
  5
E7
330
70
100
AcDbEntity
  8
Standardebene
 62
     7
370
    35
100
AcDbLine
 10
69.31166109378293
 20
137.3255230233944
 30
0.0
 11
69.31166109378293
 21
134.2284869130577
 31
0.0
  0
LINE
  5
E8
330
70
100
AcDbEntity
  8
Standardebene
 62
     7
370
    35
100
AcDbLine
 10
82.91194997927163
 20
137.3255230233944
 30
0.0
 11
82.91194997927163
 21
134.2284869130577
 31
0.0
  0
LWPOLYLINE
  5
E9
330
70
100
AcDbEntity
  8
Standardebene
 62
     7
370
    35
100
AcDbPolyline
 90
        4
 70
     0
 43
0.0
 10
82.91194997927163
 20
125.811209137384
 10
82.81176109040792
 20
125.6746841374182
 10
82.71192497932164
 20
125.7110202485203
 10
82.71192497932164
 20
134.2284869130577
  0
LINE
  5
EA
330
70
100
AcDbEntity
  8
Standardebene
 62
     7
370
    35
100
AcDbLine
 10
82.91194997927163
 20
125.811209137384
 30
0.0
 11
82.91194997927163
 21
134.2284869130577
 31
0.0
  0
LWPOLYLINE
  5
EB
330
70
100
AcDbEntity
  8
Standardebene
 62
     7
370
    35
100
AcDbPolyline
 90
       24
 70
     0
 43
0.0
 10
76.19894164761672
 20
132.442725802393
 10
75.49268053668203
 20
132.3764035801874
 10
74.83228053684735
 20
132.1478035802444
 10
74.26818887032165
 20
131.7728008025604
 10
73.84097498153948
 20
131.2792646915725
 10
73.58309442604848
 20
130.7042369139385
 10
73.51324442606582
 20
130.0904035807587
 10
73.6367166482573
 20
129.4829202475773
 10
73.94504442595793
 20
128.9269424699385
 10
74.41388609250728
 20
128.4630396922765
 10
75.01008053680286
 20
128.1271952479163
 10
75.68811942552208
 20
127.9430452479624
 10
76.3982610920112
 20
127.9243480257445
 10
77.08829442517206
 20
128.0728674701519
 10
77.70600831390659
 20
128.3780202478533
 10
78.20624720267031
 20
128.8158174699661
 10
78.55232220258402
 20
129.3552146920536
 10
78.71777498032045
 20
129.9552896919036
 10
78.69061109143828
 20
130.5719452473049
 10
78.47259442482599
 20
131.1596730249358
 10
78.08030553603514
 20
131.6736702470296
 10
77.54267220283641
 20
132.0772480247066
 10
76.89991109188595
 20
132.3400674690853
 10
76.19894164761672
 20
132.442725802393
  0
LWPOLYLINE
  5
EC
330
70
100
AcDbEntity
  8
Standardebene
 62
     7
370
    35
100
AcDbPolyline
 90
        3
 70
     0
 43
0.0
 10
82.71192497932164
 20
125.7110202485203
 10
69.5120388715107
 20
125.7110202485203
 10
69.5120388715107
 20
134.2284869130577
  0
LINE
  5
ED
330
70
100
AcDbEntity
  8
Standardebene
 62
     7
370
    35
100
AcDbLine
 10
69.41184998264697
 20
125.6746841374182
 30
0.0
 11
69.5120388715107
 21
125.7110202485203
 31
0.0
  0
LWPOLYLINE
  5
EE
330
70
100
AcDbEntity
  8
Standardebene
 62
     7
370
    35
100
AcDbPolyline
 90
        3
 70
     0
 43
0.0
 10
69.41184998264697
 20
125.6746841374182
 10
69.31166109378293
 20
125.811209137384
 10
69.31166109378293
 20
134.2284869130577
  0
LWPOLYLINE
  5
EF
330
70
100
AcDbEntity
  8
Standardebene
 62
     7
370
    35
100
AcDbPolyline
 90
       81
 70
     0
 43
0.0
 10
78.20659998044807
 20
130.3105369140369
 10
78.19636942489523
 20
130.1316785807484
 10
78.16673609156905
 20
129.9552896919036
 10
78.14521664713009
 20
129.8681535808142
 10
78.11805275824792
 20
129.7817230252803
 10
78.10323609158515
 20
129.7383313586246
 10
78.08630275825612
 20
129.6959980253019
 10
78.06936942492677
 20
129.6543702475344
 10
78.05067220270927
 20
129.6127424697669
 10
77.96635831384161
 20
129.451523025363
 10
77.86405275831164
 20
129.2980646920678
 10
77.83618331387394
 20
129.2603174698551
 10
77.80690275832583
 20
129.2243341365308
 10
77.77621109166668
 20
129.1879980254287
 10
77.74481386945232
 20
129.1523674698822
 10
77.6799027583577
 20
129.0839285810103
 10
77.61181664726354
 20
129.0190174699153
 10
77.46506109174461
 20
128.8973091366127
 10
77.3052527584514
 20
128.7886535810843
 10
77.28408609178988
 20
128.7759535810874
 10
77.26291942512837
 20
128.7632535810906
 10
77.24175275846717
 20
128.7512591366489
 10
77.21988053625046
 20
128.7392646922076
 10
77.17719442514997
 20
128.7156285811024
 10
77.13309720293878
 20
128.6937563588857
 10
77.04454998073862
 20
128.6521285811182
 10
76.95388609187254
 20
128.614028581128
 10
76.86075275856246
 20
128.5801619144696
 10
76.76585553636387
 20
128.5505285811437
 10
76.71752498082049
 20
128.5367702478139
 10
76.6691944252768
 20
128.5247758033723
 10
76.64449998083863
 20
128.5187785811516
 10
76.62015831417791
 20
128.5131341367087
 10
76.59546386973975
 20
128.5078424700432
 10
76.57041664752381
 20
128.5029035811556
 10
76.37250831424006
 20
128.4722119144967
 10
76.17283609206783
 20
128.4588063589444
 10
76.07194164764859
 20
128.4584535811666
 10
75.97104720322935
 20
128.4619813589436
 10
75.94529442545788
 20
128.463745247832
 10
75.91989442546419
 20
128.4662146922757
 10
75.89484720324827
 20
128.4679785811642
 10
75.86979998103235
 20
128.4704480256082
 10
75.82005831437824
 20
128.4764452478289
 10
75.77031664772381
 20
128.4831480256051
 10
75.57417220332856
 20
128.5212480255956
 10
75.38261387004292
 20
128.5755758033596
 10
75.33569442561027
 20
128.5918035811335
 10
75.28912775895538
 20
128.6087369144625
 10
75.26584442562762
 20
128.6179091366824
 10
75.24256109230018
 20
128.6267285811245
 10
75.21963053675048
 20
128.6366063588999
 10
75.19705275897824
 20
128.6461313588975
 10
75.10709442566737
 20
128.687759136665
 10
75.02066387013346
 20
128.7325619144314
 10
74.85485831461926
 20
128.8327508032955
 10
74.69998887021375
 20
128.9470508032667
 10
74.68129164799624
 20
128.962573025485
 10
74.66329998133393
 20
128.9777424699259
 10
74.64495553689419
 20
128.9939702476994
 10
74.62731664800966
 20
129.0098452476954
 10
74.59239164801832
 20
129.0419480254653
 10
74.55852498136028
 20
129.0744035810126
 10
74.49326109248757
 20
129.142136914329
 10
74.4318777591696
 20
129.2126924698669
 10
74.37402220362859
 20
129.285364692071
 10
74.32075275919752
 20
129.3608591364965
 10
74.29535275920382
 20
129.3993119142649
 10
74.27101109254309
 20
129.4391758031439
 10
74.25901664810178
 20
129.4585785809166
 10
74.24772775921565
 20
129.4790396920226
 10
74.23608609255177
 20
129.4991480253511
 10
74.22514998144341
 20
129.5189035809016
 10
74.14789164812937
 20
129.6840035808603
 10
74.0896833148106
 20
129.8536896919289
 10
74.06710553703868
 20
129.9401202474631
 10
74.04876109259863
 20
130.0283146918855
 10
74.04170553704499
 20
130.0731174696519
 10
74.03570831482433
 20
130.1175674696408
 10
74.03112220371408
 20
130.1623702474072
 10
74.02759442593742
 20
130.207173025174
  0
LWPOLYLINE
  5
F0
330
70
100
AcDbEntity
  8
Standardebene
 62
     7
370
    35
100
AcDbPolyline
 90
       91
 70
     0
 43
0.0
 10
78.20659998044807
 20
130.3105369140369
 10
78.21189164711353
 20
130.4047285806803
 10
78.2104805360028
 20
130.4982146917678
 10
78.20377775822662
 20
130.5913480250779
 10
78.19143053600753
 20
130.6848341361658
 10
78.18296386934287
 20
130.7314008028207
 10
78.17308609156746
 20
130.7772619139203
 10
78.16214998045911
 20
130.8238285805752
 10
78.14944998046226
 20
130.8696896916749
 10
78.12052220269191
 20
130.9596480249858
 10
78.08630275825612
 20
131.0485480249637
 10
78.0464388693771
 20
131.1356841360528
 10
78.00198886938814
 20
131.2199980249208
 10
77.95224720273404
 20
131.3036063582333
 10
77.89686109163672
 20
131.3843924693243
 10
77.88239720275139
 20
131.4048535804299
 10
77.86722775831084
 20
131.424256358203
 10
77.85170553609255
 20
131.4443646915312
 10
77.8365360916517
 20
131.4634146915265
 10
77.80478609165959
 20
131.501514691517
 10
77.77162498055675
 20
131.538909135952
 10
77.70283331390739
 20
131.6115813581561
 10
77.63016109170329
 20
131.6803730248058
 10
77.55290275838925
 20
131.7463424692337
 10
77.47105831396527
 20
131.8084313581069
 10
77.45024442508152
 20
131.8236008025478
 10
77.42907775842032
 20
131.8387702469883
 10
77.40755831398137
 20
131.8532341358736
 10
77.38533331398689
 20
131.867698024759
 10
77.34088331399793
 20
131.8959202469741
 10
77.29643331400897
 20
131.923084135856
 10
77.20435831403216
 20
131.9738841358434
 10
77.11016664738878
 20
132.0204508024986
 10
77.0127999807465
 20
132.0627841358213
 10
76.91261109188279
 20
132.1008841358118
 10
76.86181109189542
 20
132.1178174691408
 10
76.8095999807973
 20
132.1340452469146
 10
76.78384720302616
 20
132.1418063580238
 10
76.7573888696992
 20
132.1492146913552
 10
76.7312833141503
 20
132.1562702469088
 10
76.70482498082364
 20
132.162973024685
 10
76.59899164751671
 20
132.1873146913457
 10
76.49139442532129
 20
132.2067174691184
 10
76.38344442534841
 20
132.2211813580038
 10
76.27478886982003
 20
132.2307063580014
 10
76.22010831427823
 20
132.2331758024454
 10
76.16507498095835
 20
132.2349396913335
 10
76.13755831429874
 20
132.2356452468891
 10
76.1100416476388
 20
132.2356452468891
 10
76.08252498097918
 20
132.2356452468891
 10
76.05430275876404
 20
132.2349396913335
 10
75.94458886990236
 20
132.2300008024462
 10
75.83558053659654
 20
132.219770246893
 10
75.72763053662335
 20
132.2046008024525
 10
75.62073886998345
 20
132.1848452469017
 10
75.51455275889907
 20
132.1601508024635
 10
75.40977775892509
 20
132.1308702469154
 10
75.35827220338251
 20
132.1146424691416
 10
75.3067666478396
 20
132.0966508024793
 10
75.25631942562998
 20
132.0779535802618
 10
75.20693053675365
 20
132.0585508024888
 10
75.10921109233362
 20
132.0151591358331
 10
75.0146666479128
 20
131.9685924691782
 10
74.92364998126895
 20
131.9170869136353
 10
74.83439720351327
 20
131.861700802538
 10
74.79135831463536
 20
131.8320674692121
 10
74.74902498131264
 20
131.8024341358863
 10
74.70774998132291
 20
131.7710369136719
 10
74.66753331466612
 20
131.738934135902
 10
74.59027498135208
 20
131.6726119136963
 10
74.51689720359278
 20
131.6031146914918
 10
74.44881109249862
 20
131.5304424692877
 10
74.38425275918142
 20
131.4545952470844
 10
74.3535610925226
 20
131.4157896915386
 10
74.32392775919672
 20
131.3752202471041
 10
74.29605831475902
 20
131.3350035804476
 10
74.26889442587685
 20
131.2937285804579
 10
74.21915275922275
 20
131.2104730249232
 10
74.17470275923379
 20
131.1251008027222
 10
74.13519164813253
 20
131.0383174694105
 10
74.10132498147449
 20
130.949417469433
 10
74.08615553703396
 20
130.9042619138885
 10
74.07274998148158
 20
130.8587535805666
 10
74.0604027592625
 20
130.8128924694669
 10
74.04911387037637
 20
130.766325802812
 10
74.03147498149184
 20
130.6738980250574
 10
74.01912775927275
 20
130.5811174695251
 10
74.01277775927432
 20
130.487984136215
 10
74.01242498149656
 20
130.3948508029049
 10
74.01701109260651
 20
130.3013646918171
 10
74.02759442593742
 20
130.207173025174
  0
LWPOLYLINE
  5
F1
330
70
100
AcDbEntity
  8
Standardebene
 62
     7
370
    35
100
AcDbPolyline
 90
       20
 70
     0
 43
0.0
 10
76.11215831430505
 20
128.623906358903
 10
75.49514998112603
 20
128.7180980255461
 10
74.9451694257079
 20
128.9897369143672
 10
74.52113053692496
 20
129.4102480253732
 10
74.27030553698789
 20
129.9334174696869
 10
74.21844720366755
 20
130.5031535806555
 10
74.37190553696233
 20
131.057014691628
 10
74.71409998132132
 20
131.5353813581754
 10
75.20763609230884
 20
131.8863952469765
 10
75.79924442549449
 20
132.0719563580411
 10
76.42471942533816
 20
132.0719563580411
 10
77.01597498074573
 20
131.8863952469765
 10
77.50951109173357
 20
131.5353813581754
 10
77.85170553609255
 20
131.057014691628
 10
78.00516386938735
 20
130.5031535806555
 10
77.95401109162252
 20
129.9334174696869
 10
77.70212775835218
 20
129.4102480253732
 10
77.27879442512443
 20
128.9897369143672
 10
76.72846109192885
 20
128.7180980255461
 10
76.11215831430505
 20
128.623906358903
  0
LWPOLYLINE
  5
F2
330
70
100
AcDbEntity
  8
Standardebene
 62
     7
370
    35
100
AcDbPolyline
 90
        3
 70
     0
 43
0.0
 10
74.02759442593742
 20
130.207173025174
 10
74.01559998149578
 20
130.324295247367
 10
74.01207220371913
 20
130.4407119140046
  0
LWPOLYLINE
  5
F3
330
70
100
AcDbEntity
  8
Standardebene
 62
     7
370
    35
100
AcDbPolyline
 90
        3
 70
     0
 43
0.0
 10
78.21189164711353
 20
130.4407119140046
 10
78.2104805360028
 20
130.3754480251319
 10
78.20659998044807
 20
130.3105369140369
  0
LINE
  5
F4
330
70
100
AcDbEntity
  8
Standardebene
 62
     7
370
    35
100
AcDbLine
 10
76.11215831430505
 20
131.7311730247929
 30
0.0
 11
74.81217220351879
 21
131.0450202471867
 31
0.0
  0
LINE
  5
F5
330
70
100
AcDbEntity
  8
Standardebene
 62
     7
370
    35
100
AcDbLine
 10
74.81217220351879
 20
129.6737730253074
 30
0.0
 11
74.81217220351879
 21
131.0450202471867
 31
0.0
  0
LWPOLYLINE
  5
F6
330
70
100
AcDbEntity
  8
Standardebene
 62
     7
370
    35
100
AcDbPolyline
 90
        3
 70
     0
 43
0.0
 10
74.81217220351879
 20
129.6737730253074
 10
76.11215831430505
 20
128.9879730254787
 10
77.4121444250913
 20
129.6737730253074
  0
LINE
  5
F7
330
70
100
AcDbEntity
  8
Standardebene
 62
     7
370
    35
100
AcDbLine
 10
77.4121444250913
 20
131.0450202471867
 30
0.0
 11
77.4121444250913
 21
129.6737730253074
 31
0.0
  0
LINE
  5
F8
330
70
100
AcDbEntity
  8
Standardebene
 62
     7
370
    35
100
AcDbLine
 10
77.4121444250913
 20
131.0450202471867
 30
0.0
 11
76.11215831430505
 21
131.7311730247929
 31
0.0
  0
LINE
  5
F9
330
70
100
AcDbEntity
  8
Standardebene
 62
     7
370
    35
100
AcDbLine
 10
76.11215831430505
 20
130.4117841362339
 30
0.0
 11
76.11215831430505
 21
128.9879730254787
 31
0.0
  0
LWPOLYLINE
  5
FA
330
70
100
AcDbEntity
  8
Standardebene
 62
     7
370
    35
100
AcDbPolyline
 90
        3
 70
     0
 43
0.0
 10
77.36204998065912
 20
131.0714785805134
 10
76.11215831430505
 20
130.4117841362339
 10
74.86120831461768
 20
131.0714785805134
  0
LWPOLYLINE
  5
FB
330
70
100
AcDbEntity
  8
Standardebene
 62
     7
370
    35
100
AcDbPolyline
 90
        3
 70
     0
 43
0.0
 10
68.11186387186072
 20
127.2985202481234
 10
68.58317498285408
 20
129.5721730253327
 10
69.31166109378293
 20
131.7939674692216
  0
LWPOLYLINE
  5
FC
330
70
100
AcDbEntity
  8
Standardebene
 62
     7
370
    35
100
AcDbPolyline
 90
        3
 70
     0
 43
0.0
 10
82.91194997927163
 20
131.7939674692216
 10
83.64008331242304
 20
129.5721730253327
 10
84.11209997897161
 20
127.2985202481234
  0
LINE
  5
FD
330
70
100
AcDbEntity
  8
Standardebene
 62
     7
370
    35
100
AcDbLine
 10
84.11209997897161
 20
122.3434035826954
 30
0.0
 11
84.11209997897161
 21
127.2985202481234
 31
0.0
  0
LWPOLYLINE
  5
FE
330
70
100
AcDbEntity
  8
Standardebene
 62
     7
370
    35
100
AcDbPolyline
 90
        5
 70
     0
 43
0.0
 10
83.24109164585602
 20
118.7591813613693
 10
83.52049164578629
 20
119.6435952500369
 10
83.76038053461533
 20
120.5357702498141
 10
83.9579360901213
 20
121.4353535829226
 10
84.11209997897161
 20
122.3434035826954
  0
LINE
  5
FF
330
70
100
AcDbEntity
  8
Standardebene
 62
     7
370
    35
100
AcDbLine
 10
83.24109164585602
 20
118.7591813613693
 30
0.0
 11
78.5279805359233
 21
118.7591813613693
 31
0.0
  0
LWPOLYLINE
  5
100
330
70
100
AcDbEntity
  8
Standardebene
 62
     7
370
    35
100
AcDbPolyline
 90
        5
 70
     0
 43
0.0
 10
73.69563053713128
 20
118.7591813613693
 10
74.88166942572369
 20
118.4572035836671
 10
76.11215831430505
 20
118.3552508059146
 10
77.34264720288641
 20
118.4572035836671
 10
78.5279805359233
 20
118.7591813613693
  0
LWPOLYLINE
  5
101
330
70
100
AcDbEntity
  8
Standardebene
 62
     7
370
    35
100
AcDbPolyline
 90
        7
 70
     0
 43
0.0
 10
73.69563053713128
 20
118.7591813613693
 10
68.98287220497632
 20
118.7591813613693
 10
68.70347220504604
 20
119.6435952500369
 10
68.46323053843957
 20
120.5357702498141
 10
68.26532220515582
 20
121.4353535829226
 10
68.11186387186072
 20
122.3434035826954
 10
68.11186387186072
 20
127.2985202481234
  0
LINE
  5
102
330
70
100
AcDbEntity
  8
Standardebene
 62
     7
370
    35
100
AcDbLine
 10
69.6115222048192
 20
97.48209525557745
 30
0.0
 11
82.61173609045792
 21
97.48209525557745
 31
0.0
  0
LWPOLYLINE
  5
103
330
70
100
AcDbEntity
  8
Standardebene
 62
     7
370
    35
100
AcDbPolyline
 90
       12
 70
     0
 43
0.0
 10
69.6115222048192
 20
111.1130758077253
 10
69.6115222048192
 20
108.8718785860633
 10
69.6115222048192
 20
106.799309142137
 10
69.6115222048192
 20
104.9091258092762
 10
69.6115222048192
 20
103.2129702541447
 10
69.6115222048192
 20
101.7207202545179
 10
69.6115222048192
 20
100.4426063659483
 10
69.6115222048192
 20
99.38568414399036
 10
69.6115222048192
 20
98.55665636642001
 10
69.6115222048192
 20
97.96046192212443
 10
69.6115222048192
 20
97.60168692221419
 10
69.6115222048192
 20
97.48209525557745
  0
LINE
  5
104
330
70
100
AcDbEntity
  8
Standardebene
 62
     7
370
    35
100
AcDbLine
 10
73.69563053713128
 20
111.1130758077253
 30
0.0
 11
69.6115222048192
 21
111.1130758077253
 31
0.0
  0
LWPOLYLINE
  5
105
330
70
100
AcDbEntity
  8
Standardebene
 62
     7
370
    35
100
AcDbPolyline
 90
        5
 70
     0
 43
0.0
 10
73.96197775928695
 20
111.036170252189
 10
73.89494998152606
 20
111.0545146966287
 10
73.82792220376487
 20
111.0732119188463
 10
73.76124720378175
 20
111.092967474397
 10
73.69563053713128
 20
111.1130758077253
  0
LWPOLYLINE
  5
106
330
70
100
AcDbEntity
  8
Standardebene
 62
     7
370
    35
100
AcDbPolyline
 90
        3
 70
     0
 43
0.0
 10
73.96197775928695
 20
109.3689424748278
 10
73.96197775928695
 20
110.1912674746223
 10
73.96197775928695
 20
111.036170252189
  0
LINE
  5
107
330
70
100
AcDbEntity
  8
Standardebene
 62
     7
370
    35
100
AcDbLine
 10
78.26198609154538
 20
109.3689424748278
 30
0.0
 11
73.96197775928695
 21
109.3689424748278
 31
0.0
  0
LWPOLYLINE
  5
108
330
70
100
AcDbEntity
  8
Standardebene
 62
     7
370
    35
100
AcDbPolyline
 90
        3
 70
     0
 43
0.0
 10
78.26198609154538
 20
109.3689424748278
 10
78.26198609154538
 20
110.1912674746223
 10
78.26198609154538
 20
111.036170252189
  0
LWPOLYLINE
  5
109
330
70
100
AcDbEntity
  8
Standardebene
 62
     7
370
    35
100
AcDbPolyline
 90
        5
 70
     0
 43
0.0
 10
78.5279805359233
 20
111.1130758077253
 10
78.46236386927315
 20
111.092967474397
 10
78.39533609151195
 20
111.0732119188463
 10
78.32866109152883
 20
111.0545146966287
 10
78.26198609154538
 20
111.036170252189
  0
LINE
  5
10A
330
70
100
AcDbEntity
  8
Standardebene
 62
     7
370
    35
100
AcDbLine
 10
82.61173609045792
 20
111.1130758077253
 30
0.0
 11
78.5279805359233
 21
111.1130758077253
 31
0.0
  0
LWPOLYLINE
  5
10B
330
70
100
AcDbEntity
  8
Standardebene
 62
     7
370
    35
100
AcDbPolyline
 90
       12
 70
     0
 43
0.0
 10
82.61173609045792
 20
97.48209525557745
 10
82.61173609045792
 20
97.60168692221419
 10
82.61173609045792
 20
97.96046192212443
 10
82.61173609045792
 20
98.55665636642001
 10
82.61173609045792
 20
99.38568414399036
 10
82.61173609045792
 20
100.4426063659483
 10
82.61173609045792
 20
101.7207202545179
 10
82.61173609045792
 20
103.2129702541447
 10
82.61173609045792
 20
104.9091258092762
 10
82.61173609045792
 20
106.799309142137
 10
82.61173609045792
 20
108.8718785860633
 10
82.61173609045792
 20
111.1130758077253
  0
LINE
  5
10C
330
70
100
AcDbEntity
  8
Standardebene
 62
     7
370
    35
100
AcDbLine
 10
82.61173609045792
 20
97.48209525557745
 30
0.0
 11
82.91194997927163
 21
97.78160358883596
 31
0.0
  0
LWPOLYLINE
  5
10D
330
70
100
AcDbEntity
  8
Standardebene
 62
     7
370
    35
100
AcDbPolyline
 90
        7
 70
     0
 43
0.0
 10
82.91194997927163
 20
111.2658285854649
 10
82.86185553483978
 20
111.2404285854712
 10
82.81176109040792
 20
111.2150285854775
 10
82.76237220153126
 20
111.1896285854838
 10
82.7122777570994
 20
111.1642285854901
 10
82.66218331266754
 20
111.1388285854967
 10
82.61173609045792
 20
111.1130758077253
  0
LWPOLYLINE
  5
10E
330
70
100
AcDbEntity
  8
Standardebene
 62
     7
370
    35
100
AcDbPolyline
 90
       12
 70
     0
 43
0.0
 10
82.91194997927163
 20
111.2658285854649
 10
82.91194997927163
 20
109.0482674749081
 10
82.91194997927163
 20
106.9979230309763
 10
82.91194997927163
 20
105.1278480314437
 10
82.91194997927163
 20
103.4503896985297
 10
82.91194997927163
 20
101.9747202544545
 10
82.91194997927163
 20
100.7096591436595
 10
82.91194997927163
 20
99.66473136614286
 10
82.91194997927163
 20
98.84487581079241
 10
82.91194997927163
 20
98.25538414427301
 10
82.91194997927163
 20
97.90013692213975
 10
82.91194997927163
 20
97.78160358883596
  0
LINE
  5
10F
330
70
100
AcDbEntity
  8
Standardebene
 62
     7
370
    35
100
AcDbLine
 10
69.31166109378293
 20
97.78160358883596
 30
0.0
 11
69.6115222048192
 21
97.48209525557745
 31
0.0
  0
LWPOLYLINE
  5
110
330
70
100
AcDbEntity
  8
Standardebene
 62
     7
370
    35
100
AcDbPolyline
 90
       12
 70
     0
 43
0.0
 10
69.31166109378293
 20
97.78160358883596
 10
69.31166109378293
 20
97.90013692213975
 10
69.31166109378293
 20
98.25538414427301
 10
69.31166109378293
 20
98.84487581079241
 10
69.31166109378293
 20
99.66473136614286
 10
69.31166109378293
 20
100.7096591436595
 10
69.31166109378293
 20
101.9747202544545
 10
69.31166109378293
 20
103.4503896985297
 10
69.31166109378293
 20
105.1278480314437
 10
69.31166109378293
 20
106.9979230309763
 10
69.31166109378293
 20
109.0482674749081
 10
69.31166109378293
 20
111.2658285854649
  0
LWPOLYLINE
  5
111
330
70
100
AcDbEntity
  8
Standardebene
 62
     7
370
    35
100
AcDbPolyline
 90
        7
 70
     0
 43
0.0
 10
69.6115222048192
 20
111.1130758077253
 10
69.56142776038735
 20
111.1388285854967
 10
69.51133331595517
 20
111.1642285854901
 10
69.46194442707883
 20
111.1896285854838
 10
69.41184998264697
 20
111.2150285854775
 10
69.36140276043736
 20
111.2404285854712
 10
69.31166109378293
 20
111.2658285854649
  0
LWPOLYLINE
  5
112
330
70
100
AcDbEntity
  8
Standardebene
 62
     7
370
    35
100
AcDbPolyline
 90
        4
 70
     0
 43
0.0
 10
82.81176109040792
 20
125.6746841374182
 10
82.71192497932164
 20
125.6379952485384
 10
69.5120388715107
 20
125.6379952485384
 10
69.41184998264697
 20
125.6746841374182
  0
LWPOLYLINE
  5
113
330
70
100
AcDbEntity
  8
Standardebene
 62
     7
370
    35
100
AcDbPolyline
 90
        5
 70
     0
 43
0.0
 10
68.98287220497632
 20
159.0534591290736
 10
68.70347220504604
 20
159.0534591290736
 10
68.46323053843957
 20
159.0534591290736
 10
68.26532220515582
 20
159.0534591290736
 10
68.11186387186072
 20
159.0534591290736
  0
LWPOLYLINE
  5
114
330
70
100
AcDbEntity
  8
Standardebene
 62
     7
370
    35
100
AcDbPolyline
 90
        5
 70
     0
 43
0.0
 10
68.98287220497632
 20
159.0534591290736
 10
69.06471664940029
 20
159.1388313512742
 10
69.14691387160202
 20
159.2249091290307
 10
69.22911109380376
 20
159.3109869067868
 10
69.31166109378293
 20
159.3974174623207
  0
LWPOLYLINE
  5
115
330
70
100
AcDbEntity
  8
Standardebene
 62
     7
370
    35
100
AcDbPolyline
 90
       20
 70
     0
 43
0.0
 10
68.11186387186072
 20
127.2985202481234
 10
68.11186387186072
 20
129.3957841364879
 10
68.11186387186072
 20
131.5572535803921
 10
68.11186387186072
 20
133.762114690952
 10
68.11186387186072
 20
135.9909646903945
 10
68.11186387186072
 20
138.2219313565036
 10
68.11186387186072
 20
140.4338480226171
 10
68.11186387186072
 20
142.6062535776297
 10
68.11186387186072
 20
144.7186869104351
 10
68.11186387186072
 20
146.7513924654823
 10
68.11186387186072
 20
148.6849674649989
 10
68.11186387186072
 20
150.5007146867671
 10
68.11186387186072
 20
152.1827591307911
 10
68.11186387186072
 20
153.7138146859639
 10
68.11186387186072
 20
155.0808285745111
 10
68.11186387186072
 20
156.2696896853249
 10
68.11186387186072
 20
157.2701674628526
 10
68.11186387186072
 20
158.0716785737634
 10
68.11186387186072
 20
158.6685785736141
 10
68.11186387186072
 20
159.0534591290736
  0
LWPOLYLINE
  5
116
330
70
100
AcDbEntity
  8
Standardebene
 62
     7
370
    35
100
AcDbPolyline
 90
        5
 70
     0
 43
0.0
 10
83.24109164585602
 20
159.0534591290736
 10
83.15924720143204
 20
159.1388313512742
 10
83.07704997923064
 20
159.2249091290307
 10
82.99414720147337
 20
159.3109869067868
 10
82.91194997927163
 20
159.3974174623207
  0
LWPOLYLINE
  5
117
330
70
100
AcDbEntity
  8
Standardebene
 62
     7
370
    35
100
AcDbPolyline
 90
       24
 70
     0
 43
0.0
 10
83.24109164585602
 20
159.0534591290736
 10
83.52049164578629
 20
159.0534591290736
 10
83.76038053461533
 20
159.0534591290736
 10
83.9579360901213
 20
159.0534591290736
 10
84.11209997897161
 20
159.0534591290736
 10
84.11209997897161
 20
158.6685785736141
 10
84.11209997897161
 20
158.0716785737634
 10
84.11209997897161
 20
157.2701674628526
 10
84.11209997897161
 20
156.2696896853249
 10
84.11209997897161
 20
155.0808285745111
 10
84.11209997897161
 20
153.7138146859639
 10
84.11209997897161
 20
152.1827591307911
 10
84.11209997897161
 20
150.5007146867671
 10
84.11209997897161
 20
148.6849674649989
 10
84.11209997897161
 20
146.7513924654823
 10
84.11209997897161
 20
144.7186869104351
 10
84.11209997897161
 20
142.6062535776297
 10
84.11209997897161
 20
140.4338480226171
 10
84.11209997897161
 20
138.2219313565036
 10
84.11209997897161
 20
135.9909646903945
 10
84.11209997897161
 20
133.762114690952
 10
84.11209997897161
 20
131.5572535803921
 10
84.11209997897161
 20
129.3957841364879
 10
84.11209997897161
 20
127.2985202481234
  0
LWPOLYLINE
  5
118
330
70
100
AcDbEntity
  8
Standardebene
 62
     7
370
    35
100
AcDbPolyline
 90
       17
 70
     0
 43
0.0
 10
78.26198609154538
 20
118.1668674726284
 10
78.00657498049807
 20
118.0635035837655
 10
77.74693053611859
 20
117.9721341393439
 10
77.48340553618437
 20
117.8931119171414
 10
77.21564720291796
 20
117.8271424727135
 10
76.94471386965235
 20
117.7745785838376
 10
76.67166386972081
 20
117.7371841394026
 10
76.39684998090046
 20
117.7135480282974
 10
76.12097775874715
 20
117.7057869171882
 10
75.84581109214937
 20
117.7124896949644
 10
75.57029164777382
 20
117.7347146949586
 10
75.29618331450901
 20
117.7717563616162
 10
75.02419164791042
 20
117.8236146949365
 10
74.75396387020002
 20
117.8895841393644
 10
74.48726387026692
 20
117.9686063615669
 10
74.22303331477748
 20
118.0610341393215
 10
73.96197775928695
 20
118.1668674726284
  0
LINE
  5
119
330
70
100
AcDbEntity
  8
Standardebene
 62
     7
370
    35
100
AcDbLine
 10
73.69563053713128
 20
118.7591813613693
 30
0.0
 11
73.69563053713128
 21
111.1130758077253
 31
0.0
  0
LINE
  5
11A
330
70
100
AcDbEntity
  8
Standardebene
 62
     7
370
    35
100
AcDbLine
 10
78.5279805359233
 20
118.7591813613693
 30
0.0
 11
78.5279805359233
 21
111.1130758077253
 31
0.0
  0
LINE
  5
11B
330
70
100
AcDbEntity
  8
Standardebene
 62
     7
370
    35
100
AcDbLine
 10
78.26198609154538
 20
118.1668674726284
 30
0.0
 11
78.26198609154538
 21
111.036170252189
 31
0.0
  0
LINE
  5
11C
330
70
100
AcDbEntity
  8
Standardebene
 62
     7
370
    35
100
AcDbLine
 10
73.96197775928695
 20
118.1668674726284
 30
0.0
 11
73.96197775928695
 21
111.036170252189
 31
0.0
  0
LWPOLYLINE
  5
11D
330
70
100
AcDbEntity
  8
Standardebene
 62
     7
370
    35
100
AcDbPolyline
 90
        5
 70
     0
 43
0.0
 10
68.98287220497632
 20
118.7591813613693
 10
69.06471664940029
 20
118.7157896947136
 10
69.14691387160202
 20
118.6727508058354
 10
69.22911109380376
 20
118.6300646947349
 10
69.31166109378293
 20
118.5870258058567
  0
LINE
  5
11E
330
70
100
AcDbEntity
  8
Standardebene
 62
     7
370
    35
100
AcDbLine
 10
69.31166109378293
 20
111.2658285854649
 30
0.0
 11
69.31166109378293
 21
118.5870258058567
 31
0.0
  0
LWPOLYLINE
  5
11F
330
70
100
AcDbEntity
  8
Standardebene
 62
     7
370
    35
100
AcDbPolyline
 90
        5
 70
     0
 43
0.0
 10
83.24109164585602
 20
118.7591813613693
 10
83.15924720143204
 20
118.7157896947136
 10
83.07704997923064
 20
118.6727508058354
 10
82.99414720147337
 20
118.6300646947349
 10
82.91194997927163
 20
118.5870258058567
  0
LINE
  5
120
330
70
100
AcDbEntity
  8
Standardebene
 62
     7
370
    35
100
AcDbLine
 10
82.91194997927163
 20
111.2658285854649
 30
0.0
 11
82.91194997927163
 21
118.5870258058567
 31
0.0
  0
LINE
  5
121
330
70
100
AcDbEntity
  8
Standardebene
 62
     7
370
    35
100
AcDbLine
 10
82.91194997927163
 20
112.031709140829
 30
0.0
 11
84.11209997897161
 21
113.2315063627513
 31
0.0
  0
LWPOLYLINE
  5
122
330
70
100
AcDbEntity
  8
Standardebene
 62
     7
370
    35
100
AcDbPolyline
 90
       10
 70
     0
 43
0.0
 10
84.11209997897161
 20
122.3434035826954
 10
84.11209997897161
 20
120.5407091387018
 10
84.11209997897161
 20
118.9024091391112
 10
84.11209997897161
 20
117.4461424728088
 10
84.11209997897161
 20
116.1867258064567
 10
84.11209997897161
 20
115.1379174733856
 10
84.11209997897161
 20
114.310300806926
 10
84.11209997897161
 20
113.7134008070752
 10
84.11209997897161
 20
113.352156362721
 10
84.11209997897161
 20
113.2315063627513
  0
LINE
  5
123
330
70
100
AcDbEntity
  8
Standardebene
 62
     7
370
    35
100
AcDbLine
 10
68.11186387186072
 20
113.2315063627513
 30
0.0
 11
69.31166109378293
 21
112.031709140829
 31
0.0
  0
LWPOLYLINE
  5
124
330
70
100
AcDbEntity
  8
Standardebene
 62
     7
370
    35
100
AcDbPolyline
 90
       10
 70
     0
 43
0.0
 10
68.11186387186072
 20
113.2315063627513
 10
68.11186387186072
 20
113.352156362721
 10
68.11186387186072
 20
113.7134008070752
 10
68.11186387186072
 20
114.310300806926
 10
68.11186387186072
 20
115.1379174733856
 10
68.11186387186072
 20
116.1867258064567
 10
68.11186387186072
 20
117.4461424728088
 10
68.11186387186072
 20
118.9024091391112
 10
68.11186387186072
 20
120.5407091387018
 10
68.11186387186072
 20
122.3434035826954
  0
LWPOLYLINE
  5
125
330
70
100
AcDbEntity
  8
Standardebene
  6
AI-Linetype-0
 62
     7
370
     9
100
AcDbPolyline
 90
        6
 70
     0
 43
0.0
 10
87.61200831143007
 20
136.2315591347791
 10
85.1115194231664
 20
136.2315591347791
 10
82.61173609045792
 20
136.2315591347791
 10
76.86216386967316
 20
136.2315591347791
 10
69.6115222048192
 20
136.2315591347791
 10
66.11161387236075
 20
136.2315591347791
  0
LWPOLYLINE
  5
127
330
70
100
AcDbEntity
  8
Standardebene
  6
AI-Linetype-1
 62
     7
370
     9
100
AcDbPolyline
 90
        4
 70
     0
 43
0.0
 10
143.0630305197896
 20
96.41395733170199
 10
143.0630305197896
 20
156.0820119075943
 10
143.0630305197896
 20
157.5816702405525
 10
143.0630305197896
 20
176.6817646802222
  0
LWPOLYLINE
  5
129
330
70
100
AcDbEntity
  8
Standardebene
  6
AI-Linetype-2
 62
     7
370
     9
100
AcDbPolyline
 90
        3
 70
     0
 43
0.0
 10
184.3107744977808
 20
136.2315591347791
 10
123.2129305247521
 20
136.2315591347791
 10
102.699598432278
 20
136.2315591347791
  0
LINE
  5
12C
330
70
100
AcDbEntity
  8
Bemaßung
 62
     7
370
     9
100
AcDbLine
 10
137.2633638545726
 20
167.4657980158592
 30
0.0
 11
137.2633638545726
 21
185.0471248067346
 31
0.0
  0
LINE
  5
12D
330
70
100
AcDbEntity
  8
Bemaßung
 62
     7
370
     9
100
AcDbLine
 10
150.0635527402617
 20
174.0394591253269
 30
0.0
 11
150.0635527402617
 21
185.0471248067346
 31
0.0
  0
LINE
  5
12E
330
70
100
AcDbEntity
  8
Bemaßung
 62
     7
370
     9
100
AcDbLine
 10
137.2633638545726
 20
183.0465220294569
 30
0.0
 11
150.0635527402617
 21
183.0465220294569
 31
0.0
  0
LWPOLYLINE
  5
12F
330
70
100
AcDbEntity
  8
Bemaßung
 62
     7
370
     9
100
AcDbPolyline
 90
        4
 70
     0
 43
0.0
 10
137.2633638545726
 20
183.0465220294569
 10
140.7629194092534
 20
182.5861470295719
 10
140.7629194092534
 20
183.5076025848971
 10
137.2633638545726
 20
183.0465220294569
  0
LINE
  5
130
330
70
100
AcDbEntity
  8
Bemaßung
 62
     7
370
     9
100
AcDbLine
 10
140.7629194092534
 20
182.5896748073489
 30
0.0
 11
140.7357555203715
 21
182.5896748073489
 31
0.0
  0
LINE
  5
131
330
70
100
AcDbEntity
  8
Bemaßung
 62
     7
370
     9
100
AcDbLine
 10
140.7629194092534
 20
182.5896748073489
 30
0.0
 11
140.7357555203715
 21
182.5896748073489
 31
0.0
  0
LINE
  5
132
330
70
100
AcDbEntity
  8
Bemaßung
 62
     7
370
     9
100
AcDbLine
 10
140.7629194092534
 20
182.6404748073363
 30
0.0
 11
140.3505221871343
 21
182.6404748073363
 31
0.0
  0
LINE
  5
133
330
70
100
AcDbEntity
  8
Bemaßung
 62
     7
370
     9
100
AcDbLine
 10
140.7629194092534
 20
182.6916275851011
 30
0.0
 11
139.9642305205644
 21
182.6916275851011
 31
0.0
  0
LINE
  5
134
330
70
100
AcDbEntity
  8
Bemaßung
 62
     7
370
     9
100
AcDbLine
 10
140.7629194092534
 20
182.7420748073107
 30
0.0
 11
139.5786444095494
 21
182.7420748073107
 31
0.0
  0
LINE
  5
135
330
70
100
AcDbEntity
  8
Bemaßung
 62
     7
370
     9
100
AcDbLine
 10
140.7629194092534
 20
182.7928748072981
 30
0.0
 11
139.1923527429796
 21
182.7928748072981
 31
0.0
  0
LINE
  5
136
330
70
100
AcDbEntity
  8
Bemaßung
 62
     7
370
     9
100
AcDbLine
 10
140.7629194092534
 20
182.8436748072851
 30
0.0
 11
138.8067666319646
 21
182.8436748072851
 31
0.0
  0
LINE
  5
137
330
70
100
AcDbEntity
  8
Bemaßung
 62
     7
370
     9
100
AcDbLine
 10
140.7629194092534
 20
182.8944748072725
 30
0.0
 11
138.4208277431725
 21
182.8944748072725
 31
0.0
  0
LINE
  5
138
330
70
100
AcDbEntity
  8
Bemaßung
 62
     7
370
     9
100
AcDbLine
 10
140.7629194092534
 20
182.9452748072599
 30
0.0
 11
138.0352416321575
 21
182.9452748072599
 31
0.0
  0
LINE
  5
139
330
70
100
AcDbEntity
  8
Bemaßung
 62
     7
370
     9
100
AcDbLine
 10
140.7629194092534
 20
182.9960748072473
 30
0.0
 11
137.6489499655876
 21
182.9960748072473
 31
0.0
  0
LINE
  5
13A
330
70
100
AcDbEntity
  8
Bemaßung
 62
     7
370
     9
100
AcDbLine
 10
140.7629194092534
 20
183.0465220294569
 30
0.0
 11
137.2633638545726
 21
183.0465220294569
 31
0.0
  0
LINE
  5
13B
330
70
100
AcDbEntity
  8
Bemaßung
 62
     7
370
     9
100
AcDbLine
 10
140.7629194092534
 20
183.5037220293427
 30
0.0
 11
140.7357555203715
 21
183.5037220293427
 31
0.0
  0
LINE
  5
13C
330
70
100
AcDbEntity
  8
Bemaßung
 62
     7
370
     9
100
AcDbLine
 10
140.7629194092534
 20
183.5037220293427
 30
0.0
 11
140.7357555203715
 21
183.5037220293427
 31
0.0
  0
LINE
  5
13D
330
70
100
AcDbEntity
  8
Bemaßung
 62
     7
370
     9
100
AcDbLine
 10
140.7629194092534
 20
183.4529220293553
 30
0.0
 11
140.3505221871343
 21
183.4529220293553
 31
0.0
  0
LINE
  5
13E
330
70
100
AcDbEntity
  8
Bemaßung
 62
     7
370
     9
100
AcDbLine
 10
140.7629194092534
 20
183.4021220293679
 30
0.0
 11
139.9642305205644
 21
183.4021220293679
 31
0.0
  0
LINE
  5
13F
330
70
100
AcDbEntity
  8
Bemaßung
 62
     7
370
     9
100
AcDbLine
 10
140.7629194092534
 20
183.3513220293806
 30
0.0
 11
139.5786444095494
 21
183.3513220293806
 31
0.0
  0
LINE
  5
140
330
70
100
AcDbEntity
  8
Bemaßung
 62
     7
370
     9
100
AcDbLine
 10
140.7629194092534
 20
183.3005220293932
 30
0.0
 11
139.1923527429796
 21
183.3005220293932
 31
0.0
  0
LINE
  5
141
330
70
100
AcDbEntity
  8
Bemaßung
 62
     7
370
     9
100
AcDbLine
 10
140.7629194092534
 20
183.2497220294058
 30
0.0
 11
138.8067666319646
 21
183.2497220294058
 31
0.0
  0
LINE
  5
142
330
70
100
AcDbEntity
  8
Bemaßung
 62
     7
370
     9
100
AcDbLine
 10
140.7629194092534
 20
183.1989220294187
 30
0.0
 11
138.4208277431725
 21
183.1989220294187
 31
0.0
  0
LINE
  5
143
330
70
100
AcDbEntity
  8
Bemaßung
 62
     7
370
     9
100
AcDbLine
 10
140.7629194092534
 20
183.1481220294313
 30
0.0
 11
138.0352416321575
 21
183.1481220294313
 31
0.0
  0
LINE
  5
144
330
70
100
AcDbEntity
  8
Bemaßung
 62
     7
370
     9
100
AcDbLine
 10
140.7629194092534
 20
183.0973220294443
 30
0.0
 11
137.6489499655876
 21
183.0973220294443
 31
0.0
  0
LINE
  5
145
330
70
100
AcDbEntity
  8
Bemaßung
 62
     7
370
     9
100
AcDbLine
 10
140.7629194092534
 20
183.0465220294569
 30
0.0
 11
137.2633638545726
 21
183.0465220294569
 31
0.0
  0
LWPOLYLINE
  5
146
330
70
100
AcDbEntity
  8
Bemaßung
 62
     7
370
     9
100
AcDbPolyline
 90
        4
 70
     0
 43
0.0
 10
150.0635527402617
 20
183.0465220294569
 10
146.5632916300255
 20
183.5076025848971
 10
146.5632916300255
 20
182.5861470295719
 10
150.0635527402617
 20
183.0465220294569
  0
LINE
  5
147
330
70
100
AcDbEntity
  8
Bemaßung
 62
     7
370
     9
100
AcDbLine
 10
146.5632916300255
 20
183.5037220293427
 30
0.0
 11
146.5904555189077
 21
183.5037220293427
 31
0.0
  0
LINE
  5
148
330
70
100
AcDbEntity
  8
Bemaßung
 62
     7
370
     9
100
AcDbLine
 10
146.5632916300255
 20
183.5037220293427
 30
0.0
 11
146.5904555189077
 21
183.5037220293427
 31
0.0
  0
LINE
  5
149
330
70
100
AcDbEntity
  8
Bemaßung
 62
     7
370
     9
100
AcDbLine
 10
146.5632916300255
 20
183.4529220293553
 30
0.0
 11
146.9760416299223
 21
183.4529220293553
 31
0.0
  0
LINE
  5
14A
330
70
100
AcDbEntity
  8
Bemaßung
 62
     7
370
     9
100
AcDbLine
 10
146.5632916300255
 20
183.4021220293679
 30
0.0
 11
147.3623332964925
 21
183.4021220293679
 31
0.0
  0
LINE
  5
14B
330
70
100
AcDbEntity
  8
Bemaßung
 62
     7
370
     9
100
AcDbLine
 10
146.5632916300255
 20
183.3513220293806
 30
0.0
 11
147.7482721852849
 21
183.3513220293806
 31
0.0
  0
LINE
  5
14C
330
70
100
AcDbEntity
  8
Bemaßung
 62
     7
370
     9
100
AcDbLine
 10
146.5632916300255
 20
183.3005220293932
 30
0.0
 11
148.1338582962996
 21
183.3005220293932
 31
0.0
  0
LINE
  5
14D
330
70
100
AcDbEntity
  8
Bemaßung
 62
     7
370
     9
100
AcDbLine
 10
146.5632916300255
 20
183.2497220294058
 30
0.0
 11
148.5201499628698
 21
183.2497220294058
 31
0.0
  0
LINE
  5
14E
330
70
100
AcDbEntity
  8
Bemaßung
 62
     7
370
     9
100
AcDbLine
 10
146.5632916300255
 20
183.1989220294187
 30
0.0
 11
148.9057360738844
 21
183.1989220294187
 31
0.0
  0
LINE
  5
14F
330
70
100
AcDbEntity
  8
Bemaßung
 62
     7
370
     9
100
AcDbLine
 10
146.5632916300255
 20
183.1481220294313
 30
0.0
 11
149.2916749626768
 21
183.1481220294313
 31
0.0
  0
LINE
  5
150
330
70
100
AcDbEntity
  8
Bemaßung
 62
     7
370
     9
100
AcDbLine
 10
146.5632916300255
 20
183.0973220294443
 30
0.0
 11
149.6772610736915
 21
183.0973220294443
 31
0.0
  0
LINE
  5
151
330
70
100
AcDbEntity
  8
Bemaßung
 62
     7
370
     9
100
AcDbLine
 10
146.5632916300255
 20
183.0465220294569
 30
0.0
 11
150.0635527402617
 21
183.0465220294569
 31
0.0
  0
LINE
  5
152
330
70
100
AcDbEntity
  8
Bemaßung
 62
     7
370
     9
100
AcDbLine
 10
146.5632916300255
 20
182.5896748073489
 30
0.0
 11
146.5904555189077
 21
182.5896748073489
 31
0.0
  0
LINE
  5
153
330
70
100
AcDbEntity
  8
Bemaßung
 62
     7
370
     9
100
AcDbLine
 10
146.5632916300255
 20
182.5896748073489
 30
0.0
 11
146.5904555189077
 21
182.5896748073489
 31
0.0
  0
LINE
  5
154
330
70
100
AcDbEntity
  8
Bemaßung
 62
     7
370
     9
100
AcDbLine
 10
146.5632916300255
 20
182.6404748073363
 30
0.0
 11
146.9760416299223
 21
182.6404748073363
 31
0.0
  0
LINE
  5
155
330
70
100
AcDbEntity
  8
Bemaßung
 62
     7
370
     9
100
AcDbLine
 10
146.5632916300255
 20
182.6916275851011
 30
0.0
 11
147.3623332964925
 21
182.6916275851011
 31
0.0
  0
LINE
  5
156
330
70
100
AcDbEntity
  8
Bemaßung
 62
     7
370
     9
100
AcDbLine
 10
146.5632916300255
 20
182.7420748073107
 30
0.0
 11
147.7482721852849
 21
182.7420748073107
 31
0.0
  0
LINE
  5
157
330
70
100
AcDbEntity
  8
Bemaßung
 62
     7
370
     9
100
AcDbLine
 10
146.5632916300255
 20
182.7928748072981
 30
0.0
 11
148.1338582962996
 21
182.7928748072981
 31
0.0
  0
LINE
  5
158
330
70
100
AcDbEntity
  8
Bemaßung
 62
     7
370
     9
100
AcDbLine
 10
146.5632916300255
 20
182.8436748072851
 30
0.0
 11
148.5201499628698
 21
182.8436748072851
 31
0.0
  0
LINE
  5
159
330
70
100
AcDbEntity
  8
Bemaßung
 62
     7
370
     9
100
AcDbLine
 10
146.5632916300255
 20
182.8944748072725
 30
0.0
 11
148.9057360738844
 21
182.8944748072725
 31
0.0
  0
LINE
  5
15A
330
70
100
AcDbEntity
  8
Bemaßung
 62
     7
370
     9
100
AcDbLine
 10
146.5632916300255
 20
182.9452748072599
 30
0.0
 11
149.2916749626768
 21
182.9452748072599
 31
0.0
  0
LINE
  5
15B
330
70
100
AcDbEntity
  8
Bemaßung
 62
     7
370
     9
100
AcDbLine
 10
146.5632916300255
 20
182.9960748072473
 30
0.0
 11
149.6772610736915
 21
182.9960748072473
 31
0.0
  0
LINE
  5
15C
330
70
100
AcDbEntity
  8
Bemaßung
 62
     7
370
     9
100
AcDbLine
 10
146.5632916300255
 20
183.0465220294569
 30
0.0
 11
150.0635527402617
 21
183.0465220294569
 31
0.0
  0
LINE
  5
15D
330
70
100
AcDbEntity
  8
Bemaßung
 62
     7
370
     9
100
AcDbLine
 10
129.5632833009424
 20
136.2315591347791
 30
0.0
 11
129.5632833009424
 21
84.20195087471999
 31
0.0
  0
LINE
  5
15E
330
70
100
AcDbEntity
  8
Bemaßung
 62
     7
370
     9
100
AcDbLine
 10
156.5631305164146
 20
136.2315591347791
 30
0.0
 11
156.5631305164146
 21
84.20195087471999
 31
0.0
  0
LINE
  5
15F
330
70
100
AcDbEntity
  8
Bemaßung
 62
     7
370
     9
100
AcDbLine
 10
129.5632833009424
 20
86.2018480964422
 30
0.0
 11
156.5631305164146
 21
86.2018480964422
 31
0.0
  0
LWPOLYLINE
  5
160
330
70
100
AcDbEntity
  8
Bemaßung
 62
     7
370
     9
100
AcDbPolyline
 90
        4
 70
     0
 43
0.0
 10
129.5632833009424
 20
86.2018480964422
 10
133.0631916334005
 20
85.74112031877973
 10
133.0631916334005
 20
86.66292865188239
 10
129.5632833009424
 20
86.2018480964422
  0
LINE
  5
161
330
70
100
AcDbEntity
  8
Bemaßung
 62
     7
370
     9
100
AcDbLine
 10
133.0631916334005
 20
85.74464809655671
 30
0.0
 11
133.0360277445186
 21
85.74464809655671
 31
0.0
  0
LINE
  5
162
330
70
100
AcDbEntity
  8
Bemaßung
 62
     7
370
     9
100
AcDbLine
 10
133.0631916334005
 20
85.74464809655671
 30
0.0
 11
133.0360277445186
 21
85.74464809655671
 31
0.0
  0
LINE
  5
163
330
70
100
AcDbEntity
  8
Bemaßung
 62
     7
370
     9
100
AcDbLine
 10
133.0631916334005
 20
85.79544809654377
 30
0.0
 11
132.650441633504
 21
85.79544809654377
 31
0.0
  0
LINE
  5
164
330
70
100
AcDbEntity
  8
Bemaßung
 62
     7
370
     9
100
AcDbLine
 10
133.0631916334005
 20
85.84624809653115
 30
0.0
 11
132.2641499669338
 21
85.84624809653115
 31
0.0
  0
LINE
  5
165
330
70
100
AcDbEntity
  8
Bemaßung
 62
     7
370
     9
100
AcDbLine
 10
133.0631916334005
 20
85.8974008742963
 30
0.0
 11
131.8785638559191
 21
85.8974008742963
 31
0.0
  0
LINE
  5
166
330
70
100
AcDbEntity
  8
Bemaßung
 62
     7
370
     9
100
AcDbLine
 10
133.0631916334005
 20
85.94820087428336
 30
0.0
 11
131.492272189349
 21
85.94820087428336
 31
0.0
  0
LINE
  5
167
330
70
100
AcDbEntity
  8
Bemaßung
 62
     7
370
     9
100
AcDbLine
 10
133.0631916334005
 20
85.99900087427075
 30
0.0
 11
131.1070388561121
 21
85.99900087427075
 31
0.0
  0
LINE
  5
168
330
70
100
AcDbEntity
  8
Bemaßung
 62
     7
370
     9
100
AcDbLine
 10
133.0631916334005
 20
86.04980087425813
 30
0.0
 11
130.7207471895419
 21
86.04980087425813
 31
0.0
  0
LINE
  5
169
330
70
100
AcDbEntity
  8
Bemaßung
 62
     7
370
     9
100
AcDbLine
 10
133.0631916334005
 20
86.10060087424551
 30
0.0
 11
130.3351610785272
 21
86.10060087424551
 31
0.0
  0
LINE
  5
16A
330
70
100
AcDbEntity
  8
Bemaßung
 62
     7
370
     9
100
AcDbLine
 10
133.0631916334005
 20
86.15104809645513
 30
0.0
 11
129.948869411957
 21
86.15104809645513
 31
0.0
  0
LINE
  5
16B
330
70
100
AcDbEntity
  8
Bemaßung
 62
     7
370
     9
100
AcDbLine
 10
133.0631916334005
 20
86.2018480964422
 30
0.0
 11
129.5632833009424
 21
86.2018480964422
 31
0.0
  0
LINE
  5
16C
330
70
100
AcDbEntity
  8
Bemaßung
 62
     7
370
     9
100
AcDbLine
 10
133.0631916334005
 20
86.65940087410575
 30
0.0
 11
133.0360277445186
 21
86.65940087410575
 31
0.0
  0
LINE
  5
16D
330
70
100
AcDbEntity
  8
Bemaßung
 62
     7
370
     9
100
AcDbLine
 10
133.0631916334005
 20
86.65940087410575
 30
0.0
 11
133.0360277445186
 21
86.65940087410575
 31
0.0
  0
LINE
  5
16E
330
70
100
AcDbEntity
  8
Bemaßung
 62
     7
370
     9
100
AcDbLine
 10
133.0631916334005
 20
86.60860087411837
 30
0.0
 11
132.650441633504
 21
86.60860087411837
 31
0.0
  0
LINE
  5
16F
330
70
100
AcDbEntity
  8
Bemaßung
 62
     7
370
     9
100
AcDbLine
 10
133.0631916334005
 20
86.55780087413099
 30
0.0
 11
132.2641499669338
 21
86.55780087413099
 31
0.0
  0
LINE
  5
170
330
70
100
AcDbEntity
  8
Bemaßung
 62
     7
370
     9
100
AcDbLine
 10
133.0631916334005
 20
86.50700087414392
 30
0.0
 11
131.8785638559191
 21
86.50700087414392
 31
0.0
  0
LINE
  5
171
330
70
100
AcDbEntity
  8
Bemaßung
 62
     7
370
     9
100
AcDbLine
 10
133.0631916334005
 20
86.45620087415654
 30
0.0
 11
131.492272189349
 21
86.45620087415654
 31
0.0
  0
LINE
  5
172
330
70
100
AcDbEntity
  8
Bemaßung
 62
     7
370
     9
100
AcDbLine
 10
133.0631916334005
 20
86.40540087416916
 30
0.0
 11
131.1070388561121
 21
86.40540087416916
 31
0.0
  0
LINE
  5
173
330
70
100
AcDbEntity
  8
Bemaßung
 62
     7
370
     9
100
AcDbLine
 10
133.0631916334005
 20
86.35424809640403
 30
0.0
 11
130.7207471895419
 21
86.35424809640403
 31
0.0
  0
LINE
  5
174
330
70
100
AcDbEntity
  8
Bemaßung
 62
     7
370
     9
100
AcDbLine
 10
133.0631916334005
 20
86.30344809641696
 30
0.0
 11
130.3351610785272
 21
86.30344809641696
 31
0.0
  0
LINE
  5
175
330
70
100
AcDbEntity
  8
Bemaßung
 62
     7
370
     9
100
AcDbLine
 10
133.0631916334005
 20
86.25264809642956
 30
0.0
 11
129.948869411957
 21
86.25264809642956
 31
0.0
  0
LINE
  5
176
330
70
100
AcDbEntity
  8
Bemaßung
 62
     7
370
     9
100
AcDbLine
 10
133.0631916334005
 20
86.2018480964422
 30
0.0
 11
129.5632833009424
 21
86.2018480964422
 31
0.0
  0
LWPOLYLINE
  5
177
330
70
100
AcDbEntity
  8
Bemaßung
 62
     7
370
     9
100
AcDbPolyline
 90
        4
 70
     0
 43
0.0
 10
156.5631305164146
 20
86.2018480964422
 10
153.0632221839561
 20
86.66292865188239
 10
153.0632221839561
 20
85.74112031877973
 10
156.5631305164146
 20
86.2018480964422
  0
LINE
  5
178
330
70
100
AcDbEntity
  8
Bemaßung
 62
     7
370
     9
100
AcDbLine
 10
153.0632221839561
 20
86.65940087410575
 30
0.0
 11
153.0907388506161
 21
86.65940087410575
 31
0.0
  0
LINE
  5
179
330
70
100
AcDbEntity
  8
Bemaßung
 62
     7
370
     9
100
AcDbLine
 10
153.0632221839561
 20
86.65940087410575
 30
0.0
 11
153.0907388506161
 21
86.65940087410575
 31
0.0
  0
LINE
  5
17A
330
70
100
AcDbEntity
  8
Bemaßung
 62
     7
370
     9
100
AcDbLine
 10
153.0632221839561
 20
86.60860087411837
 30
0.0
 11
153.4763249616307
 21
86.60860087411837
 31
0.0
  0
LINE
  5
17B
330
70
100
AcDbEntity
  8
Bemaßung
 62
     7
370
     9
100
AcDbLine
 10
153.0632221839561
 20
86.55780087413099
 30
0.0
 11
153.8619110726454
 21
86.55780087413099
 31
0.0
  0
LINE
  5
17C
330
70
100
AcDbEntity
  8
Bemaßung
 62
     7
370
     9
100
AcDbLine
 10
153.0632221839561
 20
86.50700087414392
 30
0.0
 11
154.2482027392155
 21
86.50700087414392
 31
0.0
  0
LINE
  5
17D
330
70
100
AcDbEntity
  8
Bemaßung
 62
     7
370
     9
100
AcDbLine
 10
153.0632221839561
 20
86.45620087415654
 30
0.0
 11
154.634141628008
 21
86.45620087415654
 31
0.0
  0
LINE
  5
17E
330
70
100
AcDbEntity
  8
Bemaßung
 62
     7
370
     9
100
AcDbLine
 10
153.0632221839561
 20
86.40540087416916
 30
0.0
 11
155.0197277390227
 21
86.40540087416916
 31
0.0
  0
LINE
  5
17F
330
70
100
AcDbEntity
  8
Bemaßung
 62
     7
370
     9
100
AcDbLine
 10
153.0632221839561
 20
86.35424809640403
 30
0.0
 11
155.4060194055928
 21
86.35424809640403
 31
0.0
  0
LINE
  5
180
330
70
100
AcDbEntity
  8
Bemaßung
 62
     7
370
     9
100
AcDbLine
 10
153.0632221839561
 20
86.30344809641696
 30
0.0
 11
155.7916055166075
 21
86.30344809641696
 31
0.0
  0
LINE
  5
181
330
70
100
AcDbEntity
  8
Bemaßung
 62
     7
370
     9
100
AcDbLine
 10
153.0632221839561
 20
86.25264809642956
 30
0.0
 11
156.1775444053999
 21
86.25264809642956
 31
0.0
  0
LINE
  5
182
330
70
100
AcDbEntity
  8
Bemaßung
 62
     7
370
     9
100
AcDbLine
 10
153.0632221839561
 20
86.2018480964422
 30
0.0
 11
156.5631305164146
 21
86.2018480964422
 31
0.0
  0
LINE
  5
183
330
70
100
AcDbEntity
  8
Bemaßung
 62
     7
370
     9
100
AcDbLine
 10
153.0632221839561
 20
85.74464809655671
 30
0.0
 11
153.0907388506161
 21
85.74464809655671
 31
0.0
  0
LINE
  5
184
330
70
100
AcDbEntity
  8
Bemaßung
 62
     7
370
     9
100
AcDbLine
 10
153.0632221839561
 20
85.74464809655671
 30
0.0
 11
153.0907388506161
 21
85.74464809655671
 31
0.0
  0
LINE
  5
185
330
70
100
AcDbEntity
  8
Bemaßung
 62
     7
370
     9
100
AcDbLine
 10
153.0632221839561
 20
85.79544809654377
 30
0.0
 11
153.4763249616307
 21
85.79544809654377
 31
0.0
  0
LINE
  5
186
330
70
100
AcDbEntity
  8
Bemaßung
 62
     7
370
     9
100
AcDbLine
 10
153.0632221839561
 20
85.84624809653115
 30
0.0
 11
153.8619110726454
 21
85.84624809653115
 31
0.0
  0
LINE
  5
187
330
70
100
AcDbEntity
  8
Bemaßung
 62
     7
370
     9
100
AcDbLine
 10
153.0632221839561
 20
85.8974008742963
 30
0.0
 11
154.2482027392155
 21
85.8974008742963
 31
0.0
  0
LINE
  5
188
330
70
100
AcDbEntity
  8
Bemaßung
 62
     7
370
     9
100
AcDbLine
 10
153.0632221839561
 20
85.94820087428336
 30
0.0
 11
154.634141628008
 21
85.94820087428336
 31
0.0
  0
LINE
  5
189
330
70
100
AcDbEntity
  8
Bemaßung
 62
     7
370
     9
100
AcDbLine
 10
153.0632221839561
 20
85.99900087427075
 30
0.0
 11
155.0197277390227
 21
85.99900087427075
 31
0.0
  0
LINE
  5
18A
330
70
100
AcDbEntity
  8
Bemaßung
 62
     7
370
     9
100
AcDbLine
 10
153.0632221839561
 20
86.04980087425813
 30
0.0
 11
155.4060194055928
 21
86.04980087425813
 31
0.0
  0
LINE
  5
18B
330
70
100
AcDbEntity
  8
Bemaßung
 62
     7
370
     9
100
AcDbLine
 10
153.0632221839561
 20
86.10060087424551
 30
0.0
 11
155.7916055166075
 21
86.10060087424551
 31
0.0
  0
LINE
  5
18C
330
70
100
AcDbEntity
  8
Bemaßung
 62
     7
370
     9
100
AcDbLine
 10
153.0632221839561
 20
86.15104809645513
 30
0.0
 11
156.1775444053999
 21
86.15104809645513
 31
0.0
  0
LINE
  5
18D
330
70
100
AcDbEntity
  8
Bemaßung
 62
     7
370
     9
100
AcDbLine
 10
153.0632221839561
 20
86.2018480964422
 30
0.0
 11
156.5631305164146
 21
86.2018480964422
 31
0.0
  0
LINE
  5
18E
330
70
100
AcDbEntity
  8
Bemaßung
 62
     7
370
     9
100
AcDbLine
 10
143.0630305197896
 20
97.48209525557745
 30
0.0
 11
195.6947629287826
 21
97.48209525557745
 31
0.0
  0
LINE
  5
18F
330
70
100
AcDbEntity
  8
Bemaßung
 62
     7
370
     9
100
AcDbLine
 10
143.0630305197896
 20
174.9817285695359
 30
0.0
 11
195.6947629287826
 21
174.9817285695359
 31
0.0
  0
LINE
  5
190
330
70
100
AcDbEntity
  8
Bemaßung
 62
     7
370
     9
100
AcDbLine
 10
193.6945129292826
 20
97.48209525557745
 30
0.0
 11
193.6945129292826
 21
174.9817285695359
 31
0.0
  0
LWPOLYLINE
  5
191
330
70
100
AcDbEntity
  8
Bemaßung
 62
     7
370
     9
100
AcDbPolyline
 90
        4
 70
     0
 43
0.0
 10
193.6945129292826
 20
97.48209525557745
 10
194.1559462625006
 20
100.9820035880359
 10
193.2337851516198
 20
100.9820035880359
 10
193.6945129292826
 20
97.48209525557745
  0
LINE
  5
192
330
70
100
AcDbEntity
  8
Bemaßung
 62
     7
370
     9
100
AcDbLine
 10
194.1520657069458
 20
100.9820035880359
 30
0.0
 11
194.1520657069458
 21
100.9548396991537
 31
0.0
  0
LINE
  5
193
330
70
100
AcDbEntity
  8
Bemaßung
 62
     7
370
     9
100
AcDbLine
 10
194.1520657069458
 20
100.9820035880359
 30
0.0
 11
194.1520657069458
 21
100.9548396991537
 31
0.0
  0
LINE
  5
194
330
70
100
AcDbEntity
  8
Bemaßung
 62
     7
370
     9
100
AcDbLine
 10
194.1016184847362
 20
100.9820035880359
 30
0.0
 11
194.1016184847362
 21
100.5689008103613
 31
0.0
  0
LINE
  5
195
330
70
100
AcDbEntity
  8
Bemaßung
 62
     7
370
     9
100
AcDbLine
 10
194.0508184847491
 20
100.9820035880359
 30
0.0
 11
194.0508184847491
 21
100.1829619215689
 31
0.0
  0
LINE
  5
196
330
70
100
AcDbEntity
  8
Bemaßung
 62
     7
370
     9
100
AcDbLine
 10
193.999665706984
 20
100.9820035880359
 30
0.0
 11
193.999665706984
 21
99.79702303277646
 31
0.0
  0
LINE
  5
197
330
70
100
AcDbEntity
  8
Bemaßung
 62
     7
370
     9
100
AcDbLine
 10
193.9488657069966
 20
100.9820035880359
 30
0.0
 11
193.9488657069966
 21
99.41073136620659
 31
0.0
  0
LINE
  5
198
330
70
100
AcDbEntity
  8
Bemaßung
 62
     7
370
     9
100
AcDbLine
 10
193.8980657070093
 20
100.9820035880359
 30
0.0
 11
193.8980657070093
 21
99.02549803296937
 31
0.0
  0
LINE
  5
199
330
70
100
AcDbEntity
  8
Bemaßung
 62
     7
370
     9
100
AcDbLine
 10
193.8472657070222
 20
100.9820035880359
 30
0.0
 11
193.8472657070222
 21
98.63955914417696
 31
0.0
  0
LINE
  5
19A
330
70
100
AcDbEntity
  8
Bemaßung
 62
     7
370
     9
100
AcDbLine
 10
193.7964657070348
 20
100.9820035880359
 30
0.0
 11
193.7964657070348
 21
98.25362025538453
 31
0.0
  0
LINE
  5
19B
330
70
100
AcDbEntity
  8
Bemaßung
 62
     7
370
     9
100
AcDbLine
 10
193.7456657070474
 20
100.9820035880359
 30
0.0
 11
193.7456657070474
 21
97.86732858881467
 31
0.0
  0
LINE
  5
19C
330
70
100
AcDbEntity
  8
Bemaßung
 62
     7
370
     9
100
AcDbLine
 10
193.6945129292826
 20
100.9820035880359
 30
0.0
 11
193.6945129292826
 21
97.48209525557745
 31
0.0
  0
LINE
  5
19D
330
70
100
AcDbEntity
  8
Bemaßung
 62
     7
370
     9
100
AcDbLine
 10
193.2373129293968
 20
100.9820035880359
 30
0.0
 11
193.2373129293968
 21
100.9548396991537
 31
0.0
  0
LINE
  5
19E
330
70
100
AcDbEntity
  8
Bemaßung
 62
     7
370
     9
100
AcDbLine
 10
193.2373129293968
 20
100.9820035880359
 30
0.0
 11
193.2373129293968
 21
100.9548396991537
 31
0.0
  0
LINE
  5
19F
330
70
100
AcDbEntity
  8
Bemaßung
 62
     7
370
     9
100
AcDbLine
 10
193.2888184849394
 20
100.9820035880359
 30
0.0
 11
193.2888184849394
 21
100.5689008103613
 31
0.0
  0
LINE
  5
1A0
330
70
100
AcDbEntity
  8
Bemaßung
 62
     7
370
     9
100
AcDbLine
 10
193.3389129293716
 20
100.9820035880359
 30
0.0
 11
193.3389129293716
 21
100.1829619215689
 31
0.0
  0
LINE
  5
1A1
330
70
100
AcDbEntity
  8
Bemaßung
 62
     7
370
     9
100
AcDbLine
 10
193.3897129293586
 20
100.9820035880359
 30
0.0
 11
193.3897129293586
 21
99.79702303277646
 31
0.0
  0
LINE
  5
1A2
330
70
100
AcDbEntity
  8
Bemaßung
 62
     7
370
     9
100
AcDbLine
 10
193.440512929346
 20
100.9820035880359
 30
0.0
 11
193.440512929346
 21
99.41073136620659
 31
0.0
  0
LINE
  5
1A3
330
70
100
AcDbEntity
  8
Bemaßung
 62
     7
370
     9
100
AcDbLine
 10
193.4913129293334
 20
100.9820035880359
 30
0.0
 11
193.4913129293334
 21
99.02549803296937
 31
0.0
  0
LINE
  5
1A4
330
70
100
AcDbEntity
  8
Bemaßung
 62
     7
370
     9
100
AcDbLine
 10
193.5421129293204
 20
100.9820035880359
 30
0.0
 11
193.5421129293204
 21
98.63955914417696
 31
0.0
  0
LINE
  5
1A5
330
70
100
AcDbEntity
  8
Bemaßung
 62
     7
370
     9
100
AcDbLine
 10
193.5929129293078
 20
100.9820035880359
 30
0.0
 11
193.5929129293078
 21
98.25362025538453
 31
0.0
  0
LINE
  5
1A6
330
70
100
AcDbEntity
  8
Bemaßung
 62
     7
370
     9
100
AcDbLine
 10
193.6437129292952
 20
100.9820035880359
 30
0.0
 11
193.6437129292952
 21
97.86732858881467
 31
0.0
  0
LINE
  5
1A7
330
70
100
AcDbEntity
  8
Bemaßung
 62
     7
370
     9
100
AcDbLine
 10
193.6945129292826
 20
100.9820035880359
 30
0.0
 11
193.6945129292826
 21
97.48209525557745
 31
0.0
  0
LWPOLYLINE
  5
1A8
330
70
100
AcDbEntity
  8
Bemaßung
 62
     7
370
     9
100
AcDbPolyline
 90
        4
 70
     0
 43
0.0
 10
193.6945129292826
 20
174.9817285695359
 10
193.2337851516198
 20
171.4818202370775
 10
194.1559462625006
 20
171.4818202370775
 10
193.6945129292826
 20
174.9817285695359
  0
LINE
  5
1A9
330
70
100
AcDbEntity
  8
Bemaßung
 62
     7
370
     9
100
AcDbLine
 10
193.2373129293968
 20
171.4818202370775
 30
0.0
 11
193.2373129293968
 21
171.5093369037374
 31
0.0
  0
LINE
  5
1AA
330
70
100
AcDbEntity
  8
Bemaßung
 62
     7
370
     9
100
AcDbLine
 10
193.2373129293968
 20
171.4818202370775
 30
0.0
 11
193.2373129293968
 21
171.5093369037374
 31
0.0
  0
LINE
  5
1AB
330
70
100
AcDbEntity
  8
Bemaßung
 62
     7
370
     9
100
AcDbLine
 10
193.2888184849394
 20
171.4818202370775
 30
0.0
 11
193.2888184849394
 21
171.8945702369743
 31
0.0
  0
LINE
  5
1AC
330
70
100
AcDbEntity
  8
Bemaßung
 62
     7
370
     9
100
AcDbLine
 10
193.3389129293716
 20
171.4818202370775
 30
0.0
 11
193.3389129293716
 21
172.2808619035445
 31
0.0
  0
LINE
  5
1AD
330
70
100
AcDbEntity
  8
Bemaßung
 62
     7
370
     9
100
AcDbLine
 10
193.3897129293586
 20
171.4818202370775
 30
0.0
 11
193.3897129293586
 21
172.6664480145591
 31
0.0
  0
LINE
  5
1AE
330
70
100
AcDbEntity
  8
Bemaßung
 62
     7
370
     9
100
AcDbLine
 10
193.440512929346
 20
171.4818202370775
 30
0.0
 11
193.440512929346
 21
173.0527396811293
 31
0.0
  0
LINE
  5
1AF
330
70
100
AcDbEntity
  8
Bemaßung
 62
     7
370
     9
100
AcDbLine
 10
193.4913129293334
 20
171.4818202370775
 30
0.0
 11
193.4913129293334
 21
173.4379730143662
 31
0.0
  0
LINE
  5
1B0
330
70
100
AcDbEntity
  8
Bemaßung
 62
     7
370
     9
100
AcDbLine
 10
193.5421129293204
 20
171.4818202370775
 30
0.0
 11
193.5421129293204
 21
173.8242646809364
 31
0.0
  0
LINE
  5
1B1
330
70
100
AcDbEntity
  8
Bemaßung
 62
     7
370
     9
100
AcDbLine
 10
193.5929129293078
 20
171.4818202370775
 30
0.0
 11
193.5929129293078
 21
174.2098507919511
 31
0.0
  0
LINE
  5
1B2
330
70
100
AcDbEntity
  8
Bemaßung
 62
     7
370
     9
100
AcDbLine
 10
193.6437129292952
 20
171.4818202370775
 30
0.0
 11
193.6437129292952
 21
174.5961424585213
 31
0.0
  0
LINE
  5
1B3
330
70
100
AcDbEntity
  8
Bemaßung
 62
     7
370
     9
100
AcDbLine
 10
193.6945129292826
 20
171.4818202370775
 30
0.0
 11
193.6945129292826
 21
174.9817285695359
 31
0.0
  0
LINE
  5
1B4
330
70
100
AcDbEntity
  8
Bemaßung
 62
     7
370
     9
100
AcDbLine
 10
194.1520657069458
 20
171.4818202370775
 30
0.0
 11
194.1520657069458
 21
171.5093369037374
 31
0.0
  0
LINE
  5
1B5
330
70
100
AcDbEntity
  8
Bemaßung
 62
     7
370
     9
100
AcDbLine
 10
194.1520657069458
 20
171.4818202370775
 30
0.0
 11
194.1520657069458
 21
171.5093369037374
 31
0.0
  0
LINE
  5
1B6
330
70
100
AcDbEntity
  8
Bemaßung
 62
     7
370
     9
100
AcDbLine
 10
194.1016184847362
 20
171.4818202370775
 30
0.0
 11
194.1016184847362
 21
171.8945702369743
 31
0.0
  0
LINE
  5
1B7
330
70
100
AcDbEntity
  8
Bemaßung
 62
     7
370
     9
100
AcDbLine
 10
194.0508184847491
 20
171.4818202370775
 30
0.0
 11
194.0508184847491
 21
172.2808619035445
 31
0.0
  0
LINE
  5
1B8
330
70
100
AcDbEntity
  8
Bemaßung
 62
     7
370
     9
100
AcDbLine
 10
193.999665706984
 20
171.4818202370775
 30
0.0
 11
193.999665706984
 21
172.6664480145591
 31
0.0
  0
LINE
  5
1B9
330
70
100
AcDbEntity
  8
Bemaßung
 62
     7
370
     9
100
AcDbLine
 10
193.9488657069966
 20
171.4818202370775
 30
0.0
 11
193.9488657069966
 21
173.0527396811293
 31
0.0
  0
LINE
  5
1BA
330
70
100
AcDbEntity
  8
Bemaßung
 62
     7
370
     9
100
AcDbLine
 10
193.8980657070093
 20
171.4818202370775
 30
0.0
 11
193.8980657070093
 21
173.4379730143662
 31
0.0
  0
LINE
  5
1BB
330
70
100
AcDbEntity
  8
Bemaßung
 62
     7
370
     9
100
AcDbLine
 10
193.8472657070222
 20
171.4818202370775
 30
0.0
 11
193.8472657070222
 21
173.8242646809364
 31
0.0
  0
LINE
  5
1BC
330
70
100
AcDbEntity
  8
Bemaßung
 62
     7
370
     9
100
AcDbLine
 10
193.7964657070348
 20
171.4818202370775
 30
0.0
 11
193.7964657070348
 21
174.2098507919511
 31
0.0
  0
LINE
  5
1BD
330
70
100
AcDbEntity
  8
Bemaßung
 62
     7
370
     9
100
AcDbLine
 10
193.7456657070474
 20
171.4818202370775
 30
0.0
 11
193.7456657070474
 21
174.5961424585213
 31
0.0
  0
LINE
  5
1BE
330
70
100
AcDbEntity
  8
Bemaßung
 62
     7
370
     9
100
AcDbLine
 10
193.6945129292826
 20
171.4818202370775
 30
0.0
 11
193.6945129292826
 21
174.9817285695359
 31
0.0
  0
LINE
  5
1BF
330
70
100
AcDbEntity
  8
Bemaßung
 62
     7
370
     9
100
AcDbLine
 10
68.11186387186072
 20
113.2315063627513
 30
0.0
 11
68.11186387186072
 21
84.20195087471999
 31
0.0
  0
LINE
  5
1C0
330
70
100
AcDbEntity
  8
Bemaßung
 62
     7
370
     9
100
AcDbLine
 10
84.11209997897161
 20
113.2315063627513
 30
0.0
 11
84.11209997897161
 21
84.20195087471999
 31
0.0
  0
LINE
  5
1C1
330
70
100
AcDbEntity
  8
Bemaßung
 62
     7
370
     9
100
AcDbLine
 10
68.11186387186072
 20
86.2018480964422
 30
0.0
 11
84.11209997897161
 21
86.2018480964422
 31
0.0
  0
LWPOLYLINE
  5
1C2
330
70
100
AcDbEntity
  8
Bemaßung
 62
     7
370
     9
100
AcDbPolyline
 90
        4
 70
     0
 43
0.0
 10
68.11186387186072
 20
86.2018480964422
 10
71.61212498209661
 20
85.74112031877973
 10
71.61212498209661
 20
86.66292865188239
 10
68.11186387186072
 20
86.2018480964422
  0
LINE
  5
1C3
330
70
100
AcDbEntity
  8
Bemaßung
 62
     7
370
     9
100
AcDbLine
 10
71.61212498209661
 20
85.74464809655671
 30
0.0
 11
71.58460831543699
 21
85.74464809655671
 31
0.0
  0
LINE
  5
1C4
330
70
100
AcDbEntity
  8
Bemaßung
 62
     7
370
     9
100
AcDbLine
 10
71.61212498209661
 20
85.74464809655671
 30
0.0
 11
71.58460831543699
 21
85.74464809655671
 31
0.0
  0
LINE
  5
1C5
330
70
100
AcDbEntity
  8
Bemaßung
 62
     7
370
     9
100
AcDbLine
 10
71.61212498209661
 20
85.79544809654377
 30
0.0
 11
71.19902220442233
 21
85.79544809654377
 31
0.0
  0
LINE
  5
1C6
330
70
100
AcDbEntity
  8
Bemaßung
 62
     7
370
     9
100
AcDbLine
 10
71.61212498209661
 20
85.84624809653115
 30
0.0
 11
70.81273053785214
 21
85.84624809653115
 31
0.0
  0
LINE
  5
1C7
330
70
100
AcDbEntity
  8
Bemaßung
 62
     7
370
     9
100
AcDbLine
 10
71.61212498209661
 20
85.8974008742963
 30
0.0
 11
70.42679164905973
 21
85.8974008742963
 31
0.0
  0
LINE
  5
1C8
330
70
100
AcDbEntity
  8
Bemaßung
 62
     7
370
     9
100
AcDbLine
 10
71.61212498209661
 20
85.94820087428336
 30
0.0
 11
70.04120553804506
 21
85.94820087428336
 31
0.0
  0
LINE
  5
1C9
330
70
100
AcDbEntity
  8
Bemaßung
 62
     7
370
     9
100
AcDbLine
 10
71.61212498209661
 20
85.99900087427075
 30
0.0
 11
69.6556194270304
 21
85.99900087427075
 31
0.0
  0
LINE
  5
1CA
330
70
100
AcDbEntity
  8
Bemaßung
 62
     7
370
     9
100
AcDbLine
 10
71.61212498209661
 20
86.04980087425813
 30
0.0
 11
69.26932776046022
 21
86.04980087425813
 31
0.0
  0
LINE
  5
1CB
330
70
100
AcDbEntity
  8
Bemaßung
 62
     7
370
     9
100
AcDbLine
 10
71.61212498209661
 20
86.10060087424551
 30
0.0
 11
68.8833888716678
 21
86.10060087424551
 31
0.0
  0
LINE
  5
1CC
330
70
100
AcDbEntity
  8
Bemaßung
 62
     7
370
     9
100
AcDbLine
 10
71.61212498209661
 20
86.15104809645513
 30
0.0
 11
68.49780276065314
 21
86.15104809645513
 31
0.0
  0
LINE
  5
1CD
330
70
100
AcDbEntity
  8
Bemaßung
 62
     7
370
     9
100
AcDbLine
 10
71.61212498209661
 20
86.2018480964422
 30
0.0
 11
68.11186387186072
 21
86.2018480964422
 31
0.0
  0
LINE
  5
1CE
330
70
100
AcDbEntity
  8
Bemaßung
 62
     7
370
     9
100
AcDbLine
 10
71.61212498209661
 20
86.65940087410575
 30
0.0
 11
71.58460831543699
 21
86.65940087410575
 31
0.0
  0
LINE
  5
1CF
330
70
100
AcDbEntity
  8
Bemaßung
 62
     7
370
     9
100
AcDbLine
 10
71.61212498209661
 20
86.65940087410575
 30
0.0
 11
71.58460831543699
 21
86.65940087410575
 31
0.0
  0
LINE
  5
1D0
330
70
100
AcDbEntity
  8
Bemaßung
 62
     7
370
     9
100
AcDbLine
 10
71.61212498209661
 20
86.60860087411837
 30
0.0
 11
71.19902220442233
 21
86.60860087411837
 31
0.0
  0
LINE
  5
1D1
330
70
100
AcDbEntity
  8
Bemaßung
 62
     7
370
     9
100
AcDbLine
 10
71.61212498209661
 20
86.55780087413099
 30
0.0
 11
70.81273053785214
 21
86.55780087413099
 31
0.0
  0
LINE
  5
1D2
330
70
100
AcDbEntity
  8
Bemaßung
 62
     7
370
     9
100
AcDbLine
 10
71.61212498209661
 20
86.50700087414392
 30
0.0
 11
70.42679164905973
 21
86.50700087414392
 31
0.0
  0
LINE
  5
1D3
330
70
100
AcDbEntity
  8
Bemaßung
 62
     7
370
     9
100
AcDbLine
 10
71.61212498209661
 20
86.45620087415654
 30
0.0
 11
70.04120553804506
 21
86.45620087415654
 31
0.0
  0
LINE
  5
1D4
330
70
100
AcDbEntity
  8
Bemaßung
 62
     7
370
     9
100
AcDbLine
 10
71.61212498209661
 20
86.40540087416916
 30
0.0
 11
69.6556194270304
 21
86.40540087416916
 31
0.0
  0
LINE
  5
1D5
330
70
100
AcDbEntity
  8
Bemaßung
 62
     7
370
     9
100
AcDbLine
 10
71.61212498209661
 20
86.35424809640403
 30
0.0
 11
69.26932776046022
 21
86.35424809640403
 31
0.0
  0
LINE
  5
1D6
330
70
100
AcDbEntity
  8
Bemaßung
 62
     7
370
     9
100
AcDbLine
 10
71.61212498209661
 20
86.30344809641696
 30
0.0
 11
68.8833888716678
 21
86.30344809641696
 31
0.0
  0
LINE
  5
1D7
330
70
100
AcDbEntity
  8
Bemaßung
 62
     7
370
     9
100
AcDbLine
 10
71.61212498209661
 20
86.25264809642956
 30
0.0
 11
68.49780276065314
 21
86.25264809642956
 31
0.0
  0
LINE
  5
1D8
330
70
100
AcDbEntity
  8
Bemaßung
 62
     7
370
     9
100
AcDbLine
 10
71.61212498209661
 20
86.2018480964422
 30
0.0
 11
68.11186387186072
 21
86.2018480964422
 31
0.0
  0
LWPOLYLINE
  5
1D9
330
70
100
AcDbEntity
  8
Bemaßung
 62
     7
370
     9
100
AcDbPolyline
 90
        4
 70
     0
 43
0.0
 10
84.11209997897161
 20
86.2018480964422
 10
80.61183886873571
 20
86.66292865188239
 10
80.61183886873571
 20
85.74112031877973
 10
84.11209997897161
 20
86.2018480964422
  0
LINE
  5
1DA
330
70
100
AcDbEntity
  8
Bemaßung
 62
     7
370
     9
100
AcDbLine
 10
80.61183886873571
 20
86.65940087410575
 30
0.0
 11
80.63935553539534
 21
86.65940087410575
 31
0.0
  0
LINE
  5
1DB
330
70
100
AcDbEntity
  8
Bemaßung
 62
     7
370
     9
100
AcDbLine
 10
80.61183886873571
 20
86.65940087410575
 30
0.0
 11
80.63935553539534
 21
86.65940087410575
 31
0.0
  0
LINE
  5
1DC
330
70
100
AcDbEntity
  8
Bemaßung
 62
     7
370
     9
100
AcDbLine
 10
80.61183886873571
 20
86.60860087411837
 30
0.0
 11
81.02458886863256
 21
86.60860087411837
 31
0.0
  0
LINE
  5
1DD
330
70
100
AcDbEntity
  8
Bemaßung
 62
     7
370
     9
100
AcDbLine
 10
80.61183886873571
 20
86.55780087413099
 30
0.0
 11
81.41052775742499
 21
86.55780087413099
 31
0.0
  0
LINE
  5
1DE
330
70
100
AcDbEntity
  8
Bemaßung
 62
     7
370
     9
100
AcDbLine
 10
80.61183886873571
 20
86.50700087414392
 30
0.0
 11
81.79681942399517
 21
86.50700087414392
 31
0.0
  0
LINE
  5
1DF
330
70
100
AcDbEntity
  8
Bemaßung
 62
     7
370
     9
100
AcDbLine
 10
80.61183886873571
 20
86.45620087415654
 30
0.0
 11
82.18275831278727
 21
86.45620087415654
 31
0.0
  0
LINE
  5
1E0
330
70
100
AcDbEntity
  8
Bemaßung
 62
     7
370
     9
100
AcDbLine
 10
80.61183886873571
 20
86.40540087416916
 30
0.0
 11
82.56834442380224
 21
86.40540087416916
 31
0.0
  0
LINE
  5
1E1
330
70
100
AcDbEntity
  8
Bemaßung
 62
     7
370
     9
100
AcDbLine
 10
80.61183886873571
 20
86.35424809640403
 30
0.0
 11
82.9539305348169
 21
86.35424809640403
 31
0.0
  0
LINE
  5
1E2
330
70
100
AcDbEntity
  8
Bemaßung
 62
     7
370
     9
100
AcDbLine
 10
80.61183886873571
 20
86.30344809641696
 30
0.0
 11
83.34022220138709
 21
86.30344809641696
 31
0.0
  0
LINE
  5
1E3
330
70
100
AcDbEntity
  8
Bemaßung
 62
     7
370
     9
100
AcDbLine
 10
80.61183886873571
 20
86.25264809642956
 30
0.0
 11
83.72580831240176
 21
86.25264809642956
 31
0.0
  0
LINE
  5
1E4
330
70
100
AcDbEntity
  8
Bemaßung
 62
     7
370
     9
100
AcDbLine
 10
80.61183886873571
 20
86.2018480964422
 30
0.0
 11
84.11209997897161
 21
86.2018480964422
 31
0.0
  0
LINE
  5
1E5
330
70
100
AcDbEntity
  8
Bemaßung
 62
     7
370
     9
100
AcDbLine
 10
80.61183886873571
 20
85.74464809655671
 30
0.0
 11
80.63935553539534
 21
85.74464809655671
 31
0.0
  0
LINE
  5
1E6
330
70
100
AcDbEntity
  8
Bemaßung
 62
     7
370
     9
100
AcDbLine
 10
80.61183886873571
 20
85.74464809655671
 30
0.0
 11
80.63935553539534
 21
85.74464809655671
 31
0.0
  0
LINE
  5
1E7
330
70
100
AcDbEntity
  8
Bemaßung
 62
     7
370
     9
100
AcDbLine
 10
80.61183886873571
 20
85.79544809654377
 30
0.0
 11
81.02458886863256
 21
85.79544809654377
 31
0.0
  0
LINE
  5
1E8
330
70
100
AcDbEntity
  8
Bemaßung
 62
     7
370
     9
100
AcDbLine
 10
80.61183886873571
 20
85.84624809653115
 30
0.0
 11
81.41052775742499
 21
85.84624809653115
 31
0.0
  0
LINE
  5
1E9
330
70
100
AcDbEntity
  8
Bemaßung
 62
     7
370
     9
100
AcDbLine
 10
80.61183886873571
 20
85.8974008742963
 30
0.0
 11
81.79681942399517
 21
85.8974008742963
 31
0.0
  0
LINE
  5
1EA
330
70
100
AcDbEntity
  8
Bemaßung
 62
     7
370
     9
100
AcDbLine
 10
80.61183886873571
 20
85.94820087428336
 30
0.0
 11
82.18275831278727
 21
85.94820087428336
 31
0.0
  0
LINE
  5
1EB
330
70
100
AcDbEntity
  8
Bemaßung
 62
     7
370
     9
100
AcDbLine
 10
80.61183886873571
 20
85.99900087427075
 30
0.0
 11
82.56834442380224
 21
85.99900087427075
 31
0.0
  0
LINE
  5
1EC
330
70
100
AcDbEntity
  8
Bemaßung
 62
     7
370
     9
100
AcDbLine
 10
80.61183886873571
 20
86.04980087425813
 30
0.0
 11
82.9539305348169
 21
86.04980087425813
 31
0.0
  0
LINE
  5
1ED
330
70
100
AcDbEntity
  8
Bemaßung
 62
     7
370
     9
100
AcDbLine
 10
80.61183886873571
 20
86.10060087424551
 30
0.0
 11
83.34022220138709
 21
86.10060087424551
 31
0.0
  0
LINE
  5
1EE
330
70
100
AcDbEntity
  8
Bemaßung
 62
     7
370
     9
100
AcDbLine
 10
80.61183886873571
 20
86.15104809645513
 30
0.0
 11
83.72580831240176
 21
86.15104809645513
 31
0.0
  0
LINE
  5
1EF
330
70
100
AcDbEntity
  8
Bemaßung
 62
     7
370
     9
100
AcDbLine
 10
80.61183886873571
 20
86.2018480964422
 30
0.0
 11
84.11209997897161
 21
86.2018480964422
 31
0.0
  0
MTEXT
  5
1F1
330
70
100
AcDbEntity
  8
Text
100
AcDbMText
 10
140.6250081028646
 20
184.8025877550174
 30
0.0
 40
0.2
 41
0.0
 46
0.0
 71
     7
 72
     1
  1
\C7;\FINDEX Univers 45 Light|b0|i0|c1;\H3.447529;\W1.000000;12,8
 73
     1
 44
1.0
  0
MTEXT
  5
1F2
330
70
100
AcDbEntity
  8
Text
100
AcDbMText
 10
145.2901841542156
 20
88.83244919145562
 30
0.0
 40
0.2
 41
0.0
 46
0.0
 71
     7
 72
     1
  1
\C7;\FINDEX Univers 45 Light|b0|i0|c1;\H3.447529;\W1.000000;ø27
 73
     1
 44
1.0
  0
MTEXT
  5
1F3
330
70
100
AcDbEntity
  8
Text
100
AcDbMText
 10
191.064198933625
 20
136.987159525215
 30
0.0
 40
0.2
 41
0.0
 46
0.0
 71
     7
 72
     1
  1
\C7;\FINDEX Univers 45 Light|b0|i0|c1;\H3.447529;\W1.000000;ø77,5
 11
0.0000000000000001
 21
1.0
 31
0.0
 73
     1
 44
1.0
  0
MTEXT
  5
1F4
330
70
100
AcDbEntity
  8
Text
100
AcDbMText
 10
76.98565400636123
 20
87.95791170252496
 30
0.0
 40
0.2
 41
0.0
 46
0.0
 71
     7
 72
     1
  1
\C7;\FINDEX Univers 45 Light|b0|i0|c1;\H3.447529;\W1.000000;16
 73
     1
 44
1.0
  0
ENDSEC
  0
SECTION
  2
OBJECTS
  0
DICTIONARY
  5
C
330
0
100
AcDbDictionary
281
     1
  3
ACAD_COLOR
350
63
  3
ACAD_DETAILVIEWSTYLE
350
6A
  3
ACAD_GROUP
350
D
  3
ACAD_LAYOUT
350
62
  3
ACAD_MATERIAL
350
10
  3
ACAD_MLEADERSTYLE
350
66
  3
ACAD_MLINESTYLE
350
5F
  3
ACAD_PLOTSETTINGS
350
61
  3
ACAD_PLOTSTYLENAME
350
E
  3
ACAD_SCALELIST
350
42
  3
ACAD_SECTIONVIEWSTYLE
350
68
  3
ACAD_TABLESTYLE
350
64
  3
ACAD_VISUALSTYLE
350
29
  3
ACDB_RECOMPOSE_DATA
350
1FD
  3
AcDbVariableDictionary
350
1F5
  0
DICTIONARY
  5
63
102
{ACAD_REACTORS
330
C
102
}
330
C
100
AcDbDictionary
281
     1
  0
DICTIONARY
  5
6A
102
{ACAD_REACTORS
330
C
102
}
330
C
100
AcDbDictionary
281
     1
  3
Imperial24
350
6B
  0
DICTIONARY
  5
D
102
{ACAD_REACTORS
330
C
102
}
330
C
100
AcDbDictionary
281
     1
  0
DICTIONARY
  5
62
102
{ACAD_REACTORS
330
C
102
}
330
C
100
AcDbDictionary
281
     1
  3
Layout1
350
6F
  3
Layout2
350
77
  3
Model
350
73
  0
DICTIONARY
  5
10
102
{ACAD_REACTORS
330
C
102
}
330
C
100
AcDbDictionary
281
     1
  3
ByBlock
350
19
  3
ByLayer
350
11
  3
Global
350
21
  0
DICTIONARY
  5
66
102
{ACAD_REACTORS
330
C
102
}
330
C
100
AcDbDictionary
281
     1
  3
Standard
350
67
  0
DICTIONARY
  5
5F
102
{ACAD_REACTORS
330
C
102
}
330
C
100
AcDbDictionary
281
     1
  3
Standard
350
60
  0
DICTIONARY
  5
61
102
{ACAD_REACTORS
330
C
102
}
330
C
100
AcDbDictionary
281
     1
  0
ACDBDICTIONARYWDFLT
  5
E
102
{ACAD_REACTORS
330
C
102
}
330
C
100
AcDbDictionary
281
     1
  3
Normal
350
F
100
AcDbDictionaryWithDefault
340
F
  0
DICTIONARY
  5
42
102
{ACAD_REACTORS
330
C
102
}
330
C
100
AcDbDictionary
281
     1
  3
A0
350
43
  3
A1
350
44
  3
A2
350
45
  3
A3
350
46
  3
A4
350
47
  3
A5
350
48
  3
A6
350
49
  3
A7
350
4A
  3
A8
350
4B
  3
A9
350
4C
  3
B0
350
4D
  3
B1
350
4E
  3
B2
350
4F
  3
B3
350
50
  3
B4
350
51
  3
B5
350
52
  3
B6
350
53
  0
DICTIONARY
  5
68
102
{ACAD_REACTORS
330
C
102
}
330
C
100
AcDbDictionary
281
     1
  3
Imperial24
350
69
  0
DICTIONARY
  5
64
102
{ACAD_REACTORS
330
C
102
}
330
C
100
AcDbDictionary
281
     1
  3
Standard
350
65
  0
DICTIONARY
  5
29
102
{ACAD_REACTORS
330
C
102
}
330
C
100
AcDbDictionary
281
     1
  3
2dWireframe
350
2F
  3
Basic
350
2E
  3
Brighten
350
35
  3
ColorChange
350
39
  3
Conceptual
350
32
  3
Dim
350
34
  3
EdgeColorOff
350
41
  3
Facepattern
350
38
  3
Flat
350
2A
  3
FlatWithEdges
350
2B
  3
Gouraud
350
2C
  3
GouraudWithEdges
350
2D
  3
Hidden
350
31
  3
JitterOff
350
3F
  3
Linepattern
350
37
  3
OverhangOff
350
40
  3
Realistic
350
33
  3
Shaded
350
3E
  3
Shaded with edges
350
3D
  3
Shades of Gray
350
3A
  3
Sketchy
350
3B
  3
Thicken
350
36
  3
Wireframe
350
30
  3
X-Ray
350
3C
  0
XRECORD
  5
1FD
102
{ACAD_REACTORS
330
C
102
}
330
C
100
AcDbXrecord
280
     1
 90
        1
330
65
  0
DICTIONARY
  5
1F5
102
{ACAD_REACTORS
330
C
102
}
330
C
100
AcDbDictionary
281
     1
  3
CANNOSCALE
350
1FA
  3
CMLEADERSTYLE
350
1F7
  3
CTABLESTYLE
350
1F6
  3
CVIEWDETAILSTYLE
350
1F8
  3
CVIEWSECTIONSTYLE
350
1F9
  0
ACDBDETAILVIEWSTYLE
  5
6B
102
{ACAD_REACTORS
330
6A
102
}
330
6A
100
AcDbModelDocViewStyle
 70
     0
  3
Imperial24
290
     1
300
Imperial24
 90
        0
100
AcDbDetailViewStyle
 70
     0
 71
     0
 90
        3
 71
     1
340
55
 62
   256
 40
0.24
340
0
 62
   256
 40
0.24
300

 40
0.36
280
     3
 71
     2
340
5D
 90
       25
 62
   256
 71
     3
340
55
 62
   256
 40
0.24
 90
        1
 40
0.75
 90
        1
300
%<\AcVar ViewType \f "%tc1">% %<\AcVar ViewDetailId>%\PSCALE %<\AcVar ViewScale \f "%sn">%
 71
     4
340
5D
 90
       25
 62
   256
340
5D
 90
       25
 62
   256
280
     0
  0
LAYOUT
  5
6F
102
{ACAD_REACTORS
330
62
102
}
330
62
100
AcDbPlotSettings
  1

  2

  4

  6

 40
0.0
 41
0.0
 42
0.0
 43
0.0
 44
0.0
 45
0.0
 46
0.0
 47
0.0
 48
0.0
 49
0.0
140
0.0
141
0.0
142
1.0
143
1.0
 70
   688
 72
     0
 73
     0
 74
     5
  7

 75
    16
147
1.0
 76
     0
 77
     2
 78
   300
148
0.0
149
0.0
100
AcDbLayout
  1
Layout1
 70
     1
 71
     1
 10
0.0
 20
0.0
 11
12.0
 21
9.0
 12
0.0
 22
0.0
 32
0.0
 14
0.0
 24
0.0
 34
0.0
 15
0.0
 25
0.0
 35
0.0
146
0.0
 13
0.0
 23
0.0
 33
0.0
 16
1.0
 26
0.0
 36
0.0
 17
0.0
 27
1.0
 37
0.0
 76
     0
330
6C
  0
LAYOUT
  5
77
102
{ACAD_REACTORS
330
62
102
}
330
62
100
AcDbPlotSettings
  1

  2

  4

  6

 40
0.0
 41
0.0
 42
0.0
 43
0.0
 44
0.0
 45
0.0
 46
0.0
 47
0.0
 48
0.0
 49
0.0
140
0.0
141
0.0
142
1.0
143
1.0
 70
   688
 72
     0
 73
     0
 74
     5
  7

 75
    16
147
1.0
 76
     0
 77
     2
 78
   300
148
0.0
149
0.0
100
AcDbLayout
  1
Layout2
 70
     1
 71
     2
 10
0.0
 20
0.0
 11
12.0
 21
9.0
 12
0.0
 22
0.0
 32
0.0
 14
0.0
 24
0.0
 34
0.0
 15
0.0
 25
0.0
 35
0.0
146
0.0
 13
0.0
 23
0.0
 33
0.0
 16
1.0
 26
0.0
 36
0.0
 17
0.0
 27
1.0
 37
0.0
 76
     0
330
74
  0
LAYOUT
  5
73
102
{ACAD_REACTORS
330
62
102
}
330
62
100
AcDbPlotSettings
  1

  2

  4

  6

 40
0.0
 41
0.0
 42
0.0
 43
0.0
 44
0.0
 45
0.0
 46
0.0
 47
0.0
 48
0.0
 49
0.0
140
0.0
141
0.0
142
1.0
143
1.0
 70
  1712
 72
     0
 73
     0
 74
     0
  7

 75
     0
147
1.0
 76
     0
 77
     2
 78
   300
148
0.0
149
0.0
100
AcDbLayout
  1
Model
 70
     1
 71
     0
 10
0.0
 20
0.0
 11
12.0
 21
9.0
 12
0.0
 22
0.0
 32
0.0
 14
0.0
 24
0.0
 34
0.0
 15
0.0
 25
0.0
 35
0.0
146
0.0
 13
0.0
 23
0.0
 33
0.0
 16
1.0
 26
0.0
 36
0.0
 17
0.0
 27
1.0
 37
0.0
 76
     0
330
70
  0
MATERIAL
  5
19
102
{ACAD_XDICTIONARY
360
1A
102
}
102
{ACAD_REACTORS
330
10
102
}
330
10
100
AcDbMaterial
  1
ByBlock
 72
     0
 43
0.0208333333333333
 43
0.0
 43
0.0
 43
0.0
 43
0.0
 43
0.0208333333333333
 43
0.0
 43
0.0
 43
0.0
 43
0.0
 43
1.0
 43
0.0
 43
0.0
 43
0.0
 43
0.0
 43
1.0
 77
     0
 47
0.0208333333333333
 47
0.0
 47
0.0
 47
0.0
 47
0.0
 47
0.0208333333333333
 47
0.0
 47
0.0
 47
0.0
 47
0.0
 47
1.0
 47
0.0
 47
0.0
 47
0.0
 47
0.0
 47
1.0
171
     0
 49
0.0208333333333333
 49
0.0
 49
0.0
 49
0.0
 49
0.0
 49
0.0208333333333333
 49
0.0
 49
0.0
 49
0.0
 49
0.0
 49
1.0
 49
0.0
 49
0.0
 49
0.0
 49
0.0
 49
1.0
175
     0
142
0.0208333333333333
142
0.0
142
0.0
142
0.0
142
0.0
142
0.0208333333333333
142
0.0
142
0.0
142
0.0
142
0.0
142
1.0
142
0.0
142
0.0
142
0.0
142
0.0
142
1.0
179
     0
144
0.0208333333333333
144
0.0
144
0.0
144
0.0
144
0.0
144
0.0208333333333333
144
0.0
144
0.0
144
0.0
144
0.0
144
1.0
144
0.0
144
0.0
144
0.0
144
0.0
144
1.0
147
0.0208333333333333
147
0.0
147
0.0
147
0.0
147
0.0
147
0.0208333333333333
147
0.0
147
0.0
147
0.0
147
0.0
147
1.0
147
0.0
147
0.0
147
0.0
147
0.0
147
1.0
  0
MATERIAL
  5
11
102
{ACAD_XDICTIONARY
360
12
102
}
102
{ACAD_REACTORS
330
10
102
}
330
10
100
AcDbMaterial
  1
ByLayer
 72
     0
 43
0.0208333333333333
 43
0.0
 43
0.0
 43
0.0
 43
0.0
 43
0.0208333333333333
 43
0.0
 43
0.0
 43
0.0
 43
0.0
 43
1.0
 43
0.0
 43
0.0
 43
0.0
 43
0.0
 43
1.0
 77
     0
 47
0.0208333333333333
 47
0.0
 47
0.0
 47
0.0
 47
0.0
 47
0.0208333333333333
 47
0.0
 47
0.0
 47
0.0
 47
0.0
 47
1.0
 47
0.0
 47
0.0
 47
0.0
 47
0.0
 47
1.0
171
     0
 49
0.0208333333333333
 49
0.0
 49
0.0
 49
0.0
 49
0.0
 49
0.0208333333333333
 49
0.0
 49
0.0
 49
0.0
 49
0.0
 49
1.0
 49
0.0
 49
0.0
 49
0.0
 49
0.0
 49
1.0
175
     0
142
0.0208333333333333
142
0.0
142
0.0
142
0.0
142
0.0
142
0.0208333333333333
142
0.0
142
0.0
142
0.0
142
0.0
142
1.0
142
0.0
142
0.0
142
0.0
142
0.0
142
1.0
179
     0
144
0.0208333333333333
144
0.0
144
0.0
144
0.0
144
0.0
144
0.0208333333333333
144
0.0
144
0.0
144
0.0
144
0.0
144
1.0
144
0.0
144
0.0
144
0.0
144
0.0
144
1.0
147
0.0208333333333333
147
0.0
147
0.0
147
0.0
147
0.0
147
0.0208333333333333
147
0.0
147
0.0
147
0.0
147
0.0
147
1.0
147
0.0
147
0.0
147
0.0
147
0.0
147
1.0
  0
MATERIAL
  5
21
102
{ACAD_XDICTIONARY
360
22
102
}
102
{ACAD_REACTORS
330
10
102
}
330
10
100
AcDbMaterial
  1
Global
 72
     0
 43
0.0208333333333333
 43
0.0
 43
0.0
 43
0.0
 43
0.0
 43
0.0208333333333333
 43
0.0
 43
0.0
 43
0.0
 43
0.0
 43
1.0
 43
0.0
 43
0.0
 43
0.0
 43
0.0
 43
1.0
 77
     0
 47
0.0208333333333333
 47
0.0
 47
0.0
 47
0.0
 47
0.0
 47
0.0208333333333333
 47
0.0
 47
0.0
 47
0.0
 47
0.0
 47
1.0
 47
0.0
 47
0.0
 47
0.0
 47
0.0
 47
1.0
171
     0
 49
0.0208333333333333
 49
0.0
 49
0.0
 49
0.0
 49
0.0
 49
0.0208333333333333
 49
0.0
 49
0.0
 49
0.0
 49
0.0
 49
1.0
 49
0.0
 49
0.0
 49
0.0
 49
0.0
 49
1.0
175
     0
142
0.0208333333333333
142
0.0
142
0.0
142
0.0
142
0.0
142
0.0208333333333333
142
0.0
142
0.0
142
0.0
142
0.0
142
1.0
142
0.0
142
0.0
142
0.0
142
0.0
142
1.0
179
     0
144
0.0208333333333333
144
0.0
144
0.0
144
0.0
144
0.0
144
0.0208333333333333
144
0.0
144
0.0
144
0.0
144
0.0
144
1.0
144
0.0
144
0.0
144
0.0
144
0.0
144
1.0
147
0.0208333333333333
147
0.0
147
0.0
147
0.0
147
0.0
147
0.0208333333333333
147
0.0
147
0.0
147
0.0
147
0.0
147
1.0
147
0.0
147
0.0
147
0.0
147
0.0
147
1.0
  0
MLEADERSTYLE
  5
67
102
{ACAD_REACTORS
330
66
102
}
330
66
100
AcDbMLeaderStyle
179
     2
170
     2
171
     1
172
     0
 90
        2
 40
0.0
 41
0.0
173
     1
 91
-1056964608
340
5B
 92
       -2
290
     1
 42
0.09
291
     1
 43
0.36
  3
Standard
 44
0.18
300

342
55
174
     1
178
     6
175
     1
176
     0
 93
-1056964608
 45
0.18
292
     0
297
     0
 46
0.18
 94
-1056964608
 47
1.0
 49
1.0
140
1.0
293
     1
141
0.0
294
     1
177
     0
142
1.0
295
     1
296
     0
143
0.125
271
     0
272
     9
273
     9
298
     1
  0
MLINESTYLE
  5
60
102
{ACAD_REACTORS
330
5F
102
}
330
5F
100
AcDbMlineStyle
  2
STANDARD
 70
     0
  3

 62
   256
 51
90.0
 52
90.0
 71
     2
 49
0.5
 62
   256
  6
BYLAYER
 49
-0.5
 62
   256
  6
BYLAYER
  0
ACDBPLACEHOLDER
  5
F
102
{ACAD_REACTORS
330
E
102
}
330
E
  0
SCALE
  5
43
102
{ACAD_REACTORS
330
42
102
}
330
42
100
AcDbScale
 70
     0
300
1:1
140
1.0
141
1.0
290
     1
  0
SCALE
  5
44
102
{ACAD_REACTORS
330
42
102
}
330
42
100
AcDbScale
 70
     0
300
1/128" = 1'-0"
140
0.0078125
141
12.0
290
     0
  0
SCALE
  5
45
102
{ACAD_REACTORS
330
42
102
}
330
42
100
AcDbScale
 70
     0
300
1/64" = 1'-0"
140
0.015625
141
12.0
290
     0
  0
SCALE
  5
46
102
{ACAD_REACTORS
330
42
102
}
330
42
100
AcDbScale
 70
     0
300
1/32" = 1'-0"
140
0.03125
141
12.0
290
     0
  0
SCALE
  5
47
102
{ACAD_REACTORS
330
42
102
}
330
42
100
AcDbScale
 70
     0
300
1/16" = 1'-0"
140
0.0625
141
12.0
290
     0
  0
SCALE
  5
48
102
{ACAD_REACTORS
330
42
102
}
330
42
100
AcDbScale
 70
     0
300
3/32" = 1'-0"
140
0.09375
141
12.0
290
     0
  0
SCALE
  5
49
102
{ACAD_REACTORS
330
42
102
}
330
42
100
AcDbScale
 70
     0
300
1/8" = 1'-0"
140
0.125
141
12.0
290
     0
  0
SCALE
  5
4A
102
{ACAD_REACTORS
330
42
102
}
330
42
100
AcDbScale
 70
     0
300
3/16" = 1'-0"
140
0.1875
141
12.0
290
     0
  0
SCALE
  5
4B
102
{ACAD_REACTORS
330
42
102
}
330
42
100
AcDbScale
 70
     0
300
1/4" = 1'-0"
140
0.25
141
12.0
290
     0
  0
SCALE
  5
4C
102
{ACAD_REACTORS
330
42
102
}
330
42
100
AcDbScale
 70
     0
300
3/8" = 1'-0"
140
0.375
141
12.0
290
     0
  0
SCALE
  5
4D
102
{ACAD_REACTORS
330
42
102
}
330
42
100
AcDbScale
 70
     0
300
1/2" = 1'-0"
140
0.5
141
12.0
290
     0
  0
SCALE
  5
4E
102
{ACAD_REACTORS
330
42
102
}
330
42
100
AcDbScale
 70
     0
300
3/4" = 1'-0"
140
0.75
141
12.0
290
     0
  0
SCALE
  5
4F
102
{ACAD_REACTORS
330
42
102
}
330
42
100
AcDbScale
 70
     0
300
1" = 1'-0"
140
1.0
141
12.0
290
     0
  0
SCALE
  5
50
102
{ACAD_REACTORS
330
42
102
}
330
42
100
AcDbScale
 70
     0
300
1-1/2" = 1'-0"
140
1.5
141
12.0
290
     0
  0
SCALE
  5
51
102
{ACAD_REACTORS
330
42
102
}
330
42
100
AcDbScale
 70
     0
300
3" = 1'-0"
140
3.0
141
12.0
290
     0
  0
SCALE
  5
52
102
{ACAD_REACTORS
330
42
102
}
330
42
100
AcDbScale
 70
     0
300
6" = 1'-0"
140
6.0
141
12.0
290
     0
  0
SCALE
  5
53
102
{ACAD_REACTORS
330
42
102
}
330
42
100
AcDbScale
 70
     0
300
1'-0" = 1'-0"
140
12.0
141
12.0
290
     0
  0
ACDBSECTIONVIEWSTYLE
  5
69
102
{ACAD_REACTORS
330
68
102
}
330
68
100
AcDbModelDocViewStyle
 70
     0
  3
Imperial24
290
     1
300
Imperial24
 90
        0
100
AcDbSectionViewStyle
 70
     0
 71
     0
 90
       78
 71
     1
340
55
 62
   256
 40
0.24
340
0
340
0
 62
   256
 40
0.24
300
I, O, Q, S, X, Z
 40
0.48
 90
        3
 40
0.18
 90
        1
 71
     2
340
5D
 90
       25
 62
   256
340
5D
 90
       50
 62
   256
 40
0.24
 40
0.0
 40
0.24
 71
     3
340
55
 62
   256
 40
0.24
 90
        1
 40
0.75
 90
        1
300
%<\AcVar ViewType \f "%tc1">% %<\AcVar ViewSectionStartId>%-%<\AcVar ViewSectionEndId>%\PSCALE %<\AcVar ViewScale \f "%sn">%
 71
     4
 62
   256
 62
   257
300
ANSI31
 40
1.0
 90
        0
290
     0
290
     0
 90
        6
 40
0.0
 40
1.570796326794896
 40
0.2617993877991494
 40
1.308996938995747
 40
-0.2617993877991494
 40
1.832595714594046
  0
TABLESTYLE
  5
65
102
{ACAD_XDICTIONARY
360
1FB
102
}
102
{ACAD_REACTORS
330
64
102
}
330
64
100
AcDbTableStyle
280
     0
  3
Standard
 70
     0
 71
     0
 40
0.06
 41
0.06
280
     0
281
     0
  7
Standard
140
0.18
170
     2
 62
     0
 63
     7
283
     0
 90
      512
 91
        0
  1

274
    -2
284
     1
 64
     0
275
    -2
285
     1
 65
     0
276
    -2
286
     1
 66
     0
277
    -2
287
     1
 67
     0
278
    -2
288
     1
 68
     0
279
    -2
289
     1
 69
     0
  7
Standard
140
0.25
170
     5
 62
     0
 63
     7
283
     0
 90
      512
 91
        0
  1

274
    -2
284
     1
 64
     0
275
    -2
285
     1
 65
     0
276
    -2
286
     1
 66
     0
277
    -2
287
     1
 67
     0
278
    -2
288
     1
 68
     0
279
    -2
289
     1
 69
     0
  7
Standard
140
0.18
170
     5
 62
     0
 63
     7
283
     0
 90
      512
 91
        0
  1

274
    -2
284
     1
 64
     0
275
    -2
285
     1
 65
     0
276
    -2
286
     1
 66
     0
277
    -2
287
     1
 67
     0
278
    -2
288
     1
 68
     0
279
    -2
289
     1
 69
     0
  0
VISUALSTYLE
  5
2F
102
{ACAD_REACTORS
330
29
102
}
330
29
100
AcDbVisualStyle
  2
2dWireframe
 70
     4
177
     3
291
     0
 70
    58
 90
        0
176
     1
 90
        2
176
     1
 90
        0
176
     1
 90
        0
176
     1
 40
0.6
176
     1
 40
30.0
176
     1
 62
     7
420
 16777215
176
     1
 90
        1
176
     1
 90
        4
176
     1
 62
     7
176
     1
 62
   257
176
     1
 90
        1
176
     1
 90
        1
176
     1
 40
1.0
176
     1
 90
        0
176
     1
 62
   257
176
     1
 40
1.0
176
     1
 90
        1
176
     1
 90
        6
176
     1
 90
        2
176
     1
 62
     7
176
     1
 90
        5
176
     1
 90
        0
176
     1
 90
        0
176
     1
290
     0
176
     1
 90
        1
176
     1
 40
0.0
176
     1
 90
        0
176
     1
290
     1
176
     1
290
     1
176
     1
290
     0
176
     1
290
     0
176
     1
290
     0
176
     1
290
     0
176
     1
290
     0
176
     1
290
     0
176
     1
290
     0
176
     1
 90
       50
176
     1
 40
0.0
176
     1
 40
1.0
176
     1
 90
        0
176
     1
 62
    18
420
        0
176
     1
 90
       50
176
     1
 90
        3
176
     1
 62
     5
420
      255
176
     1
290
     0
176
     1
 90
       50
176
     1
 90
       50
176
     1
 90
       50
176
     1
290
     0
176
     1
 90
       50
176
     1
 62
   256
176
     0
 40
1.0
176
     0
 90
        2
176
     1
  1
strokes_ogs.tif
176
     1
290
     0
176
     1
 40
1.0
176
     1
 40
1.0
176
     1
  0
VISUALSTYLE
  5
2E
102
{ACAD_REACTORS
330
29
102
}
330
29
100
AcDbVisualStyle
  2
Basic
 70
     7
177
     3
291
     1
 70
    58
 90
        1
176
     1
 90
        0
176
     1
 90
        1
176
     1
 90
        0
176
     1
 40
0.6
176
     1
 40
30.0
176
     1
 62
     7
420
 16777215
176
     1
 90
        0
176
     1
 90
        4
176
     1
 62
     7
176
     1
 62
   257
176
     1
 90
        1
176
     1
 90
        1
176
     1
 40
1.0
176
     1
 90
        8
176
     1
 62
     7
176
     1
 40
1.0
176
     1
 90
        1
176
     1
 90
        6
176
     1
 90
        2
176
     1
 62
     7
176
     1
 90
        5
176
     1
 90
        0
176
     1
 90
        0
176
     1
290
     0
176
     1
 90
        1
176
     1
 40
0.0
176
     1
 90
        0
176
     1
290
     0
176
     1
290
     1
176
     1
290
     1
176
     1
290
     0
176
     1
290
     0
176
     1
290
     0
176
     1
290
     0
176
     1
290
     0
176
     1
290
     0
176
     1
 90
       50
176
     1
 40
0.0
176
     1
 40
1.0
176
     1
 90
        0
176
     1
 62
    18
420
        0
176
     1
 90
       50
176
     1
 90
        3
176
     1
 62
     5
420
      255
176
     1
290
     0
176
     1
 90
       50
176
     1
 90
       50
176
     1
 90
       50
176
     1
290
     0
176
     1
 90
       50
176
     1
 62
   256
176
     0
 40
1.0
176
     0
 90
        2
176
     1
  1
strokes_ogs.tif
176
     1
290
     0
176
     1
 40
1.0
176
     1
 40
1.0
176
     1
  0
VISUALSTYLE
  5
35
102
{ACAD_REACTORS
330
29
102
}
330
29
100
AcDbVisualStyle
  2
Brighten
 70
    12
177
     3
291
     1
 70
    58
 90
        2
176
     1
 90
        2
176
     1
 90
        0
176
     1
 90
        0
176
     1
 40
0.6
176
     1
 40
30.0
176
     1
 62
     7
420
 16777215
176
     1
 90
        1
176
     1
 90
        4
176
     1
 62
     7
176
     1
 62
   257
176
     1
 90
        1
176
     1
 90
        1
176
     1
 40
1.0
176
     1
 90
        8
176
     1
 62
     7
176
     1
 40
1.0
176
     1
 90
        1
176
     1
 90
        6
176
     1
 90
        2
176
     1
 62
     7
176
     1
 90
        5
176
     1
 90
        0
176
     1
 90
        0
176
     1
290
     0
176
     1
 90
        1
176
     1
 40
50.0
176
     1
 90
        0
176
     1
290
     0
176
     1
290
     1
176
     1
290
     1
176
     1
290
     0
176
     1
290
     0
176
     1
290
     0
176
     1
290
     0
176
     1
290
     0
176
     1
290
     0
176
     1
 90
       50
176
     1
 40
0.0
176
     1
 40
1.0
176
     1
 90
        0
176
     1
 62
    18
420
        0
176
     1
 90
       50
176
     1
 90
        3
176
     1
 62
     5
420
      255
176
     1
290
     0
176
     1
 90
       50
176
     1
 90
       50
176
     1
 90
       50
176
     1
290
     0
176
     1
 90
       50
176
     1
 62
   256
176
     0
 40
1.0
176
     0
 90
        2
176
     1
  1
strokes_ogs.tif
176
     1
290
     0
176
     1
 40
1.0
176
     1
 40
1.0
176
     1
  0
VISUALSTYLE
  5
39
102
{ACAD_REACTORS
330
29
102
}
330
29
100
AcDbVisualStyle
  2
ColorChange
 70
    16
177
     3
291
     1
 70
    58
 90
        2
176
     1
 90
        2
176
     1
 90
        3
176
     1
 90
        0
176
     1
 40
0.6
176
     1
 40
30.0
176
     1
 62
     8
420
  8421504
176
     1
 90
        1
176
     1
 90
        4
176
     1
 62
     7
176
     1
 62
   257
176
     1
 90
        1
176
     1
 90
        1
176
     1
 40
1.0
176
     1
 90
        8
176
     1
 62
     8
420
  8421504
176
     1
 40
1.0
176
     1
 90
        1
176
     1
 90
        6
176
     1
 90
        2
176
     1
 62
     7
176
     1
 90
        5
176
     1
 90
        0
176
     1
 90
        0
176
     1
290
     0
176
     1
 90
        1
176
     1
 40
0.0
176
     1
 90
        0
176
     1
290
     0
176
     1
290
     1
176
     1
290
     1
176
     1
290
     0
176
     1
290
     0
176
     1
290
     0
176
     1
290
     0
176
     1
290
     0
176
     1
290
     0
176
     1
 90
       50
176
     1
 40
0.0
176
     1
 40
1.0
176
     1
 90
        0
176
     1
 62
    18
420
        0
176
     1
 90
       50
176
     1
 90
        3
176
     1
 62
     5
420
      255
176
     1
290
     0
176
     1
 90
       50
176
     1
 90
       50
176
     1
 90
       50
176
     1
290
     0
176
     1
 90
       50
176
     1
 62
   256
176
     0
 40
1.0
176
     0
 90
        2
176
     1
  1
strokes_ogs.tif
176
     1
290
     0
176
     1
 40
1.0
176
     1
 40
1.0
176
     1
  0
VISUALSTYLE
  5
32
102
{ACAD_REACTORS
330
29
102
}
330
29
100
AcDbVisualStyle
  2
Conceptual
 70
     9
177
     3
291
     0
 70
    58
 90
        3
176
     1
 90
        2
176
     1
 90
        0
176
     1
 90
        0
176
     1
 40
0.6
176
     1
 40
30.0
176
     1
 62
     7
420
 16777215
176
     1
 90
        2
176
     1
 90
        2
176
     1
 62
     7
176
     1
 62
   257
176
     1
 90
        1
176
     1
 90
        1
176
     1
 40
179.0
176
     1
 90
        8
176
     1
 62
     7
176
     1
 40
1.0
176
     1
 90
        1
176
     1
 90
        6
176
     1
 90
        2
176
     1
 62
     7
176
     1
 90
        3
176
     1
 90
        0
176
     1
 90
        0
176
     1
290
     0
176
     1
 90
        1
176
     1
 40
0.0
176
     1
 90
        0
176
     1
290
     0
176
     1
290
     1
176
     1
290
     1
176
     1
290
     0
176
     1
290
     0
176
     1
290
     0
176
     1
290
     0
176
     1
290
     0
176
     1
290
     0
176
     1
 90
       50
176
     1
 40
0.0
176
     1
 40
1.0
176
     1
 90
        0
176
     1
 62
    18
420
        0
176
     1
 90
       50
176
     1
 90
        3
176
     1
 62
     5
420
      255
176
     1
290
     0
176
     1
 90
       50
176
     1
 90
       50
176
     1
 90
       50
176
     1
290
     0
176
     1
 90
       50
176
     1
 62
   256
176
     0
 40
1.0
176
     0
 90
        2
176
     1
  1
strokes_ogs.tif
176
     1
290
     0
176
     1
 40
1.0
176
     1
 40
1.0
176
     1
  0
VISUALSTYLE
  5
34
102
{ACAD_REACTORS
330
29
102
}
330
29
100
AcDbVisualStyle
  2
Dim
 70
    11
177
     3
291
     1
 70
    58
 90
        2
176
     1
 90
        2
176
     1
 90
        0
176
     1
 90
        0
176
     1
 40
0.6
176
     1
 40
30.0
176
     1
 62
     7
420
 16777215
176
     1
 90
        1
176
     1
 90
        4
176
     1
 62
     7
176
     1
 62
   257
176
     1
 90
        1
176
     1
 90
        1
176
     1
 40
1.0
176
     1
 90
        8
176
     1
 62
     7
176
     1
 40
1.0
176
     1
 90
        1
176
     1
 90
        6
176
     1
 90
        2
176
     1
 62
     7
176
     1
 90
        5
176
     1
 90
        0
176
     1
 90
        0
176
     1
290
     0
176
     1
 90
        1
176
     1
 40
-50.0
176
     1
 90
        0
176
     1
290
     0
176
     1
290
     1
176
     1
290
     1
176
     1
290
     0
176
     1
290
     0
176
     1
290
     0
176
     1
290
     0
176
     1
290
     0
176
     1
290
     0
176
     1
 90
       50
176
     1
 40
0.0
176
     1
 40
1.0
176
     1
 90
        0
176
     1
 62
    18
420
        0
176
     1
 90
       50
176
     1
 90
        3
176
     1
 62
     5
420
      255
176
     1
290
     0
176
     1
 90
       50
176
     1
 90
       50
176
     1
 90
       50
176
     1
290
     0
176
     1
 90
       50
176
     1
 62
   256
176
     0
 40
1.0
176
     0
 90
        2
176
     1
  1
strokes_ogs.tif
176
     1
290
     0
176
     1
 40
1.0
176
     1
 40
1.0
176
     1
  0
VISUALSTYLE
  5
41
102
{ACAD_REACTORS
330
29
102
}
330
29
100
AcDbVisualStyle
  2
EdgeColorOff
 70
    22
177
     3
291
     1
 70
    58
 90
        2
176
     0
 90
        2
176
     0
 90
        0
176
     0
 90
        0
176
     0
 40
0.6
176
     0
 40
30.0
176
     0
 62
     7
420
 16777215
176
     0
 90
        1
176
     0
 90
        4
176
     0
 62
     7
176
     0
 62
   257
176
     0
 90
        1
176
     0
 90
        1
176
     0
 40
1.0
176
     0
 90
        8
176
     2
 62
     7
176
     0
 40
1.0
176
     0
 90
        1
176
     0
 90
        6
176
     0
 90
        2
176
     0
 62
     7
176
     0
 90
        5
176
     0
 90
        0
176
     0
 90
        0
176
     0
290
     0
176
     0
 90
        1
176
     0
 40
0.0
176
     0
 90
        0
176
     0
290
     0
176
     0
290
     1
176
     0
290
     1
176
     0
290
     0
176
     0
290
     0
176
     0
290
     0
176
     0
290
     0
176
     0
290
     0
176
     0
290
     0
176
     0
 90
       50
176
     0
 40
0.0
176
     0
 40
1.0
176
     0
 90
        0
176
     0
 62
    18
420
        0
176
     0
 90
       50
176
     0
 90
        3
176
     0
 62
     5
420
      255
176
     0
290
     0
176
     0
 90
       50
176
     0
 90
       50
176
     0
 90
       50
176
     0
290
     0
176
     0
 90
       50
176
     0
 62
   256
176
     0
 40
1.0
176
     0
 90
        2
176
     0
  1
strokes_ogs.tif
176
     0
290
     0
176
     0
 40
1.0
176
     0
 40
1.0
176
     0
  0
VISUALSTYLE
  5
38
102
{ACAD_REACTORS
330
29
102
}
330
29
100
AcDbVisualStyle
  2
Facepattern
 70
    15
177
     3
291
     1
 70
    58
 90
        2
176
     1
 90
        2
176
     1
 90
        0
176
     1
 90
        0
176
     1
 40
0.6
176
     1
 40
30.0
176
     1
 62
     7
420
 16777215
176
     1
 90
        1
176
     1
 90
        4
176
     1
 62
     7
176
     1
 62
   257
176
     1
 90
        1
176
     1
 90
        1
176
     1
 40
1.0
176
     1
 90
        8
176
     1
 62
     7
176
     1
 40
1.0
176
     1
 90
        1
176
     1
 90
        6
176
     1
 90
        2
176
     1
 62
     7
176
     1
 90
        5
176
     1
 90
        0
176
     1
 90
        0
176
     1
290
     0
176
     1
 90
        1
176
     1
 40
0.0
176
     1
 90
        0
176
     1
290
     0
176
     1
290
     1
176
     1
290
     1
176
     1
290
     0
176
     1
290
     0
176
     1
290
     0
176
     1
290
     0
176
     1
290
     0
176
     1
290
     0
176
     1
 90
       50
176
     1
 40
0.0
176
     1
 40
1.0
176
     1
 90
        0
176
     1
 62
    18
420
        0
176
     1
 90
       50
176
     1
 90
        3
176
     1
 62
     5
420
      255
176
     1
290
     0
176
     1
 90
       50
176
     1
 90
       50
176
     1
 90
       50
176
     1
290
     0
176
     1
 90
       50
176
     1
 62
   256
176
     0
 40
1.0
176
     0
 90
        2
176
     1
  1
strokes_ogs.tif
176
     1
290
     0
176
     1
 40
1.0
176
     1
 40
1.0
176
     1
  0
VISUALSTYLE
  5
2A
102
{ACAD_REACTORS
330
29
102
}
330
29
100
AcDbVisualStyle
  2
Flat
 70
     0
177
     3
291
     1
 70
    58
 90
        2
176
     1
 90
        1
176
     1
 90
        1
176
     1
 90
        2
176
     1
 40
0.6
176
     1
 40
30.0
176
     1
 62
     7
420
 16777215
176
     1
 90
        0
176
     1
 90
        0
176
     1
 62
     7
176
     1
 62
   257
176
     1
 90
        1
176
     1
 90
        1
176
     1
 40
1.0
176
     1
 90
        8
176
     1
 62
     7
176
     1
 40
1.0
176
     1
 90
        1
176
     1
 90
        6
176
     1
 90
        2
176
     1
 62
     7
176
     1
 90
        5
176
     1
 90
        0
176
     1
 90
        0
176
     1
290
     0
176
     1
 90
       13
176
     1
 40
0.0
176
     1
 90
        0
176
     1
290
     0
176
     1
290
     1
176
     1
290
     1
176
     1
290
     0
176
     1
290
     0
176
     1
290
     0
176
     1
290
     0
176
     1
290
     0
176
     1
290
     0
176
     1
 90
       50
176
     1
 40
0.0
176
     1
 40
1.0
176
     1
 90
        0
176
     1
 62
    18
420
        0
176
     1
 90
       50
176
     1
 90
        3
176
     1
 62
     5
420
      255
176
     1
290
     0
176
     1
 90
       50
176
     1
 90
       50
176
     1
 90
       50
176
     1
290
     0
176
     1
 90
       50
176
     1
 62
   256
176
     0
 40
1.0
176
     0
 90
        2
176
     1
  1
strokes_ogs.tif
176
     1
290
     0
176
     1
 40
1.0
176
     1
 40
1.0
176
     1
  0
VISUALSTYLE
  5
2B
102
{ACAD_REACTORS
330
29
102
}
330
29
100
AcDbVisualStyle
  2
FlatWithEdges
 70
     1
177
     3
291
     1
 70
    58
 90
        2
176
     1
 90
        1
176
     1
 90
        1
176
     1
 90
        2
176
     1
 40
0.6
176
     1
 40
30.0
176
     1
 62
     7
420
 16777215
176
     1
 90
        1
176
     1
 90
        0
176
     1
 62
     7
176
     1
 62
   257
176
     1
 90
        1
176
     1
 90
        1
176
     1
 40
1.0
176
     1
 90
        0
176
     1
 62
   257
176
     1
 40
1.0
176
     1
 90
        1
176
     1
 90
        6
176
     1
 90
        2
176
     1
 62
     7
176
     1
 90
        5
176
     1
 90
        0
176
     1
 90
        0
176
     1
290
     0
176
     1
 90
       13
176
     1
 40
0.0
176
     1
 90
        0
176
     1
290
     0
176
     1
290
     1
176
     1
290
     1
176
     1
290
     0
176
     1
290
     0
176
     1
290
     0
176
     1
290
     0
176
     1
290
     0
176
     1
290
     0
176
     1
 90
       50
176
     1
 40
0.0
176
     1
 40
1.0
176
     1
 90
        0
176
     1
 62
    18
420
        0
176
     1
 90
       50
176
     1
 90
        3
176
     1
 62
     5
420
      255
176
     1
290
     0
176
     1
 90
       50
176
     1
 90
       50
176
     1
 90
       50
176
     1
290
     0
176
     1
 90
       50
176
     1
 62
   256
176
     0
 40
1.0
176
     0
 90
        2
176
     1
  1
strokes_ogs.tif
176
     1
290
     0
176
     1
 40
1.0
176
     1
 40
1.0
176
     1
  0
VISUALSTYLE
  5
2C
102
{ACAD_REACTORS
330
29
102
}
330
29
100
AcDbVisualStyle
  2
Gouraud
 70
     2
177
     3
291
     1
 70
    58
 90
        2
176
     1
 90
        2
176
     1
 90
        1
176
     1
 90
        2
176
     1
 40
0.6
176
     1
 40
30.0
176
     1
 62
     7
420
 16777215
176
     1
 90
        0
176
     1
 90
        0
176
     1
 62
     7
176
     1
 62
   257
176
     1
 90
        1
176
     1
 90
        1
176
     1
 40
1.0
176
     1
 90
        0
176
     1
 62
     7
176
     1
 40
1.0
176
     1
 90
        1
176
     1
 90
        6
176
     1
 90
        2
176
     1
 62
     7
176
     1
 90
        5
176
     1
 90
        0
176
     1
 90
        0
176
     1
290
     0
176
     1
 90
       13
176
     1
 40
0.0
176
     1
 90
        0
176
     1
290
     0
176
     1
290
     1
176
     1
290
     1
176
     1
290
     0
176
     1
290
     0
176
     1
290
     0
176
     1
290
     0
176
     1
290
     0
176
     1
290
     0
176
     1
 90
       50
176
     1
 40
0.0
176
     1
 40
1.0
176
     1
 90
        0
176
     1
 62
    18
420
        0
176
     1
 90
       50
176
     1
 90
        3
176
     1
 62
     5
420
      255
176
     1
290
     0
176
     1
 90
       50
176
     1
 90
       50
176
     1
 90
       50
176
     1
290
     0
176
     1
 90
       50
176
     1
 62
   256
176
     0
 40
1.0
176
     0
 90
        2
176
     1
  1
strokes_ogs.tif
176
     1
290
     0
176
     1
 40
1.0
176
     1
 40
1.0
176
     1
  0
VISUALSTYLE
  5
2D
102
{ACAD_REACTORS
330
29
102
}
330
29
100
AcDbVisualStyle
  2
GouraudWithEdges
 70
     3
177
     3
291
     1
 70
    58
 90
        2
176
     1
 90
        2
176
     1
 90
        1
176
     1
 90
        2
176
     1
 40
0.6
176
     1
 40
30.0
176
     1
 62
     7
420
 16777215
176
     1
 90
        1
176
     1
 90
        0
176
     1
 62
     7
176
     1
 62
   257
176
     1
 90
        1
176
     1
 90
        1
176
     1
 40
1.0
176
     1
 90
        0
176
     1
 62
   257
176
     1
 40
1.0
176
     1
 90
        1
176
     1
 90
        6
176
     1
 90
        2
176
     1
 62
     7
176
     1
 90
        5
176
     1
 90
        0
176
     1
 90
        0
176
     1
290
     0
176
     1
 90
       13
176
     1
 40
0.0
176
     1
 90
        0
176
     1
290
     0
176
     1
290
     1
176
     1
290
     1
176
     1
290
     0
176
     1
290
     0
176
     1
290
     0
176
     1
290
     0
176
     1
290
     0
176
     1
290
     0
176
     1
 90
       50
176
     1
 40
0.0
176
     1
 40
1.0
176
     1
 90
        0
176
     1
 62
    18
420
        0
176
     1
 90
       50
176
     1
 90
        3
176
     1
 62
     5
420
      255
176
     1
290
     0
176
     1
 90
       50
176
     1
 90
       50
176
     1
 90
       50
176
     1
290
     0
176
     1
 90
       50
176
     1
 62
   256
176
     0
 40
1.0
176
     0
 90
        2
176
     1
  1
strokes_ogs.tif
176
     1
290
     0
176
     1
 40
1.0
176
     1
 40
1.0
176
     1
  0
VISUALSTYLE
  5
31
102
{ACAD_REACTORS
330
29
102
}
330
29
100
AcDbVisualStyle
  2
Hidden
 70
     6
177
     3
291
     0
 70
    58
 90
        1
176
     1
 90
        2
176
     1
 90
        2
176
     1
 90
        0
176
     1
 40
0.6
176
     1
 40
30.0
176
     1
 62
     7
420
 16777215
176
     1
 90
        2
176
     1
 90
        2
176
     1
 62
     7
176
     1
 62
   257
176
     1
 90
        2
176
     1
 90
        1
176
     1
 40
40.0
176
     1
 90
        0
176
     1
 62
   257
176
     1
 40
1.0
176
     1
 90
        1
176
     1
 90
        6
176
     1
 90
        2
176
     1
 62
     7
176
     1
 90
        3
176
     1
 90
        0
176
     1
 90
        0
176
     1
290
     0
176
     1
 90
        1
176
     1
 40
0.0
176
     1
 90
        0
176
     1
290
     0
176
     1
290
     1
176
     1
290
     1
176
     1
290
     0
176
     1
290
     0
176
     1
290
     0
176
     1
290
     0
176
     1
290
     0
176
     1
290
     0
176
     1
 90
       50
176
     1
 40
0.0
176
     1
 40
1.0
176
     1
 90
        0
176
     1
 62
    18
420
        0
176
     1
 90
       50
176
     1
 90
        3
176
     1
 62
     5
420
      255
176
     1
290
     0
176
     1
 90
       50
176
     1
 90
       50
176
     1
 90
       50
176
     1
290
     0
176
     1
 90
       50
176
     1
 62
   256
176
     0
 40
1.0
176
     0
 90
        2
176
     1
  1
strokes_ogs.tif
176
     1
290
     0
176
     1
 40
1.0
176
     1
 40
1.0
176
     1
  0
VISUALSTYLE
  5
3F
102
{ACAD_REACTORS
330
29
102
}
330
29
100
AcDbVisualStyle
  2
JitterOff
 70
    20
177
     3
291
     1
 70
    58
 90
        2
176
     0
 90
        2
176
     0
 90
        0
176
     0
 90
        0
176
     0
 40
0.6
176
     0
 40
30.0
176
     0
 62
     7
420
 16777215
176
     0
 90
        1
176
     0
 90
        4
176
     0
 62
     7
176
     0
 62
   257
176
     0
 90
        1
176
     0
 90
        1
176
     0
 40
1.0
176
     0
 90
       10
176
     2
 62
     7
176
     0
 40
1.0
176
     0
 90
        1
176
     0
 90
        6
176
     0
 90
        2
176
     0
 62
     7
176
     0
 90
        5
176
     0
 90
        0
176
     0
 90
        0
176
     0
290
     0
176
     0
 90
        1
176
     0
 40
0.0
176
     0
 90
        0
176
     0
290
     0
176
     0
290
     1
176
     0
290
     1
176
     0
290
     0
176
     0
290
     0
176
     0
290
     0
176
     0
290
     0
176
     0
290
     0
176
     0
290
     0
176
     0
 90
       50
176
     0
 40
0.0
176
     0
 40
1.0
176
     0
 90
        0
176
     0
 62
    18
420
        0
176
     0
 90
       50
176
     0
 90
        3
176
     0
 62
     5
420
      255
176
     0
290
     0
176
     0
 90
       50
176
     0
 90
       50
176
     0
 90
       50
176
     0
290
     0
176
     0
 90
       50
176
     0
 62
   256
176
     0
 40
1.0
176
     0
 90
        2
176
     0
  1
strokes_ogs.tif
176
     0
290
     0
176
     0
 40
1.0
176
     0
 40
1.0
176
     0
  0
VISUALSTYLE
  5
37
102
{ACAD_REACTORS
330
29
102
}
330
29
100
AcDbVisualStyle
  2
Linepattern
 70
    14
177
     3
291
     1
 70
    58
 90
        2
176
     1
 90
        2
176
     1
 90
        0
176
     1
 90
        0
176
     1
 40
0.6
176
     1
 40
30.0
176
     1
 62
     7
420
 16777215
176
     1
 90
        1
176
     1
 90
        4
176
     1
 62
     7
176
     1
 62
   257
176
     1
 90
        7
176
     1
 90
        7
176
     1
 40
1.0
176
     1
 90
        8
176
     1
 62
     7
176
     1
 40
1.0
176
     1
 90
        1
176
     1
 90
        6
176
     1
 90
        2
176
     1
 62
     7
176
     1
 90
        5
176
     1
 90
        0
176
     1
 90
        0
176
     1
290
     0
176
     1
 90
        1
176
     1
 40
0.0
176
     1
 90
        0
176
     1
290
     0
176
     1
290
     1
176
     1
290
     1
176
     1
290
     0
176
     1
290
     0
176
     1
290
     0
176
     1
290
     0
176
     1
290
     0
176
     1
290
     0
176
     1
 90
       50
176
     1
 40
0.0
176
     1
 40
1.0
176
     1
 90
        0
176
     1
 62
    18
420
        0
176
     1
 90
       50
176
     1
 90
        3
176
     1
 62
     5
420
      255
176
     1
290
     0
176
     1
 90
       50
176
     1
 90
       50
176
     1
 90
       50
176
     1
290
     0
176
     1
 90
       50
176
     1
 62
   256
176
     0
 40
1.0
176
     0
 90
        2
176
     1
  1
strokes_ogs.tif
176
     1
290
     0
176
     1
 40
1.0
176
     1
 40
1.0
176
     1
  0
VISUALSTYLE
  5
40
102
{ACAD_REACTORS
330
29
102
}
330
29
100
AcDbVisualStyle
  2
OverhangOff
 70
    21
177
     3
291
     1
 70
    58
 90
        2
176
     0
 90
        2
176
     0
 90
        0
176
     0
 90
        0
176
     0
 40
0.6
176
     0
 40
30.0
176
     0
 62
     7
420
 16777215
176
     0
 90
        1
176
     0
 90
        4
176
     0
 62
     7
176
     0
 62
   257
176
     0
 90
        1
176
     0
 90
        1
176
     0
 40
1.0
176
     0
 90
        9
176
     2
 62
     7
176
     0
 40
1.0
176
     0
 90
        1
176
     0
 90
        6
176
     0
 90
        2
176
     0
 62
     7
176
     0
 90
        5
176
     0
 90
        0
176
     0
 90
        0
176
     0
290
     0
176
     0
 90
        1
176
     0
 40
0.0
176
     0
 90
        0
176
     0
290
     0
176
     0
290
     1
176
     0
290
     1
176
     0
290
     0
176
     0
290
     0
176
     0
290
     0
176
     0
290
     0
176
     0
290
     0
176
     0
290
     0
176
     0
 90
       50
176
     0
 40
0.0
176
     0
 40
1.0
176
     0
 90
        0
176
     0
 62
    18
420
        0
176
     0
 90
       50
176
     0
 90
        3
176
     0
 62
     5
420
      255
176
     0
290
     0
176
     0
 90
       50
176
     0
 90
       50
176
     0
 90
       50
176
     0
290
     0
176
     0
 90
       50
176
     0
 62
   256
176
     0
 40
1.0
176
     0
 90
        2
176
     0
  1
strokes_ogs.tif
176
     0
290
     0
176
     0
 40
1.0
176
     0
 40
1.0
176
     0
  0
VISUALSTYLE
  5
33
102
{ACAD_REACTORS
330
29
102
}
330
29
100
AcDbVisualStyle
  2
Realistic
 70
     8
177
     3
291
     0
 70
    58
 90
        2
176
     1
 90
        3
176
     1
 90
        0
176
     1
 90
        2
176
     1
 40
0.6
176
     1
 40
30.0
176
     1
 62
     7
420
 16777215
176
     1
 90
        0
176
     1
 90
        0
176
     1
 62
     7
176
     1
 62
   257
176
     1
 90
        1
176
     1
 90
        1
176
     1
 40
1.0
176
     1
 90
        8
176
     1
 62
   257
176
     1
 40
1.0
176
     1
 90
        1
176
     1
 90
        6
176
     1
 90
        2
176
     1
 62
     7
176
     1
 90
        3
176
     1
 90
        0
176
     1
 90
        0
176
     1
290
     0
176
     1
 90
       13
176
     1
 40
0.0
176
     1
 90
        0
176
     1
290
     0
176
     1
290
     1
176
     1
290
     1
176
     1
290
     0
176
     1
290
     0
176
     1
290
     0
176
     1
290
     0
176
     1
290
     0
176
     1
290
     0
176
     1
 90
       50
176
     1
 40
0.0
176
     1
 40
1.0
176
     1
 90
        0
176
     1
 62
    18
420
        0
176
     1
 90
       50
176
     1
 90
        3
176
     1
 62
     5
420
      255
176
     1
290
     0
176
     1
 90
       50
176
     1
 90
       50
176
     1
 90
       50
176
     1
290
     0
176
     1
 90
       50
176
     1
 62
   256
176
     0
 40
1.0
176
     0
 90
        2
176
     1
  1
strokes_ogs.tif
176
     1
290
     0
176
     1
 40
1.0
176
     1
 40
1.0
176
     1
  0
VISUALSTYLE
  5
3E
102
{ACAD_REACTORS
330
29
102
}
330
29
100
AcDbVisualStyle
  2
Shaded
 70
    27
177
     3
291
     0
 70
    58
 90
        2
176
     1
 90
        2
176
     1
 90
        1
176
     1
 90
        2
176
     1
 40
0.6
176
     1
 40
30.0
176
     1
 62
     7
420
 16777215
176
     1
 90
        0
176
     1
 90
        4
176
     1
 62
     7
176
     1
 62
   257
176
     1
 90
        1
176
     1
 90
        1
176
     1
 40
1.0
176
     1
 90
        8
176
     1
 62
   257
176
     1
 40
1.0
176
     1
 90
        1
176
     1
 90
        6
176
     1
 90
        2
176
     1
 62
     8
420
  7895160
176
     1
 90
        3
176
     1
 90
        0
176
     1
 90
        0
176
     1
290
     0
176
     1
 90
        5
176
     1
 40
0.0
176
     1
 90
        0
176
     1
290
     0
176
     1
290
     1
176
     1
290
     1
176
     1
290
     0
176
     1
290
     0
176
     1
290
     0
176
     1
290
     0
176
     1
290
     0
176
     1
290
     0
176
     1
 90
       50
176
     1
 40
0.0
176
     1
 40
1.0
176
     1
 90
        0
176
     1
 62
    18
420
        0
176
     1
 90
       50
176
     1
 90
        3
176
     1
 62
     5
420
      255
176
     1
290
     0
176
     1
 90
       50
176
     1
 90
       50
176
     1
 90
       50
176
     1
290
     0
176
     1
 90
       50
176
     1
 62
   256
176
     0
 40
1.0
176
     0
 90
        2
176
     1
  1
strokes_ogs.tif
176
     1
290
     0
176
     1
 40
1.0
176
     1
 40
1.0
176
     1
  0
VISUALSTYLE
  5
3D
102
{ACAD_REACTORS
330
29
102
}
330
29
100
AcDbVisualStyle
  2
Shaded with edges
 70
    26
177
     3
291
     0
 70
    58
 90
        2
176
     1
 90
        2
176
     1
 90
        1
176
     1
 90
        2
176
     1
 40
0.6
176
     1
 40
30.0
176
     1
 62
     7
420
 16777215
176
     1
 90
        1
176
     1
 90
        2
176
     1
 62
     7
176
     1
 62
   257
176
     1
 90
        2
176
     1
 90
        1
176
     1
 40
1.0
176
     1
 90
        8
176
     1
 62
   257
176
     1
 40
1.0
176
     1
 90
        1
176
     1
 90
        6
176
     1
 90
        2
176
     1
 62
     7
176
     1
 90
        3
176
     1
 90
        0
176
     1
 90
        0
176
     1
290
     0
176
     1
 90
        5
176
     1
 40
0.0
176
     1
 90
        0
176
     1
290
     0
176
     1
290
     1
176
     1
290
     1
176
     1
290
     0
176
     1
290
     0
176
     1
290
     0
176
     1
290
     0
176
     1
290
     0
176
     1
290
     0
176
     1
 90
       50
176
     1
 40
0.0
176
     1
 40
1.0
176
     1
 90
        0
176
     1
 62
    18
420
        0
176
     1
 90
       50
176
     1
 90
        3
176
     1
 62
     5
420
      255
176
     1
290
     0
176
     1
 90
       50
176
     1
 90
       50
176
     1
 90
       50
176
     1
290
     0
176
     1
 90
       50
176
     1
 62
   256
176
     0
 40
1.0
176
     0
 90
        2
176
     1
  1
strokes_ogs.tif
176
     1
290
     0
176
     1
 40
1.0
176
     1
 40
1.0
176
     1
  0
VISUALSTYLE
  5
3A
102
{ACAD_REACTORS
330
29
102
}
330
29
100
AcDbVisualStyle
  2
Shades of Gray
 70
    23
177
     3
291
     0
 70
    58
 90
        2
176
     1
 90
        2
176
     1
 90
        3
176
     1
 90
        0
176
     1
 40
0.6
176
     1
 40
30.0
176
     1
 62
     7
420
 16777215
176
     1
 90
        2
176
     1
 90
        2
176
     1
 62
     7
176
     1
 62
     7
176
     1
 90
        1
176
     1
 90
        1
176
     1
 40
40.0
176
     1
 90
        8
176
     1
 62
     7
176
     1
 40
1.0
176
     1
 90
        1
176
     1
 90
        6
176
     1
 90
        2
176
     1
 62
     7
176
     1
 90
        3
176
     1
 90
        0
176
     1
 90
        0
176
     1
290
     0
176
     1
 90
        1
176
     1
 40
0.0
176
     1
 90
        0
176
     1
290
     0
176
     1
290
     1
176
     1
290
     1
176
     1
290
     0
176
     1
290
     0
176
     1
290
     0
176
     1
290
     0
176
     1
290
     0
176
     1
290
     0
176
     1
 90
       50
176
     1
 40
0.0
176
     1
 40
1.0
176
     1
 90
        0
176
     1
 62
    18
420
        0
176
     1
 90
       50
176
     1
 90
        3
176
     1
 62
     5
420
      255
176
     1
290
     0
176
     1
 90
       50
176
     1
 90
       50
176
     1
 90
       50
176
     1
290
     0
176
     1
 90
       50
176
     1
 62
   256
176
     0
 40
1.0
176
     0
 90
        2
176
     1
  1
strokes_ogs.tif
176
     1
290
     0
176
     1
 40
1.0
176
     1
 40
1.0
176
     1
  0
VISUALSTYLE
  5
3B
102
{ACAD_REACTORS
330
29
102
}
330
29
100
AcDbVisualStyle
  2
Sketchy
 70
    24
177
     3
291
     0
 70
    58
 90
        1
176
     1
 90
        2
176
     1
 90
        2
176
     1
 90
        0
176
     1
 40
0.6
176
     1
 40
30.0
176
     1
 62
     7
420
 16777215
176
     1
 90
        2
176
     1
 90
        2
176
     1
 62
     7
176
     1
 62
     7
176
     1
 90
        1
176
     1
 90
        1
176
     1
 40
40.0
176
     1
 90
       11
176
     1
 62
     7
176
     1
 40
1.0
176
     1
 90
        1
176
     1
 90
        6
176
     1
 90
        2
176
     1
 62
     7
176
     1
 90
        6
176
     1
 90
        0
176
     1
 90
        0
176
     1
290
     0
176
     1
 90
        1
176
     1
 40
0.0
176
     1
 90
        0
176
     1
290
     0
176
     1
290
     1
176
     1
290
     1
176
     1
290
     0
176
     1
290
     0
176
     1
290
     0
176
     1
290
     0
176
     1
290
     0
176
     1
290
     0
176
     1
 90
       50
176
     1
 40
0.0
176
     1
 40
1.0
176
     1
 90
        0
176
     1
 62
    18
420
        0
176
     1
 90
       50
176
     1
 90
        3
176
     1
 62
     5
420
      255
176
     1
290
     0
176
     1
 90
       50
176
     1
 90
       50
176
     1
 90
       50
176
     1
290
     0
176
     1
 90
       50
176
     1
 62
   256
176
     0
 40
1.0
176
     0
 90
        2
176
     1
  1
strokes_ogs.tif
176
     1
290
     0
176
     1
 40
1.0
176
     1
 40
1.0
176
     1
  0
VISUALSTYLE
  5
36
102
{ACAD_REACTORS
330
29
102
}
330
29
100
AcDbVisualStyle
  2
Thicken
 70
    13
177
     3
291
     1
 70
    58
 90
        2
176
     1
 90
        2
176
     1
 90
        0
176
     1
 90
        0
176
     1
 40
0.6
176
     1
 40
30.0
176
     1
 62
     7
420
 16777215
176
     1
 90
        1
176
     1
 90
        4
176
     1
 62
     7
176
     1
 62
   257
176
     1
 90
        1
176
     1
 90
        1
176
     1
 40
1.0
176
     1
 90
       12
176
     1
 62
     7
176
     1
 40
1.0
176
     1
 90
        1
176
     1
 90
        6
176
     1
 90
        2
176
     1
 62
     7
176
     1
 90
        5
176
     1
 90
        0
176
     1
 90
        0
176
     1
290
     0
176
     1
 90
        1
176
     1
 40
0.0
176
     1
 90
        0
176
     1
290
     0
176
     1
290
     1
176
     1
290
     1
176
     1
290
     0
176
     1
290
     0
176
     1
290
     0
176
     1
290
     0
176
     1
290
     0
176
     1
290
     0
176
     1
 90
       50
176
     1
 40
0.0
176
     1
 40
1.0
176
     1
 90
        0
176
     1
 62
    18
420
        0
176
     1
 90
       50
176
     1
 90
        3
176
     1
 62
     5
420
      255
176
     1
290
     0
176
     1
 90
       50
176
     1
 90
       50
176
     1
 90
       50
176
     1
290
     0
176
     1
 90
       50
176
     1
 62
   256
176
     0
 40
1.0
176
     0
 90
        2
176
     1
  1
strokes_ogs.tif
176
     1
290
     0
176
     1
 40
1.0
176
     1
 40
1.0
176
     1
  0
VISUALSTYLE
  5
30
102
{ACAD_REACTORS
330
29
102
}
330
29
100
AcDbVisualStyle
  2
Wireframe
 70
     5
177
     3
291
     0
 70
    58
 90
        0
176
     1
 90
        2
176
     1
 90
        0
176
     1
 90
        0
176
     1
 40
0.6
176
     1
 40
30.0
176
     1
 62
     7
420
 16777215
176
     1
 90
        1
176
     1
 90
        4
176
     1
 62
     7
176
     1
 62
   257
176
     1
 90
        1
176
     1
 90
        1
176
     1
 40
1.0
176
     1
 90
        0
176
     1
 62
   257
176
     1
 40
1.0
176
     1
 90
        1
176
     1
 90
        6
176
     1
 90
        2
176
     1
 62
     7
176
     1
 90
        3
176
     1
 90
        0
176
     1
 90
        0
176
     1
290
     0
176
     1
 90
        1
176
     1
 40
0.0
176
     1
 90
        0
176
     1
290
     0
176
     1
290
     1
176
     1
290
     1
176
     1
290
     0
176
     1
290
     0
176
     1
290
     0
176
     1
290
     0
176
     1
290
     0
176
     1
290
     0
176
     1
 90
       50
176
     1
 40
0.0
176
     1
 40
1.0
176
     1
 90
        0
176
     1
 62
    18
420
        0
176
     1
 90
       50
176
     1
 90
        3
176
     1
 62
     5
420
      255
176
     1
290
     0
176
     1
 90
       50
176
     1
 90
       50
176
     1
 90
       50
176
     1
290
     0
176
     1
 90
       50
176
     1
 62
   256
176
     0
 40
1.0
176
     0
 90
        2
176
     1
  1
strokes_ogs.tif
176
     1
290
     0
176
     1
 40
1.0
176
     1
 40
1.0
176
     1
  0
VISUALSTYLE
  5
3C
102
{ACAD_REACTORS
330
29
102
}
330
29
100
AcDbVisualStyle
  2
X-Ray
 70
    25
177
     3
291
     0
 70
    58
 90
        2
176
     1
 90
        2
176
     1
 90
        1
176
     1
 90
        1
176
     1
 40
0.5
176
     1
 40
30.0
176
     1
 62
     7
420
 16777215
176
     1
 90
        1
176
     1
 90
        0
176
     1
 62
     7
176
     1
 62
   257
176
     1
 90
        1
176
     1
 90
        1
176
     1
 40
1.0
176
     1
 90
        8
176
     1
 62
     7
176
     1
 40
1.0
176
     1
 90
        1
176
     1
 90
        6
176
     1
 90
        2
176
     1
 62
     7
176
     1
 90
        3
176
     1
 90
        0
176
     1
 90
        0
176
     1
290
     0
176
     1
 90
       13
176
     1
 40
0.0
176
     1
 90
        0
176
     1
290
     0
176
     1
290
     1
176
     1
290
     1
176
     1
290
     0
176
     1
290
     0
176
     1
290
     0
176
     1
290
     0
176
     1
290
     0
176
     1
290
     0
176
     1
 90
       50
176
     1
 40
0.0
176
     1
 40
1.0
176
     1
 90
        0
176
     1
 62
    18
420
        0
176
     1
 90
       50
176
     1
 90
        3
176
     1
 62
     5
420
      255
176
     1
290
     0
176
     1
 90
       50
176
     1
 90
       50
176
     1
 90
       50
176
     1
290
     0
176
     1
 90
       50
176
     1
 62
   256
176
     0
 40
1.0
176
     0
 90
        2
176
     1
  1
strokes_ogs.tif
176
     1
290
     0
176
     1
 40
1.0
176
     1
 40
1.0
176
     1
  0
DICTIONARYVAR
  5
1FA
102
{ACAD_REACTORS
330
1F5
102
}
330
1F5
100
DictionaryVariables
280
     0
  1
1:1
  0
DICTIONARYVAR
  5
1F7
102
{ACAD_REACTORS
330
1F5
102
}
330
1F5
100
DictionaryVariables
280
     0
  1
STANDARD
  0
DICTIONARYVAR
  5
1F6
102
{ACAD_REACTORS
330
1F5
102
}
330
1F5
100
DictionaryVariables
280
     0
  1
STANDARD
  0
DICTIONARYVAR
  5
1F8
102
{ACAD_REACTORS
330
1F5
102
}
330
1F5
100
DictionaryVariables
280
     0
  1
Imperial24
  0
DICTIONARYVAR
  5
1F9
102
{ACAD_REACTORS
330
1F5
102
}
330
1F5
100
DictionaryVariables
280
     0
  1
Imperial24
  0
DICTIONARY
  5
1A
330
19
100
AcDbDictionary
280
     1
281
     1
  3
BUMPTILE
360
1C
  3
DIFFUSETILE
360
1B
  3
OPACITYTILE
360
1F
  3
REFLECTIONTILE
360
1E
  3
REFRACTIONTILE
360
20
  3
SPECULARTILE
360
1D
  0
DICTIONARY
  5
12
330
11
100
AcDbDictionary
280
     1
281
     1
  3
BUMPTILE
360
14
  3
DIFFUSETILE
360
13
  3
OPACITYTILE
360
17
  3
REFLECTIONTILE
360
16
  3
REFRACTIONTILE
360
18
  3
SPECULARTILE
360
15
  0
DICTIONARY
  5
22
330
21
100
AcDbDictionary
280
     1
281
     1
  3
BUMPTILE
360
24
  3
DIFFUSETILE
360
23
  3
OPACITYTILE
360
27
  3
REFLECTIONTILE
360
26
  3
REFRACTIONTILE
360
28
  3
SPECULARTILE
360
25
  0
DICTIONARY
  5
1FB
330
65
100
AcDbDictionary
280
     1
281
     1
  3
ACAD_ROUNDTRIP_2008_TABLESTYLE_CELLSTYLEMAP
360
1FC
  0
XRECORD
  5
1C
102
{ACAD_REACTORS
330
1A
102
}
330
1A
100
AcDbXrecord
280
     1
270
     1
271
     1
  0
XRECORD
  5
1B
102
{ACAD_REACTORS
330
1A
102
}
330
1A
100
AcDbXrecord
280
     1
270
     1
271
     1
  0
XRECORD
  5
1F
102
{ACAD_REACTORS
330
1A
102
}
330
1A
100
AcDbXrecord
280
     1
270
     1
271
     1
  0
XRECORD
  5
1E
102
{ACAD_REACTORS
330
1A
102
}
330
1A
100
AcDbXrecord
280
     1
270
     1
271
     1
  0
XRECORD
  5
20
102
{ACAD_REACTORS
330
1A
102
}
330
1A
100
AcDbXrecord
280
     1
270
     1
271
     1
  0
XRECORD
  5
1D
102
{ACAD_REACTORS
330
1A
102
}
330
1A
100
AcDbXrecord
280
     1
270
     1
271
     1
  0
XRECORD
  5
14
102
{ACAD_REACTORS
330
12
102
}
330
12
100
AcDbXrecord
280
     1
270
     1
271
     1
  0
XRECORD
  5
13
102
{ACAD_REACTORS
330
12
102
}
330
12
100
AcDbXrecord
280
     1
270
     1
271
     1
  0
XRECORD
  5
17
102
{ACAD_REACTORS
330
12
102
}
330
12
100
AcDbXrecord
280
     1
270
     1
271
     1
  0
XRECORD
  5
16
102
{ACAD_REACTORS
330
12
102
}
330
12
100
AcDbXrecord
280
     1
270
     1
271
     1
  0
XRECORD
  5
18
102
{ACAD_REACTORS
330
12
102
}
330
12
100
AcDbXrecord
280
     1
270
     1
271
     1
  0
XRECORD
  5
15
102
{ACAD_REACTORS
330
12
102
}
330
12
100
AcDbXrecord
280
     1
270
     1
271
     1
  0
XRECORD
  5
24
102
{ACAD_REACTORS
330
22
102
}
330
22
100
AcDbXrecord
280
     1
270
     1
271
     1
  0
XRECORD
  5
23
102
{ACAD_REACTORS
330
22
102
}
330
22
100
AcDbXrecord
280
     1
270
     1
271
     1
  0
XRECORD
  5
27
102
{ACAD_REACTORS
330
22
102
}
330
22
100
AcDbXrecord
280
     1
270
     1
271
     1
  0
XRECORD
  5
26
102
{ACAD_REACTORS
330
22
102
}
330
22
100
AcDbXrecord
280
     1
270
     1
271
     1
  0
XRECORD
  5
28
102
{ACAD_REACTORS
330
22
102
}
330
22
100
AcDbXrecord
280
     1
270
     1
271
     1
  0
XRECORD
  5
25
102
{ACAD_REACTORS
330
22
102
}
330
22
100
AcDbXrecord
280
     1
270
     1
271
     1
  0
CELLSTYLEMAP
  5
1FC
102
{ACAD_REACTORS
330
1FB
102
}
330
1FB
100
AcDbCellStyleMap
 90
        3
300
CELLSTYLE
  1
TABLEFORMAT_BEGIN
 90
        5
170
     1
 91
        0
 92
    32768
 62
   257
 93
        1
300
CONTENTFORMAT
  1
CONTENTFORMAT_BEGIN
 90
        0
 91
        0
 92
      512
 93
        0
300

 40
0.0
140
1.0
 94
        5
 62
     0
340
55
144
0.25
309
CONTENTFORMAT_END
171
     0
 94
        0
309
TABLEFORMAT_END
  1
CELLSTYLE_BEGIN
 90
        1
 91
        1
300
_TITLE
309
CELLSTYLE_END
300
CELLSTYLE
  1
TABLEFORMAT_BEGIN
 90
        5
170
     1
 91
        0
 92
        0
 62
   257
 93
        1
300
CONTENTFORMAT
  1
CONTENTFORMAT_BEGIN
 90
        0
 91
        0
 92
      512
 93
        0
300

 40
0.0
140
1.0
 94
        5
 62
     0
340
55
144
0.18
309
CONTENTFORMAT_END
171
     0
 94
        0
309
TABLEFORMAT_END
  1
CELLSTYLE_BEGIN
 90
        2
 91
        1
300
_HEADER
309
CELLSTYLE_END
300
CELLSTYLE
  1
TABLEFORMAT_BEGIN
 90
        5
170
     1
 91
        0
 92
        0
 62
   257
 93
        1
300
CONTENTFORMAT
  1
CONTENTFORMAT_BEGIN
 90
        0
 91
        0
 92
      512
 93
        0
300

 40
0.0
140
1.0
 94
        2
 62
     0
340
55
144
0.18
309
CONTENTFORMAT_END
171
     0
 94
        0
309
TABLEFORMAT_END
  1
CELLSTYLE_BEGIN
 90
        3
 91
        2
300
_DATA
309
CELLSTYLE_END
  0
ENDSEC
  0
EOF
