  0
SECTION
  2
HEADER
  9
$ACADVER
  1
AC1014
  9
$ACADMAINTVER
 70
     9
  9
$DWGCODEPAGE
  3
ASCII
  9
$INSBASE
 10
0.0
 20
0.0
 30
0.0
  9
$EXTMIN
 10
1.000000000000000E+20
 20
1.000000000000000E+20
 30
1.000000000000000E+20
  9
$EXTMAX
 10
-1.000000000000000E+20
 20
-1.000000000000000E+20
 30
-1.000000000000000E+20
  9
$LIMMIN
 10
0.0
 20
0.0
  9
$LIMMAX
 10
12.0
 20
9.0
  9
$ORTHOMODE
 70
     0
  9
$REGENMODE
 70
     1
  9
$FILLMODE
 70
     1
  9
$QTEXTMODE
 70
     0
  9
$MIRRTEXT
 70
     1
  9
$DRAGMODE
 70
     2
  9
$LTSCALE
 40
1.0
  9
$OSMODE
 70
    37
  9
$ATTMODE
 70
     1
  9
$TEXTSIZE
 40
0.2
  9
$TRACEWID
 40
0.05
  9
$TEXTSTYLE
  7
STANDARD
  9
$CLAYER
  8
0
  9
$CELTYPE
  6
BYLAYER
  9
$CECOLOR
 62
   256
  9
$CELTSCALE
 40
1.0
  9
$DELOBJ
 70
     1
  9
$DISPSILH
 70
     0
  9
$DIMSCALE
 40
1.0
  9
$DIMASZ
 40
0.18
  9
$DIMEXO
 40
0.0625
  9
$DIMDLI
 40
0.38
  9
$DIMRND
 40
0.0
  9
$DIMDLE
 40
0.0
  9
$DIMEXE
 40
0.18
  9
$DIMTP
 40
0.0
  9
$DIMTM
 40
0.0
  9
$DIMTXT
 40
0.18
  9
$DIMCEN
 40
0.09
  9
$DIMTSZ
 40
0.0
  9
$DIMTOL
 70
     0
  9
$DIMLIM
 70
     0
  9
$DIMTIH
 70
     1
  9
$DIMTOH
 70
     1
  9
$DIMSE1
 70
     0
  9
$DIMSE2
 70
     0
  9
$DIMTAD
 70
     0
  9
$DIMZIN
 70
     0
  9
$DIMBLK
  1

  9
$DIMASO
 70
     1
  9
$DIMSHO
 70
     1
  9
$DIMPOST
  1

  9
$DIMAPOST
  1

  9
$DIMALT
 70
     0
  9
$DIMALTD
 70
     2
  9
$DIMALTF
 40
25.4
  9
$DIMLFAC
 40
1.0
  9
$DIMTOFL
 70
     0
  9
$DIMTVP
 40
0.0
  9
$DIMTIX
 70
     0
  9
$DIMSOXD
 70
     0
  9
$DIMSAH
 70
     0
  9
$DIMBLK1
  1

  9
$DIMBLK2
  1

  9
$DIMSTYLE
  2
STANDARD
  9
$DIMCLRD
 70
     0
  9
$DIMCLRE
 70
     0
  9
$DIMCLRT
 70
     0
  9
$DIMTFAC
 40
1.0
  9
$DIMGAP
 40
0.09
  9
$DIMJUST
 70
     0
  9
$DIMSD1
 70
     0
  9
$DIMSD2
 70
     0
  9
$DIMTOLJ
 70
     1
  9
$DIMTZIN
 70
     0
  9
$DIMALTZ
 70
     0
  9
$DIMALTTZ
 70
     0
  9
$DIMFIT
 70
     3
  9
$DIMUPT
 70
     0
  9
$DIMUNIT
 70
     2
  9
$DIMDEC
 70
     4
  9
$DIMTDEC
 70
     4
  9
$DIMALTU
 70
     2
  9
$DIMALTTD
 70
     2
  9
$DIMTXSTY
  7
STANDARD
  9
$DIMAUNIT
 70
     0
  9
$LUNITS
 70
     2
  9
$LUPREC
 70
     4
  9
$SKETCHINC
 40
0.1
  9
$FILLETRAD
 40
0.5
  9
$AUNITS
 70
     0
  9
$AUPREC
 70
     0
  9
$MENU
  1
.
  9
$ELEVATION
 40
0.0
  9
$PELEVATION
 40
0.0
  9
$THICKNESS
 40
0.0
  9
$LIMCHECK
 70
     0
  9
$CHAMFERA
 40
0.5
  9
$CHAMFERB
 40
0.5
  9
$CHAMFERC
 40
1.0
  9
$CHAMFERD
 40
0.0
  9
$SKPOLY
 70
     0
  9
$TDCREATE
 40
2455524.379483796
  9
$TDUPDATE
 40
2455524.379483808
  9
$TDINDWG
 40
0.0000000116
  9
$TDUSRTIMER
 40
0.0000000116
  9
$USRTIMER
 70
     1
  9
$ANGBASE
 50
0.0
  9
$ANGDIR
 70
     0
  9
$PDMODE
 70
     0
  9
$PDSIZE
 40
0.0
  9
$PLINEWID
 40
0.0
  9
$COORDS
 70
     1
  9
$SPLFRAME
 70
     0
  9
$SPLINETYPE
 70
     6
  9
$SPLINESEGS
 70
     8
  9
$ATTDIA
 70
     0
  9
$ATTREQ
 70
     1
  9
$HANDLING
 70
     1
  9
$HANDSEED
  5
7DE
  9
$SURFTAB1
 70
     6
  9
$SURFTAB2
 70
     6
  9
$SURFTYPE
 70
     6
  9
$SURFU
 70
     6
  9
$SURFV
 70
     6
  9
$UCSNAME
  2

  9
$UCSORG
 10
0.0
 20
0.0
 30
0.0
  9
$UCSXDIR
 10
1.0
 20
0.0
 30
0.0
  9
$UCSYDIR
 10
0.0
 20
1.0
 30
0.0
  9
$PUCSNAME
  2

  9
$PUCSORG
 10
0.0
 20
0.0
 30
0.0
  9
$PUCSXDIR
 10
1.0
 20
0.0
 30
0.0
  9
$PUCSYDIR
 10
0.0
 20
1.0
 30
0.0
  9
$USERI1
 70
     0
  9
$USERI2
 70
     0
  9
$USERI3
 70
     0
  9
$USERI4
 70
     0
  9
$USERI5
 70
     0
  9
$USERR1
 40
0.0
  9
$USERR2
 40
0.0
  9
$USERR3
 40
0.0
  9
$USERR4
 40
0.0
  9
$USERR5
 40
0.0
  9
$WORLDVIEW
 70
     1
  9
$SHADEDGE
 70
     3
  9
$SHADEDIF
 70
    70
  9
$TILEMODE
 70
     1
  9
$MAXACTVP
 70
    64
  9
$PINSBASE
 10
0.0
 20
0.0
 30
0.0
  9
$PLIMCHECK
 70
     0
  9
$PEXTMIN
 10
1.000000000000000E+20
 20
1.000000000000000E+20
 30
1.000000000000000E+20
  9
$PEXTMAX
 10
-1.000000000000000E+20
 20
-1.000000000000000E+20
 30
-1.000000000000000E+20
  9
$PLIMMIN
 10
0.0
 20
0.0
  9
$PLIMMAX
 10
12.0
 20
9.0
  9
$UNITMODE
 70
     0
  9
$VISRETAIN
 70
     1
  9
$PLINEGEN
 70
     0
  9
$PSLTSCALE
 70
     1
  9
$TREEDEPTH
 70
  3020
  9
$PICKSTYLE
 70
     1
  9
$CMLSTYLE
  2
STANDARD
  9
$CMLJUST
 70
     0
  9
$CMLSCALE
 40
1.0
  9
$PROXYGRAPHICS
 70
     1
  9
$MEASUREMENT
 70
     0
  0
ENDSEC
  0
SECTION
  2
CLASSES
  0
CLASS
  1
ACDBDICTIONARYWDFLT
  2
AcDbDictionaryWithDefault
  3
ObjectDBX Classes
 90
        0
280
     0
281
     0
  0
CLASS
  1
VISUALSTYLE
  2
AcDbVisualStyle
  3
ObjectDBX Classes
 90
     4095
280
     0
281
     0
  0
CLASS
  1
XRECORD
  2
AcDbXrecord
  3
AutoCAD 2000
 90
        0
280
     0
281
     0
  0
CLASS
  1
LWPOLYLINE
  2
AcDbPolyline
  3
AutoCAD 2000
 90
        0
280
     0
281
     1
  0
CLASS
  1
HATCH
  2
AcDbHatch
  3
AutoCAD 2000
 90
        0
280
     0
281
     1
  0
CLASS
  1
ACDBPLACEHOLDER
  2
AcDbPlaceHolder
  3
ObjectDBX Classes
 90
        0
280
     0
281
     0
  0
CLASS
  1
LAYOUT
  2
AcDbLayout
  3
ObjectDBX Classes
 90
        0
280
     0
281
     0
  0
ENDSEC
  0
SECTION
  2
TABLES
  0
TABLE
  2
VPORT
  5
8
330
0
100
AcDbSymbolTable
 70
     1
  0
VPORT
  5
29
330
8
100
AcDbSymbolTableRecord
100
AcDbViewportTableRecord
  2
*ACTIVE
 70
     0
 10
0.0
 20
0.0
 11
1.0
 21
1.0
 12
0.0
 22
0.0
 13
0.0
 23
0.0
 14
0.5
 24
0.5
 15
0.5
 25
0.5
 16
0.0
 26
0.0
 36
1.0
 17
87.55621211671287
 27
-88.88145509675678
 37
0.0
 40
195.0424456769489
 41
0.929485770497474
 42
50.0
 43
0.0
 44
0.0
 50
0.0
 51
0.0
 71
     0
 72
   100
 73
     1
 74
     3
 75
     0
 76
     0
 77
     0
 78
     0
  0
ENDTAB
  0
TABLE
  2
LTYPE
  5
5
330
0
100
AcDbSymbolTable
 70
     5
  0
LTYPE
  5
14
330
5
100
AcDbSymbolTableRecord
100
AcDbLinetypeTableRecord
  2
BYBLOCK
 70
     0
  3

 72
    65
 73
     0
 40
0.0
  0
LTYPE
  5
15
330
5
100
AcDbSymbolTableRecord
100
AcDbLinetypeTableRecord
  2
BYLAYER
 70
     0
  3

 72
    65
 73
     0
 40
0.0
  0
LTYPE
  5
16
330
5
100
AcDbSymbolTableRecord
100
AcDbLinetypeTableRecord
  2
CONTINUOUS
 70
     0
  3
Solid line
 72
    65
 73
     0
 40
0.0
  0
LTYPE
  5
152
330
5
100
AcDbSymbolTableRecord
100
AcDbLinetypeTableRecord
  2
AI-LINETYPE-1
 70
     0
  3
Adobe Illustrator Linetype No. 1
 72
    65
 73
     4
 40
8.819450260381924
 49
7.055560208305538
 74
     0
 49
-0.7055560208305538
 74
     0
 49
0.3527780104152769
 74
     0
 49
-0.7055560208305538
 74
     0
  0
LTYPE
  5
157
330
5
100
AcDbSymbolTableRecord
100
AcDbLinetypeTableRecord
  2
AI-LINETYPE-2
 70
     0
  3
Adobe Illustrator Linetype No. 2
 72
    65
 73
     4
 40
8.819450260381924
 49
7.055560208305538
 74
     0
 49
-0.7055560208305538
 74
     0
 49
0.3527780104152769
 74
     0
 49
-0.7055560208305538
 74
     0
  0
LTYPE
  5
15C
330
5
100
AcDbSymbolTableRecord
100
AcDbLinetypeTableRecord
  2
AI-LINETYPE-3
 70
     0
  3
Adobe Illustrator Linetype No. 3
 72
    65
 73
     4
 40
8.819450260381924
 49
7.055560208305538
 74
     0
 49
-0.7055560208305538
 74
     0
 49
0.3527780104152769
 74
     0
 49
-0.7055560208305538
 74
     0
  0
LTYPE
  5
161
330
5
100
AcDbSymbolTableRecord
100
AcDbLinetypeTableRecord
  2
AI-LINETYPE-4
 70
     0
  3
Adobe Illustrator Linetype No. 4
 72
    65
 73
     4
 40
8.819450260381924
 49
7.055560208305538
 74
     0
 49
-0.7055560208305538
 74
     0
 49
0.3527780104152769
 74
     0
 49
-0.7055560208305538
 74
     0
  0
ENDTAB
  0
TABLE
  2
LAYER
  5
2
330
0
100
AcDbSymbolTable
 70
     5
  0
LAYER
  5
10
330
2
100
AcDbSymbolTableRecord
100
AcDbLayerTableRecord
  2
0
 70
     0
 62
     7
  6
CONTINUOUS
  0
LAYER
  5
3B
330
2
100
AcDbSymbolTableRecord
100
AcDbLayerTableRecord
  2
GRAU_10_
 70
     1
 62
     7
  6
CONTINUOUS
  0
LAYER
  5
42
330
2
100
AcDbSymbolTableRecord
100
AcDbLayerTableRecord
  2
STANDARDEBENE
 70
     0
 62
     7
  6
CONTINUOUS
  0
LAYER
  5
5F0
330
2
100
AcDbSymbolTableRecord
100
AcDbLayerTableRecord
  2
BEMA_UNG
 70
     1
 62
     7
  6
CONTINUOUS
  0
LAYER
  5
7B9
330
2
100
AcDbSymbolTableRecord
100
AcDbLayerTableRecord
  2
TEXT
 70
     1
 62
     7
  6
CONTINUOUS
  0
ENDTAB
  0
TABLE
  2
STYLE
  5
3
330
0
100
AcDbSymbolTable
 70
     1
  0
STYLE
  5
11
330
3
100
AcDbSymbolTableRecord
100
AcDbTextStyleTableRecord
  2
STANDARD
 70
     0
 40
0.0
 41
1.0
 50
0.0
 71
     0
 42
0.2
  3
txt
  4

  0
ENDTAB
  0
TABLE
  2
VIEW
  5
6
330
0
100
AcDbSymbolTable
 70
     0
  0
ENDTAB
  0
TABLE
  2
UCS
  5
7
330
0
100
AcDbSymbolTable
 70
     0
  0
ENDTAB
  0
TABLE
  2
APPID
  5
9
330
0
100
AcDbSymbolTable
 70
     1
  0
APPID
  5
12
330
9
100
AcDbSymbolTableRecord
100
AcDbRegAppTableRecord
  2
ACAD
 70
     0
  0
ENDTAB
  0
TABLE
  2
DIMSTYLE
  5
A
330
0
100
AcDbSymbolTable
 70
     1
  0
DIMSTYLE
105
27
330
A
100
AcDbSymbolTableRecord
100
AcDbDimStyleTableRecord
  2
STANDARD
 70
     0
  3

  4

  5

  6

  7

 40
1.0
 41
0.18
 42
0.0625
 43
0.38
 44
0.18
 45
0.0
 46
0.0
 47
0.0
 48
0.0
140
0.18
141
0.09
142
0.0
143
25.4
144
1.0
145
0.0
146
1.0
147
0.09
 71
     0
 72
     0
 73
     1
 74
     1
 75
     0
 76
     0
 77
     0
 78
     0
170
     0
171
     2
172
     0
173
     0
174
     0
175
     0
176
     0
177
     0
178
     0
270
     2
271
     4
272
     4
273
     2
274
     2
340
11
275
     0
280
     0
281
     0
282
     0
283
     1
284
     0
285
     0
286
     0
287
     3
288
     0
  0
ENDTAB
  0
TABLE
  2
BLOCK_RECORD
  5
1
330
0
100
AcDbSymbolTable
 70
     1
  0
BLOCK_RECORD
  5
1F
330
1
100
AcDbSymbolTableRecord
100
AcDbBlockTableRecord
  2
*MODEL_SPACE
  0
BLOCK_RECORD
  5
1B
330
1
100
AcDbSymbolTableRecord
100
AcDbBlockTableRecord
  2
*PAPER_SPACE
  0
ENDTAB
  0
ENDSEC
  0
SECTION
  2
BLOCKS
  0
BLOCK
  5
20
330
1F
100
AcDbEntity
  8
0
100
AcDbBlockBegin
  2
*MODEL_SPACE
 70
     0
 71
     0
 10
0.0
 20
0.0
 30
0.0
  3
*MODEL_SPACE
  1

  0
ENDBLK
  5
21
330
1F
100
AcDbEntity
  8
0
100
AcDbBlockEnd
  0
BLOCK
  5
1C
330
1B
100
AcDbEntity
 67
     1
  8
0
100
AcDbBlockBegin
  2
*PAPER_SPACE
 70
     0
 71
     0
 10
0.0
 20
0.0
 30
0.0
  3
*PAPER_SPACE
  1

  0
ENDBLK
  5
1D
330
1B
100
AcDbEntity
 67
     1
  8
0
100
AcDbBlockEnd
  0
ENDSEC
  0
SECTION
  2
ENTITIES
  0
SPLINE
  5
3C
330
1F
100
AcDbEntity
  8
GRAU_10_
100
AcDbSpline
210
0.0
220
0.0
230
1.0
 70
    11
 71
     3
 72
    17
 73
    13
 74
     0
 42
0.0000000001
 43
0.0000000001
 40
0.0
 40
0.0
 40
0.0
 40
0.0
 40
1.0
 40
1.0
 40
1.0
 40
2.0
 40
2.0
 40
2.0
 40
3.0
 40
3.0
 40
3.0
 40
4.0
 40
4.0
 40
4.0
 40
4.0
 10
78.77457180422458
 20
-115.2457547091102
 30
0.0
 10
78.77457180422458
 20
-106.8359265721499
 30
0.0
 10
71.9572401058821
 20
-100.0187671286953
 30
0.0
 10
63.54775647869761
 20
-100.0187671286953
 30
0.0
 10
55.13810059662523
 20
-100.0187671286953
 30
0.0
 10
48.32076889828274
 20
-106.8359265721499
 30
0.0
 10
48.32076889828274
 20
-115.2457547091102
 30
0.0
 10
48.32076889828274
 20
-123.6552383362947
 30
0.0
 10
55.13810059662523
 20
-130.4723977797493
 30
0.0
 10
63.54775647869761
 20
-130.4723977797493
 30
0.0
 10
71.9572401058821
 20
-130.4723977797493
 30
0.0
 10
78.77457180422458
 20
-123.6552383362947
 30
0.0
 10
78.77457180422458
 20
-115.2457547091102
 30
0.0
  0
HATCH
  5
3D
330
1F
100
AcDbEntity
  8
GRAU_10_
 62
   255
100
AcDbHatch
 10
0.0
 20
0.0
 30
0.0
210
0.0
220
0.0
230
1.0
  2
SOLID
 70
     1
 71
     0
 91
        1
 92
        1
 93
        1
 72
     4
 94
        3
 73
     0
 74
     1
 95
       17
 96
       13
 40
0.0
 40
0.0
 40
0.0
 40
0.0
 40
1.0
 40
1.0
 40
1.0
 40
2.0
 40
2.0
 40
2.0
 40
3.0
 40
3.0
 40
3.0
 40
4.0
 40
4.0
 40
4.0
 40
4.0
 10
78.77457180422458
 20
-115.2457547091102
 10
78.77457180422458
 20
-106.8359265721499
 10
71.9572401058821
 20
-100.0187671286953
 10
63.54775647869761
 20
-100.0187671286953
 10
55.13810059662523
 20
-100.0187671286953
 10
48.32076889828274
 20
-106.8359265721499
 10
48.32076889828274
 20
-115.2457547091102
 10
48.32076889828274
 20
-123.6552383362947
 10
55.13810059662523
 20
-130.4723977797493
 10
63.54775647869761
 20
-130.4723977797493
 10
71.9572401058821
 20
-130.4723977797493
 10
78.77457180422458
 20
-123.6552383362947
 10
78.77457180422458
 20
-115.2457547091102
 97
        0
 75
     0
 76
     1
 98
        0
  0
SPLINE
  5
3E
330
1F
100
AcDbEntity
  8
GRAU_10_
100
AcDbSpline
210
0.0
220
0.0
230
1.0
 70
    11
 71
     3
 72
   104
 73
   100
 74
     0
 42
0.0000000001
 43
0.0000000001
 40
0.0
 40
0.0
 40
0.0
 40
0.0
 40
1.0
 40
1.0
 40
1.0
 40
2.0
 40
2.0
 40
2.0
 40
3.0
 40
3.0
 40
3.0
 40
4.0
 40
4.0
 40
4.0
 40
5.0
 40
5.0
 40
5.0
 40
6.0
 40
6.0
 40
6.0
 40
7.0
 40
7.0
 40
7.0
 40
8.0
 40
8.0
 40
8.0
 40
9.0
 40
9.0
 40
9.0
 40
10.0
 40
10.0
 40
10.0
 40
11.0
 40
11.0
 40
11.0
 40
12.0
 40
12.0
 40
12.0
 40
13.0
 40
13.0
 40
13.0
 40
14.0
 40
14.0
 40
14.0
 40
15.0
 40
15.0
 40
15.0
 40
16.0
 40
16.0
 40
16.0
 40
17.0
 40
17.0
 40
17.0
 40
18.0
 40
18.0
 40
18.0
 40
19.0
 40
19.0
 40
19.0
 40
20.0
 40
20.0
 40
20.0
 40
21.0
 40
21.0
 40
21.0
 40
22.0
 40
22.0
 40
22.0
 40
23.0
 40
23.0
 40
23.0
 40
24.0
 40
24.0
 40
24.0
 40
25.0
 40
25.0
 40
25.0
 40
26.0
 40
26.0
 40
26.0
 40
27.0
 40
27.0
 40
27.0
 40
28.0
 40
28.0
 40
28.0
 40
29.0
 40
29.0
 40
29.0
 40
30.0
 40
30.0
 40
30.0
 40
31.0
 40
31.0
 40
31.0
 40
32.0
 40
32.0
 40
32.0
 40
33.0
 40
33.0
 40
33.0
 40
33.0
 10
57.29507630288504
 20
-86.26869295711865
 30
0.0
 10
57.29507630288504
 20
-86.26869295711865
 30
0.0
 10
57.05857034180097
 20
-85.40138959655178
 30
0.0
 10
57.05857034180097
 20
-85.40138959655178
 30
0.0
 10
57.05857034180097
 20
-85.40138959655178
 30
0.0
 10
57.01343956117168
 20
-62.16610002286708
 30
0.0
 10
57.01343956117168
 20
-62.16610002286708
 30
0.0
 10
57.01343956117168
 20
-62.16610002286708
 30
0.0
 10
56.66427890340226
 20
-62.18866541318172
 30
0.0
 10
56.66427890340226
 20
-62.18866541318172
 30
0.0
 10
56.66427890340226
 20
-62.18866541318172
 30
0.0
 10
56.37144559397552
 20
-62.07601071649638
 30
0.0
 10
56.37144559397552
 20
-61.92959406178301
 30
0.0
 10
56.37144559397552
 20
-61.78317740706964
 30
0.0
 10
56.38281441657679
 20
-61.51290948795754
 30
0.0
 10
56.38281441657679
 20
-61.51290948795754
 30
0.0
 10
56.38281441657679
 20
-61.51290948795754
 30
0.0
 10
48.26237449128529
 20
-61.47897527504162
 30
0.0
 10
48.26237449128529
 20
-61.47897527504162
 30
0.0
 10
48.26237449128529
 20
-61.47897527504162
 30
0.0
 10
48.28493988159994
 20
-48.04257725432734
 30
0.0
 10
48.28493988159994
 20
-48.04257725432734
 30
0.0
 10
48.28493988159994
 20
-48.04257725432734
 30
0.0
 10
63.49005109125175
 20
-47.99761872858594
 30
0.0
 10
63.49005109125175
 20
-47.99761872858594
 30
0.0
 10
63.49005109125175
 20
-47.99761872858594
 30
0.0
 10
63.49831932587086
 20
-47.83776619261651
 30
0.0
 10
63.49831932587086
 20
-47.83776619261651
 30
0.0
 10
63.49831932587086
 20
-47.83776619261651
 30
0.0
 10
63.66454529269252
 20
-47.64673552193754
 30
0.0
 10
63.67953146793965
 20
-47.64931934525601
 30
0.0
 10
63.69434538829888
 20
-47.65173091368658
 30
0.0
 10
63.86797831530015
 20
-47.65672630543563
 30
0.0
 10
63.86797831530015
 20
-47.65672630543563
 30
0.0
 10
63.86797831530015
 20
-47.65672630543563
 30
0.0
 10
63.83318282794474
 20
-47.61951924964964
 30
0.0
 10
63.84076204301225
 20
-47.58971915404327
 30
0.0
 10
63.84816900319187
 20
-47.5599190584369
 30
0.0
 10
63.91999929144537
 20
-47.2548556519694
 30
0.0
 10
64.18544407369632
 20
-46.9944062614675
 30
0.0
 10
64.45088885594727
 20
-46.73395687096559
 30
0.0
 10
64.81055706187847
 20
-46.70415677535922
 30
0.0
 10
64.88738274188101
 20
-46.69933363849808
 30
0.0
 10
64.96438067677146
 20
-46.69433824674903
 30
0.0
 10
66.1574180303536
 20
-46.70174520692865
 30
0.0
 10
66.1574180303536
 20
-46.70174520692865
 30
0.0
 10
66.1574180303536
 20
-46.70174520692865
 30
0.0
 10
66.57169103574849
 20
-46.75876157482291
 30
0.0
 10
66.80974729082364
 20
-46.95978302899998
 30
0.0
 10
66.9930264915472
 20
-47.11429566344456
 30
0.0
 10
67.182679123123
 20
-47.45673838058595
 30
0.0
 10
67.20179941567967
 20
-47.58472376229423
 30
0.0
 10
67.21161794428987
 20
-47.65173091368658
 30
0.0
 10
67.16459235989369
 20
-47.65173091368658
 30
0.0
 10
67.16459235989369
 20
-47.65173091368658
 30
0.0
 10
67.16459235989369
 20
-47.65173091368658
 30
0.0
 10
67.35545077568477
 20
-47.65173091368658
 30
0.0
 10
67.35545077568477
 20
-47.65173091368658
 30
0.0
 10
67.35545077568477
 20
-47.65173091368658
 30
0.0
 10
67.44485106250387
 20
-47.72114963350951
 30
0.0
 10
67.44485106250387
 20
-47.72114963350951
 30
0.0
 10
67.44485106250387
 20
-47.72114963350951
 30
0.0
 10
67.77471917282871
 20
-47.32427437179233
 30
0.0
 10
67.77471917282871
 20
-47.32427437179233
 30
0.0
 10
67.77471917282871
 20
-47.32427437179233
 30
0.0
 10
71.00932145777894
 20
-47.32926976354137
 30
0.0
 10
71.00932145777894
 20
-47.32926976354137
 30
0.0
 10
71.00932145777894
 20
-47.32926976354137
 30
0.0
 10
71.28699633707065
 20
-47.67653561754391
 30
0.0
 10
71.28699633707065
 20
-47.67653561754391
 30
0.0
 10
71.28699633707065
 20
-47.67653561754391
 30
0.0
 10
71.45580612721076
 20
-48.03379225504454
 30
0.0
 10
71.45580612721076
 20
-48.03379225504454
 30
0.0
 10
71.45580612721076
 20
-48.03379225504454
 30
0.0
 10
78.8276263096972
 20
-48.02380147154645
 30
0.0
 10
78.8276263096972
 20
-48.02380147154645
 30
0.0
 10
78.8276263096972
 20
-48.02380147154645
 30
0.0
 10
78.86414434593158
 20
-61.48121458858429
 30
0.0
 10
78.86414434593158
 20
-61.48121458858429
 30
0.0
 10
78.86414434593158
 20
-61.48121458858429
 30
0.0
 10
71.13989066280568
 20
-61.54494889710659
 30
0.0
 10
71.13989066280568
 20
-61.54494889710659
 30
0.0
 10
71.13989066280568
 20
-61.54494889710659
 30
0.0
 10
71.1466086034337
 20
-61.9392403355053
 30
0.0
 10
71.1466086034337
 20
-61.9392403355053
 30
0.0
 10
71.1466086034337
 20
-61.9392403355053
 30
0.0
 10
71.0854581182299
 20
-62.1635161995486
 30
0.0
 10
70.93594087553436
 20
-62.17712433569255
 30
0.0
 10
70.78642363283882
 20
-62.1907324718365
 30
0.0
 10
70.51460541973563
 20
-62.18401453120848
 30
0.0
 10
70.51460541973563
 20
-62.18401453120848
 30
0.0
 10
70.51460541973563
 20
-62.18401453120848
 30
0.0
 10
70.53493149650761
 20
-85.32111881879128
 30
0.0
 10
70.53493149650761
 20
-85.32111881879128
 30
0.0
 10
70.53493149650761
 20
-85.32111881879128
 30
0.0
 10
70.2832671052885
 20
-86.22511247048043
 30
0.0
 10
70.2832671052885
 20
-86.22511247048043
 30
0.0
 10
70.2832671052885
 20
-86.22511247048043
 30
0.0
 10
57.29507630288504
 20
-86.26869295711865
 30
0.0
 10
57.29507630288504
 20
-86.26869295711865
 30
0.0
  0
HATCH
  5
3F
330
1F
100
AcDbEntity
  8
GRAU_10_
 62
   255
100
AcDbHatch
 10
0.0
 20
0.0
 30
0.0
210
0.0
220
0.0
230
1.0
  2
SOLID
 70
     1
 71
     0
 91
        1
 92
        1
 93
        1
 72
     4
 94
        3
 73
     0
 74
     1
 95
      104
 96
      100
 40
0.0
 40
0.0
 40
0.0
 40
0.0
 40
1.0
 40
1.0
 40
1.0
 40
2.0
 40
2.0
 40
2.0
 40
3.0
 40
3.0
 40
3.0
 40
4.0
 40
4.0
 40
4.0
 40
5.0
 40
5.0
 40
5.0
 40
6.0
 40
6.0
 40
6.0
 40
7.0
 40
7.0
 40
7.0
 40
8.0
 40
8.0
 40
8.0
 40
9.0
 40
9.0
 40
9.0
 40
10.0
 40
10.0
 40
10.0
 40
11.0
 40
11.0
 40
11.0
 40
12.0
 40
12.0
 40
12.0
 40
13.0
 40
13.0
 40
13.0
 40
14.0
 40
14.0
 40
14.0
 40
15.0
 40
15.0
 40
15.0
 40
16.0
 40
16.0
 40
16.0
 40
17.0
 40
17.0
 40
17.0
 40
18.0
 40
18.0
 40
18.0
 40
19.0
 40
19.0
 40
19.0
 40
20.0
 40
20.0
 40
20.0
 40
21.0
 40
21.0
 40
21.0
 40
22.0
 40
22.0
 40
22.0
 40
23.0
 40
23.0
 40
23.0
 40
24.0
 40
24.0
 40
24.0
 40
25.0
 40
25.0
 40
25.0
 40
26.0
 40
26.0
 40
26.0
 40
27.0
 40
27.0
 40
27.0
 40
28.0
 40
28.0
 40
28.0
 40
29.0
 40
29.0
 40
29.0
 40
30.0
 40
30.0
 40
30.0
 40
31.0
 40
31.0
 40
31.0
 40
32.0
 40
32.0
 40
32.0
 40
33.0
 40
33.0
 40
33.0
 40
33.0
 10
57.29507630288504
 20
-86.26869295711865
 10
57.29507630288504
 20
-86.26869295711865
 10
57.05857034180097
 20
-85.40138959655178
 10
57.05857034180097
 20
-85.40138959655178
 10
57.05857034180097
 20
-85.40138959655178
 10
57.01343956117168
 20
-62.16610002286708
 10
57.01343956117168
 20
-62.16610002286708
 10
57.01343956117168
 20
-62.16610002286708
 10
56.66427890340226
 20
-62.18866541318172
 10
56.66427890340226
 20
-62.18866541318172
 10
56.66427890340226
 20
-62.18866541318172
 10
56.37144559397552
 20
-62.07601071649638
 10
56.37144559397552
 20
-61.92959406178301
 10
56.37144559397552
 20
-61.78317740706964
 10
56.38281441657679
 20
-61.51290948795754
 10
56.38281441657679
 20
-61.51290948795754
 10
56.38281441657679
 20
-61.51290948795754
 10
48.26237449128529
 20
-61.47897527504162
 10
48.26237449128529
 20
-61.47897527504162
 10
48.26237449128529
 20
-61.47897527504162
 10
48.28493988159994
 20
-48.04257725432734
 10
48.28493988159994
 20
-48.04257725432734
 10
48.28493988159994
 20
-48.04257725432734
 10
63.49005109125175
 20
-47.99761872858594
 10
63.49005109125175
 20
-47.99761872858594
 10
63.49005109125175
 20
-47.99761872858594
 10
63.49831932587086
 20
-47.83776619261651
 10
63.49831932587086
 20
-47.83776619261651
 10
63.49831932587086
 20
-47.83776619261651
 10
63.66454529269252
 20
-47.64673552193754
 10
63.67953146793965
 20
-47.64931934525601
 10
63.69434538829888
 20
-47.65173091368658
 10
63.86797831530015
 20
-47.65672630543563
 10
63.86797831530015
 20
-47.65672630543563
 10
63.86797831530015
 20
-47.65672630543563
 10
63.83318282794474
 20
-47.61951924964964
 10
63.84076204301225
 20
-47.58971915404327
 10
63.84816900319187
 20
-47.5599190584369
 10
63.91999929144537
 20
-47.2548556519694
 10
64.18544407369632
 20
-46.9944062614675
 10
64.45088885594727
 20
-46.73395687096559
 10
64.81055706187847
 20
-46.70415677535922
 10
64.88738274188101
 20
-46.69933363849808
 10
64.96438067677146
 20
-46.69433824674903
 10
66.1574180303536
 20
-46.70174520692865
 10
66.1574180303536
 20
-46.70174520692865
 10
66.1574180303536
 20
-46.70174520692865
 10
66.57169103574849
 20
-46.75876157482291
 10
66.80974729082364
 20
-46.95978302899998
 10
66.9930264915472
 20
-47.11429566344456
 10
67.182679123123
 20
-47.45673838058595
 10
67.20179941567967
 20
-47.58472376229423
 10
67.21161794428987
 20
-47.65173091368658
 10
67.16459235989369
 20
-47.65173091368658
 10
67.16459235989369
 20
-47.65173091368658
 10
67.16459235989369
 20
-47.65173091368658
 10
67.35545077568477
 20
-47.65173091368658
 10
67.35545077568477
 20
-47.65173091368658
 10
67.35545077568477
 20
-47.65173091368658
 10
67.44485106250387
 20
-47.72114963350951
 10
67.44485106250387
 20
-47.72114963350951
 10
67.44485106250387
 20
-47.72114963350951
 10
67.77471917282871
 20
-47.32427437179233
 10
67.77471917282871
 20
-47.32427437179233
 10
67.77471917282871
 20
-47.32427437179233
 10
71.00932145777894
 20
-47.32926976354137
 10
71.00932145777894
 20
-47.32926976354137
 10
71.00932145777894
 20
-47.32926976354137
 10
71.28699633707065
 20
-47.67653561754391
 10
71.28699633707065
 20
-47.67653561754391
 10
71.28699633707065
 20
-47.67653561754391
 10
71.45580612721076
 20
-48.03379225504454
 10
71.45580612721076
 20
-48.03379225504454
 10
71.45580612721076
 20
-48.03379225504454
 10
78.8276263096972
 20
-48.02380147154645
 10
78.8276263096972
 20
-48.02380147154645
 10
78.8276263096972
 20
-48.02380147154645
 10
78.86414434593158
 20
-61.48121458858429
 10
78.86414434593158
 20
-61.48121458858429
 10
78.86414434593158
 20
-61.48121458858429
 10
71.13989066280568
 20
-61.54494889710659
 10
71.13989066280568
 20
-61.54494889710659
 10
71.13989066280568
 20
-61.54494889710659
 10
71.1466086034337
 20
-61.9392403355053
 10
71.1466086034337
 20
-61.9392403355053
 10
71.1466086034337
 20
-61.9392403355053
 10
71.0854581182299
 20
-62.1635161995486
 10
70.93594087553436
 20
-62.17712433569255
 10
70.78642363283882
 20
-62.1907324718365
 10
70.51460541973563
 20
-62.18401453120848
 10
70.51460541973563
 20
-62.18401453120848
 10
70.51460541973563
 20
-62.18401453120848
 10
70.53493149650761
 20
-85.32111881879128
 10
70.53493149650761
 20
-85.32111881879128
 10
70.53493149650761
 20
-85.32111881879128
 10
70.2832671052885
 20
-86.22511247048043
 10
70.2832671052885
 20
-86.22511247048043
 10
70.2832671052885
 20
-86.22511247048043
 10
57.29507630288504
 20
-86.26869295711865
 10
57.29507630288504
 20
-86.26869295711865
 97
        0
 75
     0
 76
     1
 98
        0
  0
SPLINE
  5
40
330
1F
100
AcDbEntity
  8
GRAU_10_
100
AcDbSpline
210
0.0
220
0.0
230
1.0
 70
    11
 71
     3
 72
   167
 73
   163
 74
     0
 42
0.0000000001
 43
0.0000000001
 40
0.0
 40
0.0
 40
0.0
 40
0.0
 40
1.0
 40
1.0
 40
1.0
 40
2.0
 40
2.0
 40
2.0
 40
3.0
 40
3.0
 40
3.0
 40
4.0
 40
4.0
 40
4.0
 40
5.0
 40
5.0
 40
5.0
 40
6.0
 40
6.0
 40
6.0
 40
7.0
 40
7.0
 40
7.0
 40
8.0
 40
8.0
 40
8.0
 40
9.0
 40
9.0
 40
9.0
 40
10.0
 40
10.0
 40
10.0
 40
11.0
 40
11.0
 40
11.0
 40
12.0
 40
12.0
 40
12.0
 40
13.0
 40
13.0
 40
13.0
 40
14.0
 40
14.0
 40
14.0
 40
15.0
 40
15.0
 40
15.0
 40
16.0
 40
16.0
 40
16.0
 40
17.0
 40
17.0
 40
17.0
 40
18.0
 40
18.0
 40
18.0
 40
19.0
 40
19.0
 40
19.0
 40
20.0
 40
20.0
 40
20.0
 40
21.0
 40
21.0
 40
21.0
 40
22.0
 40
22.0
 40
22.0
 40
23.0
 40
23.0
 40
23.0
 40
24.0
 40
24.0
 40
24.0
 40
25.0
 40
25.0
 40
25.0
 40
26.0
 40
26.0
 40
26.0
 40
27.0
 40
27.0
 40
27.0
 40
28.0
 40
28.0
 40
28.0
 40
29.0
 40
29.0
 40
29.0
 40
30.0
 40
30.0
 40
30.0
 40
31.0
 40
31.0
 40
31.0
 40
32.0
 40
32.0
 40
32.0
 40
33.0
 40
33.0
 40
33.0
 40
34.0
 40
34.0
 40
34.0
 40
35.0
 40
35.0
 40
35.0
 40
36.0
 40
36.0
 40
36.0
 40
37.0
 40
37.0
 40
37.0
 40
38.0
 40
38.0
 40
38.0
 40
39.0
 40
39.0
 40
39.0
 40
40.0
 40
40.0
 40
40.0
 40
41.0
 40
41.0
 40
41.0
 40
42.0
 40
42.0
 40
42.0
 40
43.0
 40
43.0
 40
43.0
 40
44.0
 40
44.0
 40
44.0
 40
45.0
 40
45.0
 40
45.0
 40
46.0
 40
46.0
 40
46.0
 40
47.0
 40
47.0
 40
47.0
 40
48.0
 40
48.0
 40
48.0
 40
49.0
 40
49.0
 40
49.0
 40
50.0
 40
50.0
 40
50.0
 40
51.0
 40
51.0
 40
51.0
 40
52.0
 40
52.0
 40
52.0
 40
53.0
 40
53.0
 40
53.0
 40
54.0
 40
54.0
 40
54.0
 40
54.0
 10
105.7738029333703
 20
-86.29194736698489
 30
0.0
 10
105.7738029333703
 20
-86.29194736698489
 30
0.0
 10
105.5078413864557
 20
-85.3285257789709
 30
0.0
 10
105.5078413864557
 20
-85.3285257789709
 30
0.0
 10
105.5078413864557
 20
-85.3285257789709
 30
0.0
 10
105.5367802076226
 20
-62.18780413874224
 30
0.0
 10
105.5367802076226
 20
-62.18780413874224
 30
0.0
 10
105.5367802076226
 20
-62.18780413874224
 30
0.0
 10
105.1747004332608
 20
-62.17333472815879
 30
0.0
 10
105.1747004332608
 20
-62.17333472815879
 30
0.0
 10
105.1747004332608
 20
-62.17333472815879
 30
0.0
 10
104.8422484996175
 20
-62.05757944349129
 30
0.0
 10
104.8567179102009
 20
-61.88394651649001
 30
0.0
 10
104.8711873207844
 20
-61.71031358948874
 30
0.0
 10
104.8711873207844
 20
-61.53650840759958
 30
0.0
 10
104.8711873207844
 20
-61.53650840759958
 30
0.0
 10
104.8711873207844
 20
-61.53650840759958
 30
0.0
 10
96.85341130868014
 20
-61.44969194409894
 30
0.0
 10
96.85341130868014
 20
-61.44969194409894
 30
0.0
 10
96.85341130868014
 20
-61.44969194409894
 30
0.0
 10
96.83894189809669
 20
-48.04877843029167
 30
0.0
 10
96.83894189809669
 20
-48.04877843029167
 30
0.0
 10
96.83894189809669
 20
-48.04877843029167
 30
0.0
 10
98.98144819377306
 20
-48.00519794365346
 30
0.0
 10
98.98144819377306
 20
-48.00519794365346
 30
0.0
 10
98.98144819377306
 20
-48.00519794365346
 30
0.0
 10
98.97696956668771
 20
-47.84258932947766
 30
0.0
 10
98.97696956668771
 20
-47.84258932947766
 30
0.0
 10
98.97696956668771
 20
-47.84258932947766
 30
0.0
 10
99.15645915987753
 20
-47.64639101216174
 30
0.0
 10
99.15645915987753
 20
-47.64639101216174
 30
0.0
 10
99.15645915987753
 20
-47.64639101216174
 30
0.0
 10
99.35248522230555
 20
-47.6505251294713
 30
0.0
 10
99.35248522230555
 20
-47.6505251294713
 30
0.0
 10
99.35248522230555
 20
-47.6505251294713
 30
0.0
 10
99.32768051844822
 20
-47.58799660516429
 30
0.0
 10
99.32768051844822
 20
-47.58799660516429
 30
0.0
 10
99.32768051844822
 20
-47.58799660516429
 30
0.0
 10
99.37694541638707
 20
-47.27914359116303
 30
0.0
 10
99.67804696043292
 20
-46.98717155617577
 30
0.0
 10
99.95331027129406
 20
-46.72017647993374
 30
0.0
 10
100.3081553403641
 20
-46.71190824531464
 30
0.0
 10
100.3622433751641
 20
-46.70346775580763
 30
0.0
 10
100.4163314099641
 20
-46.69519952118852
 30
0.0
 10
101.6679354254316
 20
-46.70346775580763
 30
0.0
 10
101.6679354254316
 20
-46.70346775580763
 30
0.0
 10
101.6679354254316
 20
-46.70346775580763
 30
0.0
 10
101.9349305016736
 20
-46.72861696944075
 30
0.0
 10
102.2184620471539
 20
-46.90793430774266
 30
0.0
 10
102.5023381024099
 20
-47.08742390093246
 30
0.0
 10
102.5774412335335
 20
-47.3084269221057
 30
0.0
 10
102.5774412335335
 20
-47.3084269221057
 30
0.0
 10
102.5774412335335
 20
-47.3084269221057
 30
0.0
 10
104.1005189523283
 20
-47.32513564623181
 30
0.0
 10
104.1005189523283
 20
-47.32513564623181
 30
0.0
 10
104.1005189523283
 20
-47.32513564623181
 30
0.0
 10
104.3254838359232
 20
-47.54217680498341
 30
0.0
 10
104.3795718707232
 20
-47.64639101216174
 30
0.0
 10
104.434004415299
 20
-47.75077747422798
 30
0.0
 10
104.5635400909984
 20
-47.98022098490823
 30
0.0
 10
104.5635400909984
 20
-47.98022098490823
 30
0.0
 10
104.5635400909984
 20
-47.98022098490823
 30
0.0
 10
127.4048827360602
 20
-48.0010638263439
 30
0.0
 10
127.4048827360602
 20
-48.0010638263439
 30
0.0
 10
127.4048827360602
 20
-48.0010638263439
 30
0.0
 10
127.4117729315761
 20
-61.45813243360595
 30
0.0
 10
127.4117729315761
 20
-61.45813243360595
 30
0.0
 10
127.4117729315761
 20
-61.45813243360595
 30
0.0
 10
119.6248184692553
 20
-61.52117772257665
 30
0.0
 10
119.6248184692553
 20
-61.52117772257665
 30
0.0
 10
119.6248184692553
 20
-61.52117772257665
 30
0.0
 10
119.6248184692553
 20
-61.95198719720976
 30
0.0
 10
119.6248184692553
 20
-61.95198719720976
 30
0.0
 10
119.6248184692553
 20
-61.95198719720976
 30
0.0
 10
119.540758083961
 20
-62.14112306412186
 30
0.0
 10
119.4353380925674
 20
-62.15163061228364
 30
0.0
 10
119.3306071207254
 20
-62.16213816044542
 30
0.0
 10
119.0047008728222
 20
-62.16213816044542
 30
0.0
 10
119.0047008728222
 20
-62.16213816044542
 30
0.0
 10
119.0047008728222
 20
-62.16213816044542
 30
0.0
 10
119.0150361660961
 20
-64.64226403640204
 30
0.0
 10
119.0150361660961
 20
-64.64226403640204
 30
0.0
 10
119.0150361660961
 20
-64.64226403640204
 30
0.0
 10
117.6700700013878
 20
-64.6632791327256
 30
0.0
 10
117.6700700013878
 20
-64.6632791327256
 30
0.0
 10
117.6700700013878
 20
-64.6632791327256
 30
0.0
 10
117.6804052946617
 20
-65.99791000415996
 30
0.0
 10
117.6804052946617
 20
-65.99791000415996
 30
0.0
 10
117.6804052946617
 20
-65.99791000415996
 30
0.0
 10
116.9131820239637
 20
-66.7232753370988
 30
0.0
 10
116.9131820239637
 20
-66.7232753370988
 30
0.0
 10
116.9131820239637
 20
-66.7232753370988
 30
0.0
 10
117.6490549050643
 20
-67.62692447901215
 30
0.0
 10
117.6490549050643
 20
-67.62692447901215
 30
0.0
 10
117.6490549050643
 20
-67.62692447901215
 30
0.0
 10
116.9238618270133
 20
-68.58328361662231
 30
0.0
 10
116.9238618270133
 20
-68.58328361662231
 30
0.0
 10
116.9238618270133
 20
-68.58328361662231
 30
0.0
 10
117.6800607848859
 20
-69.45541011405031
 30
0.0
 10
117.6800607848859
 20
-69.45541011405031
 30
0.0
 10
117.6800607848859
 20
-69.45541011405031
 30
0.0
 10
116.9338526105114
 20
-70.33856092430379
 30
0.0
 10
116.9338526105114
 20
-70.33856092430379
 30
0.0
 10
116.9338526105114
 20
-70.33856092430379
 30
0.0
 10
117.6800607848859
 20
-71.24238232110504
 30
0.0
 10
117.6800607848859
 20
-71.24238232110504
 30
0.0
 10
117.6800607848859
 20
-71.24238232110504
 30
0.0
 10
116.9235173172375
 20
-72.1358684246324
 30
0.0
 10
116.9235173172375
 20
-72.1358684246324
 30
0.0
 10
116.9235173172375
 20
-72.1358684246324
 30
0.0
 10
117.6907405879356
 20
-73.02918227327187
 30
0.0
 10
117.6907405879356
 20
-73.02918227327187
 30
0.0
 10
117.6907405879356
 20
-73.02918227327187
 30
0.0
 10
116.9338526105114
 20
-73.943338963347
 30
0.0
 10
116.9338526105114
 20
-73.943338963347
 30
0.0
 10
116.9338526105114
 20
-73.943338963347
 30
0.0
 10
117.6593901983382
 20
-74.8786830046336
 30
0.0
 10
117.6593901983382
 20
-74.8786830046336
 30
0.0
 10
117.6593901983382
 20
-74.8786830046336
 30
0.0
 10
116.9235173172375
 20
-75.76148930511128
 30
0.0
 10
116.9235173172375
 20
-75.76148930511128
 30
0.0
 10
116.9235173172375
 20
-75.76148930511128
 30
0.0
 10
117.669725491612
 20
-76.67581825007431
 30
0.0
 10
117.669725491612
 20
-76.67581825007431
 30
0.0
 10
117.669725491612
 20
-76.67581825007431
 30
0.0
 10
116.954867706835
 20
-77.59031944992525
 30
0.0
 10
116.954867706835
 20
-77.59031944992525
 30
0.0
 10
116.954867706835
 20
-77.59031944992525
 30
0.0
 10
117.7010758812095
 20
-78.48346104367681
 30
0.0
 10
117.7010758812095
 20
-78.48346104367681
 30
0.0
 10
117.7010758812095
 20
-78.48346104367681
 30
0.0
 10
116.9338526105114
 20
-79.33491695455704
 30
0.0
 10
116.9338526105114
 20
-79.33491695455704
 30
0.0
 10
116.9338526105114
 20
-79.33491695455704
 30
0.0
 10
117.6800607848859
 20
-80.22823080319651
 30
0.0
 10
117.6800607848859
 20
-80.22823080319651
 30
0.0
 10
117.6800607848859
 20
-80.22823080319651
 30
0.0
 10
116.9445324135611
 20
-81.17408239264489
 30
0.0
 10
116.9445324135611
 20
-81.17408239264489
 30
0.0
 10
116.9445324135611
 20
-81.17408239264489
 30
0.0
 10
117.7010758812095
 20
-82.04638114496079
 30
0.0
 10
117.7010758812095
 20
-82.04638114496079
 30
0.0
 10
117.7010758812095
 20
-82.04638114496079
 30
0.0
 10
116.9338526105114
 20
-82.95003028687415
 30
0.0
 10
116.9338526105114
 20
-82.95003028687415
 30
0.0
 10
116.9338526105114
 20
-82.95003028687415
 30
0.0
 10
117.669725491612
 20
-83.84334413551362
 30
0.0
 10
117.669725491612
 20
-83.84334413551362
 30
0.0
 10
117.669725491612
 20
-83.84334413551362
 30
0.0
 10
116.902502220914
 20
-84.71547063294162
 30
0.0
 10
116.9338526105114
 20
-84.77851592191232
 30
0.0
 10
116.9655475098847
 20
-84.84156121088301
 30
0.0
 10
117.6487103952885
 20
-85.54573919261038
 30
0.0
 10
117.6487103952885
 20
-85.54573919261038
 30
0.0
 10
117.6487103952885
 20
-85.54573919261038
 30
0.0
 10
117.6487103952885
 20
-85.79792034849318
 30
0.0
 10
117.6487103952885
 20
-85.79792034849318
 30
0.0
 10
117.6487103952885
 20
-85.79792034849318
 30
0.0
 10
117.2177286657675
 20
-86.26042472249954
 30
0.0
 10
117.2177286657675
 20
-86.26042472249954
 30
0.0
 10
117.2177286657675
 20
-86.26042472249954
 30
0.0
 10
105.7738029333703
 20
-86.29194736698489
 30
0.0
 10
105.7738029333703
 20
-86.29194736698489
 30
0.0
  0
HATCH
  5
41
330
1F
100
AcDbEntity
  8
GRAU_10_
 62
   255
100
AcDbHatch
 10
0.0
 20
0.0
 30
0.0
210
0.0
220
0.0
230
1.0
  2
SOLID
 70
     1
 71
     0
 91
        1
 92
        1
 93
        1
 72
     4
 94
        3
 73
     0
 74
     1
 95
      167
 96
      163
 40
0.0
 40
0.0
 40
0.0
 40
0.0
 40
1.0
 40
1.0
 40
1.0
 40
2.0
 40
2.0
 40
2.0
 40
3.0
 40
3.0
 40
3.0
 40
4.0
 40
4.0
 40
4.0
 40
5.0
 40
5.0
 40
5.0
 40
6.0
 40
6.0
 40
6.0
 40
7.0
 40
7.0
 40
7.0
 40
8.0
 40
8.0
 40
8.0
 40
9.0
 40
9.0
 40
9.0
 40
10.0
 40
10.0
 40
10.0
 40
11.0
 40
11.0
 40
11.0
 40
12.0
 40
12.0
 40
12.0
 40
13.0
 40
13.0
 40
13.0
 40
14.0
 40
14.0
 40
14.0
 40
15.0
 40
15.0
 40
15.0
 40
16.0
 40
16.0
 40
16.0
 40
17.0
 40
17.0
 40
17.0
 40
18.0
 40
18.0
 40
18.0
 40
19.0
 40
19.0
 40
19.0
 40
20.0
 40
20.0
 40
20.0
 40
21.0
 40
21.0
 40
21.0
 40
22.0
 40
22.0
 40
22.0
 40
23.0
 40
23.0
 40
23.0
 40
24.0
 40
24.0
 40
24.0
 40
25.0
 40
25.0
 40
25.0
 40
26.0
 40
26.0
 40
26.0
 40
27.0
 40
27.0
 40
27.0
 40
28.0
 40
28.0
 40
28.0
 40
29.0
 40
29.0
 40
29.0
 40
30.0
 40
30.0
 40
30.0
 40
31.0
 40
31.0
 40
31.0
 40
32.0
 40
32.0
 40
32.0
 40
33.0
 40
33.0
 40
33.0
 40
34.0
 40
34.0
 40
34.0
 40
35.0
 40
35.0
 40
35.0
 40
36.0
 40
36.0
 40
36.0
 40
37.0
 40
37.0
 40
37.0
 40
38.0
 40
38.0
 40
38.0
 40
39.0
 40
39.0
 40
39.0
 40
40.0
 40
40.0
 40
40.0
 40
41.0
 40
41.0
 40
41.0
 40
42.0
 40
42.0
 40
42.0
 40
43.0
 40
43.0
 40
43.0
 40
44.0
 40
44.0
 40
44.0
 40
45.0
 40
45.0
 40
45.0
 40
46.0
 40
46.0
 40
46.0
 40
47.0
 40
47.0
 40
47.0
 40
48.0
 40
48.0
 40
48.0
 40
49.0
 40
49.0
 40
49.0
 40
50.0
 40
50.0
 40
50.0
 40
51.0
 40
51.0
 40
51.0
 40
52.0
 40
52.0
 40
52.0
 40
53.0
 40
53.0
 40
53.0
 40
54.0
 40
54.0
 40
54.0
 40
54.0
 10
105.7738029333703
 20
-86.29194736698489
 10
105.7738029333703
 20
-86.29194736698489
 10
105.5078413864557
 20
-85.3285257789709
 10
105.5078413864557
 20
-85.3285257789709
 10
105.5078413864557
 20
-85.3285257789709
 10
105.5367802076226
 20
-62.18780413874224
 10
105.5367802076226
 20
-62.18780413874224
 10
105.5367802076226
 20
-62.18780413874224
 10
105.1747004332608
 20
-62.17333472815879
 10
105.1747004332608
 20
-62.17333472815879
 10
105.1747004332608
 20
-62.17333472815879
 10
104.8422484996175
 20
-62.05757944349129
 10
104.8567179102009
 20
-61.88394651649001
 10
104.8711873207844
 20
-61.71031358948874
 10
104.8711873207844
 20
-61.53650840759958
 10
104.8711873207844
 20
-61.53650840759958
 10
104.8711873207844
 20
-61.53650840759958
 10
96.85341130868014
 20
-61.44969194409894
 10
96.85341130868014
 20
-61.44969194409894
 10
96.85341130868014
 20
-61.44969194409894
 10
96.83894189809669
 20
-48.04877843029167
 10
96.83894189809669
 20
-48.04877843029167
 10
96.83894189809669
 20
-48.04877843029167
 10
98.98144819377306
 20
-48.00519794365346
 10
98.98144819377306
 20
-48.00519794365346
 10
98.98144819377306
 20
-48.00519794365346
 10
98.97696956668771
 20
-47.84258932947766
 10
98.97696956668771
 20
-47.84258932947766
 10
98.97696956668771
 20
-47.84258932947766
 10
99.15645915987753
 20
-47.64639101216174
 10
99.15645915987753
 20
-47.64639101216174
 10
99.15645915987753
 20
-47.64639101216174
 10
99.35248522230555
 20
-47.6505251294713
 10
99.35248522230555
 20
-47.6505251294713
 10
99.35248522230555
 20
-47.6505251294713
 10
99.32768051844822
 20
-47.58799660516429
 10
99.32768051844822
 20
-47.58799660516429
 10
99.32768051844822
 20
-47.58799660516429
 10
99.37694541638707
 20
-47.27914359116303
 10
99.67804696043292
 20
-46.98717155617577
 10
99.95331027129406
 20
-46.72017647993374
 10
100.3081553403641
 20
-46.71190824531464
 10
100.3622433751641
 20
-46.70346775580763
 10
100.4163314099641
 20
-46.69519952118852
 10
101.6679354254316
 20
-46.70346775580763
 10
101.6679354254316
 20
-46.70346775580763
 10
101.6679354254316
 20
-46.70346775580763
 10
101.9349305016736
 20
-46.72861696944075
 10
102.2184620471539
 20
-46.90793430774266
 10
102.5023381024099
 20
-47.08742390093246
 10
102.5774412335335
 20
-47.3084269221057
 10
102.5774412335335
 20
-47.3084269221057
 10
102.5774412335335
 20
-47.3084269221057
 10
104.1005189523283
 20
-47.32513564623181
 10
104.1005189523283
 20
-47.32513564623181
 10
104.1005189523283
 20
-47.32513564623181
 10
104.3254838359232
 20
-47.54217680498341
 10
104.3795718707232
 20
-47.64639101216174
 10
104.434004415299
 20
-47.75077747422798
 10
104.5635400909984
 20
-47.98022098490823
 10
104.5635400909984
 20
-47.98022098490823
 10
104.5635400909984
 20
-47.98022098490823
 10
127.4048827360602
 20
-48.0010638263439
 10
127.4048827360602
 20
-48.0010638263439
 10
127.4048827360602
 20
-48.0010638263439
 10
127.4117729315761
 20
-61.45813243360595
 10
127.4117729315761
 20
-61.45813243360595
 10
127.4117729315761
 20
-61.45813243360595
 10
119.6248184692553
 20
-61.52117772257665
 10
119.6248184692553
 20
-61.52117772257665
 10
119.6248184692553
 20
-61.52117772257665
 10
119.6248184692553
 20
-61.95198719720976
 10
119.6248184692553
 20
-61.95198719720976
 10
119.6248184692553
 20
-61.95198719720976
 10
119.540758083961
 20
-62.14112306412186
 10
119.4353380925674
 20
-62.15163061228364
 10
119.3306071207254
 20
-62.16213816044542
 10
119.0047008728222
 20
-62.16213816044542
 10
119.0047008728222
 20
-62.16213816044542
 10
119.0047008728222
 20
-62.16213816044542
 10
119.0150361660961
 20
-64.64226403640204
 10
119.0150361660961
 20
-64.64226403640204
 10
119.0150361660961
 20
-64.64226403640204
 10
117.6700700013878
 20
-64.6632791327256
 10
117.6700700013878
 20
-64.6632791327256
 10
117.6700700013878
 20
-64.6632791327256
 10
117.6804052946617
 20
-65.99791000415996
 10
117.6804052946617
 20
-65.99791000415996
 10
117.6804052946617
 20
-65.99791000415996
 10
116.9131820239637
 20
-66.7232753370988
 10
116.9131820239637
 20
-66.7232753370988
 10
116.9131820239637
 20
-66.7232753370988
 10
117.6490549050643
 20
-67.62692447901215
 10
117.6490549050643
 20
-67.62692447901215
 10
117.6490549050643
 20
-67.62692447901215
 10
116.9238618270133
 20
-68.58328361662231
 10
116.9238618270133
 20
-68.58328361662231
 10
116.9238618270133
 20
-68.58328361662231
 10
117.6800607848859
 20
-69.45541011405031
 10
117.6800607848859
 20
-69.45541011405031
 10
117.6800607848859
 20
-69.45541011405031
 10
116.9338526105114
 20
-70.33856092430379
 10
116.9338526105114
 20
-70.33856092430379
 10
116.9338526105114
 20
-70.33856092430379
 10
117.6800607848859
 20
-71.24238232110504
 10
117.6800607848859
 20
-71.24238232110504
 10
117.6800607848859
 20
-71.24238232110504
 10
116.9235173172375
 20
-72.1358684246324
 10
116.9235173172375
 20
-72.1358684246324
 10
116.9235173172375
 20
-72.1358684246324
 10
117.6907405879356
 20
-73.02918227327187
 10
117.6907405879356
 20
-73.02918227327187
 10
117.6907405879356
 20
-73.02918227327187
 10
116.9338526105114
 20
-73.943338963347
 10
116.9338526105114
 20
-73.943338963347
 10
116.9338526105114
 20
-73.943338963347
 10
117.6593901983382
 20
-74.8786830046336
 10
117.6593901983382
 20
-74.8786830046336
 10
117.6593901983382
 20
-74.8786830046336
 10
116.9235173172375
 20
-75.76148930511128
 10
116.9235173172375
 20
-75.76148930511128
 10
116.9235173172375
 20
-75.76148930511128
 10
117.669725491612
 20
-76.67581825007431
 10
117.669725491612
 20
-76.67581825007431
 10
117.669725491612
 20
-76.67581825007431
 10
116.954867706835
 20
-77.59031944992525
 10
116.954867706835
 20
-77.59031944992525
 10
116.954867706835
 20
-77.59031944992525
 10
117.7010758812095
 20
-78.48346104367681
 10
117.7010758812095
 20
-78.48346104367681
 10
117.7010758812095
 20
-78.48346104367681
 10
116.9338526105114
 20
-79.33491695455704
 10
116.9338526105114
 20
-79.33491695455704
 10
116.9338526105114
 20
-79.33491695455704
 10
117.6800607848859
 20
-80.22823080319651
 10
117.6800607848859
 20
-80.22823080319651
 10
117.6800607848859
 20
-80.22823080319651
 10
116.9445324135611
 20
-81.17408239264489
 10
116.9445324135611
 20
-81.17408239264489
 10
116.9445324135611
 20
-81.17408239264489
 10
117.7010758812095
 20
-82.04638114496079
 10
117.7010758812095
 20
-82.04638114496079
 10
117.7010758812095
 20
-82.04638114496079
 10
116.9338526105114
 20
-82.95003028687415
 10
116.9338526105114
 20
-82.95003028687415
 10
116.9338526105114
 20
-82.95003028687415
 10
117.669725491612
 20
-83.84334413551362
 10
117.669725491612
 20
-83.84334413551362
 10
117.669725491612
 20
-83.84334413551362
 10
116.902502220914
 20
-84.71547063294162
 10
116.9338526105114
 20
-84.77851592191232
 10
116.9655475098847
 20
-84.84156121088301
 10
117.6487103952885
 20
-85.54573919261038
 10
117.6487103952885
 20
-85.54573919261038
 10
117.6487103952885
 20
-85.54573919261038
 10
117.6487103952885
 20
-85.79792034849318
 10
117.6487103952885
 20
-85.79792034849318
 10
117.6487103952885
 20
-85.79792034849318
 10
117.2177286657675
 20
-86.26042472249954
 10
117.2177286657675
 20
-86.26042472249954
 10
117.2177286657675
 20
-86.26042472249954
 10
105.7738029333703
 20
-86.29194736698489
 10
105.7738029333703
 20
-86.29194736698489
 97
        0
 75
     0
 76
     1
 98
        0
  0
POLYLINE
  5
43
330
1F
100
AcDbEntity
  8
STANDARDEBENE
 62
     7
100
AcDb2dPolyline
 66
     1
 10
0.0
 20
0.0
 30
0.0
  0
VERTEX
  5
44
330
43
100
AcDbEntity
  8
STANDARDEBENE
 62
     7
100
AcDbVertex
100
AcDb2dVertex
 10
122.0222619990208
 20
2.343010985189744
 30
0.0
  0
VERTEX
  5
45
330
43
100
AcDbEntity
  8
STANDARDEBENE
 62
     7
100
AcDbVertex
100
AcDb2dVertex
 10
121.6219416395457
 20
2.742986834889096
 30
0.0
  0
SEQEND
  5
46
330
43
100
AcDbEntity
  8
STANDARDEBENE
  0
POLYLINE
  5
47
330
1F
100
AcDbEntity
  8
STANDARDEBENE
 62
     7
100
AcDb2dPolyline
 66
     1
 10
0.0
 20
0.0
 30
0.0
  0
VERTEX
  5
48
330
47
100
AcDbEntity
  8
STANDARDEBENE
 62
     7
100
AcDbVertex
100
AcDb2dVertex
 10
113.4215754462695
 20
2.742986834889096
 30
0.0
  0
VERTEX
  5
49
330
47
100
AcDbEntity
  8
STANDARDEBENE
 62
     7
100
AcDbVertex
100
AcDb2dVertex
 10
113.0219441063459
 20
2.343010985189744
 30
0.0
  0
VERTEX
  5
4A
330
47
100
AcDbEntity
  8
STANDARDEBENE
 62
     7
100
AcDbVertex
100
AcDb2dVertex
 10
113.0219441063459
 20
1.943724155041985
 30
0.0
  0
SEQEND
  5
4B
330
47
100
AcDbEntity
  8
STANDARDEBENE
  0
POLYLINE
  5
4C
330
1F
100
AcDbEntity
  8
STANDARDEBENE
 62
     7
100
AcDb2dPolyline
 66
     1
 10
0.0
 20
0.0
 30
0.0
  0
VERTEX
  5
4D
330
4C
100
AcDbEntity
  8
STANDARDEBENE
 62
     7
100
AcDbVertex
100
AcDb2dVertex
 10
122.0222619990208
 20
1.943724155041985
 30
0.0
  0
VERTEX
  5
4E
330
4C
100
AcDbEntity
  8
STANDARDEBENE
 62
     7
100
AcDbVertex
100
AcDb2dVertex
 10
122.0222619990208
 20
2.343010985189744
 30
0.0
  0
SEQEND
  5
4F
330
4C
100
AcDbEntity
  8
STANDARDEBENE
  0
POLYLINE
  5
50
330
1F
100
AcDbEntity
  8
STANDARDEBENE
 62
     7
100
AcDb2dPolyline
 66
     1
 10
0.0
 20
0.0
 30
0.0
  0
VERTEX
  5
51
330
50
100
AcDbEntity
  8
STANDARDEBENE
 62
     7
100
AcDbVertex
100
AcDb2dVertex
 10
158.9223595747727
 20
-28.92349048185525
 30
0.0
  0
VERTEX
  5
52
330
50
100
AcDbEntity
  8
STANDARDEBENE
 62
     7
100
AcDbVertex
100
AcDb2dVertex
 10
158.9223595747727
 20
-28.34006317654444
 30
0.0
  0
SEQEND
  5
53
330
50
100
AcDbEntity
  8
STANDARDEBENE
  0
POLYLINE
  5
54
330
1F
100
AcDbEntity
  8
STANDARDEBENE
 62
     7
100
AcDb2dPolyline
 66
     1
 10
0.0
 20
0.0
 30
0.0
  0
VERTEX
  5
55
330
54
100
AcDbEntity
  8
STANDARDEBENE
 62
     7
100
AcDbVertex
100
AcDb2dVertex
 10
126.1219283309952
 20
-28.34006317654444
 30
0.0
  0
VERTEX
  5
56
330
54
100
AcDbEntity
  8
STANDARDEBENE
 62
     7
100
AcDbVertex
100
AcDb2dVertex
 10
126.1219283309952
 20
-28.92349048185525
 30
0.0
  0
SEQEND
  5
57
330
54
100
AcDbEntity
  8
STANDARDEBENE
  0
SPLINE
  5
58
330
1F
100
AcDbEntity
  8
STANDARDEBENE
 62
     7
100
AcDbSpline
210
0.0
220
0.0
230
1.0
 70
     8
 71
     3
 72
     8
 73
     4
 74
     0
 42
0.0000000001
 43
0.0000000001
 40
0.0
 40
0.0
 40
0.0
 40
0.0
 40
1.0
 40
1.0
 40
1.0
 40
1.0
 10
126.1953089132398
 20
-28.05687614083999
 30
0.0
 10
126.1446659761978
 20
-28.14765446676228
 30
0.0
 10
126.1219283309952
 20
-28.24601200775209
 30
0.0
 10
126.1219283309952
 20
-28.34006317654444
 30
0.0
  0
SPLINE
  5
59
330
1F
100
AcDbEntity
  8
STANDARDEBENE
 62
     7
100
AcDbSpline
210
0.0
220
0.0
230
1.0
 70
     8
 71
     3
 72
     8
 73
     4
 74
     0
 42
0.0000000001
 43
0.0000000001
 40
0.0
 40
0.0
 40
0.0
 40
0.0
 40
1.0
 40
1.0
 40
1.0
 40
1.0
 10
158.9223595747727
 20
-28.34006317654444
 30
0.0
 10
158.9223595747727
 20
-28.236021224254
 30
0.0
 10
158.894798792709
 20
-28.13835270281578
 30
0.0
 10
158.8486344827523
 20
-28.05687614083999
 30
0.0
  0
SPLINE
  5
5A
330
1F
100
AcDbEntity
  8
STANDARDEBENE
 62
     7
100
AcDbSpline
210
0.0
220
0.0
230
1.0
 70
     8
 71
     3
 72
     8
 73
     4
 74
     0
 42
0.0000000001
 43
0.0000000001
 40
0.0
 40
0.0
 40
0.0
 40
0.0
 40
1.0
 40
1.0
 40
1.0
 40
1.0
 10
126.1219283309952
 20
-28.92349048185525
 30
0.0
 10
126.1219283309952
 20
-29.24577937711257
 30
0.0
 10
126.3830667410488
 20
-29.50691778716607
 30
0.0
 10
126.7051833814182
 20
-29.50691778716607
 30
0.0
  0
SPLINE
  5
5B
330
1F
100
AcDbEntity
  8
STANDARDEBENE
 62
     7
100
AcDbSpline
210
0.0
220
0.0
230
1.0
 70
     8
 71
     3
 72
     8
 73
     4
 74
     0
 42
0.0000000001
 43
0.0000000001
 40
0.0
 40
0.0
 40
0.0
 40
0.0
 40
1.0
 40
1.0
 40
1.0
 40
1.0
 10
158.338760014574
 20
-29.50691778716607
 30
0.0
 10
158.6605321451676
 20
-29.50691778716607
 30
0.0
 10
158.9223595747727
 20
-29.24577937711257
 30
0.0
 10
158.9223595747727
 20
-28.92349048185525
 30
0.0
  0
SPLINE
  5
5C
330
1F
100
AcDbEntity
  8
STANDARDEBENE
 62
     7
100
AcDbSpline
210
0.0
220
0.0
230
1.0
 70
     8
 71
     3
 72
     8
 73
     4
 74
     0
 42
0.0000000001
 43
0.0000000001
 40
0.0
 40
0.0
 40
0.0
 40
0.0
 40
1.0
 40
1.0
 40
1.0
 40
1.0
 10
121.251249120789
 20
2.843239179645781
 30
0.0
 10
121.251249120789
 20
2.850990649601195
 30
0.0
 10
121.2505601012374
 20
2.858225354892915
 30
0.0
 10
121.2488375523584
 20
2.864771040633042
 30
0.0
  0
SPLINE
  5
5D
330
1F
100
AcDbEntity
  8
STANDARDEBENE
 62
     7
100
AcDbSpline
210
0.0
220
0.0
230
1.0
 70
     8
 71
     3
 72
     8
 73
     4
 74
     0
 42
0.0000000001
 43
0.0000000001
 40
0.0
 40
0.0
 40
0.0
 40
0.0
 40
1.0
 40
1.0
 40
1.0
 40
1.0
 10
121.1509967760323
 20
2.742986834889096
 30
0.0
 10
121.2061183401597
 20
2.742986834889096
 30
0.0
 10
121.251249120789
 20
2.788117615518395
 30
0.0
 10
121.251249120789
 20
2.843239179645781
 30
0.0
  0
SPLINE
  5
5E
330
1F
100
AcDbEntity
  8
STANDARDEBENE
 62
     7
100
AcDbSpline
210
0.0
220
0.0
230
1.0
 70
     8
 71
     3
 72
    11
 73
     7
 74
     0
 42
0.0000000001
 43
0.0000000001
 40
0.0
 40
0.0
 40
0.0
 40
0.0
 40
1.0
 40
1.0
 40
1.0
 40
2.0
 40
2.0
 40
2.0
 40
2.0
 10
113.7953685530083
 20
2.864771040633042
 30
0.0
 10
113.7936460041293
 20
2.857019570677628
 30
0.0
 10
113.7929569845778
 20
2.849784865385909
 30
0.0
 10
113.7929569845778
 20
2.843239179645781
 30
0.0
 10
113.7929569845778
 20
2.788117615518395
 30
0.0
 10
113.8373987456555
 20
2.742986834889096
 30
0.0
 10
113.8932093293344
 20
2.742986834889096
 30
0.0
  0
SPLINE
  5
5F
330
1F
100
AcDbEntity
  8
STANDARDEBENE
 62
     7
100
AcDbSpline
210
0.0
220
0.0
230
1.0
 70
     8
 71
     3
 72
     8
 73
     4
 74
     0
 42
0.0000000001
 43
0.0000000001
 40
0.0
 40
0.0
 40
0.0
 40
0.0
 40
1.0
 40
1.0
 40
1.0
 40
1.0
 10
121.2488375523584
 20
2.864771040633042
 30
0.0
 10
121.0069916897495
 20
3.977537616454668
 30
0.0
 10
120.064757452947
 20
4.757680003745092
 30
0.0
 10
118.966115777933
 20
4.842946173254644
 30
0.0
  0
SPLINE
  5
60
330
1F
100
AcDbEntity
  8
STANDARDEBENE
 62
     7
100
AcDbSpline
210
0.0
220
0.0
230
1.0
 70
     8
 71
     3
 72
     8
 73
     4
 74
     0
 42
0.0000000001
 43
0.0000000001
 40
0.0
 40
0.0
 40
0.0
 40
0.0
 40
1.0
 40
1.0
 40
1.0
 40
1.0
 10
116.0784348372095
 20
4.842946173254644
 30
0.0
 10
114.9422415966338
 20
4.762158630830442
 30
0.0
 10
114.0358363765141
 20
3.939986050892885
 30
0.0
 10
113.7953685530083
 20
2.864771040633042
 30
0.0
  0
POLYLINE
  5
61
330
1F
100
AcDbEntity
  8
STANDARDEBENE
 62
     7
100
AcDb2dPolyline
 66
     1
 10
0.0
 20
0.0
 30
0.0
  0
VERTEX
  5
62
330
61
100
AcDbEntity
  8
STANDARDEBENE
 62
     7
100
AcDbVertex
100
AcDb2dVertex
 10
117.5222753075713
 20
4.842946173254644
 30
0.0
  0
VERTEX
  5
63
330
61
100
AcDbEntity
  8
STANDARDEBENE
 62
     7
100
AcDbVertex
100
AcDb2dVertex
 10
118.0741799683967
 20
4.842946173254644
 30
0.0
  0
VERTEX
  5
64
330
61
100
AcDbEntity
  8
STANDARDEBENE
 62
     7
100
AcDbVertex
100
AcDb2dVertex
 10
118.5434022830311
 20
4.842946173254644
 30
0.0
  0
VERTEX
  5
65
330
61
100
AcDbEntity
  8
STANDARDEBENE
 62
     7
100
AcDbVertex
100
AcDb2dVertex
 10
118.8565616692298
 20
4.842946173254644
 30
0.0
  0
VERTEX
  5
66
330
61
100
AcDbEntity
  8
STANDARDEBENE
 62
     7
100
AcDbVertex
100
AcDb2dVertex
 10
118.966115777933
 20
4.842946173254644
 30
0.0
  0
SEQEND
  5
67
330
61
100
AcDbEntity
  8
STANDARDEBENE
  0
POLYLINE
  5
68
330
1F
100
AcDbEntity
  8
STANDARDEBENE
 62
     7
100
AcDb2dPolyline
 66
     1
 10
0.0
 20
0.0
 30
0.0
  0
VERTEX
  5
69
330
68
100
AcDbEntity
  8
STANDARDEBENE
 62
     7
100
AcDbVertex
100
AcDb2dVertex
 10
116.0784348372095
 20
4.842946173254644
 30
0.0
  0
VERTEX
  5
6A
330
68
100
AcDbEntity
  8
STANDARDEBENE
 62
     7
100
AcDbVertex
100
AcDb2dVertex
 10
116.1886779654643
 20
4.842946173254644
 30
0.0
  0
VERTEX
  5
6B
330
68
100
AcDbEntity
  8
STANDARDEBENE
 62
     7
100
AcDbVertex
100
AcDb2dVertex
 10
116.5014928418872
 20
4.842946173254644
 30
0.0
  0
VERTEX
  5
6C
330
68
100
AcDbEntity
  8
STANDARDEBENE
 62
     7
100
AcDbVertex
100
AcDb2dVertex
 10
116.9693371174184
 20
4.842946173254644
 30
0.0
  0
VERTEX
  5
6D
330
68
100
AcDbEntity
  8
STANDARDEBENE
 62
     7
100
AcDbVertex
100
AcDb2dVertex
 10
117.5222753075713
 20
4.842946173254644
 30
0.0
  0
SEQEND
  5
6E
330
68
100
AcDbEntity
  8
STANDARDEBENE
  0
POLYLINE
  5
6F
330
1F
100
AcDbEntity
  8
STANDARDEBENE
 62
     7
100
AcDb2dPolyline
 66
     1
 10
0.0
 20
0.0
 30
0.0
  0
VERTEX
  5
70
330
6F
100
AcDbEntity
  8
STANDARDEBENE
 62
     7
100
AcDbVertex
100
AcDb2dVertex
 10
117.5222753075713
 20
2.742986834889096
 30
0.0
  0
VERTEX
  5
71
330
6F
100
AcDbEntity
  8
STANDARDEBENE
 62
     7
100
AcDbVertex
100
AcDb2dVertex
 10
118.4338481743279
 20
2.742986834889096
 30
0.0
  0
VERTEX
  5
72
330
6F
100
AcDbEntity
  8
STANDARDEBENE
 62
     7
100
AcDbVertex
100
AcDb2dVertex
 10
119.3013237897827
 20
2.742986834889096
 30
0.0
  0
VERTEX
  5
73
330
6F
100
AcDbEntity
  8
STANDARDEBENE
 62
     7
100
AcDbVertex
100
AcDb2dVertex
 10
120.0785378439789
 20
2.742986834889096
 30
0.0
  0
VERTEX
  5
74
330
6F
100
AcDbEntity
  8
STANDARDEBENE
 62
     7
100
AcDbVertex
100
AcDb2dVertex
 10
120.7275942615788
 20
2.742986834889096
 30
0.0
  0
VERTEX
  5
75
330
6F
100
AcDbEntity
  8
STANDARDEBENE
 62
     7
100
AcDbVertex
100
AcDb2dVertex
 10
121.2161091236578
 20
2.742986834889096
 30
0.0
  0
VERTEX
  5
76
330
6F
100
AcDbEntity
  8
STANDARDEBENE
 62
     7
100
AcDbVertex
100
AcDb2dVertex
 10
121.5192777263584
 20
2.742986834889096
 30
0.0
  0
VERTEX
  5
77
330
6F
100
AcDbEntity
  8
STANDARDEBENE
 62
     7
100
AcDbVertex
100
AcDb2dVertex
 10
121.6219416395457
 20
2.742986834889096
 30
0.0
  0
SEQEND
  5
78
330
6F
100
AcDbEntity
  8
STANDARDEBENE
  0
POLYLINE
  5
79
330
1F
100
AcDbEntity
  8
STANDARDEBENE
 62
     7
100
AcDb2dPolyline
 66
     1
 10
0.0
 20
0.0
 30
0.0
  0
VERTEX
  5
7A
330
79
100
AcDbEntity
  8
STANDARDEBENE
 62
     7
100
AcDbVertex
100
AcDb2dVertex
 10
113.4215754462695
 20
2.742986834889096
 30
0.0
  0
VERTEX
  5
7B
330
79
100
AcDbEntity
  8
STANDARDEBENE
 62
     7
100
AcDbVertex
100
AcDb2dVertex
 10
113.5249283790083
 20
2.742986834889096
 30
0.0
  0
VERTEX
  5
7C
330
79
100
AcDbEntity
  8
STANDARDEBENE
 62
     7
100
AcDbVertex
100
AcDb2dVertex
 10
113.828096981709
 20
2.742986834889096
 30
0.0
  0
VERTEX
  5
7D
330
79
100
AcDbEntity
  8
STANDARDEBENE
 62
     7
100
AcDbVertex
100
AcDb2dVertex
 10
114.3166118437879
 20
2.742986834889096
 30
0.0
  0
VERTEX
  5
7E
330
79
100
AcDbEntity
  8
STANDARDEBENE
 62
     7
100
AcDbVertex
100
AcDb2dVertex
 10
114.9660127711637
 20
2.742986834889096
 30
0.0
  0
VERTEX
  5
7F
330
79
100
AcDbEntity
  8
STANDARDEBENE
 62
     7
100
AcDbVertex
100
AcDb2dVertex
 10
115.7435713351357
 20
2.742986834889096
 30
0.0
  0
VERTEX
  5
80
330
79
100
AcDbEntity
  8
STANDARDEBENE
 62
     7
100
AcDbVertex
100
AcDb2dVertex
 10
116.6096689114872
 20
2.742986834889096
 30
0.0
  0
VERTEX
  5
81
330
79
100
AcDbEntity
  8
STANDARDEBENE
 62
     7
100
AcDbVertex
100
AcDb2dVertex
 10
117.5222753075713
 20
2.742986834889096
 30
0.0
  0
SEQEND
  5
82
330
79
100
AcDbEntity
  8
STANDARDEBENE
  0
POLYLINE
  5
83
330
1F
100
AcDbEntity
  8
STANDARDEBENE
 62
     7
100
AcDb2dPolyline
 66
     1
 10
0.0
 20
0.0
 30
0.0
  0
VERTEX
  5
84
330
83
100
AcDbEntity
  8
STANDARDEBENE
 62
     7
100
AcDbVertex
100
AcDb2dVertex
 10
122.0222619990208
 20
2.343010985189744
 30
0.0
  0
VERTEX
  5
85
330
83
100
AcDbEntity
  8
STANDARDEBENE
 62
     7
100
AcDbVertex
100
AcDb2dVertex
 10
121.9089182827839
 20
2.343010985189744
 30
0.0
  0
VERTEX
  5
86
330
83
100
AcDbEntity
  8
STANDARDEBENE
 62
     7
100
AcDbVertex
100
AcDb2dVertex
 10
121.5768108589164
 20
2.343010985189744
 30
0.0
  0
VERTEX
  5
87
330
83
100
AcDbEntity
  8
STANDARDEBENE
 62
     7
100
AcDbVertex
100
AcDb2dVertex
 10
121.0407536477775
 20
2.343010985189744
 30
0.0
  0
VERTEX
  5
88
330
83
100
AcDbEntity
  8
STANDARDEBENE
 62
     7
100
AcDbVertex
100
AcDb2dVertex
 10
120.3279629216553
 20
2.343010985189744
 30
0.0
  0
VERTEX
  5
89
330
83
100
AcDbEntity
  8
STANDARDEBENE
 62
     7
100
AcDbVertex
100
AcDb2dVertex
 10
119.4742676972324
 20
2.343010985189744
 30
0.0
  0
VERTEX
  5
8A
330
83
100
AcDbEntity
  8
STANDARDEBENE
 62
     7
100
AcDbVertex
100
AcDb2dVertex
 10
118.5234207160349
 20
2.343010985189744
 30
0.0
  0
VERTEX
  5
8B
330
83
100
AcDbEntity
  8
STANDARDEBENE
 62
     7
100
AcDbVertex
100
AcDb2dVertex
 10
117.5222753075713
 20
2.343010985189744
 30
0.0
  0
VERTEX
  5
8C
330
83
100
AcDbEntity
  8
STANDARDEBENE
 62
     7
100
AcDbVertex
100
AcDb2dVertex
 10
116.5207853893318
 20
2.343010985189744
 30
0.0
  0
VERTEX
  5
8D
330
83
100
AcDbEntity
  8
STANDARDEBENE
 62
     7
100
AcDbVertex
100
AcDb2dVertex
 10
115.5692493885828
 20
2.343010985189744
 30
0.0
  0
VERTEX
  5
8E
330
83
100
AcDbEntity
  8
STANDARDEBENE
 62
     7
100
AcDbVertex
100
AcDb2dVertex
 10
114.7162431837115
 20
2.343010985189744
 30
0.0
  0
VERTEX
  5
8F
330
83
100
AcDbEntity
  8
STANDARDEBENE
 62
     7
100
AcDbVertex
100
AcDb2dVertex
 10
114.0034524575892
 20
2.343010985189744
 30
0.0
  0
VERTEX
  5
90
330
83
100
AcDbEntity
  8
STANDARDEBENE
 62
     7
100
AcDbVertex
100
AcDb2dVertex
 10
113.4677397562262
 20
2.343010985189744
 30
0.0
  0
VERTEX
  5
91
330
83
100
AcDbEntity
  8
STANDARDEBENE
 62
     7
100
AcDbVertex
100
AcDb2dVertex
 10
113.1345988030313
 20
2.343010985189744
 30
0.0
  0
VERTEX
  5
92
330
83
100
AcDbEntity
  8
STANDARDEBENE
 62
     7
100
AcDbVertex
100
AcDb2dVertex
 10
113.0219441063459
 20
2.343010985189744
 30
0.0
  0
SEQEND
  5
93
330
83
100
AcDbEntity
  8
STANDARDEBENE
  0
POLYLINE
  5
94
330
1F
100
AcDbEntity
  8
STANDARDEBENE
 62
     7
100
AcDb2dPolyline
 66
     1
 10
0.0
 20
0.0
 30
0.0
  0
VERTEX
  5
95
330
94
100
AcDbEntity
  8
STANDARDEBENE
 62
     7
100
AcDbVertex
100
AcDb2dVertex
 10
158.338760014574
 20
-29.50691778716607
 30
0.0
  0
VERTEX
  5
96
330
94
100
AcDbEntity
  8
STANDARDEBENE
 62
     7
100
AcDbVertex
100
AcDb2dVertex
 10
158.2316174743014
 20
-29.50691778716607
 30
0.0
  0
VERTEX
  5
97
330
94
100
AcDbEntity
  8
STANDARDEBENE
 62
     7
100
AcDbVertex
100
AcDb2dVertex
 10
157.9126014219141
 20
-29.50691778716607
 30
0.0
  0
VERTEX
  5
98
330
94
100
AcDbEntity
  8
STANDARDEBENE
 62
     7
100
AcDbVertex
100
AcDb2dVertex
 10
157.3841234258428
 20
-29.50691778716607
 30
0.0
  0
VERTEX
  5
99
330
94
100
AcDbEntity
  8
STANDARDEBENE
 62
     7
100
AcDbVertex
100
AcDb2dVertex
 10
156.6561742695855
 20
-29.50691778716607
 30
0.0
  0
VERTEX
  5
9A
330
94
100
AcDbEntity
  8
STANDARDEBENE
 62
     7
100
AcDbVertex
100
AcDb2dVertex
 10
155.7359886584339
 20
-29.50691778716607
 30
0.0
  0
VERTEX
  5
9B
330
94
100
AcDbEntity
  8
STANDARDEBENE
 62
     7
100
AcDbVertex
100
AcDb2dVertex
 10
154.6380360029715
 20
-29.50691778716607
 30
0.0
  0
VERTEX
  5
9C
330
94
100
AcDbEntity
  8
STANDARDEBENE
 62
     7
100
AcDbVertex
100
AcDb2dVertex
 10
153.3757521844544
 20
-29.50691778716607
 30
0.0
  0
VERTEX
  5
9D
330
94
100
AcDbEntity
  8
STANDARDEBENE
 62
     7
100
AcDbVertex
100
AcDb2dVertex
 10
151.9663626916722
 20
-29.50691778716607
 30
0.0
  0
VERTEX
  5
9E
330
94
100
AcDbEntity
  8
STANDARDEBENE
 62
     7
100
AcDbVertex
100
AcDb2dVertex
 10
150.4298490916213
 20
-29.50691778716607
 30
0.0
  0
VERTEX
  5
9F
330
94
100
AcDbEntity
  8
STANDARDEBENE
 62
     7
100
AcDbVertex
100
AcDb2dVertex
 10
148.785848441522
 20
-29.50691778716607
 30
0.0
  0
VERTEX
  5
A0
330
94
100
AcDbEntity
  8
STANDARDEBENE
 62
     7
100
AcDbVertex
100
AcDb2dVertex
 10
147.0574428963526
 20
-29.50691778716607
 30
0.0
  0
VERTEX
  5
A1
330
94
100
AcDbEntity
  8
STANDARDEBENE
 62
     7
100
AcDbVertex
100
AcDb2dVertex
 10
145.2673701013157
 20
-29.50691778716607
 30
0.0
  0
VERTEX
  5
A2
330
94
100
AcDbEntity
  8
STANDARDEBENE
 62
     7
100
AcDbVertex
100
AcDb2dVertex
 10
143.4407792700445
 20
-29.50691778716607
 30
0.0
  0
VERTEX
  5
A3
330
94
100
AcDbEntity
  8
STANDARDEBENE
 62
     7
100
AcDbVertex
100
AcDb2dVertex
 10
141.6017860868445
 20
-29.50691778716607
 30
0.0
  0
VERTEX
  5
A4
330
94
100
AcDbEntity
  8
STANDARDEBENE
 62
     7
100
AcDbVertex
100
AcDb2dVertex
 10
139.7751952555732
 20
-29.50691778716607
 30
0.0
  0
VERTEX
  5
A5
330
94
100
AcDbEntity
  8
STANDARDEBENE
 62
     7
100
AcDbVertex
100
AcDb2dVertex
 10
137.9851224605363
 20
-29.50691778716607
 30
0.0
  0
VERTEX
  5
A6
330
94
100
AcDbEntity
  8
STANDARDEBENE
 62
     7
100
AcDbVertex
100
AcDb2dVertex
 10
136.256716915367
 20
-29.50691778716607
 30
0.0
  0
VERTEX
  5
A7
330
94
100
AcDbEntity
  8
STANDARDEBENE
 62
     7
100
AcDbVertex
100
AcDb2dVertex
 10
134.613749794595
 20
-29.50691778716607
 30
0.0
  0
VERTEX
  5
A8
330
94
100
AcDbEntity
  8
STANDARDEBENE
 62
     7
100
AcDbVertex
100
AcDb2dVertex
 10
133.0762026652167
 20
-29.50691778716607
 30
0.0
  0
VERTEX
  5
A9
330
94
100
AcDbEntity
  8
STANDARDEBENE
 62
     7
100
AcDbVertex
100
AcDb2dVertex
 10
131.6685357213136
 20
-29.50691778716607
 30
0.0
  0
VERTEX
  5
AA
330
94
100
AcDbEntity
  8
STANDARDEBENE
 62
     7
100
AcDbVertex
100
AcDb2dVertex
 10
130.4059073930206
 20
-29.50691778716607
 30
0.0
  0
VERTEX
  5
AB
330
94
100
AcDbEntity
  8
STANDARDEBENE
 62
     7
100
AcDbVertex
100
AcDb2dVertex
 10
129.3072657180066
 20
-29.50691778716607
 30
0.0
  0
VERTEX
  5
AC
330
94
100
AcDbEntity
  8
STANDARDEBENE
 62
     7
100
AcDbVertex
100
AcDb2dVertex
 10
128.3881136361825
 20
-29.50691778716607
 30
0.0
  0
VERTEX
  5
AD
330
94
100
AcDbEntity
  8
STANDARDEBENE
 62
     7
100
AcDbVertex
100
AcDb2dVertex
 10
127.6591309505978
 20
-29.50691778716607
 30
0.0
  0
VERTEX
  5
AE
330
94
100
AcDbEntity
  8
STANDARDEBENE
 62
     7
100
AcDbVertex
100
AcDb2dVertex
 10
127.1316864838538
 20
-29.50691778716607
 30
0.0
  0
VERTEX
  5
AF
330
94
100
AcDbEntity
  8
STANDARDEBENE
 62
     7
100
AcDbVertex
100
AcDb2dVertex
 10
126.8123259216908
 20
-29.50691778716607
 30
0.0
  0
VERTEX
  5
B0
330
94
100
AcDbEntity
  8
STANDARDEBENE
 62
     7
100
AcDbVertex
100
AcDb2dVertex
 10
126.7051833814182
 20
-29.50691778716607
 30
0.0
  0
SEQEND
  5
B1
330
94
100
AcDbEntity
  8
STANDARDEBENE
  0
POLYLINE
  5
B2
330
1F
100
AcDbEntity
  8
STANDARDEBENE
 62
     7
100
AcDb2dPolyline
 66
     1
 10
0.0
 20
0.0
 30
0.0
  0
VERTEX
  5
B3
330
B2
100
AcDbEntity
  8
STANDARDEBENE
 62
     7
100
AcDbVertex
100
AcDb2dVertex
 10
42.99981541111092
 20
2.511131755778275
 30
0.0
  0
VERTEX
  5
B4
330
B2
100
AcDbEntity
  8
STANDARDEBENE
 62
     7
100
AcDbVertex
100
AcDb2dVertex
 10
42.76813258688799
 20
2.742986834889096
 30
0.0
  0
SEQEND
  5
B5
330
B2
100
AcDbEntity
  8
STANDARDEBENE
  0
POLYLINE
  5
B6
330
1F
100
AcDbEntity
  8
STANDARDEBENE
 62
     7
100
AcDb2dPolyline
 66
     1
 10
0.0
 20
0.0
 30
0.0
  0
VERTEX
  5
B7
330
B6
100
AcDbEntity
  8
STANDARDEBENE
 62
     7
100
AcDbVertex
100
AcDb2dVertex
 10
34.56776639361178
 20
2.742986834889096
 30
0.0
  0
VERTEX
  5
B8
330
B6
100
AcDbEntity
  8
STANDARDEBENE
 62
     7
100
AcDbVertex
100
AcDb2dVertex
 10
34.16779054391243
 20
2.343010985189744
 30
0.0
  0
VERTEX
  5
B9
330
B6
100
AcDbEntity
  8
STANDARDEBENE
 62
     7
100
AcDbVertex
100
AcDb2dVertex
 10
34.16779054391243
 20
1.943724155041985
 30
0.0
  0
SEQEND
  5
BA
330
B6
100
AcDbEntity
  8
STANDARDEBENE
  0
POLYLINE
  5
BB
330
1F
100
AcDbEntity
  8
STANDARDEBENE
 62
     7
100
AcDb2dPolyline
 66
     1
 10
0.0
 20
0.0
 30
0.0
  0
VERTEX
  5
BC
330
BB
100
AcDbEntity
  8
STANDARDEBENE
 62
     7
100
AcDbVertex
100
AcDb2dVertex
 10
51.18950180133744
 20
-28.92349048185525
 30
0.0
  0
VERTEX
  5
BD
330
BB
100
AcDbEntity
  8
STANDARDEBENE
 62
     7
100
AcDbVertex
100
AcDb2dVertex
 10
51.18950180133744
 20
-28.34006317654444
 30
0.0
  0
SEQEND
  5
BE
330
BB
100
AcDbEntity
  8
STANDARDEBENE
  0
POLYLINE
  5
BF
330
1F
100
AcDbEntity
  8
STANDARDEBENE
 62
     7
100
AcDb2dPolyline
 66
     1
 10
0.0
 20
0.0
 30
0.0
  0
VERTEX
  5
C0
330
BF
100
AcDbEntity
  8
STANDARDEBENE
 62
     7
100
AcDbVertex
100
AcDb2dVertex
 10
18.3895873222237
 20
-28.34006317654444
 30
0.0
  0
VERTEX
  5
C1
330
BF
100
AcDbEntity
  8
STANDARDEBENE
 62
     7
100
AcDbVertex
100
AcDb2dVertex
 10
18.3895873222237
 20
-28.92349048185525
 30
0.0
  0
SEQEND
  5
C2
330
BF
100
AcDbEntity
  8
STANDARDEBENE
  0
SPLINE
  5
C3
330
1F
100
AcDbEntity
  8
STANDARDEBENE
 62
     7
100
AcDbSpline
210
0.0
220
0.0
230
1.0
 70
     8
 71
     3
 72
     8
 73
     4
 74
     0
 42
0.0000000001
 43
0.0000000001
 40
0.0
 40
0.0
 40
0.0
 40
0.0
 40
1.0
 40
1.0
 40
1.0
 40
1.0
 10
18.46348466913198
 20
-28.05687614083999
 30
0.0
 10
18.41284173208994
 20
-28.14765446676228
 30
0.0
 10
18.3895873222237
 20
-28.24601200775209
 30
0.0
 10
18.3895873222237
 20
-28.34006317654444
 30
0.0
  0
SPLINE
  5
C4
330
1F
100
AcDbEntity
  8
STANDARDEBENE
 62
     7
100
AcDbSpline
210
0.0
220
0.0
230
1.0
 70
     8
 71
     3
 72
     8
 73
     4
 74
     0
 42
0.0000000001
 43
0.0000000001
 40
0.0
 40
0.0
 40
0.0
 40
0.0
 40
1.0
 40
1.0
 40
1.0
 40
1.0
 10
51.18950180133744
 20
-28.34006317654444
 30
0.0
 10
51.18950180133744
 20
-28.236021224254
 30
0.0
 10
51.16228552904955
 20
-28.13835270281578
 30
0.0
 10
51.11646572886865
 20
-28.05687614083999
 30
0.0
  0
SPLINE
  5
C5
330
1F
100
AcDbEntity
  8
STANDARDEBENE
 62
     7
100
AcDbSpline
210
0.0
220
0.0
230
1.0
 70
     8
 71
     3
 72
     8
 73
     4
 74
     0
 42
0.0000000001
 43
0.0000000001
 40
0.0
 40
0.0
 40
0.0
 40
0.0
 40
1.0
 40
1.0
 40
1.0
 40
1.0
 10
18.3895873222237
 20
-28.92349048185525
 30
0.0
 10
18.3895873222237
 20
-29.24577937711257
 30
0.0
 10
18.65107024205299
 20
-29.50691778716607
 30
0.0
 10
18.97301462753451
 20
-29.50691778716607
 30
0.0
  0
SPLINE
  5
C6
330
1F
100
AcDbEntity
  8
STANDARDEBENE
 62
     7
100
AcDbSpline
210
0.0
220
0.0
230
1.0
 70
     8
 71
     3
 72
     8
 73
     4
 74
     0
 42
0.0000000001
 43
0.0000000001
 40
0.0
 40
0.0
 40
0.0
 40
0.0
 40
1.0
 40
1.0
 40
1.0
 40
1.0
 10
50.60693577046612
 20
-29.50691778716607
 30
0.0
 10
50.92853564617185
 20
-29.50691778716607
 30
0.0
 10
51.18950180133744
 20
-29.24577937711257
 30
0.0
 10
51.18950180133744
 20
-28.92349048185525
 30
0.0
  0
SPLINE
  5
C7
330
1F
100
AcDbEntity
  8
STANDARDEBENE
 62
     7
100
AcDbSpline
210
0.0
220
0.0
230
1.0
 70
     8
 71
     3
 72
     8
 73
     4
 74
     0
 42
0.0000000001
 43
0.0000000001
 40
0.0
 40
0.0
 40
0.0
 40
0.0
 40
1.0
 40
1.0
 40
1.0
 40
1.0
 10
42.39692330346762
 20
2.843239179645781
 30
0.0
 10
42.39692330346762
 20
2.850990649601195
 30
0.0
 10
42.39657879369182
 20
2.858225354892915
 30
0.0
 10
42.39502849970074
 20
2.864771040633042
 30
0.0
  0
SPLINE
  5
C8
330
1F
100
AcDbEntity
  8
STANDARDEBENE
 62
     7
100
AcDbSpline
210
0.0
220
0.0
230
1.0
 70
     8
 71
     3
 72
     8
 73
     4
 74
     0
 42
0.0000000001
 43
0.0000000001
 40
0.0
 40
0.0
 40
0.0
 40
0.0
 40
1.0
 40
1.0
 40
1.0
 40
1.0
 10
42.29701546848673
 20
2.742986834889096
 30
0.0
 10
42.35213703261412
 20
2.742986834889096
 30
0.0
 10
42.39692330346762
 20
2.788117615518395
 30
0.0
 10
42.39692330346762
 20
2.843239179645781
 30
0.0
  0
SPLINE
  5
C9
330
1F
100
AcDbEntity
  8
STANDARDEBENE
 62
     7
100
AcDbSpline
210
0.0
220
0.0
230
1.0
 70
     8
 71
     3
 72
    11
 73
     7
 74
     0
 42
0.0000000001
 43
0.0000000001
 40
0.0
 40
0.0
 40
0.0
 40
0.0
 40
1.0
 40
1.0
 40
1.0
 40
2.0
 40
2.0
 40
2.0
 40
2.0
 10
34.94087048079903
 20
2.864771040633042
 30
0.0
 10
34.93949244169585
 20
2.857019570677628
 30
0.0
 10
34.93897567703216
 20
2.849784865385909
 30
0.0
 10
34.93897567703216
 20
2.843239179645781
 30
0.0
 10
34.93897567703216
 20
2.788117615518395
 30
0.0
 10
34.98341743810986
 20
2.742986834889096
 30
0.0
 10
35.03940027667674
 20
2.742986834889096
 30
0.0
  0
SPLINE
  5
CA
330
1F
100
AcDbEntity
  8
STANDARDEBENE
 62
     7
100
AcDbSpline
210
0.0
220
0.0
230
1.0
 70
     8
 71
     3
 72
     8
 73
     4
 74
     0
 42
0.0000000001
 43
0.0000000001
 40
0.0
 40
0.0
 40
0.0
 40
0.0
 40
1.0
 40
1.0
 40
1.0
 40
1.0
 10
42.39502849970074
 20
2.864771040633042
 30
0.0
 10
42.15232136265234
 20
3.977537616454668
 30
0.0
 10
41.20991487096192
 20
4.757680003745092
 30
0.0
 10
40.11161770572374
 20
4.842946173254644
 30
0.0
  0
SPLINE
  5
CB
330
1F
100
AcDbEntity
  8
STANDARDEBENE
 62
     7
100
AcDbSpline
210
0.0
220
0.0
230
1.0
 70
     8
 71
     3
 72
     8
 73
     4
 74
     0
 42
0.0000000001
 43
0.0000000001
 40
0.0
 40
0.0
 40
0.0
 40
0.0
 40
1.0
 40
1.0
 40
1.0
 40
1.0
 10
37.22393676500025
 20
4.842946173254644
 30
0.0
 10
36.08774352442448
 20
4.762158630830442
 30
0.0
 10
35.18202732385635
 20
3.939986050892885
 30
0.0
 10
34.94087048079903
 20
2.864771040633042
 30
0.0
  0
POLYLINE
  5
CC
330
1F
100
AcDbEntity
  8
STANDARDEBENE
 62
     7
100
AcDb2dPolyline
 66
     1
 10
0.0
 20
0.0
 30
0.0
  0
VERTEX
  5
CD
330
CC
100
AcDbEntity
  8
STANDARDEBENE
 62
     7
100
AcDbVertex
100
AcDb2dVertex
 10
37.22393676500025
 20
4.842946173254644
 30
0.0
  0
VERTEX
  5
CE
330
CC
100
AcDbEntity
  8
STANDARDEBENE
 62
     7
100
AcDbVertex
100
AcDb2dVertex
 10
37.33417989325502
 20
4.842946173254644
 30
0.0
  0
VERTEX
  5
CF
330
CC
100
AcDbEntity
  8
STANDARDEBENE
 62
     7
100
AcDbVertex
100
AcDb2dVertex
 10
37.64733927945374
 20
4.842946173254644
 30
0.0
  0
VERTEX
  5
D0
330
CC
100
AcDbEntity
  8
STANDARDEBENE
 62
     7
100
AcDbVertex
100
AcDb2dVertex
 10
38.11570031964863
 20
4.842946173254644
 30
0.0
  0
VERTEX
  5
D1
330
CC
100
AcDbEntity
  8
STANDARDEBENE
 62
     7
100
AcDbVertex
100
AcDb2dVertex
 10
38.66777723536199
 20
4.842946173254644
 30
0.0
  0
VERTEX
  5
D2
330
CC
100
AcDbEntity
  8
STANDARDEBENE
 62
     7
100
AcDbVertex
100
AcDb2dVertex
 10
39.22054317062695
 20
4.842946173254644
 30
0.0
  0
VERTEX
  5
D3
330
CC
100
AcDbEntity
  8
STANDARDEBENE
 62
     7
100
AcDbVertex
100
AcDb2dVertex
 10
39.68821519127025
 20
4.842946173254644
 30
0.0
  0
VERTEX
  5
D4
330
CC
100
AcDbEntity
  8
STANDARDEBENE
 62
     7
100
AcDbVertex
100
AcDb2dVertex
 10
40.00171908724476
 20
4.842946173254644
 30
0.0
  0
VERTEX
  5
D5
330
CC
100
AcDbEntity
  8
STANDARDEBENE
 62
     7
100
AcDbVertex
100
AcDb2dVertex
 10
40.11161770572374
 20
4.842946173254644
 30
0.0
  0
SEQEND
  5
D6
330
CC
100
AcDbEntity
  8
STANDARDEBENE
  0
POLYLINE
  5
D7
330
1F
100
AcDbEntity
  8
STANDARDEBENE
 62
     7
100
AcDb2dPolyline
 66
     1
 10
0.0
 20
0.0
 30
0.0
  0
VERTEX
  5
D8
330
D7
100
AcDbEntity
  8
STANDARDEBENE
 62
     7
100
AcDbVertex
100
AcDb2dVertex
 10
34.56776639361178
 20
2.742986834889096
 30
0.0
  0
VERTEX
  5
D9
330
D7
100
AcDbEntity
  8
STANDARDEBENE
 62
     7
100
AcDbVertex
100
AcDb2dVertex
 10
34.67077481657484
 20
2.742986834889096
 30
0.0
  0
VERTEX
  5
DA
330
D7
100
AcDbEntity
  8
STANDARDEBENE
 62
     7
100
AcDbVertex
100
AcDb2dVertex
 10
34.97394341927547
 20
2.742986834889096
 30
0.0
  0
VERTEX
  5
DB
330
D7
100
AcDbEntity
  8
STANDARDEBENE
 62
     7
100
AcDbVertex
100
AcDb2dVertex
 10
35.46194151669074
 20
2.742986834889096
 30
0.0
  0
VERTEX
  5
DC
330
D7
100
AcDbEntity
  8
STANDARDEBENE
 62
     7
100
AcDbVertex
100
AcDb2dVertex
 10
36.11117018917862
 20
2.742986834889096
 30
0.0
  0
VERTEX
  5
DD
330
D7
100
AcDbEntity
  8
STANDARDEBENE
 62
     7
100
AcDbVertex
100
AcDb2dVertex
 10
36.88890100803847
 20
2.742986834889096
 30
0.0
  0
VERTEX
  5
DE
330
D7
100
AcDbEntity
  8
STANDARDEBENE
 62
     7
100
AcDbVertex
100
AcDb2dVertex
 10
37.75603211371743
 20
2.742986834889096
 30
0.0
  0
VERTEX
  5
DF
330
D7
100
AcDbEntity
  8
STANDARDEBENE
 62
     7
100
AcDbVertex
100
AcDb2dVertex
 10
38.66777723536199
 20
2.742986834889096
 30
0.0
  0
VERTEX
  5
E0
330
D7
100
AcDbEntity
  8
STANDARDEBENE
 62
     7
100
AcDbVertex
100
AcDb2dVertex
 10
39.57986686678235
 20
2.742986834889096
 30
0.0
  0
VERTEX
  5
E1
330
D7
100
AcDbEntity
  8
STANDARDEBENE
 62
     7
100
AcDbVertex
100
AcDb2dVertex
 10
40.44665346268551
 20
2.742986834889096
 30
0.0
  0
VERTEX
  5
E2
330
D7
100
AcDbEntity
  8
STANDARDEBENE
 62
     7
100
AcDbVertex
100
AcDb2dVertex
 10
41.22438428154536
 20
2.742986834889096
 30
0.0
  0
VERTEX
  5
E3
330
D7
100
AcDbEntity
  8
STANDARDEBENE
 62
     7
100
AcDbVertex
100
AcDb2dVertex
 10
41.87326844425744
 20
2.742986834889096
 30
0.0
  0
VERTEX
  5
E4
330
D7
100
AcDbEntity
  8
STANDARDEBENE
 62
     7
100
AcDbVertex
100
AcDb2dVertex
 10
42.36161105144851
 20
2.742986834889096
 30
0.0
  0
VERTEX
  5
E5
330
D7
100
AcDbEntity
  8
STANDARDEBENE
 62
     7
100
AcDbVertex
100
AcDb2dVertex
 10
42.66477965414914
 20
2.742986834889096
 30
0.0
  0
VERTEX
  5
E6
330
D7
100
AcDbEntity
  8
STANDARDEBENE
 62
     7
100
AcDbVertex
100
AcDb2dVertex
 10
42.76813258688799
 20
2.742986834889096
 30
0.0
  0
SEQEND
  5
E7
330
D7
100
AcDbEntity
  8
STANDARDEBENE
  0
POLYLINE
  5
E8
330
1F
100
AcDbEntity
  8
STANDARDEBENE
 62
     7
100
AcDb2dPolyline
 66
     1
 10
0.0
 20
0.0
 30
0.0
  0
VERTEX
  5
E9
330
E8
100
AcDbEntity
  8
STANDARDEBENE
 62
     7
100
AcDbVertex
100
AcDb2dVertex
 10
42.90369718366379
 20
2.343010985189744
 30
0.0
  0
VERTEX
  5
EA
330
E8
100
AcDbEntity
  8
STANDARDEBENE
 62
     7
100
AcDbVertex
100
AcDb2dVertex
 10
42.48150045342558
 20
2.343010985189744
 30
0.0
  0
VERTEX
  5
EB
330
E8
100
AcDbEntity
  8
STANDARDEBENE
 62
     7
100
AcDbVertex
100
AcDb2dVertex
 10
41.88325922775553
 20
2.343010985189744
 30
0.0
  0
VERTEX
  5
EC
330
E8
100
AcDbEntity
  8
STANDARDEBENE
 62
     7
100
AcDbVertex
100
AcDb2dVertex
 10
41.13670654360524
 20
2.343010985189744
 30
0.0
  0
VERTEX
  5
ED
330
E8
100
AcDbEntity
  8
STANDARDEBENE
 62
     7
100
AcDbVertex
100
AcDb2dVertex
 10
40.2766378883301
 20
2.343010985189744
 30
0.0
  0
VERTEX
  5
EE
330
E8
100
AcDbEntity
  8
STANDARDEBENE
 62
     7
100
AcDbVertex
100
AcDb2dVertex
 10
39.34215512148299
 20
2.343010985189744
 30
0.0
  0
VERTEX
  5
EF
330
E8
100
AcDbEntity
  8
STANDARDEBENE
 62
     7
100
AcDbVertex
100
AcDb2dVertex
 10
38.37718323947792
 20
2.343010985189744
 30
0.0
  0
VERTEX
  5
F0
330
E8
100
AcDbEntity
  8
STANDARDEBENE
 62
     7
100
AcDbVertex
100
AcDb2dVertex
 10
37.42530272895311
 20
2.343010985189744
 30
0.0
  0
VERTEX
  5
F1
330
E8
100
AcDbEntity
  8
STANDARDEBENE
 62
     7
100
AcDbVertex
100
AcDb2dVertex
 10
36.53026633143466
 20
2.343010985189744
 30
0.0
  0
VERTEX
  5
F2
330
E8
100
AcDbEntity
  8
STANDARDEBENE
 62
     7
100
AcDbVertex
100
AcDb2dVertex
 10
35.73410423956972
 20
2.343010985189744
 30
0.0
  0
VERTEX
  5
F3
330
E8
100
AcDbEntity
  8
STANDARDEBENE
 62
     7
100
AcDbVertex
100
AcDb2dVertex
 10
35.07333448959266
 20
2.343010985189744
 30
0.0
  0
VERTEX
  5
F4
330
E8
100
AcDbEntity
  8
STANDARDEBENE
 62
     7
100
AcDbVertex
100
AcDb2dVertex
 10
34.57810168688567
 20
2.343010985189744
 30
0.0
  0
VERTEX
  5
F5
330
E8
100
AcDbEntity
  8
STANDARDEBENE
 62
     7
100
AcDbVertex
100
AcDb2dVertex
 10
34.27148798642708
 20
2.343010985189744
 30
0.0
  0
VERTEX
  5
F6
330
E8
100
AcDbEntity
  8
STANDARDEBENE
 62
     7
100
AcDbVertex
100
AcDb2dVertex
 10
34.16779054391243
 20
2.343010985189744
 30
0.0
  0
SEQEND
  5
F7
330
E8
100
AcDbEntity
  8
STANDARDEBENE
  0
POLYLINE
  5
F8
330
1F
100
AcDbEntity
  8
STANDARDEBENE
 62
     7
100
AcDb2dPolyline
 66
     1
 10
0.0
 20
0.0
 30
0.0
  0
VERTEX
  5
F9
330
F8
100
AcDbEntity
  8
STANDARDEBENE
 62
     7
100
AcDbVertex
100
AcDb2dVertex
 10
50.60693577046612
 20
-29.50691778716607
 30
0.0
  0
VERTEX
  5
FA
330
F8
100
AcDbEntity
  8
STANDARDEBENE
 62
     7
100
AcDbVertex
100
AcDb2dVertex
 10
50.49979323019351
 20
-29.50691778716607
 30
0.0
  0
VERTEX
  5
FB
330
F8
100
AcDbEntity
  8
STANDARDEBENE
 62
     7
100
AcDbVertex
100
AcDb2dVertex
 10
50.18008815825467
 20
-29.50691778716607
 30
0.0
  0
VERTEX
  5
FC
330
F8
100
AcDbEntity
  8
STANDARDEBENE
 62
     7
100
AcDbVertex
100
AcDb2dVertex
 10
49.65264369151073
 20
-29.50691778716607
 30
0.0
  0
VERTEX
  5
FD
330
F8
100
AcDbEntity
  8
STANDARDEBENE
 62
     7
100
AcDbVertex
100
AcDb2dVertex
 10
48.92452228036553
 20
-29.50691778716607
 30
0.0
  0
VERTEX
  5
FE
330
F8
100
AcDbEntity
  8
STANDARDEBENE
 62
     7
100
AcDbVertex
100
AcDb2dVertex
 10
48.00433666921396
 20
-29.50691778716607
 30
0.0
  0
VERTEX
  5
FF
330
F8
100
AcDbEntity
  8
STANDARDEBENE
 62
     7
100
AcDbVertex
100
AcDb2dVertex
 10
46.90621175886368
 20
-29.50691778716607
 30
0.0
  0
VERTEX
  5
100
330
F8
100
AcDbEntity
  8
STANDARDEBENE
 62
     7
100
AcDbVertex
100
AcDb2dVertex
 10
45.64375568545861
 20
-29.50691778716607
 30
0.0
  0
VERTEX
  5
101
330
F8
100
AcDbEntity
  8
STANDARDEBENE
 62
     7
100
AcDbVertex
100
AcDb2dVertex
 10
44.23505521222808
 20
-29.50691778716607
 30
0.0
  0
VERTEX
  5
102
330
F8
100
AcDbEntity
  8
STANDARDEBENE
 62
     7
100
AcDbVertex
100
AcDb2dVertex
 10
42.69819710240137
 20
-29.50691778716607
 30
0.0
  0
VERTEX
  5
103
330
F8
100
AcDbEntity
  8
STANDARDEBENE
 62
     7
100
AcDbVertex
100
AcDb2dVertex
 10
41.05488547185364
 20
-29.50691778716607
 30
0.0
  0
VERTEX
  5
104
330
F8
100
AcDbEntity
  8
STANDARDEBENE
 62
     7
100
AcDbVertex
100
AcDb2dVertex
 10
39.32647992668426
 20
-29.50691778716607
 30
0.0
  0
VERTEX
  5
105
330
F8
100
AcDbEntity
  8
STANDARDEBENE
 62
     7
100
AcDbVertex
100
AcDb2dVertex
 10
37.53623487675947
 20
-29.50691778716607
 30
0.0
  0
VERTEX
  5
106
330
F8
100
AcDbEntity
  8
STANDARDEBENE
 62
     7
100
AcDbVertex
100
AcDb2dVertex
 10
35.70964404548819
 20
-29.50691778716607
 30
0.0
  0
VERTEX
  5
107
330
F8
100
AcDbEntity
  8
STANDARDEBENE
 62
     7
100
AcDbVertex
100
AcDb2dVertex
 10
33.87030635251244
 20
-29.50691778716607
 30
0.0
  0
VERTEX
  5
108
330
F8
100
AcDbEntity
  8
STANDARDEBENE
 62
     7
100
AcDbVertex
100
AcDb2dVertex
 10
32.04354326635325
 20
-29.50691778716607
 30
0.0
  0
VERTEX
  5
109
330
F8
100
AcDbEntity
  8
STANDARDEBENE
 62
     7
100
AcDbVertex
100
AcDb2dVertex
 10
30.25329821642847
 20
-29.50691778716607
 30
0.0
  0
VERTEX
  5
10A
330
F8
100
AcDbEntity
  8
STANDARDEBENE
 62
     7
100
AcDbVertex
100
AcDb2dVertex
 10
28.52506492614699
 20
-29.50691778716607
 30
0.0
  0
VERTEX
  5
10B
330
F8
100
AcDbEntity
  8
STANDARDEBENE
 62
     7
100
AcDbVertex
100
AcDb2dVertex
 10
26.88175329559926
 20
-29.50691778716607
 30
0.0
  0
VERTEX
  5
10C
330
F8
100
AcDbEntity
  8
STANDARDEBENE
 62
     7
100
AcDbVertex
100
AcDb2dVertex
 10
25.34489518577255
 20
-29.50691778716607
 30
0.0
  0
VERTEX
  5
10D
330
F8
100
AcDbEntity
  8
STANDARDEBENE
 62
     7
100
AcDbVertex
100
AcDb2dVertex
 10
23.93585020276622
 20
-29.50691778716607
 30
0.0
  0
VERTEX
  5
10E
330
F8
100
AcDbEntity
  8
STANDARDEBENE
 62
     7
100
AcDbVertex
100
AcDb2dVertex
 10
22.67373863913695
 20
-29.50691778716607
 30
0.0
  0
VERTEX
  5
10F
330
F8
100
AcDbEntity
  8
STANDARDEBENE
 62
     7
100
AcDbVertex
100
AcDb2dVertex
 10
21.57509696412297
 20
-29.50691778716607
 30
0.0
  0
VERTEX
  5
110
330
F8
100
AcDbEntity
  8
STANDARDEBENE
 62
     7
100
AcDbVertex
100
AcDb2dVertex
 10
20.6552558627472
 20
-29.50691778716607
 30
0.0
  0
VERTEX
  5
111
330
F8
100
AcDbEntity
  8
STANDARDEBENE
 62
     7
100
AcDbVertex
100
AcDb2dVertex
 10
19.927134451602
 20
-29.50691778716607
 30
0.0
  0
VERTEX
  5
112
330
F8
100
AcDbEntity
  8
STANDARDEBENE
 62
     7
100
AcDbVertex
100
AcDb2dVertex
 10
19.39968998485806
 20
-29.50691778716607
 30
0.0
  0
VERTEX
  5
113
330
F8
100
AcDbEntity
  8
STANDARDEBENE
 62
     7
100
AcDbVertex
100
AcDb2dVertex
 10
19.08015716780712
 20
-29.50691778716607
 30
0.0
  0
VERTEX
  5
114
330
F8
100
AcDbEntity
  8
STANDARDEBENE
 62
     7
100
AcDbVertex
100
AcDb2dVertex
 10
18.97301462753451
 20
-29.50691778716607
 30
0.0
  0
SEQEND
  5
115
330
F8
100
AcDbEntity
  8
STANDARDEBENE
  0
SPLINE
  5
116
330
1F
100
AcDbEntity
  8
STANDARDEBENE
 62
     7
100
AcDbSpline
210
0.0
220
0.0
230
1.0
 70
    11
 71
     3
 72
    17
 73
    13
 74
     0
 42
0.0000000001
 43
0.0000000001
 40
0.0
 40
0.0
 40
0.0
 40
0.0
 40
1.0
 40
1.0
 40
1.0
 40
2.0
 40
2.0
 40
2.0
 40
3.0
 40
3.0
 40
3.0
 40
4.0
 40
4.0
 40
4.0
 40
4.0
 10
42.39692330346762
 20
-122.7757048786871
 30
0.0
 10
42.39692330346762
 20
-120.7169144585292
 30
0.0
 10
40.72760118484729
 20
-119.0470755752451
 30
0.0
 10
38.66777723536199
 20
-119.0470755752451
 30
0.0
 10
36.6082977956525
 20
-119.0470755752451
 30
0.0
 10
34.93897567703216
 20
-120.7169144585292
 30
0.0
 10
34.93897567703216
 20
-122.7757048786871
 30
0.0
 10
34.93897567703216
 20
-124.8355288281724
 30
0.0
 10
36.6082977956525
 20
-126.5046786919048
 30
0.0
 10
38.66777723536199
 20
-126.5046786919048
 30
0.0
 10
40.72760118484729
 20
-126.5046786919048
 30
0.0
 10
42.39692330346762
 20
-124.8355288281724
 30
0.0
 10
42.39692330346762
 20
-122.7757048786871
 30
0.0
  0
SPLINE
  5
117
330
1F
100
AcDbEntity
  8
STANDARDEBENE
 62
     7
100
AcDbSpline
210
0.0
220
0.0
230
1.0
 70
     8
 71
     3
 72
    17
 73
    13
 74
     0
 42
0.0000000001
 43
0.0000000001
 40
0.0
 40
0.0
 40
0.0
 40
0.0
 40
1.0
 40
1.0
 40
1.0
 40
2.0
 40
2.0
 40
2.0
 40
3.0
 40
3.0
 40
3.0
 40
4.0
 40
4.0
 40
4.0
 40
4.0
 10
48.06634842885727
 20
-123.2280462143074
 30
0.0
 10
47.79987011727894
 20
-123.1567326907176
 30
0.0
 10
47.53115249215792
 20
-123.1229707326896
 30
0.0
 10
47.2899956491006
 20
-123.1253823011202
 30
0.0
 10
45.63290362752104
 20
-123.1253823011202
 30
0.0
 10
44.28983226657967
 20
-124.4689704267252
 30
0.0
 10
44.28983226657967
 20
-126.125717938529
 30
0.0
 10
44.28983226657967
 20
-127.7824654503328
 30
0.0
 10
45.63290362752104
 20
-129.1253645563862
 30
0.0
 10
47.2899956491006
 20
-129.1253645563862
 30
0.0
 10
48.67044632071585
 20
-129.1253645563862
 30
0.0
 10
49.83368357869162
 20
-128.192776593306
 30
0.0
 10
50.18732286354638
 20
-126.9018984633978
 30
0.0
  0
SPLINE
  5
118
330
1F
100
AcDbEntity
  8
STANDARDEBENE
 62
     7
100
AcDbSpline
210
0.0
220
0.0
230
1.0
 70
    11
 71
     3
 72
    17
 73
    13
 74
     0
 42
0.0000000001
 43
0.0000000001
 40
0.0
 40
0.0
 40
0.0
 40
0.0
 40
1.0
 40
1.0
 40
1.0
 40
2.0
 40
2.0
 40
2.0
 40
3.0
 40
3.0
 40
3.0
 40
4.0
 40
4.0
 40
4.0
 40
4.0
 10
40.11161770572374
 20
-122.7757048786871
 30
0.0
 10
40.11161770572374
 20
-121.9778202379431
 30
0.0
 10
39.46548962121802
 20
-121.3315198985495
 30
0.0
 10
38.66777723536199
 20
-121.3315198985495
 30
0.0
 10
37.87040935928176
 20
-121.3315198985495
 30
0.0
 10
37.22393676500025
 20
-121.9778202379431
 30
0.0
 10
37.22393676500025
 20
-122.7757048786871
 30
0.0
 10
37.22393676500025
 20
-123.5732450096552
 30
0.0
 10
37.87040935928176
 20
-124.2195453490488
 30
0.0
 10
38.66777723536199
 20
-124.2195453490488
 30
0.0
 10
39.46548962121802
 20
-124.2195453490488
 30
0.0
 10
40.11161770572374
 20
-123.5732450096552
 30
0.0
 10
40.11161770572374
 20
-122.7757048786871
 30
0.0
  0
SPLINE
  5
119
330
1F
100
AcDbEntity
  8
STANDARDEBENE
 62
     7
100
AcDbSpline
210
0.0
220
0.0
230
1.0
 70
    11
 71
     3
 72
    17
 73
    13
 74
     0
 42
0.0000000001
 43
0.0000000001
 40
0.0
 40
0.0
 40
0.0
 40
0.0
 40
1.0
 40
1.0
 40
1.0
 40
2.0
 40
2.0
 40
2.0
 40
3.0
 40
3.0
 40
3.0
 40
4.0
 40
4.0
 40
4.0
 40
4.0
 10
38.67277262711104
 20
-122.7757048786871
 30
0.0
 10
38.67277262711104
 20
-122.7732933102565
 30
0.0
 10
38.67087782334416
 20
-122.7708817418259
 30
0.0
 10
38.66777723536199
 20
-122.7708817418259
 30
0.0
 10
38.66553792181931
 20
-122.7708817418259
 30
0.0
 10
38.66243733383715
 20
-122.7732933102565
 30
0.0
 10
38.66243733383715
 20
-122.7757048786871
 30
0.0
 10
38.66243733383715
 20
-122.7784609568934
 30
0.0
 10
38.66553792181931
 20
-122.780872525324
 30
0.0
 10
38.66777723536199
 20
-122.780872525324
 30
0.0
 10
38.67087782334416
 20
-122.780872525324
 30
0.0
 10
38.67277262711104
 20
-122.7784609568934
 30
0.0
 10
38.67277262711104
 20
-122.7757048786871
 30
0.0
  0
POLYLINE
  5
11A
330
1F
100
AcDbEntity
  8
STANDARDEBENE
 62
     7
100
AcDb2dPolyline
 66
     1
 10
0.0
 20
0.0
 30
0.0
  0
VERTEX
  5
11B
330
11A
100
AcDbEntity
  8
STANDARDEBENE
 62
     7
100
AcDbVertex
100
AcDb2dVertex
 10
38.72203752504988
 20
-121.3339314669801
 30
0.0
  0
VERTEX
  5
11C
330
11A
100
AcDbEntity
  8
STANDARDEBENE
 62
     7
100
AcDbVertex
100
AcDb2dVertex
 10
38.53996410854161
 20
-121.4297051846514
 30
0.0
  0
VERTEX
  5
11D
330
11A
100
AcDbEntity
  8
STANDARDEBENE
 62
     7
100
AcDbVertex
100
AcDb2dVertex
 10
38.22215384036965
 20
-121.5981704650158
 30
0.0
  0
VERTEX
  5
11E
330
11A
100
AcDbEntity
  8
STANDARDEBENE
 62
     7
100
AcDbVertex
100
AcDb2dVertex
 10
37.89263023982061
 20
-121.7711143724654
 30
0.0
  0
VERTEX
  5
11F
330
11A
100
AcDbEntity
  8
STANDARDEBENE
 62
     7
100
AcDbVertex
100
AcDb2dVertex
 10
37.44631782527667
 20
-122.00675905911
 30
0.0
  0
SEQEND
  5
120
330
11A
100
AcDbEntity
  8
STANDARDEBENE
  0
POLYLINE
  5
121
330
1F
100
AcDbEntity
  8
STANDARDEBENE
 62
     7
100
AcDb2dPolyline
 66
     1
 10
0.0
 20
0.0
 30
0.0
  0
VERTEX
  5
122
330
121
100
AcDbEntity
  8
STANDARDEBENE
 62
     7
100
AcDbVertex
100
AcDb2dVertex
 10
38.6130001810104
 20
-124.2178228001698
 30
0.0
  0
VERTEX
  5
123
330
121
100
AcDbEntity
  8
STANDARDEBENE
 62
     7
100
AcDbVertex
100
AcDb2dVertex
 10
38.45487019391996
 20
-124.1189484945163
 30
0.0
  0
VERTEX
  5
124
330
121
100
AcDbEntity
  8
STANDARDEBENE
 62
     7
100
AcDbVertex
100
AcDb2dVertex
 10
38.29346736395945
 20
-124.0166290911049
 30
0.0
  0
VERTEX
  5
125
330
121
100
AcDbEntity
  8
STANDARDEBENE
 62
     7
100
AcDbVertex
100
AcDb2dVertex
 10
38.1275859069136
 20
-123.9122426290386
 30
0.0
  0
VERTEX
  5
126
330
121
100
AcDbEntity
  8
STANDARDEBENE
 62
     7
100
AcDbVertex
100
AcDb2dVertex
 10
37.95963739121296
 20
-123.806822637645
 30
0.0
  0
VERTEX
  5
127
330
121
100
AcDbEntity
  8
STANDARDEBENE
 62
     7
100
AcDbVertex
100
AcDb2dVertex
 10
37.67524457129323
 20
-123.627677554231
 30
0.0
  0
VERTEX
  5
128
330
121
100
AcDbEntity
  8
STANDARDEBENE
 62
     7
100
AcDbVertex
100
AcDb2dVertex
 10
37.39188528070088
 20
-123.4499105099202
 30
0.0
  0
SEQEND
  5
129
330
121
100
AcDbEntity
  8
STANDARDEBENE
  0
POLYLINE
  5
12A
330
1F
100
AcDbEntity
  8
STANDARDEBENE
 62
     7
100
AcDb2dPolyline
 66
     1
 10
0.0
 20
0.0
 30
0.0
  0
VERTEX
  5
12B
330
12A
100
AcDbEntity
  8
STANDARDEBENE
 62
     7
100
AcDbVertex
100
AcDb2dVertex
 10
39.8899256649989
 20
-123.5432726591609
 30
0.0
  0
VERTEX
  5
12C
330
12A
100
AcDbEntity
  8
STANDARDEBENE
 62
     7
100
AcDbVertex
100
AcDb2dVertex
 10
39.70699097405114
 20
-123.6407689257112
 30
0.0
  0
VERTEX
  5
12D
330
12A
100
AcDbEntity
  8
STANDARDEBENE
 62
     7
100
AcDbVertex
100
AcDb2dVertex
 10
39.38935296076707
 20
-123.8082006767482
 30
0.0
  0
VERTEX
  5
12E
330
12A
100
AcDbEntity
  8
STANDARDEBENE
 62
     7
100
AcDbVertex
100
AcDb2dVertex
 10
39.06086288954542
 20
-123.9821781135253
 30
0.0
  0
VERTEX
  5
12F
330
12A
100
AcDbEntity
  8
STANDARDEBENE
 62
     7
100
AcDbVertex
100
AcDb2dVertex
 10
38.6130001810104
 20
-124.2178228001698
 30
0.0
  0
SEQEND
  5
130
330
12A
100
AcDbEntity
  8
STANDARDEBENE
  0
POLYLINE
  5
131
330
1F
100
AcDbEntity
  8
STANDARDEBENE
 62
     7
100
AcDb2dPolyline
 66
     1
 10
0.0
 20
0.0
 30
0.0
  0
VERTEX
  5
132
330
131
100
AcDbEntity
  8
STANDARDEBENE
 62
     7
100
AcDbVertex
100
AcDb2dVertex
 10
39.94435820957469
 20
-122.1018437572298
 30
0.0
  0
VERTEX
  5
133
330
131
100
AcDbEntity
  8
STANDARDEBENE
 62
     7
100
AcDbVertex
100
AcDb2dVertex
 10
39.78553920293266
 20
-122.0015914124731
 30
0.0
  0
VERTEX
  5
134
330
131
100
AcDbEntity
  8
STANDARDEBENE
 62
     7
100
AcDbVertex
100
AcDb2dVertex
 10
39.62396411808426
 20
-121.9006500481648
 30
0.0
  0
VERTEX
  5
135
330
131
100
AcDbEntity
  8
STANDARDEBENE
 62
     7
100
AcDbVertex
100
AcDb2dVertex
 10
39.4582549159263
 20
-121.7962635860985
 30
0.0
  0
VERTEX
  5
136
330
131
100
AcDbEntity
  8
STANDARDEBENE
 62
     7
100
AcDbVertex
100
AcDb2dVertex
 10
39.28978963556197
 20
-121.6898100653775
 30
0.0
  0
VERTEX
  5
137
330
131
100
AcDbEntity
  8
STANDARDEBENE
 62
     7
100
AcDbVertex
100
AcDb2dVertex
 10
39.00574132541804
 20
-121.5116985112909
 30
0.0
  0
VERTEX
  5
138
330
131
100
AcDbEntity
  8
STANDARDEBENE
 62
     7
100
AcDbVertex
100
AcDb2dVertex
 10
38.72203752504988
 20
-121.3339314669801
 30
0.0
  0
SEQEND
  5
139
330
131
100
AcDbEntity
  8
STANDARDEBENE
  0
POLYLINE
  5
13A
330
1F
100
AcDbEntity
  8
STANDARDEBENE
 62
     7
100
AcDb2dPolyline
 66
     1
 10
0.0
 20
0.0
 30
0.0
  0
VERTEX
  5
13B
330
13A
100
AcDbEntity
  8
STANDARDEBENE
 62
     7
100
AcDbVertex
100
AcDb2dVertex
 10
39.94435820957469
 20
-122.1018437572298
 30
0.0
  0
VERTEX
  5
13C
330
13A
100
AcDbEntity
  8
STANDARDEBENE
 62
     7
100
AcDbVertex
100
AcDb2dVertex
 10
39.93746801405877
 20
-122.2892570752629
 30
0.0
  0
VERTEX
  5
13D
330
13A
100
AcDbEntity
  8
STANDARDEBENE
 62
     7
100
AcDbVertex
100
AcDb2dVertex
 10
39.92988879899126
 20
-122.480115491054
 30
0.0
  0
VERTEX
  5
13E
330
13A
100
AcDbEntity
  8
STANDARDEBENE
 62
     7
100
AcDbVertex
100
AcDb2dVertex
 10
39.92213732903584
 20
-122.6751080241546
 30
0.0
  0
VERTEX
  5
13F
330
13A
100
AcDbEntity
  8
STANDARDEBENE
 62
     7
100
AcDbVertex
100
AcDb2dVertex
 10
39.91524713351992
 20
-122.8742346745648
 30
0.0
  0
VERTEX
  5
140
330
13A
100
AcDbEntity
  8
STANDARDEBENE
 62
     7
100
AcDbVertex
100
AcDb2dVertex
 10
39.90232801692756
 20
-123.2097871961902
 30
0.0
  0
VERTEX
  5
141
330
13A
100
AcDbEntity
  8
STANDARDEBENE
 62
     7
100
AcDbVertex
100
AcDb2dVertex
 10
39.8899256649989
 20
-123.5432726591609
 30
0.0
  0
SEQEND
  5
142
330
13A
100
AcDbEntity
  8
STANDARDEBENE
  0
POLYLINE
  5
143
330
1F
100
AcDbEntity
  8
STANDARDEBENE
 62
     7
100
AcDb2dPolyline
 66
     1
 10
0.0
 20
0.0
 30
0.0
  0
VERTEX
  5
144
330
143
100
AcDbEntity
  8
STANDARDEBENE
 62
     7
100
AcDbVertex
100
AcDb2dVertex
 10
37.44631782527667
 20
-122.00675905911
 30
0.0
  0
VERTEX
  5
145
330
143
100
AcDbEntity
  8
STANDARDEBENE
 62
     7
100
AcDbVertex
100
AcDb2dVertex
 10
37.43908311998496
 20
-122.1945168869189
 30
0.0
  0
VERTEX
  5
146
330
143
100
AcDbEntity
  8
STANDARDEBENE
 62
     7
100
AcDbVertex
100
AcDb2dVertex
 10
37.43219292446904
 20
-122.3857198124858
 30
0.0
  0
VERTEX
  5
147
330
143
100
AcDbEntity
  8
STANDARDEBENE
 62
     7
100
AcDbVertex
100
AcDb2dVertex
 10
37.42409694473782
 20
-122.5810568553622
 30
0.0
  0
VERTEX
  5
148
330
143
100
AcDbEntity
  8
STANDARDEBENE
 62
     7
100
AcDbVertex
100
AcDb2dVertex
 10
37.4168622394461
 20
-122.7801835057724
 30
0.0
  0
VERTEX
  5
149
330
143
100
AcDbEntity
  8
STANDARDEBENE
 62
     7
100
AcDbVertex
100
AcDb2dVertex
 10
37.40411537774165
 20
-123.1160805371737
 30
0.0
  0
VERTEX
  5
14A
330
143
100
AcDbEntity
  8
STANDARDEBENE
 62
     7
100
AcDbVertex
100
AcDb2dVertex
 10
37.39188528070088
 20
-123.4499105099202
 30
0.0
  0
SEQEND
  5
14B
330
143
100
AcDbEntity
  8
STANDARDEBENE
  0
SPLINE
  5
14C
330
1F
100
AcDbEntity
  8
STANDARDEBENE
 62
     7
100
AcDbSpline
210
0.0
220
0.0
230
1.0
 70
    11
 71
     3
 72
    17
 73
    13
 74
     0
 42
0.0000000001
 43
0.0000000001
 40
0.0
 40
0.0
 40
0.0
 40
0.0
 40
1.0
 40
1.0
 40
1.0
 40
2.0
 40
2.0
 40
2.0
 40
3.0
 40
3.0
 40
3.0
 40
4.0
 40
4.0
 40
4.0
 40
4.0
 10
42.76813258688799
 20
-122.7757048786871
 30
0.0
 10
42.76813258688799
 20
-120.5115866321546
 30
0.0
 10
40.93189548189441
 20
-118.6760385467126
 30
0.0
 10
38.66777723536199
 20
-118.6760385467126
 30
0.0
 10
36.40314222416588
 20
-118.6760385467126
 30
0.0
 10
34.56776639361178
 20
-120.5115866321546
 30
0.0
 10
34.56776639361178
 20
-122.7757048786871
 30
0.0
 10
34.56776639361178
 20
-125.0408566545469
 30
0.0
 10
36.40314222416588
 20
-126.8750267008857
 30
0.0
 10
38.66777723536199
 20
-126.8750267008857
 30
0.0
 10
40.93189548189441
 20
-126.8750267008857
 30
0.0
 10
42.76813258688799
 20
-125.0408566545469
 30
0.0
 10
42.76813258688799
 20
-122.7757048786871
 30
0.0
  0
SPLINE
  5
14D
330
1F
100
AcDbEntity
  8
STANDARDEBENE
 62
     7
100
AcDbSpline
210
0.0
220
0.0
230
1.0
 70
    11
 71
     3
 72
    17
 73
    13
 74
     0
 42
0.0000000001
 43
0.0000000001
 40
0.0
 40
0.0
 40
0.0
 40
0.0
 40
1.0
 40
1.0
 40
1.0
 40
2.0
 40
2.0
 40
2.0
 40
3.0
 40
3.0
 40
3.0
 40
4.0
 40
4.0
 40
4.0
 40
4.0
 10
43.16828069147525
 20
-122.7757048786871
 30
0.0
 10
43.16828069147525
 20
-120.2911003756451
 30
0.0
 10
41.15324301284345
 20
-118.2764072067891
 30
0.0
 10
38.66777723536199
 20
-118.2764072067891
 30
0.0
 10
36.18231145788053
 20
-118.2764072067891
 30
0.0
 10
34.16779054391243
 20
-120.2911003756451
 30
0.0
 10
34.16779054391243
 20
-122.7757048786871
 30
0.0
 10
34.16779054391243
 20
-125.2613429110564
 30
0.0
 10
36.18231145788053
 20
-127.2756915701366
 30
0.0
 10
38.66777723536199
 20
-127.2756915701366
 30
0.0
 10
41.15324301284345
 20
-127.2756915701366
 30
0.0
 10
43.16828069147525
 20
-125.2613429110564
 30
0.0
 10
43.16828069147525
 20
-122.7757048786871
 30
0.0
  0
POLYLINE
  5
14E
330
1F
100
AcDbEntity
  8
STANDARDEBENE
  6
AI-LINETYPE-1
 62
   250
100
AcDb2dPolyline
 66
     1
 10
0.0
 20
0.0
 30
0.0
  0
VERTEX
  5
14F
330
14E
100
AcDbEntity
  8
STANDARDEBENE
  6
AI-LINETYPE-1
 62
   250
100
AcDbVertex
100
AcDb2dVertex
 10
142.5226607175477
 20
-84.79332984227155
 30
0.0
  0
VERTEX
  5
150
330
14E
100
AcDbEntity
  8
STANDARDEBENE
  6
AI-LINETYPE-1
 62
   250
100
AcDbVertex
100
AcDb2dVertex
 10
142.5226607175477
 20
6.369641244695366
 30
0.0
  0
SEQEND
  5
151
330
14E
100
AcDbEntity
  8
STANDARDEBENE
  6
AI-LINETYPE-1
  0
POLYLINE
  5
153
330
1F
100
AcDbEntity
  8
STANDARDEBENE
  6
AI-LINETYPE-2
 62
   250
100
AcDb2dPolyline
 66
     1
 10
0.0
 20
0.0
 30
0.0
  0
VERTEX
  5
154
330
153
100
AcDbEntity
  8
STANDARDEBENE
  6
AI-LINETYPE-2
 62
   250
100
AcDbVertex
100
AcDb2dVertex
 10
34.79014745388821
 20
-88.38208817674024
 30
0.0
  0
VERTEX
  5
155
330
153
100
AcDbEntity
  8
STANDARDEBENE
  6
AI-LINETYPE-2
 62
   250
100
AcDbVertex
100
AcDb2dVertex
 10
34.79014745388821
 20
6.683489650445676
 30
0.0
  0
SEQEND
  5
156
330
153
100
AcDbEntity
  8
STANDARDEBENE
  6
AI-LINETYPE-2
  0
POLYLINE
  5
158
330
1F
100
AcDbEntity
  8
STANDARDEBENE
  6
AI-LINETYPE-3
 62
   250
100
AcDb2dPolyline
 66
     1
 10
0.0
 20
0.0
 30
0.0
  0
VERTEX
  5
159
330
158
100
AcDbEntity
  8
STANDARDEBENE
  6
AI-LINETYPE-3
 62
   250
100
AcDbVertex
100
AcDb2dVertex
 10
34.30852278732517
 20
-184.4463998439593
 30
0.0
  0
VERTEX
  5
15A
330
158
100
AcDbEntity
  8
STANDARDEBENE
  6
AI-LINETYPE-3
 62
   250
100
AcDbVertex
100
AcDb2dVertex
 10
34.30852278732517
 20
-110.4016027516403
 30
0.0
  0
SEQEND
  5
15B
330
158
100
AcDbEntity
  8
STANDARDEBENE
  6
AI-LINETYPE-3
  0
POLYLINE
  5
15D
330
1F
100
AcDbEntity
  8
STANDARDEBENE
  6
AI-LINETYPE-4
 62
   250
100
AcDb2dPolyline
 66
     1
 10
0.0
 20
0.0
 30
0.0
  0
VERTEX
  5
15E
330
15D
100
AcDbEntity
  8
STANDARDEBENE
  6
AI-LINETYPE-4
 62
   250
100
AcDbVertex
100
AcDb2dVertex
 10
-1.266934700490411
 20
-147.5004824680265
 30
0.0
  0
VERTEX
  5
15F
330
15D
100
AcDbEntity
  8
STANDARDEBENE
  6
AI-LINETYPE-4
 62
   250
100
AcDbVertex
100
AcDb2dVertex
 10
70.89477195732671
 20
-147.5004824680265
 30
0.0
  0
SEQEND
  5
160
330
15D
100
AcDbEntity
  8
STANDARDEBENE
  6
AI-LINETYPE-4
  0
POLYLINE
  5
162
330
1F
100
AcDbEntity
  8
STANDARDEBENE
 62
   250
100
AcDb2dPolyline
 66
     1
 10
0.0
 20
0.0
 30
0.0
  0
VERTEX
  5
163
330
162
100
AcDbEntity
  8
STANDARDEBENE
 62
   250
100
AcDbVertex
100
AcDb2dVertex
 10
176.2470671800104
 20
-28.05687614083999
 30
0.0
  0
VERTEX
  5
164
330
162
100
AcDbEntity
  8
STANDARDEBENE
 62
   250
100
AcDbVertex
100
AcDb2dVertex
 10
176.2470671800104
 20
1.943724155041985
 30
0.0
  0
SEQEND
  5
165
330
162
100
AcDbEntity
  8
STANDARDEBENE
  0
POLYLINE
  5
166
330
1F
100
AcDbEntity
  8
STANDARDEBENE
 62
   250
100
AcDb2dPolyline
 66
     1
 10
0.0
 20
0.0
 30
0.0
  0
VERTEX
  5
167
330
166
100
AcDbEntity
  8
STANDARDEBENE
 62
   250
100
AcDbVertex
100
AcDb2dVertex
 10
108.247038613811
 20
1.943724155041985
 30
0.0
  0
VERTEX
  5
168
330
166
100
AcDbEntity
  8
STANDARDEBENE
 62
   250
100
AcDbVertex
100
AcDb2dVertex
 10
108.247038613811
 20
-28.05687614083999
 30
0.0
  0
SEQEND
  5
169
330
166
100
AcDbEntity
  8
STANDARDEBENE
  0
POLYLINE
  5
16A
330
1F
100
AcDbEntity
  8
STANDARDEBENE
 62
   250
100
AcDb2dPolyline
 66
     1
 10
0.0
 20
0.0
 30
0.0
  0
VERTEX
  5
16B
330
16A
100
AcDbEntity
  8
STANDARDEBENE
 62
   250
100
AcDbVertex
100
AcDb2dVertex
 10
127.5213270402793
 20
-81.0566045590984
 30
0.0
  0
VERTEX
  5
16C
330
16A
100
AcDbEntity
  8
STANDARDEBENE
 62
   250
100
AcDbVertex
100
AcDb2dVertex
 10
128.0573842514181
 20
-83.05665606248306
 30
0.0
  0
SEQEND
  5
16D
330
16A
100
AcDbEntity
  8
STANDARDEBENE
  0
POLYLINE
  5
16E
330
1F
100
AcDbEntity
  8
STANDARDEBENE
 62
   250
100
AcDb2dPolyline
 66
     1
 10
0.0
 20
0.0
 30
0.0
  0
VERTEX
  5
16F
330
16E
100
AcDbEntity
  8
STANDARDEBENE
 62
   250
100
AcDbVertex
100
AcDb2dVertex
 10
157.5219273361613
 20
-35.05697027524234
 30
0.0
  0
VERTEX
  5
170
330
16E
100
AcDbEntity
  8
STANDARDEBENE
 62
   250
100
AcDbVertex
100
AcDb2dVertex
 10
157.5219273361613
 20
-29.50691778716607
 30
0.0
  0
SEQEND
  5
171
330
16E
100
AcDbEntity
  8
STANDARDEBENE
  0
POLYLINE
  5
172
330
1F
100
AcDbEntity
  8
STANDARDEBENE
 62
   250
100
AcDb2dPolyline
 66
     1
 10
0.0
 20
0.0
 30
0.0
  0
VERTEX
  5
173
330
172
100
AcDbEntity
  8
STANDARDEBENE
 62
   250
100
AcDbVertex
100
AcDb2dVertex
 10
127.5213270402793
 20
-29.50691778716607
 30
0.0
  0
VERTEX
  5
174
330
172
100
AcDbEntity
  8
STANDARDEBENE
 62
   250
100
AcDbVertex
100
AcDb2dVertex
 10
127.5213270402793
 20
-81.0566045590984
 30
0.0
  0
SEQEND
  5
175
330
172
100
AcDbEntity
  8
STANDARDEBENE
  0
SPLINE
  5
176
330
1F
100
AcDbEntity
  8
STANDARDEBENE
 62
   250
100
AcDbSpline
210
0.0
220
0.0
230
1.0
 70
     8
 71
     3
 72
     8
 73
     4
 74
     0
 42
0.0000000001
 43
0.0000000001
 40
0.0
 40
0.0
 40
0.0
 40
0.0
 40
1.0
 40
1.0
 40
1.0
 40
1.0
 10
125.4549574050539
 20
1.943035135490392
 30
0.0
 10
125.1993311514131
 20
2.529046264119676
 30
0.0
 10
124.8441415725673
 20
3.041676810504375
 30
0.0
 10
124.4427876837647
 20
3.44320295419481
 30
0.0
  0
POLYLINE
  5
177
330
1F
100
AcDbEntity
  8
STANDARDEBENE
 62
   250
100
AcDb2dPolyline
 66
     1
 10
0.0
 20
0.0
 30
0.0
  0
VERTEX
  5
178
330
177
100
AcDbEntity
  8
STANDARDEBENE
 62
   250
100
AcDbVertex
100
AcDb2dVertex
 10
121.0469548237419
 20
3.44320295419481
 30
0.0
  0
VERTEX
  5
179
330
177
100
AcDbEntity
  8
STANDARDEBENE
 62
   250
100
AcDbVertex
100
AcDb2dVertex
 10
121.9364790648476
 20
3.44320295419481
 30
0.0
  0
VERTEX
  5
17A
330
177
100
AcDbEntity
  8
STANDARDEBENE
 62
   250
100
AcDbVertex
100
AcDb2dVertex
 10
122.7571013507941
 20
3.44320295419481
 30
0.0
  0
VERTEX
  5
17B
330
177
100
AcDbEntity
  8
STANDARDEBENE
 62
   250
100
AcDbVertex
100
AcDb2dVertex
 10
123.4574897249877
 20
3.44320295419481
 30
0.0
  0
VERTEX
  5
17C
330
177
100
AcDbEntity
  8
STANDARDEBENE
 62
   250
100
AcDbVertex
100
AcDb2dVertex
 10
123.9935469361265
 20
3.44320295419481
 30
0.0
  0
VERTEX
  5
17D
330
177
100
AcDbEntity
  8
STANDARDEBENE
 62
   250
100
AcDbVertex
100
AcDb2dVertex
 10
124.3287549479762
 20
3.44320295419481
 30
0.0
  0
VERTEX
  5
17E
330
177
100
AcDbEntity
  8
STANDARDEBENE
 62
   250
100
AcDbVertex
100
AcDb2dVertex
 10
124.4427876837647
 20
3.44320295419481
 30
0.0
  0
SEQEND
  5
17F
330
177
100
AcDbEntity
  8
STANDARDEBENE
  0
POLYLINE
  5
180
330
1F
100
AcDbEntity
  8
STANDARDEBENE
 62
   250
100
AcDb2dPolyline
 66
     1
 10
0.0
 20
0.0
 30
0.0
  0
VERTEX
  5
181
330
180
100
AcDbEntity
  8
STANDARDEBENE
 62
   250
100
AcDbVertex
100
AcDb2dVertex
 10
127.5213270402793
 20
-81.0566045590984
 30
0.0
  0
VERTEX
  5
182
330
180
100
AcDbEntity
  8
STANDARDEBENE
 62
   250
100
AcDbVertex
100
AcDb2dVertex
 10
127.6246799730181
 20
-81.0566045590984
 30
0.0
  0
VERTEX
  5
183
330
180
100
AcDbEntity
  8
STANDARDEBENE
 62
   250
100
AcDbVertex
100
AcDb2dVertex
 10
127.9302601441493
 20
-81.0566045590984
 30
0.0
  0
VERTEX
  5
184
330
180
100
AcDbEntity
  8
STANDARDEBENE
 62
   250
100
AcDbVertex
100
AcDb2dVertex
 10
128.4346224559149
 20
-81.0566045590984
 30
0.0
  0
VERTEX
  5
185
330
180
100
AcDbEntity
  8
STANDARDEBENE
 62
   250
100
AcDbVertex
100
AcDb2dVertex
 10
129.1322547519022
 20
-81.0566045590984
 30
0.0
  0
VERTEX
  5
186
330
180
100
AcDbEntity
  8
STANDARDEBENE
 62
   250
100
AcDbVertex
100
AcDb2dVertex
 10
130.0117882095098
 20
-81.0566045590984
 30
0.0
  0
VERTEX
  5
187
330
180
100
AcDbEntity
  8
STANDARDEBENE
 62
   250
100
AcDbVertex
100
AcDb2dVertex
 10
131.0628875354639
 20
-81.0566045590984
 30
0.0
  0
VERTEX
  5
188
330
180
100
AcDbEntity
  8
STANDARDEBENE
 62
   250
100
AcDbVertex
100
AcDb2dVertex
 10
132.2693607703021
 20
-81.0566045590984
 30
0.0
  0
VERTEX
  5
189
330
180
100
AcDbEntity
  8
STANDARDEBENE
 62
   250
100
AcDbVertex
100
AcDb2dVertex
 10
133.6167385034409
 20
-81.0566045590984
 30
0.0
  0
VERTEX
  5
18A
330
180
100
AcDbEntity
  8
STANDARDEBENE
 62
   250
100
AcDbVertex
100
AcDb2dVertex
 10
135.08538367766
 20
-81.0566045590984
 30
0.0
  0
VERTEX
  5
18B
330
180
100
AcDbEntity
  8
STANDARDEBENE
 62
   250
100
AcDbVertex
100
AcDb2dVertex
 10
136.6546257064115
 20
-81.0566045590984
 30
0.0
  0
VERTEX
  5
18C
330
180
100
AcDbEntity
  8
STANDARDEBENE
 62
   250
100
AcDbVertex
100
AcDb2dVertex
 10
138.305172042251
 20
-81.0566045590984
 30
0.0
  0
VERTEX
  5
18D
330
180
100
AcDbEntity
  8
STANDARDEBENE
 62
   250
100
AcDbVertex
100
AcDb2dVertex
 10
140.0125624910968
 20
-81.0566045590984
 30
0.0
  0
VERTEX
  5
18E
330
180
100
AcDbEntity
  8
STANDARDEBENE
 62
   250
100
AcDbVertex
100
AcDb2dVertex
 10
141.7550929370738
 20
-81.0566045590984
 30
0.0
  0
VERTEX
  5
18F
330
180
100
AcDbEntity
  8
STANDARDEBENE
 62
   250
100
AcDbVertex
100
AcDb2dVertex
 10
143.5065806372215
 20
-81.0566045590984
 30
0.0
  0
VERTEX
  5
190
330
180
100
AcDbEntity
  8
STANDARDEBENE
 62
   250
100
AcDbVertex
100
AcDb2dVertex
 10
145.2460104952164
 20
-81.0566045590984
 30
0.0
  0
VERTEX
  5
191
330
180
100
AcDbEntity
  8
STANDARDEBENE
 62
   250
100
AcDbVertex
100
AcDb2dVertex
 10
146.9471997680978
 20
-81.0566045590984
 30
0.0
  0
VERTEX
  5
192
330
180
100
AcDbEntity
  8
STANDARDEBENE
 62
   250
100
AcDbVertex
100
AcDb2dVertex
 10
148.5891333595424
 20
-81.0566045590984
 30
0.0
  0
VERTEX
  5
193
330
180
100
AcDbEntity
  8
STANDARDEBENE
 62
   250
100
AcDbVertex
100
AcDb2dVertex
 10
150.1473510754685
 20
-81.0566045590984
 30
0.0
  0
VERTEX
  5
194
330
180
100
AcDbEntity
  8
STANDARDEBENE
 62
   250
100
AcDbVertex
100
AcDb2dVertex
 10
151.6018713488799
 20
-81.0566045590984
 30
0.0
  0
VERTEX
  5
195
330
180
100
AcDbEntity
  8
STANDARDEBENE
 62
   250
100
AcDbVertex
100
AcDb2dVertex
 10
152.9323681030047
 20
-81.0566045590984
 30
0.0
  0
VERTEX
  5
196
330
180
100
AcDbEntity
  8
STANDARDEBENE
 62
   250
100
AcDbVertex
100
AcDb2dVertex
 10
154.1205823197257
 20
-81.0566045590984
 30
0.0
  0
VERTEX
  5
197
330
180
100
AcDbEntity
  8
STANDARDEBENE
 62
   250
100
AcDbVertex
100
AcDb2dVertex
 10
153.033309467313
 20
-79.9686426871341
 30
0.0
  0
VERTEX
  5
198
330
180
100
AcDbEntity
  8
STANDARDEBENE
 62
   250
100
AcDbVertex
100
AcDb2dVertex
 10
152.9805994716162
 20
-79.8975014184322
 30
0.0
  0
VERTEX
  5
199
330
180
100
AcDbEntity
  8
STANDARDEBENE
 62
   250
100
AcDbVertex
100
AcDb2dVertex
 10
152.9530386895525
 20
-79.82394858129972
 30
0.0
  0
VERTEX
  5
19A
330
180
100
AcDbEntity
  8
STANDARDEBENE
 62
   250
100
AcDbVertex
100
AcDb2dVertex
 10
152.9447704549334
 20
-79.74092172533284
 30
0.0
  0
VERTEX
  5
19B
330
180
100
AcDbEntity
  8
STANDARDEBENE
 62
   250
100
AcDbVertex
100
AcDb2dVertex
 10
152.9585508459652
 20
-79.66943594685513
 30
0.0
  0
VERTEX
  5
19C
330
180
100
AcDbEntity
  8
STANDARDEBENE
 62
   250
100
AcDbVertex
100
AcDb2dVertex
 10
152.9861116280289
 20
-79.60466810900544
 30
0.0
  0
VERTEX
  5
19D
330
180
100
AcDbEntity
  8
STANDARDEBENE
 62
   250
100
AcDbVertex
100
AcDb2dVertex
 10
153.033309467313
 20
-79.5448956629048
 30
0.0
  0
VERTEX
  5
19E
330
180
100
AcDbEntity
  8
STANDARDEBENE
 62
   250
100
AcDbVertex
100
AcDb2dVertex
 10
154.5226252280798
 20
-78.05506313747428
 30
0.0
  0
SEQEND
  5
19F
330
180
100
AcDbEntity
  8
STANDARDEBENE
  0
POLYLINE
  5
1A0
330
1F
100
AcDbEntity
  8
STANDARDEBENE
 62
   250
100
AcDb2dPolyline
 66
     1
 10
0.0
 20
0.0
 30
0.0
  0
VERTEX
  5
1A1
330
1A0
100
AcDbEntity
  8
STANDARDEBENE
 62
   250
100
AcDbVertex
100
AcDb2dVertex
 10
154.5226252280798
 20
-77.45802769601953
 30
0.0
  0
VERTEX
  5
1A2
330
1A0
100
AcDbEntity
  8
STANDARDEBENE
 62
   250
100
AcDbVertex
100
AcDb2dVertex
 10
154.5226252280798
 20
-78.05506313747428
 30
0.0
  0
SEQEND
  5
1A3
330
1A0
100
AcDbEntity
  8
STANDARDEBENE
  0
POLYLINE
  5
1A4
330
1F
100
AcDbEntity
  8
STANDARDEBENE
 62
   250
100
AcDb2dPolyline
 66
     1
 10
0.0
 20
0.0
 30
0.0
  0
VERTEX
  5
1A5
330
1A4
100
AcDbEntity
  8
STANDARDEBENE
 62
   250
100
AcDbVertex
100
AcDb2dVertex
 10
153.033309467313
 20
-75.96853968036478
 30
0.0
  0
VERTEX
  5
1A6
330
1A4
100
AcDbEntity
  8
STANDARDEBENE
 62
   250
100
AcDbVertex
100
AcDb2dVertex
 10
154.5226252280798
 20
-77.45802769601953
 30
0.0
  0
SEQEND
  5
1A7
330
1A4
100
AcDbEntity
  8
STANDARDEBENE
  0
POLYLINE
  5
1A8
330
1F
100
AcDbEntity
  8
STANDARDEBENE
 62
   250
100
AcDb2dPolyline
 66
     1
 10
0.0
 20
0.0
 30
0.0
  0
VERTEX
  5
1A9
330
1A8
100
AcDbEntity
  8
STANDARDEBENE
 62
   250
100
AcDbVertex
100
AcDb2dVertex
 10
153.033309467313
 20
-75.96853968036478
 30
0.0
  0
VERTEX
  5
1AA
330
1A8
100
AcDbEntity
  8
STANDARDEBENE
 62
   250
100
AcDbVertex
100
AcDb2dVertex
 10
152.9805994716162
 20
-75.89774292143868
 30
0.0
  0
VERTEX
  5
1AB
330
1A8
100
AcDbEntity
  8
STANDARDEBENE
 62
   250
100
AcDbVertex
100
AcDb2dVertex
 10
152.9530386895525
 20
-75.8235010647546
 30
0.0
  0
VERTEX
  5
1AC
330
1A8
100
AcDbEntity
  8
STANDARDEBENE
 62
   250
100
AcDbVertex
100
AcDb2dVertex
 10
152.9447704549334
 20
-75.74081871856352
 30
0.0
  0
VERTEX
  5
1AD
330
1A8
100
AcDbEntity
  8
STANDARDEBENE
 62
   250
100
AcDbVertex
100
AcDb2dVertex
 10
152.9585508459652
 20
-75.66881617542212
 30
0.0
  0
VERTEX
  5
1AE
330
1A8
100
AcDbEntity
  8
STANDARDEBENE
 62
   250
100
AcDbVertex
100
AcDb2dVertex
 10
152.9861116280289
 20
-75.60490961201192
 30
0.0
  0
VERTEX
  5
1AF
330
1A8
100
AcDbEntity
  8
STANDARDEBENE
 62
   250
100
AcDbVertex
100
AcDb2dVertex
 10
153.033309467313
 20
-75.5444481463597
 30
0.0
  0
VERTEX
  5
1B0
330
1A8
100
AcDbEntity
  8
STANDARDEBENE
 62
   250
100
AcDbVertex
100
AcDb2dVertex
 10
154.5226252280798
 20
-74.05582140514446
 30
0.0
  0
SEQEND
  5
1B1
330
1A8
100
AcDbEntity
  8
STANDARDEBENE
  0
POLYLINE
  5
1B2
330
1F
100
AcDbEntity
  8
STANDARDEBENE
 62
   250
100
AcDb2dPolyline
 66
     1
 10
0.0
 20
0.0
 30
0.0
  0
VERTEX
  5
1B3
330
1B2
100
AcDbEntity
  8
STANDARDEBENE
 62
   250
100
AcDbVertex
100
AcDb2dVertex
 10
154.5226252280798
 20
-73.458269199026
 30
0.0
  0
VERTEX
  5
1B4
330
1B2
100
AcDbEntity
  8
STANDARDEBENE
 62
   250
100
AcDbVertex
100
AcDb2dVertex
 10
154.5226252280798
 20
-74.05582140514446
 30
0.0
  0
SEQEND
  5
1B5
330
1B2
100
AcDbEntity
  8
STANDARDEBENE
  0
POLYLINE
  5
1B6
330
1F
100
AcDbEntity
  8
STANDARDEBENE
 62
   250
100
AcDb2dPolyline
 66
     1
 10
0.0
 20
0.0
 30
0.0
  0
VERTEX
  5
1B7
330
1B6
100
AcDbEntity
  8
STANDARDEBENE
 62
   250
100
AcDbVertex
100
AcDb2dVertex
 10
153.033309467313
 20
-71.96843667359546
 30
0.0
  0
VERTEX
  5
1B8
330
1B6
100
AcDbEntity
  8
STANDARDEBENE
 62
   250
100
AcDbVertex
100
AcDb2dVertex
 10
154.5226252280798
 20
-73.458269199026
 30
0.0
  0
SEQEND
  5
1B9
330
1B6
100
AcDbEntity
  8
STANDARDEBENE
  0
POLYLINE
  5
1BA
330
1F
100
AcDbEntity
  8
STANDARDEBENE
 62
   250
100
AcDb2dPolyline
 66
     1
 10
0.0
 20
0.0
 30
0.0
  0
VERTEX
  5
1BB
330
1BA
100
AcDbEntity
  8
STANDARDEBENE
 62
   250
100
AcDbVertex
100
AcDb2dVertex
 10
153.033309467313
 20
-71.96843667359546
 30
0.0
  0
VERTEX
  5
1BC
330
1BA
100
AcDbEntity
  8
STANDARDEBENE
 62
   250
100
AcDbVertex
100
AcDb2dVertex
 10
152.9805994716162
 20
-71.89763991466936
 30
0.0
  0
VERTEX
  5
1BD
330
1BA
100
AcDbEntity
  8
STANDARDEBENE
 62
   250
100
AcDbVertex
100
AcDb2dVertex
 10
152.9530386895525
 20
-71.82374256776107
 30
0.0
  0
VERTEX
  5
1BE
330
1BA
100
AcDbEntity
  8
STANDARDEBENE
 62
   250
100
AcDbVertex
100
AcDb2dVertex
 10
152.9447704549334
 20
-71.7407157117942
 30
0.0
  0
VERTEX
  5
1BF
330
1BA
100
AcDbEntity
  8
STANDARDEBENE
 62
   250
100
AcDbVertex
100
AcDb2dVertex
 10
152.9585508459652
 20
-71.66940218820439
 30
0.0
  0
VERTEX
  5
1C0
330
1BA
100
AcDbEntity
  8
STANDARDEBENE
 62
   250
100
AcDbVertex
100
AcDb2dVertex
 10
152.9861116280289
 20
-71.60480660524262
 30
0.0
  0
VERTEX
  5
1C1
330
1BA
100
AcDbEntity
  8
STANDARDEBENE
 62
   250
100
AcDbVertex
100
AcDb2dVertex
 10
153.033309467313
 20
-71.54468964936618
 30
0.0
  0
SEQEND
  5
1C2
330
1BA
100
AcDbEntity
  8
STANDARDEBENE
  0
POLYLINE
  5
1C3
330
1F
100
AcDbEntity
  8
STANDARDEBENE
 62
   250
100
AcDb2dPolyline
 66
     1
 10
0.0
 20
0.0
 30
0.0
  0
VERTEX
  5
1C4
330
1C3
100
AcDbEntity
  8
STANDARDEBENE
 62
   250
100
AcDbVertex
100
AcDb2dVertex
 10
154.5226252280798
 20
-70.05571839837513
 30
0.0
  0
VERTEX
  5
1C5
330
1C3
100
AcDbEntity
  8
STANDARDEBENE
 62
   250
100
AcDbVertex
100
AcDb2dVertex
 10
153.033309467313
 20
-71.54468964936618
 30
0.0
  0
SEQEND
  5
1C6
330
1C3
100
AcDbEntity
  8
STANDARDEBENE
  0
POLYLINE
  5
1C7
330
1F
100
AcDbEntity
  8
STANDARDEBENE
 62
   250
100
AcDb2dPolyline
 66
     1
 10
0.0
 20
0.0
 30
0.0
  0
VERTEX
  5
1C8
330
1C7
100
AcDbEntity
  8
STANDARDEBENE
 62
   250
100
AcDbVertex
100
AcDb2dVertex
 10
154.5226252280798
 20
-69.45764942759298
 30
0.0
  0
VERTEX
  5
1C9
330
1C7
100
AcDbEntity
  8
STANDARDEBENE
 62
   250
100
AcDbVertex
100
AcDb2dVertex
 10
154.5226252280798
 20
-70.05571839837513
 30
0.0
  0
SEQEND
  5
1CA
330
1C7
100
AcDbEntity
  8
STANDARDEBENE
  0
POLYLINE
  5
1CB
330
1F
100
AcDbEntity
  8
STANDARDEBENE
 62
   250
100
AcDb2dPolyline
 66
     1
 10
0.0
 20
0.0
 30
0.0
  0
VERTEX
  5
1CC
330
1CB
100
AcDbEntity
  8
STANDARDEBENE
 62
   250
100
AcDbVertex
100
AcDb2dVertex
 10
154.5226252280798
 20
-69.45764942759298
 30
0.0
  0
VERTEX
  5
1CD
330
1CB
100
AcDbEntity
  8
STANDARDEBENE
 62
   250
100
AcDbVertex
100
AcDb2dVertex
 10
153.033309467313
 20
-67.96867817660195
 30
0.0
  0
VERTEX
  5
1CE
330
1CB
100
AcDbEntity
  8
STANDARDEBENE
 62
   250
100
AcDbVertex
100
AcDb2dVertex
 10
152.9805994716162
 20
-67.89822592745163
 30
0.0
  0
VERTEX
  5
1CF
330
1CB
100
AcDbEntity
  8
STANDARDEBENE
 62
   250
100
AcDbVertex
100
AcDb2dVertex
 10
152.9530386895525
 20
-67.82398407076755
 30
0.0
  0
VERTEX
  5
1D0
330
1CB
100
AcDbEntity
  8
STANDARDEBENE
 62
   250
100
AcDbVertex
100
AcDb2dVertex
 10
152.9447704549334
 20
-67.74061270502489
 30
0.0
  0
VERTEX
  5
1D1
330
1CB
100
AcDbEntity
  8
STANDARDEBENE
 62
   250
100
AcDbVertex
100
AcDb2dVertex
 10
152.9585508459652
 20
-67.66929918143508
 30
0.0
  0
VERTEX
  5
1D2
330
1CB
100
AcDbEntity
  8
STANDARDEBENE
 62
   250
100
AcDbVertex
100
AcDb2dVertex
 10
152.9861116280289
 20
-67.6047035984733
 30
0.0
  0
VERTEX
  5
1D3
330
1CB
100
AcDbEntity
  8
STANDARDEBENE
 62
   250
100
AcDbVertex
100
AcDb2dVertex
 10
153.033309467313
 20
-67.54458664259687
 30
0.0
  0
VERTEX
  5
1D4
330
1CB
100
AcDbEntity
  8
STANDARDEBENE
 62
   250
100
AcDbVertex
100
AcDb2dVertex
 10
154.5226252280798
 20
-66.05509862694213
 30
0.0
  0
SEQEND
  5
1D5
330
1CB
100
AcDbEntity
  8
STANDARDEBENE
  0
POLYLINE
  5
1D6
330
1F
100
AcDbEntity
  8
STANDARDEBENE
 62
   250
100
AcDb2dPolyline
 66
     1
 10
0.0
 20
0.0
 30
0.0
  0
VERTEX
  5
1D7
330
1D6
100
AcDbEntity
  8
STANDARDEBENE
 62
   250
100
AcDbVertex
100
AcDb2dVertex
 10
154.5226252280798
 20
-65.45754642082368
 30
0.0
  0
VERTEX
  5
1D8
330
1D6
100
AcDbEntity
  8
STANDARDEBENE
 62
   250
100
AcDbVertex
100
AcDb2dVertex
 10
154.5226252280798
 20
-66.05509862694213
 30
0.0
  0
SEQEND
  5
1D9
330
1D6
100
AcDbEntity
  8
STANDARDEBENE
  0
POLYLINE
  5
1DA
330
1F
100
AcDbEntity
  8
STANDARDEBENE
 62
   250
100
AcDb2dPolyline
 66
     1
 10
0.0
 20
0.0
 30
0.0
  0
VERTEX
  5
1DB
330
1DA
100
AcDbEntity
  8
STANDARDEBENE
 62
   250
100
AcDbVertex
100
AcDb2dVertex
 10
153.033309467313
 20
-63.96891967960843
 30
0.0
  0
VERTEX
  5
1DC
330
1DA
100
AcDbEntity
  8
STANDARDEBENE
 62
   250
100
AcDbVertex
100
AcDb2dVertex
 10
154.5226252280798
 20
-65.45754642082368
 30
0.0
  0
SEQEND
  5
1DD
330
1DA
100
AcDbEntity
  8
STANDARDEBENE
  0
POLYLINE
  5
1DE
330
1F
100
AcDbEntity
  8
STANDARDEBENE
 62
   250
100
AcDb2dPolyline
 66
     1
 10
0.0
 20
0.0
 30
0.0
  0
VERTEX
  5
1DF
330
1DE
100
AcDbEntity
  8
STANDARDEBENE
 62
   250
100
AcDbVertex
100
AcDb2dVertex
 10
153.033309467313
 20
-63.96891967960843
 30
0.0
  0
VERTEX
  5
1E0
330
1DE
100
AcDbEntity
  8
STANDARDEBENE
 62
   250
100
AcDbVertex
100
AcDb2dVertex
 10
152.9805994716162
 20
-63.89812292068231
 30
0.0
  0
VERTEX
  5
1E1
330
1DE
100
AcDbEntity
  8
STANDARDEBENE
 62
   250
100
AcDbVertex
100
AcDb2dVertex
 10
152.9530386895525
 20
-63.82422557377404
 30
0.0
  0
VERTEX
  5
1E2
330
1DE
100
AcDbEntity
  8
STANDARDEBENE
 62
   250
100
AcDbVertex
100
AcDb2dVertex
 10
152.9447704549334
 20
-63.74085420803137
 30
0.0
  0
VERTEX
  5
1E3
330
1DE
100
AcDbEntity
  8
STANDARDEBENE
 62
   250
100
AcDbVertex
100
AcDb2dVertex
 10
152.9585508459652
 20
-63.66919617466576
 30
0.0
  0
VERTEX
  5
1E4
330
1DE
100
AcDbEntity
  8
STANDARDEBENE
 62
   250
100
AcDbVertex
100
AcDb2dVertex
 10
152.9861116280289
 20
-63.60442833681608
 30
0.0
  0
VERTEX
  5
1E5
330
1DE
100
AcDbEntity
  8
STANDARDEBENE
 62
   250
100
AcDbVertex
100
AcDb2dVertex
 10
153.033309467313
 20
-63.54448363582755
 30
0.0
  0
SEQEND
  5
1E6
330
1DE
100
AcDbEntity
  8
STANDARDEBENE
  0
POLYLINE
  5
1E7
330
1F
100
AcDbEntity
  8
STANDARDEBENE
 62
   250
100
AcDb2dPolyline
 66
     1
 10
0.0
 20
0.0
 30
0.0
  0
VERTEX
  5
1E8
330
1E7
100
AcDbEntity
  8
STANDARDEBENE
 62
   250
100
AcDbVertex
100
AcDb2dVertex
 10
154.5226252280798
 20
-62.05534012994861
 30
0.0
  0
VERTEX
  5
1E9
330
1E7
100
AcDbEntity
  8
STANDARDEBENE
 62
   250
100
AcDbVertex
100
AcDb2dVertex
 10
153.033309467313
 20
-63.54448363582755
 30
0.0
  0
SEQEND
  5
1EA
330
1E7
100
AcDbEntity
  8
STANDARDEBENE
  0
POLYLINE
  5
1EB
330
1F
100
AcDbEntity
  8
STANDARDEBENE
 62
   250
100
AcDb2dPolyline
 66
     1
 10
0.0
 20
0.0
 30
0.0
  0
VERTEX
  5
1EC
330
1EB
100
AcDbEntity
  8
STANDARDEBENE
 62
   250
100
AcDbVertex
100
AcDb2dVertex
 10
154.5226252280798
 20
-61.45778792383015
 30
0.0
  0
VERTEX
  5
1ED
330
1EB
100
AcDbEntity
  8
STANDARDEBENE
 62
   250
100
AcDbVertex
100
AcDb2dVertex
 10
154.5226252280798
 20
-62.05534012994861
 30
0.0
  0
SEQEND
  5
1EE
330
1EB
100
AcDbEntity
  8
STANDARDEBENE
  0
POLYLINE
  5
1EF
330
1F
100
AcDbEntity
  8
STANDARDEBENE
 62
   250
100
AcDb2dPolyline
 66
     1
 10
0.0
 20
0.0
 30
0.0
  0
VERTEX
  5
1F0
330
1EF
100
AcDbEntity
  8
STANDARDEBENE
 62
   250
100
AcDbVertex
100
AcDb2dVertex
 10
154.5226252280798
 20
-61.45778792383015
 30
0.0
  0
VERTEX
  5
1F1
330
1EF
100
AcDbEntity
  8
STANDARDEBENE
 62
   250
100
AcDbVertex
100
AcDb2dVertex
 10
153.033309467313
 20
-59.96847216306332
 30
0.0
  0
VERTEX
  5
1F2
330
1EF
100
AcDbEntity
  8
STANDARDEBENE
 62
   250
100
AcDbVertex
100
AcDb2dVertex
 10
152.9805994716162
 20
-59.8975031492493
 30
0.0
  0
VERTEX
  5
1F3
330
1EF
100
AcDbEntity
  8
STANDARDEBENE
 62
   250
100
AcDbVertex
100
AcDb2dVertex
 10
152.9530386895525
 20
-59.82446707678051
 30
0.0
  0
VERTEX
  5
1F4
330
1EF
100
AcDbEntity
  8
STANDARDEBENE
 62
   250
100
AcDbVertex
100
AcDb2dVertex
 10
152.9447704549334
 20
-59.74109571103784
 30
0.0
  0
VERTEX
  5
1F5
330
1EF
100
AcDbEntity
  8
STANDARDEBENE
 62
   250
100
AcDbVertex
100
AcDb2dVertex
 10
152.9585508459652
 20
-59.66943767767224
 30
0.0
  0
VERTEX
  5
1F6
330
1EF
100
AcDbEntity
  8
STANDARDEBENE
 62
   250
100
AcDbVertex
100
AcDb2dVertex
 10
152.9861116280289
 20
-59.60466983982256
 30
0.0
  0
VERTEX
  5
1F7
330
1EF
100
AcDbEntity
  8
STANDARDEBENE
 62
   250
100
AcDbVertex
100
AcDb2dVertex
 10
153.033309467313
 20
-59.54472513883402
 30
0.0
  0
VERTEX
  5
1F8
330
1EF
100
AcDbEntity
  8
STANDARDEBENE
 62
   250
100
AcDbVertex
100
AcDb2dVertex
 10
154.5226252280798
 20
-58.05523712317929
 30
0.0
  0
SEQEND
  5
1F9
330
1EF
100
AcDbEntity
  8
STANDARDEBENE
  0
POLYLINE
  5
1FA
330
1F
100
AcDbEntity
  8
STANDARDEBENE
 62
   250
100
AcDb2dPolyline
 66
     1
 10
0.0
 20
0.0
 30
0.0
  0
VERTEX
  5
1FB
330
1FA
100
AcDbEntity
  8
STANDARDEBENE
 62
   250
100
AcDbVertex
100
AcDb2dVertex
 10
154.5226252280798
 20
-57.45802942683663
 30
0.0
  0
VERTEX
  5
1FC
330
1FA
100
AcDbEntity
  8
STANDARDEBENE
 62
   250
100
AcDbVertex
100
AcDb2dVertex
 10
154.5226252280798
 20
-58.05523712317929
 30
0.0
  0
SEQEND
  5
1FD
330
1FA
100
AcDbEntity
  8
STANDARDEBENE
  0
POLYLINE
  5
1FE
330
1F
100
AcDbEntity
  8
STANDARDEBENE
 62
   250
100
AcDb2dPolyline
 66
     1
 10
0.0
 20
0.0
 30
0.0
  0
VERTEX
  5
1FF
330
1FE
100
AcDbEntity
  8
STANDARDEBENE
 62
   250
100
AcDbVertex
100
AcDb2dVertex
 10
153.033309467313
 20
-55.96905817584559
 30
0.0
  0
VERTEX
  5
200
330
1FE
100
AcDbEntity
  8
STANDARDEBENE
 62
   250
100
AcDbVertex
100
AcDb2dVertex
 10
154.5226252280798
 20
-57.45802942683663
 30
0.0
  0
SEQEND
  5
201
330
1FE
100
AcDbEntity
  8
STANDARDEBENE
  0
POLYLINE
  5
202
330
1F
100
AcDbEntity
  8
STANDARDEBENE
 62
   250
100
AcDb2dPolyline
 66
     1
 10
0.0
 20
0.0
 30
0.0
  0
VERTEX
  5
203
330
202
100
AcDbEntity
  8
STANDARDEBENE
 62
   250
100
AcDbVertex
100
AcDb2dVertex
 10
153.033309467313
 20
-55.96905817584559
 30
0.0
  0
VERTEX
  5
204
330
202
100
AcDbEntity
  8
STANDARDEBENE
 62
   250
100
AcDbVertex
100
AcDb2dVertex
 10
152.9805994716162
 20
-55.89791690714368
 30
0.0
  0
VERTEX
  5
205
330
202
100
AcDbEntity
  8
STANDARDEBENE
 62
   250
100
AcDbVertex
100
AcDb2dVertex
 10
152.9530386895525
 20
-55.82350279557171
 30
0.0
  0
VERTEX
  5
206
330
202
100
AcDbEntity
  8
STANDARDEBENE
 62
   250
100
AcDbVertex
100
AcDb2dVertex
 10
152.9447704549334
 20
-55.74133721404432
 30
0.0
  0
VERTEX
  5
207
330
202
100
AcDbEntity
  8
STANDARDEBENE
 62
   250
100
AcDbVertex
100
AcDb2dVertex
 10
152.9585508459652
 20
-55.66899016112713
 30
0.0
  0
VERTEX
  5
208
330
202
100
AcDbEntity
  8
STANDARDEBENE
 62
   250
100
AcDbVertex
100
AcDb2dVertex
 10
152.9861116280289
 20
-55.60456683305324
 30
0.0
  0
VERTEX
  5
209
330
202
100
AcDbEntity
  8
STANDARDEBENE
 62
   250
100
AcDbVertex
100
AcDb2dVertex
 10
153.033309467313
 20
-55.54444987717681
 30
0.0
  0
VERTEX
  5
20A
330
202
100
AcDbEntity
  8
STANDARDEBENE
 62
   250
100
AcDbVertex
100
AcDb2dVertex
 10
154.5226252280798
 20
-54.05582313596157
 30
0.0
  0
SEQEND
  5
20B
330
202
100
AcDbEntity
  8
STANDARDEBENE
  0
POLYLINE
  5
20C
330
1F
100
AcDbEntity
  8
STANDARDEBENE
 62
   250
100
AcDb2dPolyline
 66
     1
 10
0.0
 20
0.0
 30
0.0
  0
VERTEX
  5
20D
330
20C
100
AcDbEntity
  8
STANDARDEBENE
 62
   250
100
AcDbVertex
100
AcDb2dVertex
 10
154.5226252280798
 20
-53.45827092984311
 30
0.0
  0
VERTEX
  5
20E
330
20C
100
AcDbEntity
  8
STANDARDEBENE
 62
   250
100
AcDbVertex
100
AcDb2dVertex
 10
154.5226252280798
 20
-54.05582313596157
 30
0.0
  0
SEQEND
  5
20F
330
20C
100
AcDbEntity
  8
STANDARDEBENE
  0
POLYLINE
  5
210
330
1F
100
AcDbEntity
  8
STANDARDEBENE
 62
   250
100
AcDb2dPolyline
 66
     1
 10
0.0
 20
0.0
 30
0.0
  0
VERTEX
  5
211
330
210
100
AcDbEntity
  8
STANDARDEBENE
 62
   250
100
AcDbVertex
100
AcDb2dVertex
 10
153.033309467313
 20
-51.96843840441258
 30
0.0
  0
VERTEX
  5
212
330
210
100
AcDbEntity
  8
STANDARDEBENE
 62
   250
100
AcDbVertex
100
AcDb2dVertex
 10
154.5226252280798
 20
-53.45827092984311
 30
0.0
  0
SEQEND
  5
213
330
210
100
AcDbEntity
  8
STANDARDEBENE
  0
POLYLINE
  5
214
330
1F
100
AcDbEntity
  8
STANDARDEBENE
 62
   250
100
AcDb2dPolyline
 66
     1
 10
0.0
 20
0.0
 30
0.0
  0
VERTEX
  5
215
330
214
100
AcDbEntity
  8
STANDARDEBENE
 62
   250
100
AcDbVertex
100
AcDb2dVertex
 10
153.033309467313
 20
-51.96843840441258
 30
0.0
  0
VERTEX
  5
216
330
214
100
AcDbEntity
  8
STANDARDEBENE
 62
   250
100
AcDbVertex
100
AcDb2dVertex
 10
152.9805994716162
 20
-51.89815841015016
 30
0.0
  0
VERTEX
  5
217
330
214
100
AcDbEntity
  8
STANDARDEBENE
 62
   250
100
AcDbVertex
100
AcDb2dVertex
 10
152.9530386895525
 20
-51.82374429857819
 30
0.0
  0
VERTEX
  5
218
330
214
100
AcDbEntity
  8
STANDARDEBENE
 62
   250
100
AcDbVertex
100
AcDb2dVertex
 10
152.9447704549334
 20
-51.74071744261131
 30
0.0
  0
VERTEX
  5
219
330
214
100
AcDbEntity
  8
STANDARDEBENE
 62
   250
100
AcDbVertex
100
AcDb2dVertex
 10
152.9585508459652
 20
-51.66957617390941
 30
0.0
  0
VERTEX
  5
21A
330
214
100
AcDbEntity
  8
STANDARDEBENE
 62
   250
100
AcDbVertex
100
AcDb2dVertex
 10
152.9861116280289
 20
-51.60480833605973
 30
0.0
  0
VERTEX
  5
21B
330
214
100
AcDbEntity
  8
STANDARDEBENE
 62
   250
100
AcDbVertex
100
AcDb2dVertex
 10
153.033309467313
 20
-51.54434687040749
 30
0.0
  0
SEQEND
  5
21C
330
214
100
AcDbEntity
  8
STANDARDEBENE
  0
POLYLINE
  5
21D
330
1F
100
AcDbEntity
  8
STANDARDEBENE
 62
   250
100
AcDb2dPolyline
 66
     1
 10
0.0
 20
0.0
 30
0.0
  0
VERTEX
  5
21E
330
21D
100
AcDbEntity
  8
STANDARDEBENE
 62
   250
100
AcDbVertex
100
AcDb2dVertex
 10
154.5226252280798
 20
-50.05503110964066
 30
0.0
  0
VERTEX
  5
21F
330
21D
100
AcDbEntity
  8
STANDARDEBENE
 62
   250
100
AcDbVertex
100
AcDb2dVertex
 10
153.033309467313
 20
-51.54434687040749
 30
0.0
  0
SEQEND
  5
220
330
21D
100
AcDbEntity
  8
STANDARDEBENE
  0
POLYLINE
  5
221
330
1F
100
AcDbEntity
  8
STANDARDEBENE
 62
   250
100
AcDb2dPolyline
 66
     1
 10
0.0
 20
0.0
 30
0.0
  0
VERTEX
  5
222
330
221
100
AcDbEntity
  8
STANDARDEBENE
 62
   250
100
AcDbVertex
100
AcDb2dVertex
 10
154.5226252280798
 20
-49.457823413298
 30
0.0
  0
VERTEX
  5
223
330
221
100
AcDbEntity
  8
STANDARDEBENE
 62
   250
100
AcDbVertex
100
AcDb2dVertex
 10
154.5226252280798
 20
-50.05503110964066
 30
0.0
  0
SEQEND
  5
224
330
221
100
AcDbEntity
  8
STANDARDEBENE
  0
POLYLINE
  5
225
330
1F
100
AcDbEntity
  8
STANDARDEBENE
 62
   250
100
AcDb2dPolyline
 66
     1
 10
0.0
 20
0.0
 30
0.0
  0
VERTEX
  5
226
330
225
100
AcDbEntity
  8
STANDARDEBENE
 62
   250
100
AcDbVertex
100
AcDb2dVertex
 10
154.5226252280798
 20
-49.457823413298
 30
0.0
  0
VERTEX
  5
227
330
225
100
AcDbEntity
  8
STANDARDEBENE
 62
   250
100
AcDbVertex
100
AcDb2dVertex
 10
153.033309467313
 20
-47.96867990741906
 30
0.0
  0
VERTEX
  5
228
330
225
100
AcDbEntity
  8
STANDARDEBENE
 62
   250
100
AcDbVertex
100
AcDb2dVertex
 10
152.9805994716162
 20
-47.89788314849294
 30
0.0
  0
VERTEX
  5
229
330
225
100
AcDbEntity
  8
STANDARDEBENE
 62
   250
100
AcDbVertex
100
AcDb2dVertex
 10
152.9530386895525
 20
-47.82398580158467
 30
0.0
  0
VERTEX
  5
22A
330
225
100
AcDbEntity
  8
STANDARDEBENE
 62
   250
100
AcDbVertex
100
AcDb2dVertex
 10
152.9447704549334
 20
-47.74095894561779
 30
0.0
  0
VERTEX
  5
22B
330
225
100
AcDbEntity
  8
STANDARDEBENE
 62
   250
100
AcDbVertex
100
AcDb2dVertex
 10
152.9585508459652
 20
-47.66895640247639
 30
0.0
  0
VERTEX
  5
22C
330
225
100
AcDbEntity
  8
STANDARDEBENE
 62
   250
100
AcDbVertex
100
AcDb2dVertex
 10
152.9861116280289
 20
-47.60436081951461
 30
0.0
  0
VERTEX
  5
22D
330
225
100
AcDbEntity
  8
STANDARDEBENE
 62
   250
100
AcDbVertex
100
AcDb2dVertex
 10
153.033309467313
 20
-47.54458837341397
 30
0.0
  0
VERTEX
  5
22E
330
225
100
AcDbEntity
  8
STANDARDEBENE
 62
   250
100
AcDbVertex
100
AcDb2dVertex
 10
154.5226252280798
 20
-46.05561712242294
 30
0.0
  0
SEQEND
  5
22F
330
225
100
AcDbEntity
  8
STANDARDEBENE
  0
POLYLINE
  5
230
330
1F
100
AcDbEntity
  8
STANDARDEBENE
 62
   250
100
AcDb2dPolyline
 66
     1
 10
0.0
 20
0.0
 30
0.0
  0
VERTEX
  5
231
330
230
100
AcDbEntity
  8
STANDARDEBENE
 62
   250
100
AcDbVertex
100
AcDb2dVertex
 10
154.5226252280798
 20
-45.45806491630448
 30
0.0
  0
VERTEX
  5
232
330
230
100
AcDbEntity
  8
STANDARDEBENE
 62
   250
100
AcDbVertex
100
AcDb2dVertex
 10
154.5226252280798
 20
-46.05561712242294
 30
0.0
  0
SEQEND
  5
233
330
230
100
AcDbEntity
  8
STANDARDEBENE
  0
POLYLINE
  5
234
330
1F
100
AcDbEntity
  8
STANDARDEBENE
 62
   250
100
AcDb2dPolyline
 66
     1
 10
0.0
 20
0.0
 30
0.0
  0
VERTEX
  5
235
330
234
100
AcDbEntity
  8
STANDARDEBENE
 62
   250
100
AcDbVertex
100
AcDb2dVertex
 10
153.033309467313
 20
-43.96892141042554
 30
0.0
  0
VERTEX
  5
236
330
234
100
AcDbEntity
  8
STANDARDEBENE
 62
   250
100
AcDbVertex
100
AcDb2dVertex
 10
154.5226252280798
 20
-45.45806491630448
 30
0.0
  0
SEQEND
  5
237
330
234
100
AcDbEntity
  8
STANDARDEBENE
  0
POLYLINE
  5
238
330
1F
100
AcDbEntity
  8
STANDARDEBENE
 62
   250
100
AcDb2dPolyline
 66
     1
 10
0.0
 20
0.0
 30
0.0
  0
VERTEX
  5
239
330
238
100
AcDbEntity
  8
STANDARDEBENE
 62
   250
100
AcDbVertex
100
AcDb2dVertex
 10
153.033309467313
 20
-43.96892141042554
 30
0.0
  0
VERTEX
  5
23A
330
238
100
AcDbEntity
  8
STANDARDEBENE
 62
   250
100
AcDbVertex
100
AcDb2dVertex
 10
152.9805994716162
 20
-43.89778014172363
 30
0.0
  0
VERTEX
  5
23B
330
238
100
AcDbEntity
  8
STANDARDEBENE
 62
   250
100
AcDbVertex
100
AcDb2dVertex
 10
152.9530386895525
 20
-43.82388279481535
 30
0.0
  0
VERTEX
  5
23C
330
238
100
AcDbEntity
  8
STANDARDEBENE
 62
   250
100
AcDbVertex
100
AcDb2dVertex
 10
152.9447704549334
 20
-43.74085593884848
 30
0.0
  0
VERTEX
  5
23D
330
238
100
AcDbEntity
  8
STANDARDEBENE
 62
   250
100
AcDbVertex
100
AcDb2dVertex
 10
152.9585508459652
 20
-43.66971467014657
 30
0.0
  0
VERTEX
  5
23E
330
238
100
AcDbEntity
  8
STANDARDEBENE
 62
   250
100
AcDbVertex
100
AcDb2dVertex
 10
152.9861116280289
 20
-43.60494683229689
 30
0.0
  0
VERTEX
  5
23F
330
238
100
AcDbEntity
  8
STANDARDEBENE
 62
   250
100
AcDbVertex
100
AcDb2dVertex
 10
153.033309467313
 20
-43.54414085686886
 30
0.0
  0
SEQEND
  5
240
330
238
100
AcDbEntity
  8
STANDARDEBENE
  0
POLYLINE
  5
241
330
1F
100
AcDbEntity
  8
STANDARDEBENE
 62
   250
100
AcDb2dPolyline
 66
     1
 10
0.0
 20
0.0
 30
0.0
  0
VERTEX
  5
242
330
241
100
AcDbEntity
  8
STANDARDEBENE
 62
   250
100
AcDbVertex
100
AcDb2dVertex
 10
154.5226252280798
 20
-42.05499735098992
 30
0.0
  0
VERTEX
  5
243
330
241
100
AcDbEntity
  8
STANDARDEBENE
 62
   250
100
AcDbVertex
100
AcDb2dVertex
 10
153.033309467313
 20
-43.54414085686886
 30
0.0
  0
SEQEND
  5
244
330
241
100
AcDbEntity
  8
STANDARDEBENE
  0
POLYLINE
  5
245
330
1F
100
AcDbEntity
  8
STANDARDEBENE
 62
   250
100
AcDb2dPolyline
 66
     1
 10
0.0
 20
0.0
 30
0.0
  0
VERTEX
  5
246
330
245
100
AcDbEntity
  8
STANDARDEBENE
 62
   250
100
AcDbVertex
100
AcDb2dVertex
 10
154.5226252280798
 20
-41.45796190953516
 30
0.0
  0
VERTEX
  5
247
330
245
100
AcDbEntity
  8
STANDARDEBENE
 62
   250
100
AcDbVertex
100
AcDb2dVertex
 10
154.5226252280798
 20
-42.05499735098992
 30
0.0
  0
SEQEND
  5
248
330
245
100
AcDbEntity
  8
STANDARDEBENE
  0
POLYLINE
  5
249
330
1F
100
AcDbEntity
  8
STANDARDEBENE
 62
   250
100
AcDb2dPolyline
 66
     1
 10
0.0
 20
0.0
 30
0.0
  0
VERTEX
  5
24A
330
249
100
AcDbEntity
  8
STANDARDEBENE
 62
   250
100
AcDbVertex
100
AcDb2dVertex
 10
154.5226252280798
 20
-41.45796190953516
 30
0.0
  0
VERTEX
  5
24B
330
249
100
AcDbEntity
  8
STANDARDEBENE
 62
   250
100
AcDbVertex
100
AcDb2dVertex
 10
153.033309467313
 20
-39.96847389388043
 30
0.0
  0
VERTEX
  5
24C
330
249
100
AcDbEntity
  8
STANDARDEBENE
 62
   250
100
AcDbVertex
100
AcDb2dVertex
 10
152.9805994716162
 20
-39.89802164473011
 30
0.0
  0
VERTEX
  5
24D
330
249
100
AcDbEntity
  8
STANDARDEBENE
 62
   250
100
AcDbVertex
100
AcDb2dVertex
 10
152.9530386895525
 20
-39.82412429782183
 30
0.0
  0
VERTEX
  5
24E
330
249
100
AcDbEntity
  8
STANDARDEBENE
 62
   250
100
AcDbVertex
100
AcDb2dVertex
 10
152.9447704549334
 20
-39.74109744185495
 30
0.0
  0
VERTEX
  5
24F
330
249
100
AcDbEntity
  8
STANDARDEBENE
 62
   250
100
AcDbVertex
100
AcDb2dVertex
 10
152.9585508459652
 20
-39.66909489871355
 30
0.0
  0
VERTEX
  5
250
330
249
100
AcDbEntity
  8
STANDARDEBENE
 62
   250
100
AcDbVertex
100
AcDb2dVertex
 10
152.9861116280289
 20
-39.60449931575177
 30
0.0
  0
VERTEX
  5
251
330
249
100
AcDbEntity
  8
STANDARDEBENE
 62
   250
100
AcDbVertex
100
AcDb2dVertex
 10
153.033309467313
 20
-39.54438235987534
 30
0.0
  0
VERTEX
  5
252
330
249
100
AcDbEntity
  8
STANDARDEBENE
 62
   250
100
AcDbVertex
100
AcDb2dVertex
 10
154.5226252280798
 20
-38.0552388539964
 30
0.0
  0
SEQEND
  5
253
330
249
100
AcDbEntity
  8
STANDARDEBENE
  0
POLYLINE
  5
254
330
1F
100
AcDbEntity
  8
STANDARDEBENE
 62
   250
100
AcDb2dPolyline
 66
     1
 10
0.0
 20
0.0
 30
0.0
  0
VERTEX
  5
255
330
254
100
AcDbEntity
  8
STANDARDEBENE
 62
   250
100
AcDbVertex
100
AcDb2dVertex
 10
154.5226252280798
 20
-35.05697027524234
 30
0.0
  0
VERTEX
  5
256
330
254
100
AcDbEntity
  8
STANDARDEBENE
 62
   250
100
AcDbVertex
100
AcDb2dVertex
 10
154.5226252280798
 20
-38.0552388539964
 30
0.0
  0
SEQEND
  5
257
330
254
100
AcDbEntity
  8
STANDARDEBENE
  0
POLYLINE
  5
258
330
1F
100
AcDbEntity
  8
STANDARDEBENE
 62
   250
100
AcDb2dPolyline
 66
     1
 10
0.0
 20
0.0
 30
0.0
  0
VERTEX
  5
259
330
258
100
AcDbEntity
  8
STANDARDEBENE
 62
   250
100
AcDbVertex
100
AcDb2dVertex
 10
157.5219273361613
 20
-35.05697027524234
 30
0.0
  0
VERTEX
  5
25A
330
258
100
AcDbEntity
  8
STANDARDEBENE
 62
   250
100
AcDbVertex
100
AcDb2dVertex
 10
157.3979038168746
 20
-35.05697027524234
 30
0.0
  0
VERTEX
  5
25B
330
258
100
AcDbEntity
  8
STANDARDEBENE
 62
   250
100
AcDbVertex
100
AcDb2dVertex
 10
157.0282448274453
 20
-35.05697027524234
 30
0.0
  0
VERTEX
  5
25C
330
258
100
AcDbEntity
  8
STANDARDEBENE
 62
   250
100
AcDbVertex
100
AcDb2dVertex
 10
156.4181180145103
 20
-35.05697027524234
 30
0.0
  0
VERTEX
  5
25D
330
258
100
AcDbEntity
  8
STANDARDEBENE
 62
   250
100
AcDbVertex
100
AcDb2dVertex
 10
155.5782031811193
 20
-35.05697027524234
 30
0.0
  0
VERTEX
  5
25E
330
258
100
AcDbEntity
  8
STANDARDEBENE
 62
   250
100
AcDbVertex
100
AcDb2dVertex
 10
154.5226252280798
 20
-35.05697027524234
 30
0.0
  0
SEQEND
  5
25F
330
258
100
AcDbEntity
  8
STANDARDEBENE
  0
POLYLINE
  5
260
330
1F
100
AcDbEntity
  8
STANDARDEBENE
 62
   250
100
AcDb2dPolyline
 66
     1
 10
0.0
 20
0.0
 30
0.0
  0
VERTEX
  5
261
330
260
100
AcDbEntity
  8
STANDARDEBENE
 62
   250
100
AcDbVertex
100
AcDb2dVertex
 10
154.5226252280798
 20
-82.0553383991315
 30
0.0
  0
VERTEX
  5
262
330
260
100
AcDbEntity
  8
STANDARDEBENE
 62
   250
100
AcDbVertex
100
AcDb2dVertex
 10
153.5211353098404
 20
-83.05665606248306
 30
0.0
  0
SEQEND
  5
263
330
260
100
AcDbEntity
  8
STANDARDEBENE
  0
POLYLINE
  5
264
330
1F
100
AcDbEntity
  8
STANDARDEBENE
 62
   250
100
AcDb2dPolyline
 66
     1
 10
0.0
 20
0.0
 30
0.0
  0
VERTEX
  5
265
330
264
100
AcDbEntity
  8
STANDARDEBENE
 62
   250
100
AcDbVertex
100
AcDb2dVertex
 10
154.5226252280798
 20
-81.45813070278884
 30
0.0
  0
VERTEX
  5
266
330
264
100
AcDbEntity
  8
STANDARDEBENE
 62
   250
100
AcDbVertex
100
AcDb2dVertex
 10
154.5226252280798
 20
-82.0553383991315
 30
0.0
  0
SEQEND
  5
267
330
264
100
AcDbEntity
  8
STANDARDEBENE
  0
POLYLINE
  5
268
330
1F
100
AcDbEntity
  8
STANDARDEBENE
 62
   250
100
AcDb2dPolyline
 66
     1
 10
0.0
 20
0.0
 30
0.0
  0
VERTEX
  5
269
330
268
100
AcDbEntity
  8
STANDARDEBENE
 62
   250
100
AcDbVertex
100
AcDb2dVertex
 10
154.5226252280798
 20
-81.45813070278884
 30
0.0
  0
VERTEX
  5
26A
330
268
100
AcDbEntity
  8
STANDARDEBENE
 62
   250
100
AcDbVertex
100
AcDb2dVertex
 10
154.1205823197257
 20
-81.0566045590984
 30
0.0
  0
SEQEND
  5
26B
330
268
100
AcDbEntity
  8
STANDARDEBENE
  0
POLYLINE
  5
26C
330
1F
100
AcDbEntity
  8
STANDARDEBENE
 62
   250
100
AcDb2dPolyline
 66
     1
 10
0.0
 20
0.0
 30
0.0
  0
VERTEX
  5
26D
330
26C
100
AcDbEntity
  8
STANDARDEBENE
 62
   250
100
AcDbVertex
100
AcDb2dVertex
 10
153.5211353098404
 20
-83.05665606248306
 30
0.0
  0
VERTEX
  5
26E
330
26C
100
AcDbEntity
  8
STANDARDEBENE
 62
   250
100
AcDbVertex
100
AcDb2dVertex
 10
152.2991591350913
 20
-83.05665606248306
 30
0.0
  0
VERTEX
  5
26F
330
26C
100
AcDbEntity
  8
STANDARDEBENE
 62
   250
100
AcDbVertex
100
AcDb2dVertex
 10
150.9317998349563
 20
-83.05665606248306
 30
0.0
  0
VERTEX
  5
270
330
26C
100
AcDbEntity
  8
STANDARDEBENE
 62
   250
100
AcDbVertex
100
AcDb2dVertex
 10
149.4404170155347
 20
-83.05665606248306
 30
0.0
  0
VERTEX
  5
271
330
26C
100
AcDbEntity
  8
STANDARDEBENE
 62
   250
100
AcDbVertex
100
AcDb2dVertex
 10
147.8474038122532
 20
-83.05665606248306
 30
0.0
  0
VERTEX
  5
272
330
26C
100
AcDbEntity
  8
STANDARDEBENE
 62
   250
100
AcDbVertex
100
AcDb2dVertex
 10
146.174464340987
 20
-83.05665606248306
 30
0.0
  0
VERTEX
  5
273
330
26C
100
AcDbEntity
  8
STANDARDEBENE
 62
   250
100
AcDbVertex
100
AcDb2dVertex
 10
144.4474368349209
 20
-83.05665606248306
 30
0.0
  0
VERTEX
  5
274
330
26C
100
AcDbEntity
  8
STANDARDEBENE
 62
   250
100
AcDbVertex
100
AcDb2dVertex
 10
142.692848546791
 20
-83.05665606248306
 30
0.0
  0
VERTEX
  5
275
330
26C
100
AcDbEntity
  8
STANDARDEBENE
 62
   250
100
AcDbVertex
100
AcDb2dVertex
 10
140.9351596706789
 20
-83.05665606248306
 30
0.0
  0
VERTEX
  5
276
330
26C
100
AcDbEntity
  8
STANDARDEBENE
 62
   250
100
AcDbVertex
100
AcDb2dVertex
 10
139.200897459321
 20
-83.05665606248306
 30
0.0
  0
VERTEX
  5
277
330
26C
100
AcDbEntity
  8
STANDARDEBENE
 62
   250
100
AcDbVertex
100
AcDb2dVertex
 10
137.515900145902
 20
-83.05665606248306
 30
0.0
  0
VERTEX
  5
278
330
26C
100
AcDbEntity
  8
STANDARDEBENE
 62
   250
100
AcDbVertex
100
AcDb2dVertex
 10
135.9053169440548
 20
-83.05665606248306
 30
0.0
  0
VERTEX
  5
279
330
26C
100
AcDbEntity
  8
STANDARDEBENE
 62
   250
100
AcDbVertex
100
AcDb2dVertex
 10
134.3922300087581
 20
-83.05665606248306
 30
0.0
  0
VERTEX
  5
27A
330
26C
100
AcDbEntity
  8
STANDARDEBENE
 62
   250
100
AcDbVertex
100
AcDb2dVertex
 10
132.99972149499
 20
-83.05665606248306
 30
0.0
  0
VERTEX
  5
27B
330
26C
100
AcDbEntity
  8
STANDARDEBENE
 62
   250
100
AcDbVertex
100
AcDb2dVertex
 10
131.7474284599709
 20
-83.05665606248306
 30
0.0
  0
VERTEX
  5
27C
330
26C
100
AcDbEntity
  8
STANDARDEBENE
 62
   250
100
AcDbVertex
100
AcDb2dVertex
 10
130.6556769804728
 20
-83.05665606248306
 30
0.0
  0
VERTEX
  5
27D
330
26C
100
AcDbEntity
  8
STANDARDEBENE
 62
   250
100
AcDbVertex
100
AcDb2dVertex
 10
129.7399699964066
 20
-83.05665606248306
 30
0.0
  0
VERTEX
  5
27E
330
26C
100
AcDbEntity
  8
STANDARDEBENE
 62
   250
100
AcDbVertex
100
AcDb2dVertex
 10
129.0120208401493
 20
-83.05665606248306
 30
0.0
  0
VERTEX
  5
27F
330
26C
100
AcDbEntity
  8
STANDARDEBENE
 62
   250
100
AcDbVertex
100
AcDb2dVertex
 10
128.4845763734054
 20
-83.05665606248306
 30
0.0
  0
VERTEX
  5
280
330
26C
100
AcDbEntity
  8
STANDARDEBENE
 62
   250
100
AcDbVertex
100
AcDb2dVertex
 10
128.1659048307939
 20
-83.05665606248306
 30
0.0
  0
VERTEX
  5
281
330
26C
100
AcDbEntity
  8
STANDARDEBENE
 62
   250
100
AcDbVertex
100
AcDb2dVertex
 10
128.0573842514181
 20
-83.05665606248306
 30
0.0
  0
SEQEND
  5
282
330
26C
100
AcDbEntity
  8
STANDARDEBENE
  0
POLYLINE
  5
283
330
1F
100
AcDbEntity
  8
STANDARDEBENE
 62
   250
100
AcDb2dPolyline
 66
     1
 10
0.0
 20
0.0
 30
0.0
  0
VERTEX
  5
284
330
283
100
AcDbEntity
  8
STANDARDEBENE
 62
   250
100
AcDbVertex
100
AcDb2dVertex
 10
142.2463638773591
 20
1.943724155041985
 30
0.0
  0
VERTEX
  5
285
330
283
100
AcDbEntity
  8
STANDARDEBENE
 62
   250
100
AcDbVertex
100
AcDb2dVertex
 10
144.9135585615731
 20
1.943724155041985
 30
0.0
  0
VERTEX
  5
286
330
283
100
AcDbEntity
  8
STANDARDEBENE
 62
   250
100
AcDbVertex
100
AcDb2dVertex
 10
147.565594815652
 20
1.943724155041985
 30
0.0
  0
VERTEX
  5
287
330
283
100
AcDbEntity
  8
STANDARDEBENE
 62
   250
100
AcDbVertex
100
AcDb2dVertex
 10
150.1838691117029
 20
1.943724155041985
 30
0.0
  0
VERTEX
  5
288
330
283
100
AcDbEntity
  8
STANDARDEBENE
 62
   250
100
AcDbVertex
100
AcDb2dVertex
 10
152.7532230195907
 20
1.943724155041985
 30
0.0
  0
VERTEX
  5
289
330
283
100
AcDbEntity
  8
STANDARDEBENE
 62
   250
100
AcDbVertex
100
AcDb2dVertex
 10
155.2581535994046
 20
1.943724155041985
 30
0.0
  0
VERTEX
  5
28A
330
283
100
AcDbEntity
  8
STANDARDEBENE
 62
   250
100
AcDbVertex
100
AcDb2dVertex
 10
157.6828134014581
 20
1.943724155041985
 30
0.0
  0
VERTEX
  5
28B
330
283
100
AcDbEntity
  8
STANDARDEBENE
 62
   250
100
AcDbVertex
100
AcDb2dVertex
 10
160.0116994858402
 20
1.943724155041985
 30
0.0
  0
VERTEX
  5
28C
330
283
100
AcDbEntity
  8
STANDARDEBENE
 62
   250
100
AcDbVertex
100
AcDb2dVertex
 10
162.2310314615191
 20
1.943724155041985
 30
0.0
  0
VERTEX
  5
28D
330
283
100
AcDbEntity
  8
STANDARDEBENE
 62
   250
100
AcDbVertex
100
AcDb2dVertex
 10
164.3280624667904
 20
1.943724155041985
 30
0.0
  0
VERTEX
  5
28E
330
283
100
AcDbEntity
  8
STANDARDEBENE
 62
   250
100
AcDbVertex
100
AcDb2dVertex
 10
166.2886676008464
 20
1.943724155041985
 30
0.0
  0
VERTEX
  5
28F
330
283
100
AcDbEntity
  8
STANDARDEBENE
 62
   250
100
AcDbVertex
100
AcDb2dVertex
 10
168.1014780410858
 20
1.943724155041985
 30
0.0
  0
VERTEX
  5
290
330
283
100
AcDbEntity
  8
STANDARDEBENE
 62
   250
100
AcDbVertex
100
AcDb2dVertex
 10
169.7537469258043
 20
1.943724155041985
 30
0.0
  0
VERTEX
  5
291
330
283
100
AcDbEntity
  8
STANDARDEBENE
 62
   250
100
AcDbVertex
100
AcDb2dVertex
 10
171.236517000831
 20
1.943724155041985
 30
0.0
  0
VERTEX
  5
292
330
283
100
AcDbEntity
  8
STANDARDEBENE
 62
   250
100
AcDbVertex
100
AcDb2dVertex
 10
172.5418645413226
 20
1.943724155041985
 30
0.0
  0
VERTEX
  5
293
330
283
100
AcDbEntity
  8
STANDARDEBENE
 62
   250
100
AcDbVertex
100
AcDb2dVertex
 10
173.6587652344538
 20
1.943724155041985
 30
0.0
  0
VERTEX
  5
294
330
283
100
AcDbEntity
  8
STANDARDEBENE
 62
   250
100
AcDbVertex
100
AcDb2dVertex
 10
174.5827404531391
 20
1.943724155041985
 30
0.0
  0
VERTEX
  5
295
330
283
100
AcDbEntity
  8
STANDARDEBENE
 62
   250
100
AcDbVertex
100
AcDb2dVertex
 10
175.3079335311901
 20
1.943724155041985
 30
0.0
  0
VERTEX
  5
296
330
283
100
AcDbEntity
  8
STANDARDEBENE
 62
   250
100
AcDbVertex
100
AcDb2dVertex
 10
175.8277987828665
 20
1.943724155041985
 30
0.0
  0
VERTEX
  5
297
330
283
100
AcDbEntity
  8
STANDARDEBENE
 62
   250
100
AcDbVertex
100
AcDb2dVertex
 10
176.1423362081684
 20
1.943724155041985
 30
0.0
  0
VERTEX
  5
298
330
283
100
AcDbEntity
  8
STANDARDEBENE
 62
   250
100
AcDbVertex
100
AcDb2dVertex
 10
176.2470671800104
 20
1.943724155041985
 30
0.0
  0
SEQEND
  5
299
330
283
100
AcDbEntity
  8
STANDARDEBENE
  0
POLYLINE
  5
29A
330
1F
100
AcDbEntity
  8
STANDARDEBENE
 62
   250
100
AcDb2dPolyline
 66
     1
 10
0.0
 20
0.0
 30
0.0
  0
VERTEX
  5
29B
330
29A
100
AcDbEntity
  8
STANDARDEBENE
 62
   250
100
AcDbVertex
100
AcDb2dVertex
 10
108.247038613811
 20
1.943724155041985
 30
0.0
  0
VERTEX
  5
29C
330
29A
100
AcDbEntity
  8
STANDARDEBENE
 62
   250
100
AcDbVertex
100
AcDb2dVertex
 10
108.3521140954289
 20
1.943724155041985
 30
0.0
  0
VERTEX
  5
29D
330
29A
100
AcDbEntity
  8
STANDARDEBENE
 62
   250
100
AcDbVertex
100
AcDb2dVertex
 10
108.6652734816276
 20
1.943724155041985
 30
0.0
  0
VERTEX
  5
29E
330
29A
100
AcDbEntity
  8
STANDARDEBENE
 62
   250
100
AcDbVertex
100
AcDb2dVertex
 10
109.1865167724072
 20
1.943724155041985
 30
0.0
  0
VERTEX
  5
29F
330
29A
100
AcDbEntity
  8
STANDARDEBENE
 62
   250
100
AcDbVertex
100
AcDb2dVertex
 10
109.9117098504581
 20
1.943724155041985
 30
0.0
  0
VERTEX
  5
2A0
330
29A
100
AcDbEntity
  8
STANDARDEBENE
 62
   250
100
AcDbVertex
100
AcDb2dVertex
 10
110.8349960495919
 20
1.943724155041985
 30
0.0
  0
VERTEX
  5
2A1
330
29A
100
AcDbEntity
  8
STANDARDEBENE
 62
   250
100
AcDbVertex
100
AcDb2dVertex
 10
111.9525857622746
 20
1.943724155041985
 30
0.0
  0
VERTEX
  5
2A2
330
29A
100
AcDbEntity
  8
STANDARDEBENE
 62
   250
100
AcDbVertex
100
AcDb2dVertex
 10
113.2572442832147
 20
1.943724155041985
 30
0.0
  0
VERTEX
  5
2A3
330
29A
100
AcDbEntity
  8
STANDARDEBENE
 62
   250
100
AcDbVertex
100
AcDb2dVertex
 10
114.7400143582414
 20
1.943724155041985
 30
0.0
  0
VERTEX
  5
2A4
330
29A
100
AcDbEntity
  8
STANDARDEBENE
 62
   250
100
AcDbVertex
100
AcDb2dVertex
 10
116.3929722625114
 20
1.943724155041985
 30
0.0
  0
VERTEX
  5
2A5
330
29A
100
AcDbEntity
  8
STANDARDEBENE
 62
   250
100
AcDbVertex
100
AcDb2dVertex
 10
118.2050936831993
 20
1.943724155041985
 30
0.0
  0
VERTEX
  5
2A6
330
29A
100
AcDbEntity
  8
STANDARDEBENE
 62
   250
100
AcDbVertex
100
AcDb2dVertex
 10
120.1656988172553
 20
1.943724155041985
 30
0.0
  0
VERTEX
  5
2A7
330
29A
100
AcDbEntity
  8
STANDARDEBENE
 62
   250
100
AcDbVertex
100
AcDb2dVertex
 10
122.2616962931992
 20
1.943724155041985
 30
0.0
  0
VERTEX
  5
2A8
330
29A
100
AcDbEntity
  8
STANDARDEBENE
 62
   250
100
AcDbVertex
100
AcDb2dVertex
 10
124.4820617982055
 20
1.943724155041985
 30
0.0
  0
VERTEX
  5
2A9
330
29A
100
AcDbEntity
  8
STANDARDEBENE
 62
   250
100
AcDbVertex
100
AcDb2dVertex
 10
126.8109478825876
 20
1.943724155041985
 30
0.0
  0
VERTEX
  5
2AA
330
29A
100
AcDbEntity
  8
STANDARDEBENE
 62
   250
100
AcDbVertex
100
AcDb2dVertex
 10
129.235607684641
 20
1.943724155041985
 30
0.0
  0
VERTEX
  5
2AB
330
29A
100
AcDbEntity
  8
STANDARDEBENE
 62
   250
100
AcDbVertex
100
AcDb2dVertex
 10
131.740538264455
 20
1.943724155041985
 30
0.0
  0
VERTEX
  5
2AC
330
29A
100
AcDbEntity
  8
STANDARDEBENE
 62
   250
100
AcDbVertex
100
AcDb2dVertex
 10
134.3105811918944
 20
1.943724155041985
 30
0.0
  0
VERTEX
  5
2AD
330
29A
100
AcDbEntity
  8
STANDARDEBENE
 62
   250
100
AcDbVertex
100
AcDb2dVertex
 10
136.9278219586179
 20
1.943724155041985
 30
0.0
  0
VERTEX
  5
2AE
330
29A
100
AcDbEntity
  8
STANDARDEBENE
 62
   250
100
AcDbVertex
100
AcDb2dVertex
 10
139.5791691931452
 20
1.943724155041985
 30
0.0
  0
VERTEX
  5
2AF
330
29A
100
AcDbEntity
  8
STANDARDEBENE
 62
   250
100
AcDbVertex
100
AcDb2dVertex
 10
142.2463638773591
 20
1.943724155041985
 30
0.0
  0
SEQEND
  5
2B0
330
29A
100
AcDbEntity
  8
STANDARDEBENE
  0
POLYLINE
  5
2B1
330
1F
100
AcDbEntity
  8
STANDARDEBENE
 62
   250
100
AcDb2dPolyline
 66
     1
 10
0.0
 20
0.0
 30
0.0
  0
VERTEX
  5
2B2
330
2B1
100
AcDbEntity
  8
STANDARDEBENE
 62
   250
100
AcDbVertex
100
AcDb2dVertex
 10
142.2463638773591
 20
-28.05687614083999
 30
0.0
  0
VERTEX
  5
2B3
330
2B1
100
AcDbEntity
  8
STANDARDEBENE
 62
   250
100
AcDbVertex
100
AcDb2dVertex
 10
144.9135585615731
 20
-28.05687614083999
 30
0.0
  0
VERTEX
  5
2B4
330
2B1
100
AcDbEntity
  8
STANDARDEBENE
 62
   250
100
AcDbVertex
100
AcDb2dVertex
 10
147.565594815652
 20
-28.05687614083999
 30
0.0
  0
VERTEX
  5
2B5
330
2B1
100
AcDbEntity
  8
STANDARDEBENE
 62
   250
100
AcDbVertex
100
AcDb2dVertex
 10
150.1838691117029
 20
-28.05687614083999
 30
0.0
  0
VERTEX
  5
2B6
330
2B1
100
AcDbEntity
  8
STANDARDEBENE
 62
   250
100
AcDbVertex
100
AcDb2dVertex
 10
152.7532230195907
 20
-28.05687614083999
 30
0.0
  0
VERTEX
  5
2B7
330
2B1
100
AcDbEntity
  8
STANDARDEBENE
 62
   250
100
AcDbVertex
100
AcDb2dVertex
 10
155.2581535994046
 20
-28.05687614083999
 30
0.0
  0
VERTEX
  5
2B8
330
2B1
100
AcDbEntity
  8
STANDARDEBENE
 62
   250
100
AcDbVertex
100
AcDb2dVertex
 10
157.6828134014581
 20
-28.05687614083999
 30
0.0
  0
VERTEX
  5
2B9
330
2B1
100
AcDbEntity
  8
STANDARDEBENE
 62
   250
100
AcDbVertex
100
AcDb2dVertex
 10
160.0116994858402
 20
-28.05687614083999
 30
0.0
  0
VERTEX
  5
2BA
330
2B1
100
AcDbEntity
  8
STANDARDEBENE
 62
   250
100
AcDbVertex
100
AcDb2dVertex
 10
162.2310314615191
 20
-28.05687614083999
 30
0.0
  0
VERTEX
  5
2BB
330
2B1
100
AcDbEntity
  8
STANDARDEBENE
 62
   250
100
AcDbVertex
100
AcDb2dVertex
 10
164.3280624667904
 20
-28.05687614083999
 30
0.0
  0
VERTEX
  5
2BC
330
2B1
100
AcDbEntity
  8
STANDARDEBENE
 62
   250
100
AcDbVertex
100
AcDb2dVertex
 10
166.2886676008464
 20
-28.05687614083999
 30
0.0
  0
VERTEX
  5
2BD
330
2B1
100
AcDbEntity
  8
STANDARDEBENE
 62
   250
100
AcDbVertex
100
AcDb2dVertex
 10
168.1014780410858
 20
-28.05687614083999
 30
0.0
  0
VERTEX
  5
2BE
330
2B1
100
AcDbEntity
  8
STANDARDEBENE
 62
   250
100
AcDbVertex
100
AcDb2dVertex
 10
169.7537469258043
 20
-28.05687614083999
 30
0.0
  0
VERTEX
  5
2BF
330
2B1
100
AcDbEntity
  8
STANDARDEBENE
 62
   250
100
AcDbVertex
100
AcDb2dVertex
 10
171.236517000831
 20
-28.05687614083999
 30
0.0
  0
VERTEX
  5
2C0
330
2B1
100
AcDbEntity
  8
STANDARDEBENE
 62
   250
100
AcDbVertex
100
AcDb2dVertex
 10
172.5418645413226
 20
-28.05687614083999
 30
0.0
  0
VERTEX
  5
2C1
330
2B1
100
AcDbEntity
  8
STANDARDEBENE
 62
   250
100
AcDbVertex
100
AcDb2dVertex
 10
173.6587652344538
 20
-28.05687614083999
 30
0.0
  0
VERTEX
  5
2C2
330
2B1
100
AcDbEntity
  8
STANDARDEBENE
 62
   250
100
AcDbVertex
100
AcDb2dVertex
 10
174.5827404531391
 20
-28.05687614083999
 30
0.0
  0
VERTEX
  5
2C3
330
2B1
100
AcDbEntity
  8
STANDARDEBENE
 62
   250
100
AcDbVertex
100
AcDb2dVertex
 10
175.3079335311901
 20
-28.05687614083999
 30
0.0
  0
VERTEX
  5
2C4
330
2B1
100
AcDbEntity
  8
STANDARDEBENE
 62
   250
100
AcDbVertex
100
AcDb2dVertex
 10
175.8277987828665
 20
-28.05687614083999
 30
0.0
  0
VERTEX
  5
2C5
330
2B1
100
AcDbEntity
  8
STANDARDEBENE
 62
   250
100
AcDbVertex
100
AcDb2dVertex
 10
176.1423362081684
 20
-28.05687614083999
 30
0.0
  0
VERTEX
  5
2C6
330
2B1
100
AcDbEntity
  8
STANDARDEBENE
 62
   250
100
AcDbVertex
100
AcDb2dVertex
 10
176.2470671800104
 20
-28.05687614083999
 30
0.0
  0
SEQEND
  5
2C7
330
2B1
100
AcDbEntity
  8
STANDARDEBENE
  0
POLYLINE
  5
2C8
330
1F
100
AcDbEntity
  8
STANDARDEBENE
 62
   250
100
AcDb2dPolyline
 66
     1
 10
0.0
 20
0.0
 30
0.0
  0
VERTEX
  5
2C9
330
2C8
100
AcDbEntity
  8
STANDARDEBENE
 62
   250
100
AcDbVertex
100
AcDb2dVertex
 10
108.247038613811
 20
-28.05687614083999
 30
0.0
  0
VERTEX
  5
2CA
330
2C8
100
AcDbEntity
  8
STANDARDEBENE
 62
   250
100
AcDbVertex
100
AcDb2dVertex
 10
108.3521140954289
 20
-28.05687614083999
 30
0.0
  0
VERTEX
  5
2CB
330
2C8
100
AcDbEntity
  8
STANDARDEBENE
 62
   250
100
AcDbVertex
100
AcDb2dVertex
 10
108.6652734816276
 20
-28.05687614083999
 30
0.0
  0
VERTEX
  5
2CC
330
2C8
100
AcDbEntity
  8
STANDARDEBENE
 62
   250
100
AcDbVertex
100
AcDb2dVertex
 10
109.1865167724072
 20
-28.05687614083999
 30
0.0
  0
VERTEX
  5
2CD
330
2C8
100
AcDbEntity
  8
STANDARDEBENE
 62
   250
100
AcDbVertex
100
AcDb2dVertex
 10
109.9117098504581
 20
-28.05687614083999
 30
0.0
  0
VERTEX
  5
2CE
330
2C8
100
AcDbEntity
  8
STANDARDEBENE
 62
   250
100
AcDbVertex
100
AcDb2dVertex
 10
110.8349960495919
 20
-28.05687614083999
 30
0.0
  0
VERTEX
  5
2CF
330
2C8
100
AcDbEntity
  8
STANDARDEBENE
 62
   250
100
AcDbVertex
100
AcDb2dVertex
 10
111.9525857622746
 20
-28.05687614083999
 30
0.0
  0
VERTEX
  5
2D0
330
2C8
100
AcDbEntity
  8
STANDARDEBENE
 62
   250
100
AcDbVertex
100
AcDb2dVertex
 10
113.2572442832147
 20
-28.05687614083999
 30
0.0
  0
VERTEX
  5
2D1
330
2C8
100
AcDbEntity
  8
STANDARDEBENE
 62
   250
100
AcDbVertex
100
AcDb2dVertex
 10
114.7400143582414
 20
-28.05687614083999
 30
0.0
  0
VERTEX
  5
2D2
330
2C8
100
AcDbEntity
  8
STANDARDEBENE
 62
   250
100
AcDbVertex
100
AcDb2dVertex
 10
116.3929722625114
 20
-28.05687614083999
 30
0.0
  0
VERTEX
  5
2D3
330
2C8
100
AcDbEntity
  8
STANDARDEBENE
 62
   250
100
AcDbVertex
100
AcDb2dVertex
 10
118.2050936831993
 20
-28.05687614083999
 30
0.0
  0
VERTEX
  5
2D4
330
2C8
100
AcDbEntity
  8
STANDARDEBENE
 62
   250
100
AcDbVertex
100
AcDb2dVertex
 10
120.1656988172553
 20
-28.05687614083999
 30
0.0
  0
VERTEX
  5
2D5
330
2C8
100
AcDbEntity
  8
STANDARDEBENE
 62
   250
100
AcDbVertex
100
AcDb2dVertex
 10
122.2616962931992
 20
-28.05687614083999
 30
0.0
  0
VERTEX
  5
2D6
330
2C8
100
AcDbEntity
  8
STANDARDEBENE
 62
   250
100
AcDbVertex
100
AcDb2dVertex
 10
124.4820617982055
 20
-28.05687614083999
 30
0.0
  0
VERTEX
  5
2D7
330
2C8
100
AcDbEntity
  8
STANDARDEBENE
 62
   250
100
AcDbVertex
100
AcDb2dVertex
 10
126.8109478825876
 20
-28.05687614083999
 30
0.0
  0
VERTEX
  5
2D8
330
2C8
100
AcDbEntity
  8
STANDARDEBENE
 62
   250
100
AcDbVertex
100
AcDb2dVertex
 10
129.235607684641
 20
-28.05687614083999
 30
0.0
  0
VERTEX
  5
2D9
330
2C8
100
AcDbEntity
  8
STANDARDEBENE
 62
   250
100
AcDbVertex
100
AcDb2dVertex
 10
131.740538264455
 20
-28.05687614083999
 30
0.0
  0
VERTEX
  5
2DA
330
2C8
100
AcDbEntity
  8
STANDARDEBENE
 62
   250
100
AcDbVertex
100
AcDb2dVertex
 10
134.3105811918944
 20
-28.05687614083999
 30
0.0
  0
VERTEX
  5
2DB
330
2C8
100
AcDbEntity
  8
STANDARDEBENE
 62
   250
100
AcDbVertex
100
AcDb2dVertex
 10
136.9278219586179
 20
-28.05687614083999
 30
0.0
  0
VERTEX
  5
2DC
330
2C8
100
AcDbEntity
  8
STANDARDEBENE
 62
   250
100
AcDbVertex
100
AcDb2dVertex
 10
139.5791691931452
 20
-28.05687614083999
 30
0.0
  0
VERTEX
  5
2DD
330
2C8
100
AcDbEntity
  8
STANDARDEBENE
 62
   250
100
AcDbVertex
100
AcDb2dVertex
 10
142.2463638773591
 20
-28.05687614083999
 30
0.0
  0
SEQEND
  5
2DE
330
2C8
100
AcDbEntity
  8
STANDARDEBENE
  0
POLYLINE
  5
2DF
330
1F
100
AcDbEntity
  8
STANDARDEBENE
 62
   250
100
AcDb2dPolyline
 66
     1
 10
0.0
 20
0.0
 30
0.0
  0
VERTEX
  5
2E0
330
2DF
100
AcDbEntity
  8
STANDARDEBENE
 62
   250
100
AcDbVertex
100
AcDb2dVertex
 10
68.30853707042486
 20
-28.05687614083999
 30
0.0
  0
VERTEX
  5
2E1
330
2DF
100
AcDbEntity
  8
STANDARDEBENE
 62
   250
100
AcDbVertex
100
AcDb2dVertex
 10
68.30853707042486
 20
1.943724155041985
 30
0.0
  0
SEQEND
  5
2E2
330
2DF
100
AcDbEntity
  8
STANDARDEBENE
  0
POLYLINE
  5
2E3
330
1F
100
AcDbEntity
  8
STANDARDEBENE
 62
   250
100
AcDb2dPolyline
 66
     1
 10
0.0
 20
0.0
 30
0.0
  0
VERTEX
  5
2E4
330
2E3
100
AcDbEntity
  8
STANDARDEBENE
 62
   250
100
AcDbVertex
100
AcDb2dVertex
 10
0.308163994449673
 20
1.943724155041985
 30
0.0
  0
VERTEX
  5
2E5
330
2E3
100
AcDbEntity
  8
STANDARDEBENE
 62
   250
100
AcDbVertex
100
AcDb2dVertex
 10
0.308163994449673
 20
-28.05687614083999
 30
0.0
  0
SEQEND
  5
2E6
330
2E3
100
AcDbEntity
  8
STANDARDEBENE
  0
POLYLINE
  5
2E7
330
1F
100
AcDbEntity
  8
STANDARDEBENE
 62
   250
100
AcDb2dPolyline
 66
     1
 10
0.0
 20
0.0
 30
0.0
  0
VERTEX
  5
2E8
330
2E7
100
AcDbEntity
  8
STANDARDEBENE
 62
   250
100
AcDbVertex
100
AcDb2dVertex
 10
49.79010309205341
 20
-81.0566045590984
 30
0.0
  0
VERTEX
  5
2E9
330
2E7
100
AcDbEntity
  8
STANDARDEBENE
 62
   250
100
AcDbVertex
100
AcDb2dVertex
 10
49.79010309205341
 20
-29.50691778716607
 30
0.0
  0
SEQEND
  5
2EA
330
2E7
100
AcDbEntity
  8
STANDARDEBENE
  0
POLYLINE
  5
2EB
330
1F
100
AcDbEntity
  8
STANDARDEBENE
 62
   250
100
AcDb2dPolyline
 66
     1
 10
0.0
 20
0.0
 30
0.0
  0
VERTEX
  5
2EC
330
2EB
100
AcDbEntity
  8
STANDARDEBENE
 62
   250
100
AcDbVertex
100
AcDb2dVertex
 10
19.79019181572302
 20
-29.50691778716607
 30
0.0
  0
VERTEX
  5
2ED
330
2EB
100
AcDbEntity
  8
STANDARDEBENE
 62
   250
100
AcDbVertex
100
AcDb2dVertex
 10
19.79019181572302
 20
-81.0566045590984
 30
0.0
  0
VERTEX
  5
2EE
330
2EB
100
AcDbEntity
  8
STANDARDEBENE
 62
   250
100
AcDbVertex
100
AcDb2dVertex
 10
20.32573226219817
 20
-83.05665606248306
 30
0.0
  0
SEQEND
  5
2EF
330
2EB
100
AcDbEntity
  8
STANDARDEBENE
  0
POLYLINE
  5
2F0
330
1F
100
AcDbEntity
  8
STANDARDEBENE
 62
   250
100
AcDb2dPolyline
 66
     1
 10
0.0
 20
0.0
 30
0.0
  0
VERTEX
  5
2F1
330
2F0
100
AcDbEntity
  8
STANDARDEBENE
 62
   250
100
AcDbVertex
100
AcDb2dVertex
 10
49.25421813580246
 20
-83.05665606248306
 30
0.0
  0
VERTEX
  5
2F2
330
2F0
100
AcDbEntity
  8
STANDARDEBENE
 62
   250
100
AcDbVertex
100
AcDb2dVertex
 10
49.79010309205341
 20
-81.0566045590984
 30
0.0
  0
SEQEND
  5
2F3
330
2F0
100
AcDbEntity
  8
STANDARDEBENE
  0
SPLINE
  5
2F4
330
1F
100
AcDbEntity
  8
STANDARDEBENE
 62
   250
100
AcDbSpline
210
0.0
220
0.0
230
1.0
 70
     8
 71
     3
 72
     8
 73
     4
 74
     0
 42
0.0000000001
 43
0.0000000001
 40
0.0
 40
0.0
 40
0.0
 40
0.0
 40
1.0
 40
1.0
 40
1.0
 40
1.0
 10
51.87249243185335
 20
1.943035135490392
 30
0.0
 10
51.6163494135489
 20
2.529046264119676
 30
0.0
 10
51.26184885425464
 20
3.041676810504375
 30
0.0
 10
50.8603227105642
 20
3.44320295419481
 30
0.0
  0
SPLINE
  5
2F5
330
1F
100
AcDbEntity
  8
STANDARDEBENE
 62
   250
100
AcDbSpline
210
0.0
220
0.0
230
1.0
 70
     8
 71
     3
 72
     8
 73
     4
 74
     0
 42
0.0000000001
 43
0.0000000001
 40
0.0
 40
0.0
 40
0.0
 40
0.0
 40
1.0
 40
1.0
 40
1.0
 40
1.0
 10
43.71949633274912
 20
3.44320295419481
 30
0.0
 10
43.2716336242141
 20
2.986899756152784
 30
0.0
 10
42.9293631619606
 20
2.465484210485283
 30
0.0
 10
42.70698210168418
 20
1.943724155041985
 30
0.0
  0
POLYLINE
  5
2F6
330
1F
100
AcDbEntity
  8
STANDARDEBENE
 62
   250
100
AcDb2dPolyline
 66
     1
 10
0.0
 20
0.0
 30
0.0
  0
VERTEX
  5
2F7
330
2F6
100
AcDbEntity
  8
STANDARDEBENE
 62
   250
100
AcDbVertex
100
AcDb2dVertex
 10
43.71949633274912
 20
3.44320295419481
 30
0.0
  0
VERTEX
  5
2F8
330
2F6
100
AcDbEntity
  8
STANDARDEBENE
 62
   250
100
AcDbVertex
100
AcDb2dVertex
 10
43.82319377526376
 20
3.44320295419481
 30
0.0
  0
VERTEX
  5
2F9
330
2F6
100
AcDbEntity
  8
STANDARDEBENE
 62
   250
100
AcDbVertex
100
AcDb2dVertex
 10
44.12825718173126
 20
3.44320295419481
 30
0.0
  0
VERTEX
  5
2FA
330
2F6
100
AcDbEntity
  8
STANDARDEBENE
 62
   250
100
AcDbVertex
100
AcDb2dVertex
 10
44.61711655358603
 20
3.44320295419481
 30
0.0
  0
VERTEX
  5
2FB
330
2F6
100
AcDbEntity
  8
STANDARDEBENE
 62
   250
100
AcDbVertex
100
AcDb2dVertex
 10
45.26169434410066
 20
3.44320295419481
 30
0.0
  0
VERTEX
  5
2FC
330
2F6
100
AcDbEntity
  8
STANDARDEBENE
 62
   250
100
AcDbVertex
100
AcDb2dVertex
 10
46.02340545838599
 20
3.44320295419481
 30
0.0
  0
VERTEX
  5
2FD
330
2F6
100
AcDbEntity
  8
STANDARDEBENE
 62
   250
100
AcDbVertex
100
AcDb2dVertex
 10
46.8593584293554
 20
3.44320295419481
 30
0.0
  0
VERTEX
  5
2FE
330
2F6
100
AcDbEntity
  8
STANDARDEBENE
 62
   250
100
AcDbVertex
100
AcDb2dVertex
 10
47.72028835907003
 20
3.44320295419481
 30
0.0
  0
VERTEX
  5
2FF
330
2F6
100
AcDbEntity
  8
STANDARDEBENE
 62
   250
100
AcDbVertex
100
AcDb2dVertex
 10
48.55589682026363
 20
3.44320295419481
 30
0.0
  0
VERTEX
  5
300
330
2F6
100
AcDbEntity
  8
STANDARDEBENE
 62
   250
100
AcDbVertex
100
AcDb2dVertex
 10
49.31846920898845
 20
3.44320295419481
 30
0.0
  0
VERTEX
  5
301
330
2F6
100
AcDbEntity
  8
STANDARDEBENE
 62
   250
100
AcDbVertex
100
AcDb2dVertex
 10
49.96270248972728
 20
3.44320295419481
 30
0.0
  0
VERTEX
  5
302
330
2F6
100
AcDbEntity
  8
STANDARDEBENE
 62
   250
100
AcDbVertex
100
AcDb2dVertex
 10
50.45156186158205
 20
3.44320295419481
 30
0.0
  0
VERTEX
  5
303
330
2F6
100
AcDbEntity
  8
STANDARDEBENE
 62
   250
100
AcDbVertex
100
AcDb2dVertex
 10
50.75662526804955
 20
3.44320295419481
 30
0.0
  0
VERTEX
  5
304
330
2F6
100
AcDbEntity
  8
STANDARDEBENE
 62
   250
100
AcDbVertex
100
AcDb2dVertex
 10
50.8603227105642
 20
3.44320295419481
 30
0.0
  0
SEQEND
  5
305
330
2F6
100
AcDbEntity
  8
STANDARDEBENE
  0
POLYLINE
  5
306
330
1F
100
AcDbEntity
  8
STANDARDEBENE
 62
   250
100
AcDb2dPolyline
 66
     1
 10
0.0
 20
0.0
 30
0.0
  0
VERTEX
  5
307
330
306
100
AcDbEntity
  8
STANDARDEBENE
 62
   250
100
AcDbVertex
100
AcDb2dVertex
 10
44.30120108918094
 20
-81.0566045590984
 30
0.0
  0
VERTEX
  5
308
330
306
100
AcDbEntity
  8
STANDARDEBENE
 62
   250
100
AcDbVertex
100
AcDb2dVertex
 10
45.68664715254523
 20
-81.0566045590984
 30
0.0
  0
VERTEX
  5
309
330
306
100
AcDbEntity
  8
STANDARDEBENE
 62
   250
100
AcDbVertex
100
AcDb2dVertex
 10
46.89811577913247
 20
-81.0566045590984
 30
0.0
  0
VERTEX
  5
30A
330
306
100
AcDbEntity
  8
STANDARDEBENE
 62
   250
100
AcDbVertex
100
AcDb2dVertex
 10
47.91752020571333
 20
-81.0566045590984
 30
0.0
  0
VERTEX
  5
30B
330
306
100
AcDbEntity
  8
STANDARDEBENE
 62
   250
100
AcDbVertex
100
AcDb2dVertex
 10
48.72660141417063
 20
-81.0566045590984
 30
0.0
  0
VERTEX
  5
30C
330
306
100
AcDbEntity
  8
STANDARDEBENE
 62
   250
100
AcDbVertex
100
AcDb2dVertex
 10
49.3138183270152
 20
-81.0566045590984
 30
0.0
  0
VERTEX
  5
30D
330
306
100
AcDbEntity
  8
STANDARDEBENE
 62
   250
100
AcDbVertex
100
AcDb2dVertex
 10
49.67107496451583
 20
-81.0566045590984
 30
0.0
  0
VERTEX
  5
30E
330
306
100
AcDbEntity
  8
STANDARDEBENE
 62
   250
100
AcDbVertex
100
AcDb2dVertex
 10
49.79010309205341
 20
-81.0566045590984
 30
0.0
  0
SEQEND
  5
30F
330
306
100
AcDbEntity
  8
STANDARDEBENE
  0
POLYLINE
  5
310
330
1F
100
AcDbEntity
  8
STANDARDEBENE
 62
   250
100
AcDb2dPolyline
 66
     1
 10
0.0
 20
0.0
 30
0.0
  0
VERTEX
  5
311
330
310
100
AcDbEntity
  8
STANDARDEBENE
 62
   250
100
AcDbVertex
100
AcDb2dVertex
 10
19.79019181572302
 20
-81.0566045590984
 30
0.0
  0
VERTEX
  5
312
330
310
100
AcDbEntity
  8
STANDARDEBENE
 62
   250
100
AcDbVertex
100
AcDb2dVertex
 10
19.9092199432606
 20
-81.0566045590984
 30
0.0
  0
VERTEX
  5
313
330
310
100
AcDbEntity
  8
STANDARDEBENE
 62
   250
100
AcDbVertex
100
AcDb2dVertex
 10
20.26561530632173
 20
-81.0566045590984
 30
0.0
  0
VERTEX
  5
314
330
310
100
AcDbEntity
  8
STANDARDEBENE
 62
   250
100
AcDbVertex
100
AcDb2dVertex
 10
20.8535212387179
 20
-81.0566045590984
 30
0.0
  0
VERTEX
  5
315
330
310
100
AcDbEntity
  8
STANDARDEBENE
 62
   250
100
AcDbVertex
100
AcDb2dVertex
 10
21.6627747020631
 20
-81.0566045590984
 30
0.0
  0
VERTEX
  5
316
330
310
100
AcDbEntity
  8
STANDARDEBENE
 62
   250
100
AcDbVertex
100
AcDb2dVertex
 10
22.68183461886817
 20
-81.0566045590984
 30
0.0
  0
VERTEX
  5
317
330
310
100
AcDbEntity
  8
STANDARDEBENE
 62
   250
100
AcDbVertex
100
AcDb2dVertex
 10
23.89330324545539
 20
-81.0566045590984
 30
0.0
  0
VERTEX
  5
318
330
310
100
AcDbEntity
  8
STANDARDEBENE
 62
   250
100
AcDbVertex
100
AcDb2dVertex
 10
25.27823254415599
 20
-81.0566045590984
 30
0.0
  0
VERTEX
  5
319
330
310
100
AcDbEntity
  8
STANDARDEBENE
 62
   250
100
AcDbVertex
100
AcDb2dVertex
 10
24.08812352366813
 20
-79.9686426871341
 30
0.0
  0
VERTEX
  5
31A
330
310
100
AcDbEntity
  8
STANDARDEBENE
 62
   250
100
AcDbVertex
100
AcDb2dVertex
 10
24.03713607685029
 20
-79.8975014184322
 30
0.0
  0
VERTEX
  5
31B
330
310
100
AcDbEntity
  8
STANDARDEBENE
 62
   250
100
AcDbVertex
100
AcDb2dVertex
 10
24.01009205945029
 20
-79.82394858129972
 30
0.0
  0
VERTEX
  5
31C
330
310
100
AcDbEntity
  8
STANDARDEBENE
 62
   250
100
AcDbVertex
100
AcDb2dVertex
 10
24.00320186393437
 20
-79.74092172533284
 30
0.0
  0
VERTEX
  5
31D
330
310
100
AcDbEntity
  8
STANDARDEBENE
 62
   250
100
AcDbVertex
100
AcDb2dVertex
 10
24.01543196097514
 20
-79.66943594685513
 30
0.0
  0
VERTEX
  5
31E
330
310
100
AcDbEntity
  8
STANDARDEBENE
 62
   250
100
AcDbVertex
100
AcDb2dVertex
 10
24.04264823326303
 20
-79.60466810900544
 30
0.0
  0
VERTEX
  5
31F
330
310
100
AcDbEntity
  8
STANDARDEBENE
 62
   250
100
AcDbVertex
100
AcDb2dVertex
 10
24.08812352366813
 20
-79.5448956629048
 30
0.0
  0
SEQEND
  5
320
330
310
100
AcDbEntity
  8
STANDARDEBENE
  0
POLYLINE
  5
321
330
1F
100
AcDbEntity
  8
STANDARDEBENE
 62
   250
100
AcDb2dPolyline
 66
     1
 10
0.0
 20
0.0
 30
0.0
  0
VERTEX
  5
322
330
321
100
AcDbEntity
  8
STANDARDEBENE
 62
   250
100
AcDbVertex
100
AcDb2dVertex
 10
25.7896573063254
 20
-77.45802769601953
 30
0.0
  0
VERTEX
  5
323
330
321
100
AcDbEntity
  8
STANDARDEBENE
 62
   250
100
AcDbVertex
100
AcDb2dVertex
 10
25.7896573063254
 20
-78.05506313747428
 30
0.0
  0
SEQEND
  5
324
330
321
100
AcDbEntity
  8
STANDARDEBENE
  0
POLYLINE
  5
325
330
1F
100
AcDbEntity
  8
STANDARDEBENE
 62
   250
100
AcDb2dPolyline
 66
     1
 10
0.0
 20
0.0
 30
0.0
  0
VERTEX
  5
326
330
325
100
AcDbEntity
  8
STANDARDEBENE
 62
   250
100
AcDbVertex
100
AcDb2dVertex
 10
24.08812352366813
 20
-79.5448956629048
 30
0.0
  0
VERTEX
  5
327
330
325
100
AcDbEntity
  8
STANDARDEBENE
 62
   250
100
AcDbVertex
100
AcDb2dVertex
 10
25.7896573063254
 20
-78.05506313747428
 30
0.0
  0
SEQEND
  5
328
330
325
100
AcDbEntity
  8
STANDARDEBENE
  0
POLYLINE
  5
329
330
1F
100
AcDbEntity
  8
STANDARDEBENE
 62
   250
100
AcDb2dPolyline
 66
     1
 10
0.0
 20
0.0
 30
0.0
  0
VERTEX
  5
32A
330
329
100
AcDbEntity
  8
STANDARDEBENE
 62
   250
100
AcDbVertex
100
AcDb2dVertex
 10
24.08812352366813
 20
-75.96853968036478
 30
0.0
  0
VERTEX
  5
32B
330
329
100
AcDbEntity
  8
STANDARDEBENE
 62
   250
100
AcDbVertex
100
AcDb2dVertex
 10
25.7896573063254
 20
-77.45802769601953
 30
0.0
  0
SEQEND
  5
32C
330
329
100
AcDbEntity
  8
STANDARDEBENE
  0
POLYLINE
  5
32D
330
1F
100
AcDbEntity
  8
STANDARDEBENE
 62
   250
100
AcDb2dPolyline
 66
     1
 10
0.0
 20
0.0
 30
0.0
  0
VERTEX
  5
32E
330
32D
100
AcDbEntity
  8
STANDARDEBENE
 62
   250
100
AcDbVertex
100
AcDb2dVertex
 10
24.08812352366813
 20
-75.96853968036478
 30
0.0
  0
VERTEX
  5
32F
330
32D
100
AcDbEntity
  8
STANDARDEBENE
 62
   250
100
AcDbVertex
100
AcDb2dVertex
 10
24.03713607685029
 20
-75.89774292143868
 30
0.0
  0
VERTEX
  5
330
330
32D
100
AcDbEntity
  8
STANDARDEBENE
 62
   250
100
AcDbVertex
100
AcDb2dVertex
 10
24.01009205945029
 20
-75.8235010647546
 30
0.0
  0
VERTEX
  5
331
330
32D
100
AcDbEntity
  8
STANDARDEBENE
 62
   250
100
AcDbVertex
100
AcDb2dVertex
 10
24.00320186393437
 20
-75.74081871856352
 30
0.0
  0
VERTEX
  5
332
330
32D
100
AcDbEntity
  8
STANDARDEBENE
 62
   250
100
AcDbVertex
100
AcDb2dVertex
 10
24.01543196097514
 20
-75.66881617542212
 30
0.0
  0
VERTEX
  5
333
330
32D
100
AcDbEntity
  8
STANDARDEBENE
 62
   250
100
AcDbVertex
100
AcDb2dVertex
 10
24.04264823326303
 20
-75.60490961201192
 30
0.0
  0
VERTEX
  5
334
330
32D
100
AcDbEntity
  8
STANDARDEBENE
 62
   250
100
AcDbVertex
100
AcDb2dVertex
 10
24.08812352366813
 20
-75.5444481463597
 30
0.0
  0
VERTEX
  5
335
330
32D
100
AcDbEntity
  8
STANDARDEBENE
 62
   250
100
AcDbVertex
100
AcDb2dVertex
 10
25.7896573063254
 20
-74.05582140514446
 30
0.0
  0
SEQEND
  5
336
330
32D
100
AcDbEntity
  8
STANDARDEBENE
  0
POLYLINE
  5
337
330
1F
100
AcDbEntity
  8
STANDARDEBENE
 62
   250
100
AcDb2dPolyline
 66
     1
 10
0.0
 20
0.0
 30
0.0
  0
VERTEX
  5
338
330
337
100
AcDbEntity
  8
STANDARDEBENE
 62
   250
100
AcDbVertex
100
AcDb2dVertex
 10
25.7896573063254
 20
-73.458269199026
 30
0.0
  0
VERTEX
  5
339
330
337
100
AcDbEntity
  8
STANDARDEBENE
 62
   250
100
AcDbVertex
100
AcDb2dVertex
 10
25.7896573063254
 20
-74.05582140514446
 30
0.0
  0
SEQEND
  5
33A
330
337
100
AcDbEntity
  8
STANDARDEBENE
  0
POLYLINE
  5
33B
330
1F
100
AcDbEntity
  8
STANDARDEBENE
 62
   250
100
AcDb2dPolyline
 66
     1
 10
0.0
 20
0.0
 30
0.0
  0
VERTEX
  5
33C
330
33B
100
AcDbEntity
  8
STANDARDEBENE
 62
   250
100
AcDbVertex
100
AcDb2dVertex
 10
24.08812352366813
 20
-71.96843667359546
 30
0.0
  0
VERTEX
  5
33D
330
33B
100
AcDbEntity
  8
STANDARDEBENE
 62
   250
100
AcDbVertex
100
AcDb2dVertex
 10
25.7896573063254
 20
-73.458269199026
 30
0.0
  0
SEQEND
  5
33E
330
33B
100
AcDbEntity
  8
STANDARDEBENE
  0
POLYLINE
  5
33F
330
1F
100
AcDbEntity
  8
STANDARDEBENE
 62
   250
100
AcDb2dPolyline
 66
     1
 10
0.0
 20
0.0
 30
0.0
  0
VERTEX
  5
340
330
33F
100
AcDbEntity
  8
STANDARDEBENE
 62
   250
100
AcDbVertex
100
AcDb2dVertex
 10
24.08812352366813
 20
-71.96843667359546
 30
0.0
  0
VERTEX
  5
341
330
33F
100
AcDbEntity
  8
STANDARDEBENE
 62
   250
100
AcDbVertex
100
AcDb2dVertex
 10
24.03713607685029
 20
-71.89763991466936
 30
0.0
  0
VERTEX
  5
342
330
33F
100
AcDbEntity
  8
STANDARDEBENE
 62
   250
100
AcDbVertex
100
AcDb2dVertex
 10
24.01009205945029
 20
-71.82374256776107
 30
0.0
  0
VERTEX
  5
343
330
33F
100
AcDbEntity
  8
STANDARDEBENE
 62
   250
100
AcDbVertex
100
AcDb2dVertex
 10
24.00320186393437
 20
-71.7407157117942
 30
0.0
  0
VERTEX
  5
344
330
33F
100
AcDbEntity
  8
STANDARDEBENE
 62
   250
100
AcDbVertex
100
AcDb2dVertex
 10
24.01543196097514
 20
-71.66940218820439
 30
0.0
  0
VERTEX
  5
345
330
33F
100
AcDbEntity
  8
STANDARDEBENE
 62
   250
100
AcDbVertex
100
AcDb2dVertex
 10
24.04264823326303
 20
-71.60480660524262
 30
0.0
  0
VERTEX
  5
346
330
33F
100
AcDbEntity
  8
STANDARDEBENE
 62
   250
100
AcDbVertex
100
AcDb2dVertex
 10
24.08812352366813
 20
-71.54468964936618
 30
0.0
  0
SEQEND
  5
347
330
33F
100
AcDbEntity
  8
STANDARDEBENE
  0
POLYLINE
  5
348
330
1F
100
AcDbEntity
  8
STANDARDEBENE
 62
   250
100
AcDb2dPolyline
 66
     1
 10
0.0
 20
0.0
 30
0.0
  0
VERTEX
  5
349
330
348
100
AcDbEntity
  8
STANDARDEBENE
 62
   250
100
AcDbVertex
100
AcDb2dVertex
 10
25.7896573063254
 20
-70.05571839837513
 30
0.0
  0
VERTEX
  5
34A
330
348
100
AcDbEntity
  8
STANDARDEBENE
 62
   250
100
AcDbVertex
100
AcDb2dVertex
 10
24.08812352366813
 20
-71.54468964936618
 30
0.0
  0
SEQEND
  5
34B
330
348
100
AcDbEntity
  8
STANDARDEBENE
  0
POLYLINE
  5
34C
330
1F
100
AcDbEntity
  8
STANDARDEBENE
 62
   250
100
AcDb2dPolyline
 66
     1
 10
0.0
 20
0.0
 30
0.0
  0
VERTEX
  5
34D
330
34C
100
AcDbEntity
  8
STANDARDEBENE
 62
   250
100
AcDbVertex
100
AcDb2dVertex
 10
25.7896573063254
 20
-69.45764942759298
 30
0.0
  0
VERTEX
  5
34E
330
34C
100
AcDbEntity
  8
STANDARDEBENE
 62
   250
100
AcDbVertex
100
AcDb2dVertex
 10
25.7896573063254
 20
-70.05571839837513
 30
0.0
  0
SEQEND
  5
34F
330
34C
100
AcDbEntity
  8
STANDARDEBENE
  0
POLYLINE
  5
350
330
1F
100
AcDbEntity
  8
STANDARDEBENE
 62
   250
100
AcDb2dPolyline
 66
     1
 10
0.0
 20
0.0
 30
0.0
  0
VERTEX
  5
351
330
350
100
AcDbEntity
  8
STANDARDEBENE
 62
   250
100
AcDbVertex
100
AcDb2dVertex
 10
25.7896573063254
 20
-69.45764942759298
 30
0.0
  0
VERTEX
  5
352
330
350
100
AcDbEntity
  8
STANDARDEBENE
 62
   250
100
AcDbVertex
100
AcDb2dVertex
 10
24.08812352366813
 20
-67.96867817660195
 30
0.0
  0
VERTEX
  5
353
330
350
100
AcDbEntity
  8
STANDARDEBENE
 62
   250
100
AcDbVertex
100
AcDb2dVertex
 10
24.03713607685029
 20
-67.89822592745163
 30
0.0
  0
VERTEX
  5
354
330
350
100
AcDbEntity
  8
STANDARDEBENE
 62
   250
100
AcDbVertex
100
AcDb2dVertex
 10
24.01009205945029
 20
-67.82398407076755
 30
0.0
  0
VERTEX
  5
355
330
350
100
AcDbEntity
  8
STANDARDEBENE
 62
   250
100
AcDbVertex
100
AcDb2dVertex
 10
24.00320186393437
 20
-67.74061270502489
 30
0.0
  0
VERTEX
  5
356
330
350
100
AcDbEntity
  8
STANDARDEBENE
 62
   250
100
AcDbVertex
100
AcDb2dVertex
 10
24.01543196097514
 20
-67.66929918143508
 30
0.0
  0
VERTEX
  5
357
330
350
100
AcDbEntity
  8
STANDARDEBENE
 62
   250
100
AcDbVertex
100
AcDb2dVertex
 10
24.04264823326303
 20
-67.6047035984733
 30
0.0
  0
VERTEX
  5
358
330
350
100
AcDbEntity
  8
STANDARDEBENE
 62
   250
100
AcDbVertex
100
AcDb2dVertex
 10
24.08812352366813
 20
-67.54458664259687
 30
0.0
  0
VERTEX
  5
359
330
350
100
AcDbEntity
  8
STANDARDEBENE
 62
   250
100
AcDbVertex
100
AcDb2dVertex
 10
25.7896573063254
 20
-66.05509862694213
 30
0.0
  0
SEQEND
  5
35A
330
350
100
AcDbEntity
  8
STANDARDEBENE
  0
POLYLINE
  5
35B
330
1F
100
AcDbEntity
  8
STANDARDEBENE
 62
   250
100
AcDb2dPolyline
 66
     1
 10
0.0
 20
0.0
 30
0.0
  0
VERTEX
  5
35C
330
35B
100
AcDbEntity
  8
STANDARDEBENE
 62
   250
100
AcDbVertex
100
AcDb2dVertex
 10
25.7896573063254
 20
-65.45754642082368
 30
0.0
  0
VERTEX
  5
35D
330
35B
100
AcDbEntity
  8
STANDARDEBENE
 62
   250
100
AcDbVertex
100
AcDb2dVertex
 10
25.7896573063254
 20
-66.05509862694213
 30
0.0
  0
SEQEND
  5
35E
330
35B
100
AcDbEntity
  8
STANDARDEBENE
  0
POLYLINE
  5
35F
330
1F
100
AcDbEntity
  8
STANDARDEBENE
 62
   250
100
AcDb2dPolyline
 66
     1
 10
0.0
 20
0.0
 30
0.0
  0
VERTEX
  5
360
330
35F
100
AcDbEntity
  8
STANDARDEBENE
 62
   250
100
AcDbVertex
100
AcDb2dVertex
 10
24.08812352366813
 20
-63.96891967960843
 30
0.0
  0
VERTEX
  5
361
330
35F
100
AcDbEntity
  8
STANDARDEBENE
 62
   250
100
AcDbVertex
100
AcDb2dVertex
 10
25.7896573063254
 20
-65.45754642082368
 30
0.0
  0
SEQEND
  5
362
330
35F
100
AcDbEntity
  8
STANDARDEBENE
  0
POLYLINE
  5
363
330
1F
100
AcDbEntity
  8
STANDARDEBENE
 62
   250
100
AcDb2dPolyline
 66
     1
 10
0.0
 20
0.0
 30
0.0
  0
VERTEX
  5
364
330
363
100
AcDbEntity
  8
STANDARDEBENE
 62
   250
100
AcDbVertex
100
AcDb2dVertex
 10
24.08812352366813
 20
-63.96891967960843
 30
0.0
  0
VERTEX
  5
365
330
363
100
AcDbEntity
  8
STANDARDEBENE
 62
   250
100
AcDbVertex
100
AcDb2dVertex
 10
24.03713607685029
 20
-63.89812292068231
 30
0.0
  0
VERTEX
  5
366
330
363
100
AcDbEntity
  8
STANDARDEBENE
 62
   250
100
AcDbVertex
100
AcDb2dVertex
 10
24.01009205945029
 20
-63.82422557377404
 30
0.0
  0
VERTEX
  5
367
330
363
100
AcDbEntity
  8
STANDARDEBENE
 62
   250
100
AcDbVertex
100
AcDb2dVertex
 10
24.00320186393437
 20
-63.74085420803137
 30
0.0
  0
VERTEX
  5
368
330
363
100
AcDbEntity
  8
STANDARDEBENE
 62
   250
100
AcDbVertex
100
AcDb2dVertex
 10
24.01543196097514
 20
-63.66919617466576
 30
0.0
  0
VERTEX
  5
369
330
363
100
AcDbEntity
  8
STANDARDEBENE
 62
   250
100
AcDbVertex
100
AcDb2dVertex
 10
24.04264823326303
 20
-63.60442833681608
 30
0.0
  0
VERTEX
  5
36A
330
363
100
AcDbEntity
  8
STANDARDEBENE
 62
   250
100
AcDbVertex
100
AcDb2dVertex
 10
24.08812352366813
 20
-63.54448363582755
 30
0.0
  0
SEQEND
  5
36B
330
363
100
AcDbEntity
  8
STANDARDEBENE
  0
POLYLINE
  5
36C
330
1F
100
AcDbEntity
  8
STANDARDEBENE
 62
   250
100
AcDb2dPolyline
 66
     1
 10
0.0
 20
0.0
 30
0.0
  0
VERTEX
  5
36D
330
36C
100
AcDbEntity
  8
STANDARDEBENE
 62
   250
100
AcDbVertex
100
AcDb2dVertex
 10
25.7896573063254
 20
-62.05534012994861
 30
0.0
  0
VERTEX
  5
36E
330
36C
100
AcDbEntity
  8
STANDARDEBENE
 62
   250
100
AcDbVertex
100
AcDb2dVertex
 10
24.08812352366813
 20
-63.54448363582755
 30
0.0
  0
SEQEND
  5
36F
330
36C
100
AcDbEntity
  8
STANDARDEBENE
  0
POLYLINE
  5
370
330
1F
100
AcDbEntity
  8
STANDARDEBENE
 62
   250
100
AcDb2dPolyline
 66
     1
 10
0.0
 20
0.0
 30
0.0
  0
VERTEX
  5
371
330
370
100
AcDbEntity
  8
STANDARDEBENE
 62
   250
100
AcDbVertex
100
AcDb2dVertex
 10
25.7896573063254
 20
-61.45778792383015
 30
0.0
  0
VERTEX
  5
372
330
370
100
AcDbEntity
  8
STANDARDEBENE
 62
   250
100
AcDbVertex
100
AcDb2dVertex
 10
25.7896573063254
 20
-62.05534012994861
 30
0.0
  0
SEQEND
  5
373
330
370
100
AcDbEntity
  8
STANDARDEBENE
  0
POLYLINE
  5
374
330
1F
100
AcDbEntity
  8
STANDARDEBENE
 62
   250
100
AcDb2dPolyline
 66
     1
 10
0.0
 20
0.0
 30
0.0
  0
VERTEX
  5
375
330
374
100
AcDbEntity
  8
STANDARDEBENE
 62
   250
100
AcDbVertex
100
AcDb2dVertex
 10
25.7896573063254
 20
-61.45778792383015
 30
0.0
  0
VERTEX
  5
376
330
374
100
AcDbEntity
  8
STANDARDEBENE
 62
   250
100
AcDbVertex
100
AcDb2dVertex
 10
24.08812352366813
 20
-59.96847216306332
 30
0.0
  0
VERTEX
  5
377
330
374
100
AcDbEntity
  8
STANDARDEBENE
 62
   250
100
AcDbVertex
100
AcDb2dVertex
 10
24.03713607685029
 20
-59.8975031492493
 30
0.0
  0
VERTEX
  5
378
330
374
100
AcDbEntity
  8
STANDARDEBENE
 62
   250
100
AcDbVertex
100
AcDb2dVertex
 10
24.01009205945029
 20
-59.82446707678051
 30
0.0
  0
VERTEX
  5
379
330
374
100
AcDbEntity
  8
STANDARDEBENE
 62
   250
100
AcDbVertex
100
AcDb2dVertex
 10
24.00320186393437
 20
-59.74109571103784
 30
0.0
  0
VERTEX
  5
37A
330
374
100
AcDbEntity
  8
STANDARDEBENE
 62
   250
100
AcDbVertex
100
AcDb2dVertex
 10
24.01543196097514
 20
-59.66943767767224
 30
0.0
  0
VERTEX
  5
37B
330
374
100
AcDbEntity
  8
STANDARDEBENE
 62
   250
100
AcDbVertex
100
AcDb2dVertex
 10
24.04264823326303
 20
-59.60466983982256
 30
0.0
  0
VERTEX
  5
37C
330
374
100
AcDbEntity
  8
STANDARDEBENE
 62
   250
100
AcDbVertex
100
AcDb2dVertex
 10
24.08812352366813
 20
-59.54472513883402
 30
0.0
  0
SEQEND
  5
37D
330
374
100
AcDbEntity
  8
STANDARDEBENE
  0
POLYLINE
  5
37E
330
1F
100
AcDbEntity
  8
STANDARDEBENE
 62
   250
100
AcDb2dPolyline
 66
     1
 10
0.0
 20
0.0
 30
0.0
  0
VERTEX
  5
37F
330
37E
100
AcDbEntity
  8
STANDARDEBENE
 62
   250
100
AcDbVertex
100
AcDb2dVertex
 10
25.7896573063254
 20
-57.45802942683663
 30
0.0
  0
VERTEX
  5
380
330
37E
100
AcDbEntity
  8
STANDARDEBENE
 62
   250
100
AcDbVertex
100
AcDb2dVertex
 10
25.7896573063254
 20
-58.05523712317929
 30
0.0
  0
SEQEND
  5
381
330
37E
100
AcDbEntity
  8
STANDARDEBENE
  0
POLYLINE
  5
382
330
1F
100
AcDbEntity
  8
STANDARDEBENE
 62
   250
100
AcDb2dPolyline
 66
     1
 10
0.0
 20
0.0
 30
0.0
  0
VERTEX
  5
383
330
382
100
AcDbEntity
  8
STANDARDEBENE
 62
   250
100
AcDbVertex
100
AcDb2dVertex
 10
24.08812352366813
 20
-59.54472513883402
 30
0.0
  0
VERTEX
  5
384
330
382
100
AcDbEntity
  8
STANDARDEBENE
 62
   250
100
AcDbVertex
100
AcDb2dVertex
 10
25.7896573063254
 20
-58.05523712317929
 30
0.0
  0
SEQEND
  5
385
330
382
100
AcDbEntity
  8
STANDARDEBENE
  0
POLYLINE
  5
386
330
1F
100
AcDbEntity
  8
STANDARDEBENE
 62
   250
100
AcDb2dPolyline
 66
     1
 10
0.0
 20
0.0
 30
0.0
  0
VERTEX
  5
387
330
386
100
AcDbEntity
  8
STANDARDEBENE
 62
   250
100
AcDbVertex
100
AcDb2dVertex
 10
24.08812352366813
 20
-55.96905817584559
 30
0.0
  0
VERTEX
  5
388
330
386
100
AcDbEntity
  8
STANDARDEBENE
 62
   250
100
AcDbVertex
100
AcDb2dVertex
 10
25.7896573063254
 20
-57.45802942683663
 30
0.0
  0
SEQEND
  5
389
330
386
100
AcDbEntity
  8
STANDARDEBENE
  0
POLYLINE
  5
38A
330
1F
100
AcDbEntity
  8
STANDARDEBENE
 62
   250
100
AcDb2dPolyline
 66
     1
 10
0.0
 20
0.0
 30
0.0
  0
VERTEX
  5
38B
330
38A
100
AcDbEntity
  8
STANDARDEBENE
 62
   250
100
AcDbVertex
100
AcDb2dVertex
 10
24.08812352366813
 20
-55.96905817584559
 30
0.0
  0
VERTEX
  5
38C
330
38A
100
AcDbEntity
  8
STANDARDEBENE
 62
   250
100
AcDbVertex
100
AcDb2dVertex
 10
24.03713607685029
 20
-55.89791690714368
 30
0.0
  0
VERTEX
  5
38D
330
38A
100
AcDbEntity
  8
STANDARDEBENE
 62
   250
100
AcDbVertex
100
AcDb2dVertex
 10
24.01009205945029
 20
-55.82350279557171
 30
0.0
  0
VERTEX
  5
38E
330
38A
100
AcDbEntity
  8
STANDARDEBENE
 62
   250
100
AcDbVertex
100
AcDb2dVertex
 10
24.00320186393437
 20
-55.74133721404432
 30
0.0
  0
VERTEX
  5
38F
330
38A
100
AcDbEntity
  8
STANDARDEBENE
 62
   250
100
AcDbVertex
100
AcDb2dVertex
 10
24.01543196097514
 20
-55.66899016112713
 30
0.0
  0
VERTEX
  5
390
330
38A
100
AcDbEntity
  8
STANDARDEBENE
 62
   250
100
AcDbVertex
100
AcDb2dVertex
 10
24.04264823326303
 20
-55.60456683305324
 30
0.0
  0
VERTEX
  5
391
330
38A
100
AcDbEntity
  8
STANDARDEBENE
 62
   250
100
AcDbVertex
100
AcDb2dVertex
 10
24.08812352366813
 20
-55.54444987717681
 30
0.0
  0
VERTEX
  5
392
330
38A
100
AcDbEntity
  8
STANDARDEBENE
 62
   250
100
AcDbVertex
100
AcDb2dVertex
 10
25.7896573063254
 20
-54.05582313596157
 30
0.0
  0
SEQEND
  5
393
330
38A
100
AcDbEntity
  8
STANDARDEBENE
  0
POLYLINE
  5
394
330
1F
100
AcDbEntity
  8
STANDARDEBENE
 62
   250
100
AcDb2dPolyline
 66
     1
 10
0.0
 20
0.0
 30
0.0
  0
VERTEX
  5
395
330
394
100
AcDbEntity
  8
STANDARDEBENE
 62
   250
100
AcDbVertex
100
AcDb2dVertex
 10
25.7896573063254
 20
-53.45827092984311
 30
0.0
  0
VERTEX
  5
396
330
394
100
AcDbEntity
  8
STANDARDEBENE
 62
   250
100
AcDbVertex
100
AcDb2dVertex
 10
25.7896573063254
 20
-54.05582313596157
 30
0.0
  0
SEQEND
  5
397
330
394
100
AcDbEntity
  8
STANDARDEBENE
  0
POLYLINE
  5
398
330
1F
100
AcDbEntity
  8
STANDARDEBENE
 62
   250
100
AcDb2dPolyline
 66
     1
 10
0.0
 20
0.0
 30
0.0
  0
VERTEX
  5
399
330
398
100
AcDbEntity
  8
STANDARDEBENE
 62
   250
100
AcDbVertex
100
AcDb2dVertex
 10
24.08812352366813
 20
-51.96843840441258
 30
0.0
  0
VERTEX
  5
39A
330
398
100
AcDbEntity
  8
STANDARDEBENE
 62
   250
100
AcDbVertex
100
AcDb2dVertex
 10
25.7896573063254
 20
-53.45827092984311
 30
0.0
  0
SEQEND
  5
39B
330
398
100
AcDbEntity
  8
STANDARDEBENE
  0
POLYLINE
  5
39C
330
1F
100
AcDbEntity
  8
STANDARDEBENE
 62
   250
100
AcDb2dPolyline
 66
     1
 10
0.0
 20
0.0
 30
0.0
  0
VERTEX
  5
39D
330
39C
100
AcDbEntity
  8
STANDARDEBENE
 62
   250
100
AcDbVertex
100
AcDb2dVertex
 10
24.08812352366813
 20
-51.96843840441258
 30
0.0
  0
VERTEX
  5
39E
330
39C
100
AcDbEntity
  8
STANDARDEBENE
 62
   250
100
AcDbVertex
100
AcDb2dVertex
 10
24.03713607685029
 20
-51.89815841015016
 30
0.0
  0
VERTEX
  5
39F
330
39C
100
AcDbEntity
  8
STANDARDEBENE
 62
   250
100
AcDbVertex
100
AcDb2dVertex
 10
24.01009205945029
 20
-51.82374429857819
 30
0.0
  0
VERTEX
  5
3A0
330
39C
100
AcDbEntity
  8
STANDARDEBENE
 62
   250
100
AcDbVertex
100
AcDb2dVertex
 10
24.00320186393437
 20
-51.74071744261131
 30
0.0
  0
VERTEX
  5
3A1
330
39C
100
AcDbEntity
  8
STANDARDEBENE
 62
   250
100
AcDbVertex
100
AcDb2dVertex
 10
24.01543196097514
 20
-51.66957617390941
 30
0.0
  0
VERTEX
  5
3A2
330
39C
100
AcDbEntity
  8
STANDARDEBENE
 62
   250
100
AcDbVertex
100
AcDb2dVertex
 10
24.04264823326303
 20
-51.60480833605973
 30
0.0
  0
VERTEX
  5
3A3
330
39C
100
AcDbEntity
  8
STANDARDEBENE
 62
   250
100
AcDbVertex
100
AcDb2dVertex
 10
24.08812352366813
 20
-51.54434687040749
 30
0.0
  0
SEQEND
  5
3A4
330
39C
100
AcDbEntity
  8
STANDARDEBENE
  0
POLYLINE
  5
3A5
330
1F
100
AcDbEntity
  8
STANDARDEBENE
 62
   250
100
AcDb2dPolyline
 66
     1
 10
0.0
 20
0.0
 30
0.0
  0
VERTEX
  5
3A6
330
3A5
100
AcDbEntity
  8
STANDARDEBENE
 62
   250
100
AcDbVertex
100
AcDb2dVertex
 10
25.7896573063254
 20
-50.05503110964066
 30
0.0
  0
VERTEX
  5
3A7
330
3A5
100
AcDbEntity
  8
STANDARDEBENE
 62
   250
100
AcDbVertex
100
AcDb2dVertex
 10
24.08812352366813
 20
-51.54434687040749
 30
0.0
  0
SEQEND
  5
3A8
330
3A5
100
AcDbEntity
  8
STANDARDEBENE
  0
POLYLINE
  5
3A9
330
1F
100
AcDbEntity
  8
STANDARDEBENE
 62
   250
100
AcDb2dPolyline
 66
     1
 10
0.0
 20
0.0
 30
0.0
  0
VERTEX
  5
3AA
330
3A9
100
AcDbEntity
  8
STANDARDEBENE
 62
   250
100
AcDbVertex
100
AcDb2dVertex
 10
25.7896573063254
 20
-49.457823413298
 30
0.0
  0
VERTEX
  5
3AB
330
3A9
100
AcDbEntity
  8
STANDARDEBENE
 62
   250
100
AcDbVertex
100
AcDb2dVertex
 10
25.7896573063254
 20
-50.05503110964066
 30
0.0
  0
SEQEND
  5
3AC
330
3A9
100
AcDbEntity
  8
STANDARDEBENE
  0
POLYLINE
  5
3AD
330
1F
100
AcDbEntity
  8
STANDARDEBENE
 62
   250
100
AcDb2dPolyline
 66
     1
 10
0.0
 20
0.0
 30
0.0
  0
VERTEX
  5
3AE
330
3AD
100
AcDbEntity
  8
STANDARDEBENE
 62
   250
100
AcDbVertex
100
AcDb2dVertex
 10
25.7896573063254
 20
-49.457823413298
 30
0.0
  0
VERTEX
  5
3AF
330
3AD
100
AcDbEntity
  8
STANDARDEBENE
 62
   250
100
AcDbVertex
100
AcDb2dVertex
 10
24.08812352366813
 20
-47.96867990741906
 30
0.0
  0
VERTEX
  5
3B0
330
3AD
100
AcDbEntity
  8
STANDARDEBENE
 62
   250
100
AcDbVertex
100
AcDb2dVertex
 10
24.03713607685029
 20
-47.89788314849294
 30
0.0
  0
VERTEX
  5
3B1
330
3AD
100
AcDbEntity
  8
STANDARDEBENE
 62
   250
100
AcDbVertex
100
AcDb2dVertex
 10
24.01009205945029
 20
-47.82398580158467
 30
0.0
  0
VERTEX
  5
3B2
330
3AD
100
AcDbEntity
  8
STANDARDEBENE
 62
   250
100
AcDbVertex
100
AcDb2dVertex
 10
24.00320186393437
 20
-47.74095894561779
 30
0.0
  0
VERTEX
  5
3B3
330
3AD
100
AcDbEntity
  8
STANDARDEBENE
 62
   250
100
AcDbVertex
100
AcDb2dVertex
 10
24.01543196097514
 20
-47.66895640247639
 30
0.0
  0
VERTEX
  5
3B4
330
3AD
100
AcDbEntity
  8
STANDARDEBENE
 62
   250
100
AcDbVertex
100
AcDb2dVertex
 10
24.04264823326303
 20
-47.60436081951461
 30
0.0
  0
VERTEX
  5
3B5
330
3AD
100
AcDbEntity
  8
STANDARDEBENE
 62
   250
100
AcDbVertex
100
AcDb2dVertex
 10
24.08812352366813
 20
-47.54458837341397
 30
0.0
  0
VERTEX
  5
3B6
330
3AD
100
AcDbEntity
  8
STANDARDEBENE
 62
   250
100
AcDbVertex
100
AcDb2dVertex
 10
25.7896573063254
 20
-46.05561712242294
 30
0.0
  0
SEQEND
  5
3B7
330
3AD
100
AcDbEntity
  8
STANDARDEBENE
  0
POLYLINE
  5
3B8
330
1F
100
AcDbEntity
  8
STANDARDEBENE
 62
   250
100
AcDb2dPolyline
 66
     1
 10
0.0
 20
0.0
 30
0.0
  0
VERTEX
  5
3B9
330
3B8
100
AcDbEntity
  8
STANDARDEBENE
 62
   250
100
AcDbVertex
100
AcDb2dVertex
 10
25.7896573063254
 20
-45.45806491630448
 30
0.0
  0
VERTEX
  5
3BA
330
3B8
100
AcDbEntity
  8
STANDARDEBENE
 62
   250
100
AcDbVertex
100
AcDb2dVertex
 10
25.7896573063254
 20
-46.05561712242294
 30
0.0
  0
SEQEND
  5
3BB
330
3B8
100
AcDbEntity
  8
STANDARDEBENE
  0
POLYLINE
  5
3BC
330
1F
100
AcDbEntity
  8
STANDARDEBENE
 62
   250
100
AcDb2dPolyline
 66
     1
 10
0.0
 20
0.0
 30
0.0
  0
VERTEX
  5
3BD
330
3BC
100
AcDbEntity
  8
STANDARDEBENE
 62
   250
100
AcDbVertex
100
AcDb2dVertex
 10
24.08812352366813
 20
-43.96892141042554
 30
0.0
  0
VERTEX
  5
3BE
330
3BC
100
AcDbEntity
  8
STANDARDEBENE
 62
   250
100
AcDbVertex
100
AcDb2dVertex
 10
25.7896573063254
 20
-45.45806491630448
 30
0.0
  0
SEQEND
  5
3BF
330
3BC
100
AcDbEntity
  8
STANDARDEBENE
  0
POLYLINE
  5
3C0
330
1F
100
AcDbEntity
  8
STANDARDEBENE
 62
   250
100
AcDb2dPolyline
 66
     1
 10
0.0
 20
0.0
 30
0.0
  0
VERTEX
  5
3C1
330
3C0
100
AcDbEntity
  8
STANDARDEBENE
 62
   250
100
AcDbVertex
100
AcDb2dVertex
 10
24.08812352366813
 20
-43.96892141042554
 30
0.0
  0
VERTEX
  5
3C2
330
3C0
100
AcDbEntity
  8
STANDARDEBENE
 62
   250
100
AcDbVertex
100
AcDb2dVertex
 10
24.03713607685029
 20
-43.89778014172363
 30
0.0
  0
VERTEX
  5
3C3
330
3C0
100
AcDbEntity
  8
STANDARDEBENE
 62
   250
100
AcDbVertex
100
AcDb2dVertex
 10
24.01009205945029
 20
-43.82388279481535
 30
0.0
  0
VERTEX
  5
3C4
330
3C0
100
AcDbEntity
  8
STANDARDEBENE
 62
   250
100
AcDbVertex
100
AcDb2dVertex
 10
24.00320186393437
 20
-43.74085593884848
 30
0.0
  0
VERTEX
  5
3C5
330
3C0
100
AcDbEntity
  8
STANDARDEBENE
 62
   250
100
AcDbVertex
100
AcDb2dVertex
 10
24.01543196097514
 20
-43.66971467014657
 30
0.0
  0
VERTEX
  5
3C6
330
3C0
100
AcDbEntity
  8
STANDARDEBENE
 62
   250
100
AcDbVertex
100
AcDb2dVertex
 10
24.04264823326303
 20
-43.60494683229689
 30
0.0
  0
VERTEX
  5
3C7
330
3C0
100
AcDbEntity
  8
STANDARDEBENE
 62
   250
100
AcDbVertex
100
AcDb2dVertex
 10
24.08812352366813
 20
-43.54414085686886
 30
0.0
  0
SEQEND
  5
3C8
330
3C0
100
AcDbEntity
  8
STANDARDEBENE
  0
POLYLINE
  5
3C9
330
1F
100
AcDbEntity
  8
STANDARDEBENE
 62
   250
100
AcDb2dPolyline
 66
     1
 10
0.0
 20
0.0
 30
0.0
  0
VERTEX
  5
3CA
330
3C9
100
AcDbEntity
  8
STANDARDEBENE
 62
   250
100
AcDbVertex
100
AcDb2dVertex
 10
25.7896573063254
 20
-41.45796190953516
 30
0.0
  0
VERTEX
  5
3CB
330
3C9
100
AcDbEntity
  8
STANDARDEBENE
 62
   250
100
AcDbVertex
100
AcDb2dVertex
 10
25.7896573063254
 20
-42.05499735098992
 30
0.0
  0
VERTEX
  5
3CC
330
3C9
100
AcDbEntity
  8
STANDARDEBENE
 62
   250
100
AcDbVertex
100
AcDb2dVertex
 10
24.08812352366813
 20
-43.54414085686886
 30
0.0
  0
SEQEND
  5
3CD
330
3C9
100
AcDbEntity
  8
STANDARDEBENE
  0
POLYLINE
  5
3CE
330
1F
100
AcDbEntity
  8
STANDARDEBENE
 62
   250
100
AcDb2dPolyline
 66
     1
 10
0.0
 20
0.0
 30
0.0
  0
VERTEX
  5
3CF
330
3CE
100
AcDbEntity
  8
STANDARDEBENE
 62
   250
100
AcDbVertex
100
AcDb2dVertex
 10
25.7896573063254
 20
-41.45796190953516
 30
0.0
  0
VERTEX
  5
3D0
330
3CE
100
AcDbEntity
  8
STANDARDEBENE
 62
   250
100
AcDbVertex
100
AcDb2dVertex
 10
24.08812352366813
 20
-39.96847389388043
 30
0.0
  0
VERTEX
  5
3D1
330
3CE
100
AcDbEntity
  8
STANDARDEBENE
 62
   250
100
AcDbVertex
100
AcDb2dVertex
 10
24.03713607685029
 20
-39.89802164473011
 30
0.0
  0
VERTEX
  5
3D2
330
3CE
100
AcDbEntity
  8
STANDARDEBENE
 62
   250
100
AcDbVertex
100
AcDb2dVertex
 10
24.01009205945029
 20
-39.82412429782183
 30
0.0
  0
VERTEX
  5
3D3
330
3CE
100
AcDbEntity
  8
STANDARDEBENE
 62
   250
100
AcDbVertex
100
AcDb2dVertex
 10
24.00320186393437
 20
-39.74109744185495
 30
0.0
  0
VERTEX
  5
3D4
330
3CE
100
AcDbEntity
  8
STANDARDEBENE
 62
   250
100
AcDbVertex
100
AcDb2dVertex
 10
24.01543196097514
 20
-39.66909489871355
 30
0.0
  0
VERTEX
  5
3D5
330
3CE
100
AcDbEntity
  8
STANDARDEBENE
 62
   250
100
AcDbVertex
100
AcDb2dVertex
 10
24.04264823326303
 20
-39.60449931575177
 30
0.0
  0
VERTEX
  5
3D6
330
3CE
100
AcDbEntity
  8
STANDARDEBENE
 62
   250
100
AcDbVertex
100
AcDb2dVertex
 10
24.08812352366813
 20
-39.54438235987534
 30
0.0
  0
VERTEX
  5
3D7
330
3CE
100
AcDbEntity
  8
STANDARDEBENE
 62
   250
100
AcDbVertex
100
AcDb2dVertex
 10
25.7896573063254
 20
-38.0552388539964
 30
0.0
  0
SEQEND
  5
3D8
330
3CE
100
AcDbEntity
  8
STANDARDEBENE
  0
POLYLINE
  5
3D9
330
1F
100
AcDbEntity
  8
STANDARDEBENE
 62
   250
100
AcDb2dPolyline
 66
     1
 10
0.0
 20
0.0
 30
0.0
  0
VERTEX
  5
3DA
330
3D9
100
AcDbEntity
  8
STANDARDEBENE
 62
   250
100
AcDbVertex
100
AcDb2dVertex
 10
25.7896573063254
 20
-35.05697027524234
 30
0.0
  0
VERTEX
  5
3DB
330
3D9
100
AcDbEntity
  8
STANDARDEBENE
 62
   250
100
AcDbVertex
100
AcDb2dVertex
 10
25.7896573063254
 20
-38.0552388539964
 30
0.0
  0
SEQEND
  5
3DC
330
3D9
100
AcDbEntity
  8
STANDARDEBENE
  0
POLYLINE
  5
3DD
330
1F
100
AcDbEntity
  8
STANDARDEBENE
 62
   250
100
AcDb2dPolyline
 66
     1
 10
0.0
 20
0.0
 30
0.0
  0
VERTEX
  5
3DE
330
3DD
100
AcDbEntity
  8
STANDARDEBENE
 62
   250
100
AcDbVertex
100
AcDb2dVertex
 10
43.78977632701153
 20
-38.0552388539964
 30
0.0
  0
VERTEX
  5
3DF
330
3DD
100
AcDbEntity
  8
STANDARDEBENE
 62
   250
100
AcDbVertex
100
AcDb2dVertex
 10
43.78977632701153
 20
-35.05697027524234
 30
0.0
  0
VERTEX
  5
3E0
330
3DD
100
AcDbEntity
  8
STANDARDEBENE
 62
   250
100
AcDbVertex
100
AcDb2dVertex
 10
42.32767683853259
 20
-35.05697027524234
 30
0.0
  0
VERTEX
  5
3E1
330
3DD
100
AcDbEntity
  8
STANDARDEBENE
 62
   250
100
AcDbVertex
100
AcDb2dVertex
 10
40.7620521624269
 20
-35.05697027524234
 30
0.0
  0
VERTEX
  5
3E2
330
3DD
100
AcDbEntity
  8
STANDARDEBENE
 62
   250
100
AcDbVertex
100
AcDb2dVertex
 10
39.11529543412122
 20
-35.05697027524234
 30
0.0
  0
VERTEX
  5
3E3
330
3DD
100
AcDbEntity
  8
STANDARDEBENE
 62
   250
100
AcDbVertex
100
AcDb2dVertex
 10
37.40876625971489
 20
-35.05697027524234
 30
0.0
  0
VERTEX
  5
3E4
330
3DD
100
AcDbEntity
  8
STANDARDEBENE
 62
   250
100
AcDbVertex
100
AcDb2dVertex
 10
35.66709708817736
 20
-35.05697027524234
 30
0.0
  0
VERTEX
  5
3E5
330
3DD
100
AcDbEntity
  8
STANDARDEBENE
 62
   250
100
AcDbVertex
100
AcDb2dVertex
 10
33.91319781959906
 20
-35.05697027524234
 30
0.0
  0
VERTEX
  5
3E6
330
3DD
100
AcDbEntity
  8
STANDARDEBENE
 62
   250
100
AcDbVertex
100
AcDb2dVertex
 10
32.17101188339784
 20
-35.05697027524234
 30
0.0
  0
VERTEX
  5
3E7
330
3DD
100
AcDbEntity
  8
STANDARDEBENE
 62
   250
100
AcDbVertex
100
AcDb2dVertex
 10
30.46499947365521
 20
-35.05697027524234
 30
0.0
  0
VERTEX
  5
3E8
330
3DD
100
AcDbEntity
  8
STANDARDEBENE
 62
   250
100
AcDbVertex
100
AcDb2dVertex
 10
28.81789823557373
 20
-35.05697027524234
 30
0.0
  0
VERTEX
  5
3E9
330
3DD
100
AcDbEntity
  8
STANDARDEBENE
 62
   250
100
AcDbVertex
100
AcDb2dVertex
 10
27.25227355946804
 20
-35.05697027524234
 30
0.0
  0
VERTEX
  5
3EA
330
3DD
100
AcDbEntity
  8
STANDARDEBENE
 62
   250
100
AcDbVertex
100
AcDb2dVertex
 10
25.7896573063254
 20
-35.05697027524234
 30
0.0
  0
SEQEND
  5
3EB
330
3DD
100
AcDbEntity
  8
STANDARDEBENE
  0
POLYLINE
  5
3EC
330
1F
100
AcDbEntity
  8
STANDARDEBENE
 62
   250
100
AcDb2dPolyline
 66
     1
 10
0.0
 20
0.0
 30
0.0
  0
VERTEX
  5
3ED
330
3EC
100
AcDbEntity
  8
STANDARDEBENE
 62
   250
100
AcDbVertex
100
AcDb2dVertex
 10
43.78977632701153
 20
-38.0552388539964
 30
0.0
  0
VERTEX
  5
3EE
330
3EC
100
AcDbEntity
  8
STANDARDEBENE
 62
   250
100
AcDbVertex
100
AcDb2dVertex
 10
45.4916546194446
 20
-39.54438235987534
 30
0.0
  0
VERTEX
  5
3EF
330
3EC
100
AcDbEntity
  8
STANDARDEBENE
 62
   250
100
AcDbVertex
100
AcDb2dVertex
 10
45.54298657603824
 20
-39.61552362857725
 30
0.0
  0
VERTEX
  5
3F0
330
3EC
100
AcDbEntity
  8
STANDARDEBENE
 62
   250
100
AcDbVertex
100
AcDb2dVertex
 10
45.56985833855033
 20
-39.68907646570973
 30
0.0
  0
VERTEX
  5
3F1
330
3EC
100
AcDbEntity
  8
STANDARDEBENE
 62
   250
100
AcDbVertex
100
AcDb2dVertex
 10
45.57674853406626
 20
-39.7724478314524
 30
0.0
  0
VERTEX
  5
3F2
330
3EC
100
AcDbEntity
  8
STANDARDEBENE
 62
   250
100
AcDbVertex
100
AcDb2dVertex
 10
45.5645184370255
 20
-39.84445037459381
 30
0.0
  0
VERTEX
  5
3F3
330
3EC
100
AcDbEntity
  8
STANDARDEBENE
 62
   250
100
AcDbVertex
100
AcDb2dVertex
 10
45.5369576549618
 20
-39.90870144777979
 30
0.0
  0
VERTEX
  5
3F4
330
3EC
100
AcDbEntity
  8
STANDARDEBENE
 62
   250
100
AcDbVertex
100
AcDb2dVertex
 10
45.4916546194446
 20
-39.96847389388043
 30
0.0
  0
VERTEX
  5
3F5
330
3EC
100
AcDbEntity
  8
STANDARDEBENE
 62
   250
100
AcDbVertex
100
AcDb2dVertex
 10
43.78977632701153
 20
-41.45796190953516
 30
0.0
  0
SEQEND
  5
3F6
330
3EC
100
AcDbEntity
  8
STANDARDEBENE
  0
POLYLINE
  5
3F7
330
1F
100
AcDbEntity
  8
STANDARDEBENE
 62
   250
100
AcDb2dPolyline
 66
     1
 10
0.0
 20
0.0
 30
0.0
  0
VERTEX
  5
3F8
330
3F7
100
AcDbEntity
  8
STANDARDEBENE
 62
   250
100
AcDbVertex
100
AcDb2dVertex
 10
43.78977632701153
 20
-42.05499735098992
 30
0.0
  0
VERTEX
  5
3F9
330
3F7
100
AcDbEntity
  8
STANDARDEBENE
 62
   250
100
AcDbVertex
100
AcDb2dVertex
 10
43.78977632701153
 20
-41.45796190953516
 30
0.0
  0
SEQEND
  5
3FA
330
3F7
100
AcDbEntity
  8
STANDARDEBENE
  0
POLYLINE
  5
3FB
330
1F
100
AcDbEntity
  8
STANDARDEBENE
 62
   250
100
AcDb2dPolyline
 66
     1
 10
0.0
 20
0.0
 30
0.0
  0
VERTEX
  5
3FC
330
3FB
100
AcDbEntity
  8
STANDARDEBENE
 62
   250
100
AcDbVertex
100
AcDb2dVertex
 10
45.4916546194446
 20
-43.54414085686886
 30
0.0
  0
VERTEX
  5
3FD
330
3FB
100
AcDbEntity
  8
STANDARDEBENE
 62
   250
100
AcDbVertex
100
AcDb2dVertex
 10
43.78977632701153
 20
-42.05499735098992
 30
0.0
  0
SEQEND
  5
3FE
330
3FB
100
AcDbEntity
  8
STANDARDEBENE
  0
POLYLINE
  5
3FF
330
1F
100
AcDbEntity
  8
STANDARDEBENE
 62
   250
100
AcDb2dPolyline
 66
     1
 10
0.0
 20
0.0
 30
0.0
  0
VERTEX
  5
400
330
3FF
100
AcDbEntity
  8
STANDARDEBENE
 62
   250
100
AcDbVertex
100
AcDb2dVertex
 10
45.4916546194446
 20
-43.54414085686886
 30
0.0
  0
VERTEX
  5
401
330
3FF
100
AcDbEntity
  8
STANDARDEBENE
 62
   250
100
AcDbVertex
100
AcDb2dVertex
 10
45.54298657603824
 20
-43.61528212557077
 30
0.0
  0
VERTEX
  5
402
330
3FF
100
AcDbEntity
  8
STANDARDEBENE
 62
   250
100
AcDbVertex
100
AcDb2dVertex
 10
45.56985833855033
 20
-43.68952398225485
 30
0.0
  0
VERTEX
  5
403
330
3FF
100
AcDbEntity
  8
STANDARDEBENE
 62
   250
100
AcDbVertex
100
AcDb2dVertex
 10
45.57674853406626
 20
-43.77306760288542
 30
0.0
  0
VERTEX
  5
404
330
3FF
100
AcDbEntity
  8
STANDARDEBENE
 62
   250
100
AcDbVertex
100
AcDb2dVertex
 10
45.5645184370255
 20
-43.84420887158733
 30
0.0
  0
VERTEX
  5
405
330
3FF
100
AcDbEntity
  8
STANDARDEBENE
 62
   250
100
AcDbVertex
100
AcDb2dVertex
 10
45.5369576549618
 20
-43.90811543499751
 30
0.0
  0
VERTEX
  5
406
330
3FF
100
AcDbEntity
  8
STANDARDEBENE
 62
   250
100
AcDbVertex
100
AcDb2dVertex
 10
45.4916546194446
 20
-43.96892141042554
 30
0.0
  0
SEQEND
  5
407
330
3FF
100
AcDbEntity
  8
STANDARDEBENE
  0
POLYLINE
  5
408
330
1F
100
AcDbEntity
  8
STANDARDEBENE
 62
   250
100
AcDb2dPolyline
 66
     1
 10
0.0
 20
0.0
 30
0.0
  0
VERTEX
  5
409
330
408
100
AcDbEntity
  8
STANDARDEBENE
 62
   250
100
AcDbVertex
100
AcDb2dVertex
 10
43.78977632701153
 20
-45.45806491630448
 30
0.0
  0
VERTEX
  5
40A
330
408
100
AcDbEntity
  8
STANDARDEBENE
 62
   250
100
AcDbVertex
100
AcDb2dVertex
 10
45.4916546194446
 20
-43.96892141042554
 30
0.0
  0
SEQEND
  5
40B
330
408
100
AcDbEntity
  8
STANDARDEBENE
  0
POLYLINE
  5
40C
330
1F
100
AcDbEntity
  8
STANDARDEBENE
 62
   250
100
AcDb2dPolyline
 66
     1
 10
0.0
 20
0.0
 30
0.0
  0
VERTEX
  5
40D
330
40C
100
AcDbEntity
  8
STANDARDEBENE
 62
   250
100
AcDbVertex
100
AcDb2dVertex
 10
43.78977632701153
 20
-46.05561712242294
 30
0.0
  0
VERTEX
  5
40E
330
40C
100
AcDbEntity
  8
STANDARDEBENE
 62
   250
100
AcDbVertex
100
AcDb2dVertex
 10
43.78977632701153
 20
-45.45806491630448
 30
0.0
  0
SEQEND
  5
40F
330
40C
100
AcDbEntity
  8
STANDARDEBENE
  0
POLYLINE
  5
410
330
1F
100
AcDbEntity
  8
STANDARDEBENE
 62
   250
100
AcDb2dPolyline
 66
     1
 10
0.0
 20
0.0
 30
0.0
  0
VERTEX
  5
411
330
410
100
AcDbEntity
  8
STANDARDEBENE
 62
   250
100
AcDbVertex
100
AcDb2dVertex
 10
43.78977632701153
 20
-46.05561712242294
 30
0.0
  0
VERTEX
  5
412
330
410
100
AcDbEntity
  8
STANDARDEBENE
 62
   250
100
AcDbVertex
100
AcDb2dVertex
 10
45.4916546194446
 20
-47.54458837341397
 30
0.0
  0
VERTEX
  5
413
330
410
100
AcDbEntity
  8
STANDARDEBENE
 62
   250
100
AcDbVertex
100
AcDb2dVertex
 10
45.54298657603824
 20
-47.61538513234009
 30
0.0
  0
VERTEX
  5
414
330
410
100
AcDbEntity
  8
STANDARDEBENE
 62
   250
100
AcDbVertex
100
AcDb2dVertex
 10
45.56985833855033
 20
-47.68893796947257
 30
0.0
  0
VERTEX
  5
415
330
410
100
AcDbEntity
  8
STANDARDEBENE
 62
   250
100
AcDbVertex
100
AcDb2dVertex
 10
45.57674853406626
 20
-47.77230933521524
 30
0.0
  0
VERTEX
  5
416
330
410
100
AcDbEntity
  8
STANDARDEBENE
 62
   250
100
AcDbVertex
100
AcDb2dVertex
 10
45.5645184370255
 20
-47.84396736858085
 30
0.0
  0
VERTEX
  5
417
330
410
100
AcDbEntity
  8
STANDARDEBENE
 62
   250
100
AcDbVertex
100
AcDb2dVertex
 10
45.5369576549618
 20
-47.90873520643053
 30
0.0
  0
VERTEX
  5
418
330
410
100
AcDbEntity
  8
STANDARDEBENE
 62
   250
100
AcDbVertex
100
AcDb2dVertex
 10
45.4916546194446
 20
-47.96867990741906
 30
0.0
  0
VERTEX
  5
419
330
410
100
AcDbEntity
  8
STANDARDEBENE
 62
   250
100
AcDbVertex
100
AcDb2dVertex
 10
43.78977632701153
 20
-49.457823413298
 30
0.0
  0
SEQEND
  5
41A
330
410
100
AcDbEntity
  8
STANDARDEBENE
  0
POLYLINE
  5
41B
330
1F
100
AcDbEntity
  8
STANDARDEBENE
 62
   250
100
AcDb2dPolyline
 66
     1
 10
0.0
 20
0.0
 30
0.0
  0
VERTEX
  5
41C
330
41B
100
AcDbEntity
  8
STANDARDEBENE
 62
   250
100
AcDbVertex
100
AcDb2dVertex
 10
43.78977632701153
 20
-50.05503110964066
 30
0.0
  0
VERTEX
  5
41D
330
41B
100
AcDbEntity
  8
STANDARDEBENE
 62
   250
100
AcDbVertex
100
AcDb2dVertex
 10
43.78977632701153
 20
-49.457823413298
 30
0.0
  0
SEQEND
  5
41E
330
41B
100
AcDbEntity
  8
STANDARDEBENE
  0
POLYLINE
  5
41F
330
1F
100
AcDbEntity
  8
STANDARDEBENE
 62
   250
100
AcDb2dPolyline
 66
     1
 10
0.0
 20
0.0
 30
0.0
  0
VERTEX
  5
420
330
41F
100
AcDbEntity
  8
STANDARDEBENE
 62
   250
100
AcDbVertex
100
AcDb2dVertex
 10
45.4916546194446
 20
-51.54434687040749
 30
0.0
  0
VERTEX
  5
421
330
41F
100
AcDbEntity
  8
STANDARDEBENE
 62
   250
100
AcDbVertex
100
AcDb2dVertex
 10
43.78977632701153
 20
-50.05503110964066
 30
0.0
  0
SEQEND
  5
422
330
41F
100
AcDbEntity
  8
STANDARDEBENE
  0
POLYLINE
  5
423
330
1F
100
AcDbEntity
  8
STANDARDEBENE
 62
   250
100
AcDb2dPolyline
 66
     1
 10
0.0
 20
0.0
 30
0.0
  0
VERTEX
  5
424
330
423
100
AcDbEntity
  8
STANDARDEBENE
 62
   250
100
AcDbVertex
100
AcDb2dVertex
 10
45.4916546194446
 20
-51.54434687040749
 30
0.0
  0
VERTEX
  5
425
330
423
100
AcDbEntity
  8
STANDARDEBENE
 62
   250
100
AcDbVertex
100
AcDb2dVertex
 10
45.54298657603824
 20
-51.6156603939973
 30
0.0
  0
VERTEX
  5
426
330
423
100
AcDbEntity
  8
STANDARDEBENE
 62
   250
100
AcDbVertex
100
AcDb2dVertex
 10
45.56985833855033
 20
-51.68938548601768
 30
0.0
  0
VERTEX
  5
427
330
423
100
AcDbEntity
  8
STANDARDEBENE
 62
   250
100
AcDbVertex
100
AcDb2dVertex
 10
45.57674853406626
 20
-51.77292910664826
 30
0.0
  0
VERTEX
  5
428
330
423
100
AcDbEntity
  8
STANDARDEBENE
 62
   250
100
AcDbVertex
100
AcDb2dVertex
 10
45.5645184370255
 20
-51.84441488512596
 30
0.0
  0
VERTEX
  5
429
330
423
100
AcDbEntity
  8
STANDARDEBENE
 62
   250
100
AcDbVertex
100
AcDb2dVertex
 10
45.5369576549618
 20
-51.90849370342405
 30
0.0
  0
VERTEX
  5
42A
330
423
100
AcDbEntity
  8
STANDARDEBENE
 62
   250
100
AcDbVertex
100
AcDb2dVertex
 10
45.4916546194446
 20
-51.96843840441258
 30
0.0
  0
SEQEND
  5
42B
330
423
100
AcDbEntity
  8
STANDARDEBENE
  0
POLYLINE
  5
42C
330
1F
100
AcDbEntity
  8
STANDARDEBENE
 62
   250
100
AcDb2dPolyline
 66
     1
 10
0.0
 20
0.0
 30
0.0
  0
VERTEX
  5
42D
330
42C
100
AcDbEntity
  8
STANDARDEBENE
 62
   250
100
AcDbVertex
100
AcDb2dVertex
 10
43.78977632701153
 20
-53.45827092984311
 30
0.0
  0
VERTEX
  5
42E
330
42C
100
AcDbEntity
  8
STANDARDEBENE
 62
   250
100
AcDbVertex
100
AcDb2dVertex
 10
45.4916546194446
 20
-51.96843840441258
 30
0.0
  0
SEQEND
  5
42F
330
42C
100
AcDbEntity
  8
STANDARDEBENE
  0
POLYLINE
  5
430
330
1F
100
AcDbEntity
  8
STANDARDEBENE
 62
   250
100
AcDb2dPolyline
 66
     1
 10
0.0
 20
0.0
 30
0.0
  0
VERTEX
  5
431
330
430
100
AcDbEntity
  8
STANDARDEBENE
 62
   250
100
AcDbVertex
100
AcDb2dVertex
 10
43.78977632701153
 20
-54.05582313596157
 30
0.0
  0
VERTEX
  5
432
330
430
100
AcDbEntity
  8
STANDARDEBENE
 62
   250
100
AcDbVertex
100
AcDb2dVertex
 10
43.78977632701153
 20
-53.45827092984311
 30
0.0
  0
SEQEND
  5
433
330
430
100
AcDbEntity
  8
STANDARDEBENE
  0
POLYLINE
  5
434
330
1F
100
AcDbEntity
  8
STANDARDEBENE
 62
   250
100
AcDb2dPolyline
 66
     1
 10
0.0
 20
0.0
 30
0.0
  0
VERTEX
  5
435
330
434
100
AcDbEntity
  8
STANDARDEBENE
 62
   250
100
AcDbVertex
100
AcDb2dVertex
 10
43.78977632701153
 20
-54.05582313596157
 30
0.0
  0
VERTEX
  5
436
330
434
100
AcDbEntity
  8
STANDARDEBENE
 62
   250
100
AcDbVertex
100
AcDb2dVertex
 10
45.4916546194446
 20
-55.54444987717681
 30
0.0
  0
VERTEX
  5
437
330
434
100
AcDbEntity
  8
STANDARDEBENE
 62
   250
100
AcDbVertex
100
AcDb2dVertex
 10
45.54298657603824
 20
-55.61541889099082
 30
0.0
  0
VERTEX
  5
438
330
434
100
AcDbEntity
  8
STANDARDEBENE
 62
   250
100
AcDbVertex
100
AcDb2dVertex
 10
45.56985833855033
 20
-55.68914398301121
 30
0.0
  0
VERTEX
  5
439
330
434
100
AcDbEntity
  8
STANDARDEBENE
 62
   250
100
AcDbVertex
100
AcDb2dVertex
 10
45.57674853406626
 20
-55.77234309386598
 30
0.0
  0
VERTEX
  5
43A
330
434
100
AcDbEntity
  8
STANDARDEBENE
 62
   250
100
AcDbVertex
100
AcDb2dVertex
 10
45.5645184370255
 20
-55.84417338211948
 30
0.0
  0
VERTEX
  5
43B
330
434
100
AcDbEntity
  8
STANDARDEBENE
 62
   250
100
AcDbVertex
100
AcDb2dVertex
 10
45.5369576549618
 20
-55.90859671019336
 30
0.0
  0
VERTEX
  5
43C
330
434
100
AcDbEntity
  8
STANDARDEBENE
 62
   250
100
AcDbVertex
100
AcDb2dVertex
 10
45.4916546194446
 20
-55.96905817584559
 30
0.0
  0
SEQEND
  5
43D
330
434
100
AcDbEntity
  8
STANDARDEBENE
  0
POLYLINE
  5
43E
330
1F
100
AcDbEntity
  8
STANDARDEBENE
 62
   250
100
AcDb2dPolyline
 66
     1
 10
0.0
 20
0.0
 30
0.0
  0
VERTEX
  5
43F
330
43E
100
AcDbEntity
  8
STANDARDEBENE
 62
   250
100
AcDbVertex
100
AcDb2dVertex
 10
43.78977632701153
 20
-58.05523712317929
 30
0.0
  0
VERTEX
  5
440
330
43E
100
AcDbEntity
  8
STANDARDEBENE
 62
   250
100
AcDbVertex
100
AcDb2dVertex
 10
43.78977632701153
 20
-57.45802942683663
 30
0.0
  0
VERTEX
  5
441
330
43E
100
AcDbEntity
  8
STANDARDEBENE
 62
   250
100
AcDbVertex
100
AcDb2dVertex
 10
45.4916546194446
 20
-55.96905817584559
 30
0.0
  0
SEQEND
  5
442
330
43E
100
AcDbEntity
  8
STANDARDEBENE
  0
POLYLINE
  5
443
330
1F
100
AcDbEntity
  8
STANDARDEBENE
 62
   250
100
AcDb2dPolyline
 66
     1
 10
0.0
 20
0.0
 30
0.0
  0
VERTEX
  5
444
330
443
100
AcDbEntity
  8
STANDARDEBENE
 62
   250
100
AcDbVertex
100
AcDb2dVertex
 10
43.78977632701153
 20
-58.05523712317929
 30
0.0
  0
VERTEX
  5
445
330
443
100
AcDbEntity
  8
STANDARDEBENE
 62
   250
100
AcDbVertex
100
AcDb2dVertex
 10
45.4916546194446
 20
-59.54472513883402
 30
0.0
  0
VERTEX
  5
446
330
443
100
AcDbEntity
  8
STANDARDEBENE
 62
   250
100
AcDbVertex
100
AcDb2dVertex
 10
45.54298657603824
 20
-59.61586640753594
 30
0.0
  0
VERTEX
  5
447
330
443
100
AcDbEntity
  8
STANDARDEBENE
 62
   250
100
AcDbVertex
100
AcDb2dVertex
 10
45.56985833855033
 20
-59.68890248000472
 30
0.0
  0
VERTEX
  5
448
330
443
100
AcDbEntity
  8
STANDARDEBENE
 62
   250
100
AcDbVertex
100
AcDb2dVertex
 10
45.57674853406626
 20
-59.77279061041109
 30
0.0
  0
VERTEX
  5
449
330
443
100
AcDbEntity
  8
STANDARDEBENE
 62
   250
100
AcDbVertex
100
AcDb2dVertex
 10
45.5645184370255
 20
-59.84444864377669
 30
0.0
  0
VERTEX
  5
44A
330
443
100
AcDbEntity
  8
STANDARDEBENE
 62
   250
100
AcDbVertex
100
AcDb2dVertex
 10
45.5369576549618
 20
-59.90904422673847
 30
0.0
  0
VERTEX
  5
44B
330
443
100
AcDbEntity
  8
STANDARDEBENE
 62
   250
100
AcDbVertex
100
AcDb2dVertex
 10
45.4916546194446
 20
-59.96847216306332
 30
0.0
  0
VERTEX
  5
44C
330
443
100
AcDbEntity
  8
STANDARDEBENE
 62
   250
100
AcDbVertex
100
AcDb2dVertex
 10
43.78977632701153
 20
-61.45778792383015
 30
0.0
  0
SEQEND
  5
44D
330
443
100
AcDbEntity
  8
STANDARDEBENE
  0
POLYLINE
  5
44E
330
1F
100
AcDbEntity
  8
STANDARDEBENE
 62
   250
100
AcDb2dPolyline
 66
     1
 10
0.0
 20
0.0
 30
0.0
  0
VERTEX
  5
44F
330
44E
100
AcDbEntity
  8
STANDARDEBENE
 62
   250
100
AcDbVertex
100
AcDb2dVertex
 10
43.78977632701153
 20
-62.05534012994861
 30
0.0
  0
VERTEX
  5
450
330
44E
100
AcDbEntity
  8
STANDARDEBENE
 62
   250
100
AcDbVertex
100
AcDb2dVertex
 10
43.78977632701153
 20
-61.45778792383015
 30
0.0
  0
SEQEND
  5
451
330
44E
100
AcDbEntity
  8
STANDARDEBENE
  0
POLYLINE
  5
452
330
1F
100
AcDbEntity
  8
STANDARDEBENE
 62
   250
100
AcDb2dPolyline
 66
     1
 10
0.0
 20
0.0
 30
0.0
  0
VERTEX
  5
453
330
452
100
AcDbEntity
  8
STANDARDEBENE
 62
   250
100
AcDbVertex
100
AcDb2dVertex
 10
45.4916546194446
 20
-63.54448363582755
 30
0.0
  0
VERTEX
  5
454
330
452
100
AcDbEntity
  8
STANDARDEBENE
 62
   250
100
AcDbVertex
100
AcDb2dVertex
 10
43.78977632701153
 20
-62.05534012994861
 30
0.0
  0
SEQEND
  5
455
330
452
100
AcDbEntity
  8
STANDARDEBENE
  0
POLYLINE
  5
456
330
1F
100
AcDbEntity
  8
STANDARDEBENE
 62
   250
100
AcDb2dPolyline
 66
     1
 10
0.0
 20
0.0
 30
0.0
  0
VERTEX
  5
457
330
456
100
AcDbEntity
  8
STANDARDEBENE
 62
   250
100
AcDbVertex
100
AcDb2dVertex
 10
45.4916546194446
 20
-63.54448363582755
 30
0.0
  0
VERTEX
  5
458
330
456
100
AcDbEntity
  8
STANDARDEBENE
 62
   250
100
AcDbVertex
100
AcDb2dVertex
 10
45.54298657603824
 20
-63.61528039475366
 30
0.0
  0
VERTEX
  5
459
330
456
100
AcDbEntity
  8
STANDARDEBENE
 62
   250
100
AcDbVertex
100
AcDb2dVertex
 10
45.56985833855033
 20
-63.68986676121353
 30
0.0
  0
VERTEX
  5
45A
330
456
100
AcDbEntity
  8
STANDARDEBENE
 62
   250
100
AcDbVertex
100
AcDb2dVertex
 10
45.57674853406626
 20
-63.77254910740461
 30
0.0
  0
VERTEX
  5
45B
330
456
100
AcDbEntity
  8
STANDARDEBENE
 62
   250
100
AcDbVertex
100
AcDb2dVertex
 10
45.5645184370255
 20
-63.84420714077022
 30
0.0
  0
VERTEX
  5
45C
330
456
100
AcDbEntity
  8
STANDARDEBENE
 62
   250
100
AcDbVertex
100
AcDb2dVertex
 10
45.5369576549618
 20
-63.9084582139562
 30
0.0
  0
VERTEX
  5
45D
330
456
100
AcDbEntity
  8
STANDARDEBENE
 62
   250
100
AcDbVertex
100
AcDb2dVertex
 10
45.4916546194446
 20
-63.96891967960843
 30
0.0
  0
SEQEND
  5
45E
330
456
100
AcDbEntity
  8
STANDARDEBENE
  0
POLYLINE
  5
45F
330
1F
100
AcDbEntity
  8
STANDARDEBENE
 62
   250
100
AcDb2dPolyline
 66
     1
 10
0.0
 20
0.0
 30
0.0
  0
VERTEX
  5
460
330
45F
100
AcDbEntity
  8
STANDARDEBENE
 62
   250
100
AcDbVertex
100
AcDb2dVertex
 10
43.78977632701153
 20
-65.45754642082368
 30
0.0
  0
VERTEX
  5
461
330
45F
100
AcDbEntity
  8
STANDARDEBENE
 62
   250
100
AcDbVertex
100
AcDb2dVertex
 10
45.4916546194446
 20
-63.96891967960843
 30
0.0
  0
SEQEND
  5
462
330
45F
100
AcDbEntity
  8
STANDARDEBENE
  0
POLYLINE
  5
463
330
1F
100
AcDbEntity
  8
STANDARDEBENE
 62
   250
100
AcDb2dPolyline
 66
     1
 10
0.0
 20
0.0
 30
0.0
  0
VERTEX
  5
464
330
463
100
AcDbEntity
  8
STANDARDEBENE
 62
   250
100
AcDbVertex
100
AcDb2dVertex
 10
43.78977632701153
 20
-66.05509862694213
 30
0.0
  0
VERTEX
  5
465
330
463
100
AcDbEntity
  8
STANDARDEBENE
 62
   250
100
AcDbVertex
100
AcDb2dVertex
 10
43.78977632701153
 20
-65.45754642082368
 30
0.0
  0
SEQEND
  5
466
330
463
100
AcDbEntity
  8
STANDARDEBENE
  0
POLYLINE
  5
467
330
1F
100
AcDbEntity
  8
STANDARDEBENE
 62
   250
100
AcDb2dPolyline
 66
     1
 10
0.0
 20
0.0
 30
0.0
  0
VERTEX
  5
468
330
467
100
AcDbEntity
  8
STANDARDEBENE
 62
   250
100
AcDbVertex
100
AcDb2dVertex
 10
43.78977632701153
 20
-66.05509862694213
 30
0.0
  0
VERTEX
  5
469
330
467
100
AcDbEntity
  8
STANDARDEBENE
 62
   250
100
AcDbVertex
100
AcDb2dVertex
 10
45.4916546194446
 20
-67.54458664259687
 30
0.0
  0
VERTEX
  5
46A
330
467
100
AcDbEntity
  8
STANDARDEBENE
 62
   250
100
AcDbVertex
100
AcDb2dVertex
 10
45.54298657603824
 20
-67.61572791129878
 30
0.0
  0
VERTEX
  5
46B
330
467
100
AcDbEntity
  8
STANDARDEBENE
 62
   250
100
AcDbVertex
100
AcDb2dVertex
 10
45.56985833855033
 20
-67.68962525820704
 30
0.0
  0
VERTEX
  5
46C
330
467
100
AcDbEntity
  8
STANDARDEBENE
 62
   250
100
AcDbVertex
100
AcDb2dVertex
 10
45.57674853406626
 20
-67.77265211417392
 30
0.0
  0
VERTEX
  5
46D
330
467
100
AcDbEntity
  8
STANDARDEBENE
 62
   250
100
AcDbVertex
100
AcDb2dVertex
 10
45.5645184370255
 20
-67.84396563776373
 30
0.0
  0
VERTEX
  5
46E
330
467
100
AcDbEntity
  8
STANDARDEBENE
 62
   250
100
AcDbVertex
100
AcDb2dVertex
 10
45.5369576549618
 20
-67.90856122072552
 30
0.0
  0
VERTEX
  5
46F
330
467
100
AcDbEntity
  8
STANDARDEBENE
 62
   250
100
AcDbVertex
100
AcDb2dVertex
 10
45.4916546194446
 20
-67.96867817660195
 30
0.0
  0
VERTEX
  5
470
330
467
100
AcDbEntity
  8
STANDARDEBENE
 62
   250
100
AcDbVertex
100
AcDb2dVertex
 10
43.78977632701153
 20
-69.45764942759298
 30
0.0
  0
SEQEND
  5
471
330
467
100
AcDbEntity
  8
STANDARDEBENE
  0
POLYLINE
  5
472
330
1F
100
AcDbEntity
  8
STANDARDEBENE
 62
   250
100
AcDb2dPolyline
 66
     1
 10
0.0
 20
0.0
 30
0.0
  0
VERTEX
  5
473
330
472
100
AcDbEntity
  8
STANDARDEBENE
 62
   250
100
AcDbVertex
100
AcDb2dVertex
 10
43.78977632701153
 20
-70.05571839837513
 30
0.0
  0
VERTEX
  5
474
330
472
100
AcDbEntity
  8
STANDARDEBENE
 62
   250
100
AcDbVertex
100
AcDb2dVertex
 10
43.78977632701153
 20
-69.45764942759298
 30
0.0
  0
SEQEND
  5
475
330
472
100
AcDbEntity
  8
STANDARDEBENE
  0
POLYLINE
  5
476
330
1F
100
AcDbEntity
  8
STANDARDEBENE
 62
   250
100
AcDb2dPolyline
 66
     1
 10
0.0
 20
0.0
 30
0.0
  0
VERTEX
  5
477
330
476
100
AcDbEntity
  8
STANDARDEBENE
 62
   250
100
AcDbVertex
100
AcDb2dVertex
 10
45.4916546194446
 20
-71.54468964936618
 30
0.0
  0
VERTEX
  5
478
330
476
100
AcDbEntity
  8
STANDARDEBENE
 62
   250
100
AcDbVertex
100
AcDb2dVertex
 10
43.78977632701153
 20
-70.05571839837513
 30
0.0
  0
SEQEND
  5
479
330
476
100
AcDbEntity
  8
STANDARDEBENE
  0
POLYLINE
  5
47A
330
1F
100
AcDbEntity
  8
STANDARDEBENE
 62
   250
100
AcDb2dPolyline
 66
     1
 10
0.0
 20
0.0
 30
0.0
  0
VERTEX
  5
47B
330
47A
100
AcDbEntity
  8
STANDARDEBENE
 62
   250
100
AcDbVertex
100
AcDb2dVertex
 10
45.4916546194446
 20
-71.54468964936618
 30
0.0
  0
VERTEX
  5
47C
330
47A
100
AcDbEntity
  8
STANDARDEBENE
 62
   250
100
AcDbVertex
100
AcDb2dVertex
 10
45.54298657603824
 20
-71.6151418985165
 30
0.0
  0
VERTEX
  5
47D
330
47A
100
AcDbEntity
  8
STANDARDEBENE
 62
   250
100
AcDbVertex
100
AcDb2dVertex
 10
45.56985833855033
 20
-71.68938375520057
 30
0.0
  0
VERTEX
  5
47E
330
47A
100
AcDbEntity
  8
STANDARDEBENE
 62
   250
100
AcDbVertex
100
AcDb2dVertex
 10
45.57674853406626
 20
-71.77275512094324
 30
0.0
  0
VERTEX
  5
47F
330
47A
100
AcDbEntity
  8
STANDARDEBENE
 62
   250
100
AcDbVertex
100
AcDb2dVertex
 10
45.5645184370255
 20
-71.84406864453305
 30
0.0
  0
VERTEX
  5
480
330
47A
100
AcDbEntity
  8
STANDARDEBENE
 62
   250
100
AcDbVertex
100
AcDb2dVertex
 10
45.5369576549618
 20
-71.90866422749484
 30
0.0
  0
VERTEX
  5
481
330
47A
100
AcDbEntity
  8
STANDARDEBENE
 62
   250
100
AcDbVertex
100
AcDb2dVertex
 10
45.4916546194446
 20
-71.96843667359546
 30
0.0
  0
SEQEND
  5
482
330
47A
100
AcDbEntity
  8
STANDARDEBENE
  0
POLYLINE
  5
483
330
1F
100
AcDbEntity
  8
STANDARDEBENE
 62
   250
100
AcDb2dPolyline
 66
     1
 10
0.0
 20
0.0
 30
0.0
  0
VERTEX
  5
484
330
483
100
AcDbEntity
  8
STANDARDEBENE
 62
   250
100
AcDbVertex
100
AcDb2dVertex
 10
43.78977632701153
 20
-73.458269199026
 30
0.0
  0
VERTEX
  5
485
330
483
100
AcDbEntity
  8
STANDARDEBENE
 62
   250
100
AcDbVertex
100
AcDb2dVertex
 10
45.4916546194446
 20
-71.96843667359546
 30
0.0
  0
SEQEND
  5
486
330
483
100
AcDbEntity
  8
STANDARDEBENE
  0
POLYLINE
  5
487
330
1F
100
AcDbEntity
  8
STANDARDEBENE
 62
   250
100
AcDb2dPolyline
 66
     1
 10
0.0
 20
0.0
 30
0.0
  0
VERTEX
  5
488
330
487
100
AcDbEntity
  8
STANDARDEBENE
 62
   250
100
AcDbVertex
100
AcDb2dVertex
 10
43.78977632701153
 20
-74.05582140514446
 30
0.0
  0
VERTEX
  5
489
330
487
100
AcDbEntity
  8
STANDARDEBENE
 62
   250
100
AcDbVertex
100
AcDb2dVertex
 10
43.78977632701153
 20
-73.458269199026
 30
0.0
  0
SEQEND
  5
48A
330
487
100
AcDbEntity
  8
STANDARDEBENE
  0
POLYLINE
  5
48B
330
1F
100
AcDbEntity
  8
STANDARDEBENE
 62
   250
100
AcDb2dPolyline
 66
     1
 10
0.0
 20
0.0
 30
0.0
  0
VERTEX
  5
48C
330
48B
100
AcDbEntity
  8
STANDARDEBENE
 62
   250
100
AcDbVertex
100
AcDb2dVertex
 10
43.78977632701153
 20
-74.05582140514446
 30
0.0
  0
VERTEX
  5
48D
330
48B
100
AcDbEntity
  8
STANDARDEBENE
 62
   250
100
AcDbVertex
100
AcDb2dVertex
 10
45.4916546194446
 20
-75.5444481463597
 30
0.0
  0
VERTEX
  5
48E
330
48B
100
AcDbEntity
  8
STANDARDEBENE
 62
   250
100
AcDbVertex
100
AcDb2dVertex
 10
45.54298657603824
 20
-75.61524490528582
 30
0.0
  0
VERTEX
  5
48F
330
48B
100
AcDbEntity
  8
STANDARDEBENE
 62
   250
100
AcDbVertex
100
AcDb2dVertex
 10
45.56985833855033
 20
-75.68914225219409
 30
0.0
  0
VERTEX
  5
490
330
48B
100
AcDbEntity
  8
STANDARDEBENE
 62
   250
100
AcDbVertex
100
AcDb2dVertex
 10
45.57674853406626
 20
-75.77216910816097
 30
0.0
  0
VERTEX
  5
491
330
48B
100
AcDbEntity
  8
STANDARDEBENE
 62
   250
100
AcDbVertex
100
AcDb2dVertex
 10
45.5645184370255
 20
-75.84417165130236
 30
0.0
  0
VERTEX
  5
492
330
48B
100
AcDbEntity
  8
STANDARDEBENE
 62
   250
100
AcDbVertex
100
AcDb2dVertex
 10
45.5369576549618
 20
-75.90893948915205
 30
0.0
  0
VERTEX
  5
493
330
48B
100
AcDbEntity
  8
STANDARDEBENE
 62
   250
100
AcDbVertex
100
AcDb2dVertex
 10
45.4916546194446
 20
-75.96853968036478
 30
0.0
  0
SEQEND
  5
494
330
48B
100
AcDbEntity
  8
STANDARDEBENE
  0
POLYLINE
  5
495
330
1F
100
AcDbEntity
  8
STANDARDEBENE
 62
   250
100
AcDb2dPolyline
 66
     1
 10
0.0
 20
0.0
 30
0.0
  0
VERTEX
  5
496
330
495
100
AcDbEntity
  8
STANDARDEBENE
 62
   250
100
AcDbVertex
100
AcDb2dVertex
 10
43.78977632701153
 20
-77.45802769601953
 30
0.0
  0
VERTEX
  5
497
330
495
100
AcDbEntity
  8
STANDARDEBENE
 62
   250
100
AcDbVertex
100
AcDb2dVertex
 10
45.4916546194446
 20
-75.96853968036478
 30
0.0
  0
SEQEND
  5
498
330
495
100
AcDbEntity
  8
STANDARDEBENE
  0
POLYLINE
  5
499
330
1F
100
AcDbEntity
  8
STANDARDEBENE
 62
   250
100
AcDb2dPolyline
 66
     1
 10
0.0
 20
0.0
 30
0.0
  0
VERTEX
  5
49A
330
499
100
AcDbEntity
  8
STANDARDEBENE
 62
   250
100
AcDbVertex
100
AcDb2dVertex
 10
43.78977632701153
 20
-78.05506313747428
 30
0.0
  0
VERTEX
  5
49B
330
499
100
AcDbEntity
  8
STANDARDEBENE
 62
   250
100
AcDbVertex
100
AcDb2dVertex
 10
43.78977632701153
 20
-77.45802769601953
 30
0.0
  0
SEQEND
  5
49C
330
499
100
AcDbEntity
  8
STANDARDEBENE
  0
POLYLINE
  5
49D
330
1F
100
AcDbEntity
  8
STANDARDEBENE
 62
   250
100
AcDb2dPolyline
 66
     1
 10
0.0
 20
0.0
 30
0.0
  0
VERTEX
  5
49E
330
49D
100
AcDbEntity
  8
STANDARDEBENE
 62
   250
100
AcDbVertex
100
AcDb2dVertex
 10
43.78977632701153
 20
-78.05506313747428
 30
0.0
  0
VERTEX
  5
49F
330
49D
100
AcDbEntity
  8
STANDARDEBENE
 62
   250
100
AcDbVertex
100
AcDb2dVertex
 10
45.4916546194446
 20
-79.5448956629048
 30
0.0
  0
VERTEX
  5
4A0
330
49D
100
AcDbEntity
  8
STANDARDEBENE
 62
   250
100
AcDbVertex
100
AcDb2dVertex
 10
45.54298657603824
 20
-79.61534791205513
 30
0.0
  0
VERTEX
  5
4A1
330
49D
100
AcDbEntity
  8
STANDARDEBENE
 62
   250
100
AcDbVertex
100
AcDb2dVertex
 10
45.56985833855033
 20
-79.68890074918761
 30
0.0
  0
VERTEX
  5
4A2
330
49D
100
AcDbEntity
  8
STANDARDEBENE
 62
   250
100
AcDbVertex
100
AcDb2dVertex
 10
45.57674853406626
 20
-79.77227211493029
 30
0.0
  0
VERTEX
  5
4A3
330
49D
100
AcDbEntity
  8
STANDARDEBENE
 62
   250
100
AcDbVertex
100
AcDb2dVertex
 10
45.5645184370255
 20
-79.84427465807168
 30
0.0
  0
VERTEX
  5
4A4
330
49D
100
AcDbEntity
  8
STANDARDEBENE
 62
   250
100
AcDbVertex
100
AcDb2dVertex
 10
45.5369576549618
 20
-79.90904249592137
 30
0.0
  0
VERTEX
  5
4A5
330
49D
100
AcDbEntity
  8
STANDARDEBENE
 62
   250
100
AcDbVertex
100
AcDb2dVertex
 10
45.4916546194446
 20
-79.9686426871341
 30
0.0
  0
VERTEX
  5
4A6
330
49D
100
AcDbEntity
  8
STANDARDEBENE
 62
   250
100
AcDbVertex
100
AcDb2dVertex
 10
44.30120108918094
 20
-81.0566045590984
 30
0.0
  0
SEQEND
  5
4A7
330
49D
100
AcDbEntity
  8
STANDARDEBENE
  0
POLYLINE
  5
4A8
330
1F
100
AcDbEntity
  8
STANDARDEBENE
 62
   250
100
AcDb2dPolyline
 66
     1
 10
0.0
 20
0.0
 30
0.0
  0
VERTEX
  5
4A9
330
4A8
100
AcDbEntity
  8
STANDARDEBENE
 62
   250
100
AcDbVertex
100
AcDb2dVertex
 10
26.24354893593686
 20
-82.0553383991315
 30
0.0
  0
VERTEX
  5
4AA
330
4A8
100
AcDbEntity
  8
STANDARDEBENE
 62
   250
100
AcDbVertex
100
AcDb2dVertex
 10
25.39657165214198
 20
-83.05665606248306
 30
0.0
  0
SEQEND
  5
4AB
330
4A8
100
AcDbEntity
  8
STANDARDEBENE
  0
POLYLINE
  5
4AC
330
1F
100
AcDbEntity
  8
STANDARDEBENE
 62
   250
100
AcDb2dPolyline
 66
     1
 10
0.0
 20
0.0
 30
0.0
  0
VERTEX
  5
4AD
330
4AC
100
AcDbEntity
  8
STANDARDEBENE
 62
   250
100
AcDbVertex
100
AcDb2dVertex
 10
25.97069719350629
 20
-81.45813070278884
 30
0.0
  0
VERTEX
  5
4AE
330
4AC
100
AcDbEntity
  8
STANDARDEBENE
 62
   250
100
AcDbVertex
100
AcDb2dVertex
 10
26.24354893593686
 20
-82.0553383991315
 30
0.0
  0
SEQEND
  5
4AF
330
4AC
100
AcDbEntity
  8
STANDARDEBENE
  0
POLYLINE
  5
4B0
330
1F
100
AcDbEntity
  8
STANDARDEBENE
 62
   250
100
AcDb2dPolyline
 66
     1
 10
0.0
 20
0.0
 30
0.0
  0
VERTEX
  5
4B1
330
4B0
100
AcDbEntity
  8
STANDARDEBENE
 62
   250
100
AcDbVertex
100
AcDb2dVertex
 10
25.97069719350629
 20
-81.45813070278884
 30
0.0
  0
VERTEX
  5
4B2
330
4B0
100
AcDbEntity
  8
STANDARDEBENE
 62
   250
100
AcDbVertex
100
AcDb2dVertex
 10
25.27823254415599
 20
-81.0566045590984
 30
0.0
  0
SEQEND
  5
4B3
330
4B0
100
AcDbEntity
  8
STANDARDEBENE
  0
POLYLINE
  5
4B4
330
1F
100
AcDbEntity
  8
STANDARDEBENE
 62
   250
100
AcDb2dPolyline
 66
     1
 10
0.0
 20
0.0
 30
0.0
  0
VERTEX
  5
4B5
330
4B4
100
AcDbEntity
  8
STANDARDEBENE
 62
   250
100
AcDbVertex
100
AcDb2dVertex
 10
44.30120108918094
 20
-81.0566045590984
 30
0.0
  0
VERTEX
  5
4B6
330
4B4
100
AcDbEntity
  8
STANDARDEBENE
 62
   250
100
AcDbVertex
100
AcDb2dVertex
 10
43.60959771427014
 20
-81.45813070278884
 30
0.0
  0
SEQEND
  5
4B7
330
4B4
100
AcDbEntity
  8
STANDARDEBENE
  0
POLYLINE
  5
4B8
330
1F
100
AcDbEntity
  8
STANDARDEBENE
 62
   250
100
AcDb2dPolyline
 66
     1
 10
0.0
 20
0.0
 30
0.0
  0
VERTEX
  5
4B9
330
4B8
100
AcDbEntity
  8
STANDARDEBENE
 62
   250
100
AcDbVertex
100
AcDb2dVertex
 10
43.33657371695167
 20
-82.0553383991315
 30
0.0
  0
VERTEX
  5
4BA
330
4B8
100
AcDbEntity
  8
STANDARDEBENE
 62
   250
100
AcDbVertex
100
AcDb2dVertex
 10
43.60959771427014
 20
-81.45813070278884
 30
0.0
  0
SEQEND
  5
4BB
330
4B8
100
AcDbEntity
  8
STANDARDEBENE
  0
POLYLINE
  5
4BC
330
1F
100
AcDbEntity
  8
STANDARDEBENE
 62
   250
100
AcDb2dPolyline
 66
     1
 10
0.0
 20
0.0
 30
0.0
  0
VERTEX
  5
4BD
330
4BC
100
AcDbEntity
  8
STANDARDEBENE
 62
   250
100
AcDbVertex
100
AcDb2dVertex
 10
44.18372325563445
 20
-83.05665606248306
 30
0.0
  0
VERTEX
  5
4BE
330
4BC
100
AcDbEntity
  8
STANDARDEBENE
 62
   250
100
AcDbVertex
100
AcDb2dVertex
 10
43.33657371695167
 20
-82.0553383991315
 30
0.0
  0
SEQEND
  5
4BF
330
4BC
100
AcDbEntity
  8
STANDARDEBENE
  0
POLYLINE
  5
4C0
330
1F
100
AcDbEntity
  8
STANDARDEBENE
 62
   250
100
AcDb2dPolyline
 66
     1
 10
0.0
 20
0.0
 30
0.0
  0
VERTEX
  5
4C1
330
4C0
100
AcDbEntity
  8
STANDARDEBENE
 62
   250
100
AcDbVertex
100
AcDb2dVertex
 10
26.24354893593686
 20
-82.0553383991315
 30
0.0
  0
VERTEX
  5
4C2
330
4C0
100
AcDbEntity
  8
STANDARDEBENE
 62
   250
100
AcDbVertex
100
AcDb2dVertex
 10
43.33657371695167
 20
-82.0553383991315
 30
0.0
  0
SEQEND
  5
4C3
330
4C0
100
AcDbEntity
  8
STANDARDEBENE
  0
POLYLINE
  5
4C4
330
1F
100
AcDbEntity
  8
STANDARDEBENE
 62
   250
100
AcDb2dPolyline
 66
     1
 10
0.0
 20
0.0
 30
0.0
  0
VERTEX
  5
4C5
330
4C4
100
AcDbEntity
  8
STANDARDEBENE
 62
   250
100
AcDbVertex
100
AcDb2dVertex
 10
25.39657165214198
 20
-83.05665606248306
 30
0.0
  0
VERTEX
  5
4C6
330
4C4
100
AcDbEntity
  8
STANDARDEBENE
 62
   250
100
AcDbVertex
100
AcDb2dVertex
 10
24.11378950196494
 20
-83.05665606248306
 30
0.0
  0
VERTEX
  5
4C7
330
4C4
100
AcDbEntity
  8
STANDARDEBENE
 62
   250
100
AcDbVertex
100
AcDb2dVertex
 10
22.99413273062739
 20
-83.05665606248306
 30
0.0
  0
VERTEX
  5
4C8
330
4C4
100
AcDbEntity
  8
STANDARDEBENE
 62
   250
100
AcDbVertex
100
AcDb2dVertex
 10
22.05275976826436
 20
-83.05665606248306
 30
0.0
  0
VERTEX
  5
4C9
330
4C4
100
AcDbEntity
  8
STANDARDEBENE
 62
   250
100
AcDbVertex
100
AcDb2dVertex
 10
21.30603482922616
 20
-83.05665606248306
 30
0.0
  0
VERTEX
  5
4CA
330
4C4
100
AcDbEntity
  8
STANDARDEBENE
 62
   250
100
AcDbVertex
100
AcDb2dVertex
 10
20.76394869701089
 20
-83.05665606248306
 30
0.0
  0
VERTEX
  5
4CB
330
4C4
100
AcDbEntity
  8
STANDARDEBENE
 62
   250
100
AcDbVertex
100
AcDb2dVertex
 10
20.43597539045294
 20
-83.05665606248306
 30
0.0
  0
VERTEX
  5
4CC
330
4C4
100
AcDbEntity
  8
STANDARDEBENE
 62
   250
100
AcDbVertex
100
AcDb2dVertex
 10
20.32573226219817
 20
-83.05665606248306
 30
0.0
  0
SEQEND
  5
4CD
330
4C4
100
AcDbEntity
  8
STANDARDEBENE
  0
POLYLINE
  5
4CE
330
1F
100
AcDbEntity
  8
STANDARDEBENE
 62
   250
100
AcDb2dPolyline
 66
     1
 10
0.0
 20
0.0
 30
0.0
  0
VERTEX
  5
4CF
330
4CE
100
AcDbEntity
  8
STANDARDEBENE
 62
   250
100
AcDbVertex
100
AcDb2dVertex
 10
49.25421813580246
 20
-83.05665606248306
 30
0.0
  0
VERTEX
  5
4D0
330
4CE
100
AcDbEntity
  8
STANDARDEBENE
 62
   250
100
AcDbVertex
100
AcDb2dVertex
 10
49.14397500754769
 20
-83.05665606248306
 30
0.0
  0
VERTEX
  5
4D1
330
4CE
100
AcDbEntity
  8
STANDARDEBENE
 62
   250
100
AcDbVertex
100
AcDb2dVertex
 10
48.81582944610184
 20
-83.05665606248306
 30
0.0
  0
VERTEX
  5
4D2
330
4CE
100
AcDbEntity
  8
STANDARDEBENE
 62
   250
100
AcDbVertex
100
AcDb2dVertex
 10
48.27339880411077
 20
-83.05665606248306
 30
0.0
  0
VERTEX
  5
4D3
330
4CE
100
AcDbEntity
  8
STANDARDEBENE
 62
   250
100
AcDbVertex
100
AcDb2dVertex
 10
47.52701837484837
 20
-83.05665606248306
 30
0.0
  0
VERTEX
  5
4D4
330
4CE
100
AcDbEntity
  8
STANDARDEBENE
 62
   250
100
AcDbVertex
100
AcDb2dVertex
 10
46.58616217714903
 20
-83.05665606248306
 30
0.0
  0
VERTEX
  5
4D5
330
4CE
100
AcDbEntity
  8
STANDARDEBENE
 62
   250
100
AcDbVertex
100
AcDb2dVertex
 10
45.46616089603569
 20
-83.05665606248306
 30
0.0
  0
VERTEX
  5
4D6
330
4CE
100
AcDbEntity
  8
STANDARDEBENE
 62
   250
100
AcDbVertex
100
AcDb2dVertex
 10
44.18372325563445
 20
-83.05665606248306
 30
0.0
  0
SEQEND
  5
4D7
330
4CE
100
AcDbEntity
  8
STANDARDEBENE
  0
POLYLINE
  5
4D8
330
1F
100
AcDbEntity
  8
STANDARDEBENE
 62
   250
100
AcDb2dPolyline
 66
     1
 10
0.0
 20
0.0
 30
0.0
  0
VERTEX
  5
4D9
330
4D8
100
AcDbEntity
  8
STANDARDEBENE
 62
   250
100
AcDbVertex
100
AcDb2dVertex
 10
25.97069719350629
 20
-81.45813070278884
 30
0.0
  0
VERTEX
  5
4DA
330
4D8
100
AcDbEntity
  8
STANDARDEBENE
 62
   250
100
AcDbVertex
100
AcDb2dVertex
 10
43.60959771427014
 20
-81.45813070278884
 30
0.0
  0
SEQEND
  5
4DB
330
4D8
100
AcDbEntity
  8
STANDARDEBENE
  0
POLYLINE
  5
4DC
330
1F
100
AcDbEntity
  8
STANDARDEBENE
 62
   250
100
AcDb2dPolyline
 66
     1
 10
0.0
 20
0.0
 30
0.0
  0
VERTEX
  5
4DD
330
4DC
100
AcDbEntity
  8
STANDARDEBENE
 62
   250
100
AcDbVertex
100
AcDb2dVertex
 10
43.78977632701153
 20
-78.05506313747428
 30
0.0
  0
VERTEX
  5
4DE
330
4DC
100
AcDbEntity
  8
STANDARDEBENE
 62
   250
100
AcDbVertex
100
AcDb2dVertex
 10
25.7896573063254
 20
-78.05506313747428
 30
0.0
  0
SEQEND
  5
4DF
330
4DC
100
AcDbEntity
  8
STANDARDEBENE
  0
POLYLINE
  5
4E0
330
1F
100
AcDbEntity
  8
STANDARDEBENE
 62
   250
100
AcDb2dPolyline
 66
     1
 10
0.0
 20
0.0
 30
0.0
  0
VERTEX
  5
4E1
330
4E0
100
AcDbEntity
  8
STANDARDEBENE
 62
   250
100
AcDbVertex
100
AcDb2dVertex
 10
43.78977632701153
 20
-77.45802769601953
 30
0.0
  0
VERTEX
  5
4E2
330
4E0
100
AcDbEntity
  8
STANDARDEBENE
 62
   250
100
AcDbVertex
100
AcDb2dVertex
 10
25.7896573063254
 20
-77.45802769601953
 30
0.0
  0
SEQEND
  5
4E3
330
4E0
100
AcDbEntity
  8
STANDARDEBENE
  0
POLYLINE
  5
4E4
330
1F
100
AcDbEntity
  8
STANDARDEBENE
 62
   250
100
AcDb2dPolyline
 66
     1
 10
0.0
 20
0.0
 30
0.0
  0
VERTEX
  5
4E5
330
4E4
100
AcDbEntity
  8
STANDARDEBENE
 62
   250
100
AcDbVertex
100
AcDb2dVertex
 10
43.78977632701153
 20
-74.05582140514446
 30
0.0
  0
VERTEX
  5
4E6
330
4E4
100
AcDbEntity
  8
STANDARDEBENE
 62
   250
100
AcDbVertex
100
AcDb2dVertex
 10
25.7896573063254
 20
-74.05582140514446
 30
0.0
  0
SEQEND
  5
4E7
330
4E4
100
AcDbEntity
  8
STANDARDEBENE
  0
POLYLINE
  5
4E8
330
1F
100
AcDbEntity
  8
STANDARDEBENE
 62
   250
100
AcDb2dPolyline
 66
     1
 10
0.0
 20
0.0
 30
0.0
  0
VERTEX
  5
4E9
330
4E8
100
AcDbEntity
  8
STANDARDEBENE
 62
   250
100
AcDbVertex
100
AcDb2dVertex
 10
43.78977632701153
 20
-73.458269199026
 30
0.0
  0
VERTEX
  5
4EA
330
4E8
100
AcDbEntity
  8
STANDARDEBENE
 62
   250
100
AcDbVertex
100
AcDb2dVertex
 10
25.7896573063254
 20
-73.458269199026
 30
0.0
  0
SEQEND
  5
4EB
330
4E8
100
AcDbEntity
  8
STANDARDEBENE
  0
POLYLINE
  5
4EC
330
1F
100
AcDbEntity
  8
STANDARDEBENE
 62
   250
100
AcDb2dPolyline
 66
     1
 10
0.0
 20
0.0
 30
0.0
  0
VERTEX
  5
4ED
330
4EC
100
AcDbEntity
  8
STANDARDEBENE
 62
   250
100
AcDbVertex
100
AcDb2dVertex
 10
25.7896573063254
 20
-70.05571839837513
 30
0.0
  0
VERTEX
  5
4EE
330
4EC
100
AcDbEntity
  8
STANDARDEBENE
 62
   250
100
AcDbVertex
100
AcDb2dVertex
 10
43.78977632701153
 20
-70.05571839837513
 30
0.0
  0
SEQEND
  5
4EF
330
4EC
100
AcDbEntity
  8
STANDARDEBENE
  0
POLYLINE
  5
4F0
330
1F
100
AcDbEntity
  8
STANDARDEBENE
 62
   250
100
AcDb2dPolyline
 66
     1
 10
0.0
 20
0.0
 30
0.0
  0
VERTEX
  5
4F1
330
4F0
100
AcDbEntity
  8
STANDARDEBENE
 62
   250
100
AcDbVertex
100
AcDb2dVertex
 10
25.7896573063254
 20
-69.45764942759298
 30
0.0
  0
VERTEX
  5
4F2
330
4F0
100
AcDbEntity
  8
STANDARDEBENE
 62
   250
100
AcDbVertex
100
AcDb2dVertex
 10
43.78977632701153
 20
-69.45764942759298
 30
0.0
  0
SEQEND
  5
4F3
330
4F0
100
AcDbEntity
  8
STANDARDEBENE
  0
POLYLINE
  5
4F4
330
1F
100
AcDbEntity
  8
STANDARDEBENE
 62
   250
100
AcDb2dPolyline
 66
     1
 10
0.0
 20
0.0
 30
0.0
  0
VERTEX
  5
4F5
330
4F4
100
AcDbEntity
  8
STANDARDEBENE
 62
   250
100
AcDbVertex
100
AcDb2dVertex
 10
43.78977632701153
 20
-66.05509862694213
 30
0.0
  0
VERTEX
  5
4F6
330
4F4
100
AcDbEntity
  8
STANDARDEBENE
 62
   250
100
AcDbVertex
100
AcDb2dVertex
 10
25.7896573063254
 20
-66.05509862694213
 30
0.0
  0
SEQEND
  5
4F7
330
4F4
100
AcDbEntity
  8
STANDARDEBENE
  0
POLYLINE
  5
4F8
330
1F
100
AcDbEntity
  8
STANDARDEBENE
 62
   250
100
AcDb2dPolyline
 66
     1
 10
0.0
 20
0.0
 30
0.0
  0
VERTEX
  5
4F9
330
4F8
100
AcDbEntity
  8
STANDARDEBENE
 62
   250
100
AcDbVertex
100
AcDb2dVertex
 10
43.78977632701153
 20
-65.45754642082368
 30
0.0
  0
VERTEX
  5
4FA
330
4F8
100
AcDbEntity
  8
STANDARDEBENE
 62
   250
100
AcDbVertex
100
AcDb2dVertex
 10
25.7896573063254
 20
-65.45754642082368
 30
0.0
  0
SEQEND
  5
4FB
330
4F8
100
AcDbEntity
  8
STANDARDEBENE
  0
POLYLINE
  5
4FC
330
1F
100
AcDbEntity
  8
STANDARDEBENE
 62
   250
100
AcDb2dPolyline
 66
     1
 10
0.0
 20
0.0
 30
0.0
  0
VERTEX
  5
4FD
330
4FC
100
AcDbEntity
  8
STANDARDEBENE
 62
   250
100
AcDbVertex
100
AcDb2dVertex
 10
25.7896573063254
 20
-62.05534012994861
 30
0.0
  0
VERTEX
  5
4FE
330
4FC
100
AcDbEntity
  8
STANDARDEBENE
 62
   250
100
AcDbVertex
100
AcDb2dVertex
 10
43.78977632701153
 20
-62.05534012994861
 30
0.0
  0
SEQEND
  5
4FF
330
4FC
100
AcDbEntity
  8
STANDARDEBENE
  0
POLYLINE
  5
500
330
1F
100
AcDbEntity
  8
STANDARDEBENE
 62
   250
100
AcDb2dPolyline
 66
     1
 10
0.0
 20
0.0
 30
0.0
  0
VERTEX
  5
501
330
500
100
AcDbEntity
  8
STANDARDEBENE
 62
   250
100
AcDbVertex
100
AcDb2dVertex
 10
25.7896573063254
 20
-61.45778792383015
 30
0.0
  0
VERTEX
  5
502
330
500
100
AcDbEntity
  8
STANDARDEBENE
 62
   250
100
AcDbVertex
100
AcDb2dVertex
 10
43.78977632701153
 20
-61.45778792383015
 30
0.0
  0
SEQEND
  5
503
330
500
100
AcDbEntity
  8
STANDARDEBENE
  0
POLYLINE
  5
504
330
1F
100
AcDbEntity
  8
STANDARDEBENE
 62
   250
100
AcDb2dPolyline
 66
     1
 10
0.0
 20
0.0
 30
0.0
  0
VERTEX
  5
505
330
504
100
AcDbEntity
  8
STANDARDEBENE
 62
   250
100
AcDbVertex
100
AcDb2dVertex
 10
43.78977632701153
 20
-58.05523712317929
 30
0.0
  0
VERTEX
  5
506
330
504
100
AcDbEntity
  8
STANDARDEBENE
 62
   250
100
AcDbVertex
100
AcDb2dVertex
 10
25.7896573063254
 20
-58.05523712317929
 30
0.0
  0
SEQEND
  5
507
330
504
100
AcDbEntity
  8
STANDARDEBENE
  0
POLYLINE
  5
508
330
1F
100
AcDbEntity
  8
STANDARDEBENE
 62
   250
100
AcDb2dPolyline
 66
     1
 10
0.0
 20
0.0
 30
0.0
  0
VERTEX
  5
509
330
508
100
AcDbEntity
  8
STANDARDEBENE
 62
   250
100
AcDbVertex
100
AcDb2dVertex
 10
43.78977632701153
 20
-57.45802942683663
 30
0.0
  0
VERTEX
  5
50A
330
508
100
AcDbEntity
  8
STANDARDEBENE
 62
   250
100
AcDbVertex
100
AcDb2dVertex
 10
25.7896573063254
 20
-57.45802942683663
 30
0.0
  0
SEQEND
  5
50B
330
508
100
AcDbEntity
  8
STANDARDEBENE
  0
POLYLINE
  5
50C
330
1F
100
AcDbEntity
  8
STANDARDEBENE
 62
   250
100
AcDb2dPolyline
 66
     1
 10
0.0
 20
0.0
 30
0.0
  0
VERTEX
  5
50D
330
50C
100
AcDbEntity
  8
STANDARDEBENE
 62
   250
100
AcDbVertex
100
AcDb2dVertex
 10
43.78977632701153
 20
-54.05582313596157
 30
0.0
  0
VERTEX
  5
50E
330
50C
100
AcDbEntity
  8
STANDARDEBENE
 62
   250
100
AcDbVertex
100
AcDb2dVertex
 10
25.7896573063254
 20
-54.05582313596157
 30
0.0
  0
SEQEND
  5
50F
330
50C
100
AcDbEntity
  8
STANDARDEBENE
  0
POLYLINE
  5
510
330
1F
100
AcDbEntity
  8
STANDARDEBENE
 62
   250
100
AcDb2dPolyline
 66
     1
 10
0.0
 20
0.0
 30
0.0
  0
VERTEX
  5
511
330
510
100
AcDbEntity
  8
STANDARDEBENE
 62
   250
100
AcDbVertex
100
AcDb2dVertex
 10
43.78977632701153
 20
-53.45827092984311
 30
0.0
  0
VERTEX
  5
512
330
510
100
AcDbEntity
  8
STANDARDEBENE
 62
   250
100
AcDbVertex
100
AcDb2dVertex
 10
25.7896573063254
 20
-53.45827092984311
 30
0.0
  0
SEQEND
  5
513
330
510
100
AcDbEntity
  8
STANDARDEBENE
  0
POLYLINE
  5
514
330
1F
100
AcDbEntity
  8
STANDARDEBENE
 62
   250
100
AcDb2dPolyline
 66
     1
 10
0.0
 20
0.0
 30
0.0
  0
VERTEX
  5
515
330
514
100
AcDbEntity
  8
STANDARDEBENE
 62
   250
100
AcDbVertex
100
AcDb2dVertex
 10
25.7896573063254
 20
-50.05503110964066
 30
0.0
  0
VERTEX
  5
516
330
514
100
AcDbEntity
  8
STANDARDEBENE
 62
   250
100
AcDbVertex
100
AcDb2dVertex
 10
43.78977632701153
 20
-50.05503110964066
 30
0.0
  0
SEQEND
  5
517
330
514
100
AcDbEntity
  8
STANDARDEBENE
  0
POLYLINE
  5
518
330
1F
100
AcDbEntity
  8
STANDARDEBENE
 62
   250
100
AcDb2dPolyline
 66
     1
 10
0.0
 20
0.0
 30
0.0
  0
VERTEX
  5
519
330
518
100
AcDbEntity
  8
STANDARDEBENE
 62
   250
100
AcDbVertex
100
AcDb2dVertex
 10
25.7896573063254
 20
-49.457823413298
 30
0.0
  0
VERTEX
  5
51A
330
518
100
AcDbEntity
  8
STANDARDEBENE
 62
   250
100
AcDbVertex
100
AcDb2dVertex
 10
43.78977632701153
 20
-49.457823413298
 30
0.0
  0
SEQEND
  5
51B
330
518
100
AcDbEntity
  8
STANDARDEBENE
  0
POLYLINE
  5
51C
330
1F
100
AcDbEntity
  8
STANDARDEBENE
 62
   250
100
AcDb2dPolyline
 66
     1
 10
0.0
 20
0.0
 30
0.0
  0
VERTEX
  5
51D
330
51C
100
AcDbEntity
  8
STANDARDEBENE
 62
   250
100
AcDbVertex
100
AcDb2dVertex
 10
43.78977632701153
 20
-46.05561712242294
 30
0.0
  0
VERTEX
  5
51E
330
51C
100
AcDbEntity
  8
STANDARDEBENE
 62
   250
100
AcDbVertex
100
AcDb2dVertex
 10
25.7896573063254
 20
-46.05561712242294
 30
0.0
  0
SEQEND
  5
51F
330
51C
100
AcDbEntity
  8
STANDARDEBENE
  0
POLYLINE
  5
520
330
1F
100
AcDbEntity
  8
STANDARDEBENE
 62
   250
100
AcDb2dPolyline
 66
     1
 10
0.0
 20
0.0
 30
0.0
  0
VERTEX
  5
521
330
520
100
AcDbEntity
  8
STANDARDEBENE
 62
   250
100
AcDbVertex
100
AcDb2dVertex
 10
43.78977632701153
 20
-45.45806491630448
 30
0.0
  0
VERTEX
  5
522
330
520
100
AcDbEntity
  8
STANDARDEBENE
 62
   250
100
AcDbVertex
100
AcDb2dVertex
 10
25.7896573063254
 20
-45.45806491630448
 30
0.0
  0
SEQEND
  5
523
330
520
100
AcDbEntity
  8
STANDARDEBENE
  0
POLYLINE
  5
524
330
1F
100
AcDbEntity
  8
STANDARDEBENE
 62
   250
100
AcDb2dPolyline
 66
     1
 10
0.0
 20
0.0
 30
0.0
  0
VERTEX
  5
525
330
524
100
AcDbEntity
  8
STANDARDEBENE
 62
   250
100
AcDbVertex
100
AcDb2dVertex
 10
25.7896573063254
 20
-42.05499735098992
 30
0.0
  0
VERTEX
  5
526
330
524
100
AcDbEntity
  8
STANDARDEBENE
 62
   250
100
AcDbVertex
100
AcDb2dVertex
 10
43.78977632701153
 20
-42.05499735098992
 30
0.0
  0
SEQEND
  5
527
330
524
100
AcDbEntity
  8
STANDARDEBENE
  0
POLYLINE
  5
528
330
1F
100
AcDbEntity
  8
STANDARDEBENE
 62
   250
100
AcDb2dPolyline
 66
     1
 10
0.0
 20
0.0
 30
0.0
  0
VERTEX
  5
529
330
528
100
AcDbEntity
  8
STANDARDEBENE
 62
   250
100
AcDbVertex
100
AcDb2dVertex
 10
25.7896573063254
 20
-41.45796190953516
 30
0.0
  0
VERTEX
  5
52A
330
528
100
AcDbEntity
  8
STANDARDEBENE
 62
   250
100
AcDbVertex
100
AcDb2dVertex
 10
43.78977632701153
 20
-41.45796190953516
 30
0.0
  0
SEQEND
  5
52B
330
528
100
AcDbEntity
  8
STANDARDEBENE
  0
POLYLINE
  5
52C
330
1F
100
AcDbEntity
  8
STANDARDEBENE
 62
   250
100
AcDb2dPolyline
 66
     1
 10
0.0
 20
0.0
 30
0.0
  0
VERTEX
  5
52D
330
52C
100
AcDbEntity
  8
STANDARDEBENE
 62
   250
100
AcDbVertex
100
AcDb2dVertex
 10
43.78977632701153
 20
-38.0552388539964
 30
0.0
  0
VERTEX
  5
52E
330
52C
100
AcDbEntity
  8
STANDARDEBENE
 62
   250
100
AcDbVertex
100
AcDb2dVertex
 10
25.7896573063254
 20
-38.0552388539964
 30
0.0
  0
SEQEND
  5
52F
330
52C
100
AcDbEntity
  8
STANDARDEBENE
  0
POLYLINE
  5
530
330
1F
100
AcDbEntity
  8
STANDARDEBENE
 62
   250
100
AcDb2dPolyline
 66
     1
 10
0.0
 20
0.0
 30
0.0
  0
VERTEX
  5
531
330
530
100
AcDbEntity
  8
STANDARDEBENE
 62
   250
100
AcDbVertex
100
AcDb2dVertex
 10
25.39657165214198
 20
-83.05665606248306
 30
0.0
  0
VERTEX
  5
532
330
530
100
AcDbEntity
  8
STANDARDEBENE
 62
   250
100
AcDbVertex
100
AcDb2dVertex
 10
44.18372325563445
 20
-83.05665606248306
 30
0.0
  0
SEQEND
  5
533
330
530
100
AcDbEntity
  8
STANDARDEBENE
  0
POLYLINE
  5
534
330
1F
100
AcDbEntity
  8
STANDARDEBENE
 62
   250
100
AcDb2dPolyline
 66
     1
 10
0.0
 20
0.0
 30
0.0
  0
VERTEX
  5
535
330
534
100
AcDbEntity
  8
STANDARDEBENE
 62
   250
100
AcDbVertex
100
AcDb2dVertex
 10
0.308163994449673
 20
1.943724155041985
 30
0.0
  0
VERTEX
  5
536
330
534
100
AcDbEntity
  8
STANDARDEBENE
 62
   250
100
AcDbVertex
100
AcDb2dVertex
 10
0.4130672211796064
 20
1.943724155041985
 30
0.0
  0
VERTEX
  5
537
330
534
100
AcDbEntity
  8
STANDARDEBENE
 62
   250
100
AcDbVertex
100
AcDb2dVertex
 10
0.7265711171541201
 20
1.943724155041985
 30
0.0
  0
VERTEX
  5
538
330
534
100
AcDbEntity
  8
STANDARDEBENE
 62
   250
100
AcDbVertex
100
AcDb2dVertex
 10
1.247469898157927
 20
1.943724155041985
 30
0.0
  0
VERTEX
  5
539
330
534
100
AcDbEntity
  8
STANDARDEBENE
 62
   250
100
AcDbVertex
100
AcDb2dVertex
 10
1.972490721320965
 20
1.943724155041985
 30
0.0
  0
VERTEX
  5
53A
330
534
100
AcDbEntity
  8
STANDARDEBENE
 62
   250
100
AcDbVertex
100
AcDb2dVertex
 10
2.896121430230493
 20
1.943724155041985
 30
0.0
  0
VERTEX
  5
53B
330
534
100
AcDbEntity
  8
STANDARDEBENE
 62
   250
100
AcDbVertex
100
AcDb2dVertex
 10
4.013538888025367
 20
1.943724155041985
 30
0.0
  0
VERTEX
  5
53C
330
534
100
AcDbEntity
  8
STANDARDEBENE
 62
   250
100
AcDbVertex
100
AcDb2dVertex
 10
5.318541918741254
 20
1.943724155041985
 30
0.0
  0
VERTEX
  5
53D
330
534
100
AcDbEntity
  8
STANDARDEBENE
 62
   250
100
AcDbVertex
100
AcDb2dVertex
 10
6.801828758431659
 20
1.943724155041985
 30
0.0
  0
VERTEX
  5
53E
330
534
100
AcDbEntity
  8
STANDARDEBENE
 62
   250
100
AcDbVertex
100
AcDb2dVertex
 10
8.453925388262187
 20
1.943724155041985
 30
0.0
  0
VERTEX
  5
53F
330
534
100
AcDbEntity
  8
STANDARDEBENE
 62
   250
100
AcDbVertex
100
AcDb2dVertex
 10
10.26673582850163
 20
1.943724155041985
 30
0.0
  0
VERTEX
  5
540
330
534
100
AcDbEntity
  8
STANDARDEBENE
 62
   250
100
AcDbVertex
100
AcDb2dVertex
 10
12.22699645278183
 20
1.943724155041985
 30
0.0
  0
VERTEX
  5
541
330
534
100
AcDbEntity
  8
STANDARDEBENE
 62
   250
100
AcDbVertex
100
AcDb2dVertex
 10
14.32351069338941
 20
1.943724155041985
 30
0.0
  0
VERTEX
  5
542
330
534
100
AcDbEntity
  8
STANDARDEBENE
 62
   250
100
AcDbVertex
100
AcDb2dVertex
 10
16.54335943373203
 20
1.943724155041985
 30
0.0
  0
VERTEX
  5
543
330
534
100
AcDbEntity
  8
STANDARDEBENE
 62
   250
100
AcDbVertex
100
AcDb2dVertex
 10
18.87259002788992
 20
1.943724155041985
 30
0.0
  0
VERTEX
  5
544
330
534
100
AcDbEntity
  8
STANDARDEBENE
 62
   250
100
AcDbVertex
100
AcDb2dVertex
 10
21.29690532016756
 20
1.943724155041985
 30
0.0
  0
VERTEX
  5
545
330
534
100
AcDbEntity
  8
STANDARDEBENE
 62
   250
100
AcDbVertex
100
AcDb2dVertex
 10
23.80149139020571
 20
1.943724155041985
 30
0.0
  0
VERTEX
  5
546
330
534
100
AcDbEntity
  8
STANDARDEBENE
 62
   250
100
AcDbVertex
100
AcDb2dVertex
 10
26.37101755298144
 20
1.943724155041985
 30
0.0
  0
VERTEX
  5
547
330
534
100
AcDbEntity
  8
STANDARDEBENE
 62
   250
100
AcDbVertex
100
AcDb2dVertex
 10
28.98980861369602
 20
1.943724155041985
 30
0.0
  0
VERTEX
  5
548
330
534
100
AcDbEntity
  8
STANDARDEBENE
 62
   250
100
AcDbVertex
100
AcDb2dVertex
 10
31.64046682867174
 20
1.943724155041985
 30
0.0
  0
VERTEX
  5
549
330
534
100
AcDbEntity
  8
STANDARDEBENE
 62
   250
100
AcDbVertex
100
AcDb2dVertex
 10
34.30852278732517
 20
1.943724155041985
 30
0.0
  0
VERTEX
  5
54A
330
534
100
AcDbEntity
  8
STANDARDEBENE
 62
   250
100
AcDbVertex
100
AcDb2dVertex
 10
36.97588972642701
 20
1.943724155041985
 30
0.0
  0
VERTEX
  5
54B
330
534
100
AcDbEntity
  8
STANDARDEBENE
 62
   250
100
AcDbVertex
100
AcDb2dVertex
 10
39.62706470606642
 20
1.943724155041985
 30
0.0
  0
VERTEX
  5
54C
330
534
100
AcDbEntity
  8
STANDARDEBENE
 62
   250
100
AcDbVertex
100
AcDb2dVertex
 10
42.24568351189311
 20
1.943724155041985
 30
0.0
  0
VERTEX
  5
54D
330
534
100
AcDbEntity
  8
STANDARDEBENE
 62
   250
100
AcDbVertex
100
AcDb2dVertex
 10
44.81503741978093
 20
1.943724155041985
 30
0.0
  0
VERTEX
  5
54E
330
534
100
AcDbEntity
  8
STANDARDEBENE
 62
   250
100
AcDbVertex
100
AcDb2dVertex
 10
47.31962348981908
 20
1.943724155041985
 30
0.0
  0
VERTEX
  5
54F
330
534
100
AcDbEntity
  8
STANDARDEBENE
 62
   250
100
AcDbVertex
100
AcDb2dVertex
 10
49.74376652720882
 20
1.943724155041985
 30
0.0
  0
VERTEX
  5
550
330
534
100
AcDbEntity
  8
STANDARDEBENE
 62
   250
100
AcDbVertex
100
AcDb2dVertex
 10
52.07299712136672
 20
1.943724155041985
 30
0.0
  0
VERTEX
  5
551
330
534
100
AcDbEntity
  8
STANDARDEBENE
 62
   250
100
AcDbVertex
100
AcDb2dVertex
 10
54.29284586170933
 20
1.943724155041985
 30
0.0
  0
VERTEX
  5
552
330
534
100
AcDbEntity
  8
STANDARDEBENE
 62
   250
100
AcDbVertex
100
AcDb2dVertex
 10
56.38936010231691
 20
1.943724155041985
 30
0.0
  0
VERTEX
  5
553
330
534
100
AcDbEntity
  8
STANDARDEBENE
 62
   250
100
AcDbVertex
100
AcDb2dVertex
 10
58.34996523637292
 20
1.943724155041985
 30
0.0
  0
VERTEX
  5
554
330
534
100
AcDbEntity
  8
STANDARDEBENE
 62
   250
100
AcDbVertex
100
AcDb2dVertex
 10
60.16174214728497
 20
1.943724155041985
 30
0.0
  0
VERTEX
  5
555
330
534
100
AcDbEntity
  8
STANDARDEBENE
 62
   250
100
AcDbVertex
100
AcDb2dVertex
 10
61.81504456133078
 20
1.943724155041985
 30
0.0
  0
VERTEX
  5
556
330
534
100
AcDbEntity
  8
STANDARDEBENE
 62
   250
100
AcDbVertex
100
AcDb2dVertex
 10
63.29781463635749
 20
1.943724155041985
 30
0.0
  0
VERTEX
  5
557
330
534
100
AcDbEntity
  8
STANDARDEBENE
 62
   250
100
AcDbVertex
100
AcDb2dVertex
 10
64.60247315729758
 20
1.943724155041985
 30
0.0
  0
VERTEX
  5
558
330
534
100
AcDbEntity
  8
STANDARDEBENE
 62
   250
100
AcDbVertex
100
AcDb2dVertex
 10
65.72023512486825
 20
1.943724155041985
 30
0.0
  0
VERTEX
  5
559
330
534
100
AcDbEntity
  8
STANDARDEBENE
 62
   250
100
AcDbVertex
100
AcDb2dVertex
 10
66.64421034355358
 20
1.943724155041985
 30
0.0
  0
VERTEX
  5
55A
330
534
100
AcDbEntity
  8
STANDARDEBENE
 62
   250
100
AcDbVertex
100
AcDb2dVertex
 10
67.36923116671662
 20
1.943724155041985
 30
0.0
  0
VERTEX
  5
55B
330
534
100
AcDbEntity
  8
STANDARDEBENE
 62
   250
100
AcDbVertex
100
AcDb2dVertex
 10
67.88978543794462
 20
1.943724155041985
 30
0.0
  0
VERTEX
  5
55C
330
534
100
AcDbEntity
  8
STANDARDEBENE
 62
   250
100
AcDbVertex
100
AcDb2dVertex
 10
68.20363384369493
 20
1.943724155041985
 30
0.0
  0
VERTEX
  5
55D
330
534
100
AcDbEntity
  8
STANDARDEBENE
 62
   250
100
AcDbVertex
100
AcDb2dVertex
 10
68.30853707042486
 20
1.943724155041985
 30
0.0
  0
SEQEND
  5
55E
330
534
100
AcDbEntity
  8
STANDARDEBENE
  0
POLYLINE
  5
55F
330
1F
100
AcDbEntity
  8
STANDARDEBENE
 62
   250
100
AcDb2dPolyline
 66
     1
 10
0.0
 20
0.0
 30
0.0
  0
VERTEX
  5
560
330
55F
100
AcDbEntity
  8
STANDARDEBENE
 62
   250
100
AcDbVertex
100
AcDb2dVertex
 10
0.308163994449673
 20
-28.05687614083999
 30
0.0
  0
VERTEX
  5
561
330
55F
100
AcDbEntity
  8
STANDARDEBENE
 62
   250
100
AcDbVertex
100
AcDb2dVertex
 10
0.4130672211796064
 20
-28.05687614083999
 30
0.0
  0
VERTEX
  5
562
330
55F
100
AcDbEntity
  8
STANDARDEBENE
 62
   250
100
AcDbVertex
100
AcDb2dVertex
 10
0.7265711171541201
 20
-28.05687614083999
 30
0.0
  0
VERTEX
  5
563
330
55F
100
AcDbEntity
  8
STANDARDEBENE
 62
   250
100
AcDbVertex
100
AcDb2dVertex
 10
1.247469898157927
 20
-28.05687614083999
 30
0.0
  0
VERTEX
  5
564
330
55F
100
AcDbEntity
  8
STANDARDEBENE
 62
   250
100
AcDbVertex
100
AcDb2dVertex
 10
1.972490721320965
 20
-28.05687614083999
 30
0.0
  0
VERTEX
  5
565
330
55F
100
AcDbEntity
  8
STANDARDEBENE
 62
   250
100
AcDbVertex
100
AcDb2dVertex
 10
2.896121430230493
 20
-28.05687614083999
 30
0.0
  0
VERTEX
  5
566
330
55F
100
AcDbEntity
  8
STANDARDEBENE
 62
   250
100
AcDbVertex
100
AcDb2dVertex
 10
4.013538888025367
 20
-28.05687614083999
 30
0.0
  0
VERTEX
  5
567
330
55F
100
AcDbEntity
  8
STANDARDEBENE
 62
   250
100
AcDbVertex
100
AcDb2dVertex
 10
5.318541918741254
 20
-28.05687614083999
 30
0.0
  0
VERTEX
  5
568
330
55F
100
AcDbEntity
  8
STANDARDEBENE
 62
   250
100
AcDbVertex
100
AcDb2dVertex
 10
6.801828758431659
 20
-28.05687614083999
 30
0.0
  0
VERTEX
  5
569
330
55F
100
AcDbEntity
  8
STANDARDEBENE
 62
   250
100
AcDbVertex
100
AcDb2dVertex
 10
8.453925388262187
 20
-28.05687614083999
 30
0.0
  0
VERTEX
  5
56A
330
55F
100
AcDbEntity
  8
STANDARDEBENE
 62
   250
100
AcDbVertex
100
AcDb2dVertex
 10
10.26673582850163
 20
-28.05687614083999
 30
0.0
  0
VERTEX
  5
56B
330
55F
100
AcDbEntity
  8
STANDARDEBENE
 62
   250
100
AcDbVertex
100
AcDb2dVertex
 10
12.22699645278183
 20
-28.05687614083999
 30
0.0
  0
VERTEX
  5
56C
330
55F
100
AcDbEntity
  8
STANDARDEBENE
 62
   250
100
AcDbVertex
100
AcDb2dVertex
 10
14.32351069338941
 20
-28.05687614083999
 30
0.0
  0
VERTEX
  5
56D
330
55F
100
AcDbEntity
  8
STANDARDEBENE
 62
   250
100
AcDbVertex
100
AcDb2dVertex
 10
16.54335943373203
 20
-28.05687614083999
 30
0.0
  0
VERTEX
  5
56E
330
55F
100
AcDbEntity
  8
STANDARDEBENE
 62
   250
100
AcDbVertex
100
AcDb2dVertex
 10
18.87259002788992
 20
-28.05687614083999
 30
0.0
  0
VERTEX
  5
56F
330
55F
100
AcDbEntity
  8
STANDARDEBENE
 62
   250
100
AcDbVertex
100
AcDb2dVertex
 10
21.29690532016756
 20
-28.05687614083999
 30
0.0
  0
VERTEX
  5
570
330
55F
100
AcDbEntity
  8
STANDARDEBENE
 62
   250
100
AcDbVertex
100
AcDb2dVertex
 10
23.80149139020571
 20
-28.05687614083999
 30
0.0
  0
VERTEX
  5
571
330
55F
100
AcDbEntity
  8
STANDARDEBENE
 62
   250
100
AcDbVertex
100
AcDb2dVertex
 10
26.37101755298144
 20
-28.05687614083999
 30
0.0
  0
VERTEX
  5
572
330
55F
100
AcDbEntity
  8
STANDARDEBENE
 62
   250
100
AcDbVertex
100
AcDb2dVertex
 10
28.98980861369602
 20
-28.05687614083999
 30
0.0
  0
VERTEX
  5
573
330
55F
100
AcDbEntity
  8
STANDARDEBENE
 62
   250
100
AcDbVertex
100
AcDb2dVertex
 10
31.64046682867174
 20
-28.05687614083999
 30
0.0
  0
VERTEX
  5
574
330
55F
100
AcDbEntity
  8
STANDARDEBENE
 62
   250
100
AcDbVertex
100
AcDb2dVertex
 10
34.30852278732517
 20
-28.05687614083999
 30
0.0
  0
VERTEX
  5
575
330
55F
100
AcDbEntity
  8
STANDARDEBENE
 62
   250
100
AcDbVertex
100
AcDb2dVertex
 10
36.97588972642701
 20
-28.05687614083999
 30
0.0
  0
VERTEX
  5
576
330
55F
100
AcDbEntity
  8
STANDARDEBENE
 62
   250
100
AcDbVertex
100
AcDb2dVertex
 10
39.62706470606642
 20
-28.05687614083999
 30
0.0
  0
VERTEX
  5
577
330
55F
100
AcDbEntity
  8
STANDARDEBENE
 62
   250
100
AcDbVertex
100
AcDb2dVertex
 10
42.24568351189311
 20
-28.05687614083999
 30
0.0
  0
VERTEX
  5
578
330
55F
100
AcDbEntity
  8
STANDARDEBENE
 62
   250
100
AcDbVertex
100
AcDb2dVertex
 10
44.81503741978093
 20
-28.05687614083999
 30
0.0
  0
VERTEX
  5
579
330
55F
100
AcDbEntity
  8
STANDARDEBENE
 62
   250
100
AcDbVertex
100
AcDb2dVertex
 10
47.31962348981908
 20
-28.05687614083999
 30
0.0
  0
VERTEX
  5
57A
330
55F
100
AcDbEntity
  8
STANDARDEBENE
 62
   250
100
AcDbVertex
100
AcDb2dVertex
 10
49.74376652720882
 20
-28.05687614083999
 30
0.0
  0
VERTEX
  5
57B
330
55F
100
AcDbEntity
  8
STANDARDEBENE
 62
   250
100
AcDbVertex
100
AcDb2dVertex
 10
52.07299712136672
 20
-28.05687614083999
 30
0.0
  0
VERTEX
  5
57C
330
55F
100
AcDbEntity
  8
STANDARDEBENE
 62
   250
100
AcDbVertex
100
AcDb2dVertex
 10
54.29284586170933
 20
-28.05687614083999
 30
0.0
  0
VERTEX
  5
57D
330
55F
100
AcDbEntity
  8
STANDARDEBENE
 62
   250
100
AcDbVertex
100
AcDb2dVertex
 10
56.38936010231691
 20
-28.05687614083999
 30
0.0
  0
VERTEX
  5
57E
330
55F
100
AcDbEntity
  8
STANDARDEBENE
 62
   250
100
AcDbVertex
100
AcDb2dVertex
 10
58.34996523637292
 20
-28.05687614083999
 30
0.0
  0
VERTEX
  5
57F
330
55F
100
AcDbEntity
  8
STANDARDEBENE
 62
   250
100
AcDbVertex
100
AcDb2dVertex
 10
60.16174214728497
 20
-28.05687614083999
 30
0.0
  0
VERTEX
  5
580
330
55F
100
AcDbEntity
  8
STANDARDEBENE
 62
   250
100
AcDbVertex
100
AcDb2dVertex
 10
61.81504456133078
 20
-28.05687614083999
 30
0.0
  0
VERTEX
  5
581
330
55F
100
AcDbEntity
  8
STANDARDEBENE
 62
   250
100
AcDbVertex
100
AcDb2dVertex
 10
63.29781463635749
 20
-28.05687614083999
 30
0.0
  0
VERTEX
  5
582
330
55F
100
AcDbEntity
  8
STANDARDEBENE
 62
   250
100
AcDbVertex
100
AcDb2dVertex
 10
64.60247315729758
 20
-28.05687614083999
 30
0.0
  0
VERTEX
  5
583
330
55F
100
AcDbEntity
  8
STANDARDEBENE
 62
   250
100
AcDbVertex
100
AcDb2dVertex
 10
65.72023512486825
 20
-28.05687614083999
 30
0.0
  0
VERTEX
  5
584
330
55F
100
AcDbEntity
  8
STANDARDEBENE
 62
   250
100
AcDbVertex
100
AcDb2dVertex
 10
66.64421034355358
 20
-28.05687614083999
 30
0.0
  0
VERTEX
  5
585
330
55F
100
AcDbEntity
  8
STANDARDEBENE
 62
   250
100
AcDbVertex
100
AcDb2dVertex
 10
67.36923116671662
 20
-28.05687614083999
 30
0.0
  0
VERTEX
  5
586
330
55F
100
AcDbEntity
  8
STANDARDEBENE
 62
   250
100
AcDbVertex
100
AcDb2dVertex
 10
67.88978543794462
 20
-28.05687614083999
 30
0.0
  0
VERTEX
  5
587
330
55F
100
AcDbEntity
  8
STANDARDEBENE
 62
   250
100
AcDbVertex
100
AcDb2dVertex
 10
68.20363384369493
 20
-28.05687614083999
 30
0.0
  0
VERTEX
  5
588
330
55F
100
AcDbEntity
  8
STANDARDEBENE
 62
   250
100
AcDbVertex
100
AcDb2dVertex
 10
68.30853707042486
 20
-28.05687614083999
 30
0.0
  0
SEQEND
  5
589
330
55F
100
AcDbEntity
  8
STANDARDEBENE
  0
SPLINE
  5
58A
330
1F
100
AcDbEntity
  8
STANDARDEBENE
 62
   250
100
AcDbSpline
210
0.0
220
0.0
230
1.0
 70
    11
 71
     3
 72
    17
 73
    13
 74
     0
 42
0.0000000001
 43
0.0000000001
 40
0.0
 40
0.0
 40
0.0
 40
0.0
 40
1.0
 40
1.0
 40
1.0
 40
2.0
 40
2.0
 40
2.0
 40
3.0
 40
3.0
 40
3.0
 40
4.0
 40
4.0
 40
4.0
 40
4.0
 10
50.8603227105642
 20
-126.125717938529
 30
0.0
 10
50.8603227105642
 20
-124.1533994720959
 30
0.0
 10
49.26214186064578
 20
-122.5552186221775
 30
0.0
 10
47.2899956491006
 20
-122.5552186221775
 30
0.0
 10
45.31750492777964
 20
-122.5552186221775
 30
0.0
 10
43.71949633274912
 20
-124.1533994720959
 30
0.0
 10
43.71949633274912
 20
-126.125717938529
 30
0.0
 10
43.71949633274912
 20
-128.0976918951863
 30
0.0
 10
45.31750492777964
 20
-129.6962172548805
 30
0.0
 10
47.2899956491006
 20
-129.6962172548805
 30
0.0
 10
49.26214186064578
 20
-129.6962172548805
 30
0.0
 10
50.8603227105642
 20
-128.0976918951863
 30
0.0
 10
50.8603227105642
 20
-126.125717938529
 30
0.0
  0
SPLINE
  5
58B
330
1F
100
AcDbEntity
  8
STANDARDEBENE
 62
   250
100
AcDbSpline
210
0.0
220
0.0
230
1.0
 70
    11
 71
     3
 72
    17
 73
    13
 74
     0
 42
0.0000000001
 43
0.0000000001
 40
0.0
 40
0.0
 40
0.0
 40
0.0
 40
1.0
 40
1.0
 40
1.0
 40
2.0
 40
2.0
 40
2.0
 40
3.0
 40
3.0
 40
3.0
 40
4.0
 40
4.0
 40
4.0
 40
4.0
 10
49.79010309205341
 20
-126.125717938529
 30
0.0
 10
49.79010309205341
 20
-124.7445782473622
 30
0.0
 10
48.67044632071585
 20
-123.625955005352
 30
0.0
 10
47.2899956491006
 20
-123.625955005352
 30
0.0
 10
45.90937272259746
 20
-123.625955005352
 30
0.0
 10
44.78971595125991
 20
-124.7445782473622
 30
0.0
 10
44.78971595125991
 20
-126.125717938529
 30
0.0
 10
44.78971595125991
 20
-127.5068576296958
 30
0.0
 10
45.90937272259746
 20
-128.6261698912576
 30
0.0
 10
47.2899956491006
 20
-128.6261698912576
 30
0.0
 10
48.67044632071585
 20
-128.6261698912576
 30
0.0
 10
49.79010309205341
 20
-127.5068576296958
 30
0.0
 10
49.79010309205341
 20
-126.125717938529
 30
0.0
  0
SPLINE
  5
58C
330
1F
100
AcDbEntity
  8
STANDARDEBENE
 62
   250
100
AcDbSpline
210
0.0
220
0.0
230
1.0
 70
     8
 71
     3
 72
    11
 73
     7
 74
     0
 42
0.0000000001
 43
0.0000000001
 40
0.0
 40
0.0
 40
0.0
 40
0.0
 40
1.0
 40
1.0
 40
1.0
 40
2.0
 40
2.0
 40
2.0
 40
2.0
 10
52.11623309822914
 20
-126.125717938529
 30
0.0
 10
52.11623309822914
 20
-123.4605903129698
 30
0.0
 10
49.95512327465977
 20
-121.3001695089521
 30
0.0
 10
47.2899956491006
 20
-121.3001695089521
 30
0.0
 10
45.46306030805352
 20
-121.3001695089521
 30
0.0
 10
43.87211416342682
 20
-122.3147507986718
 30
0.0
 10
43.04081207443066
 20
-123.8381730272424
 30
0.0
  0
SPLINE
  5
58D
330
1F
100
AcDbEntity
  8
STANDARDEBENE
 62
   250
100
AcDbSpline
210
0.0
220
0.0
230
1.0
 70
     8
 71
     3
 72
    14
 73
    10
 74
     0
 42
0.0000000001
 43
0.0000000001
 40
0.0
 40
0.0
 40
0.0
 40
0.0
 40
1.0
 40
1.0
 40
1.0
 40
2.0
 40
2.0
 40
2.0
 40
3.0
 40
3.0
 40
3.0
 40
3.0
 10
42.61051936446125
 20
-124.9457719564271
 30
0.0
 10
42.50819996104978
 20
-125.351604472315
 30
0.0
 10
42.45996859243832
 20
-125.7598485566335
 30
0.0
 10
42.46393045485998
 20
-126.125717938529
 30
0.0
 10
42.46393045485998
 20
-128.7915345836398
 30
0.0
 10
44.62469576865355
 20
-130.9519553876575
 30
0.0
 10
47.2899956491006
 20
-130.9519553876575
 30
0.0
 10
49.95512327465977
 20
-130.9519553876575
 30
0.0
 10
52.11623309822914
 20
-128.7915345836398
 30
0.0
 10
52.11623309822914
 20
-126.125717938529
 30
0.0
  0
SPLINE
  5
58E
330
1F
100
AcDbEntity
  8
STANDARDEBENE
 62
   250
100
AcDbSpline
210
0.0
220
0.0
230
1.0
 70
     8
 71
     3
 72
    11
 73
     7
 74
     0
 42
0.0000000001
 43
0.0000000001
 40
0.0
 40
0.0
 40
0.0
 40
0.0
 40
1.0
 40
1.0
 40
1.0
 40
2.0
 40
2.0
 40
2.0
 40
2.0
 10
52.79043872946224
 20
-126.125717938529
 30
0.0
 10
52.79043872946224
 20
-123.08851975511
 30
0.0
 10
50.32753834229543
 20
-120.625963877719
 30
0.0
 10
47.2899956491006
 20
-120.625963877719
 30
0.0
 10
45.64668401855288
 20
-120.625963877719
 30
0.0
 10
44.17269894280897
 20
-121.3470228384603
 30
0.0
 10
43.15932343730454
 20
-122.4938958820858
 30
0.0
  0
SPLINE
  5
58F
330
1F
100
AcDbEntity
  8
STANDARDEBENE
 62
   250
100
AcDbSpline
210
0.0
220
0.0
230
1.0
 70
     8
 71
     3
 72
    14
 73
    10
 74
     0
 42
0.0000000001
 43
0.0000000001
 40
0.0
 40
0.0
 40
0.0
 40
0.0
 40
1.0
 40
1.0
 40
1.0
 40
2.0
 40
2.0
 40
2.0
 40
3.0
 40
3.0
 40
3.0
 40
3.0
 10
41.79127511761796
 20
-126.0147857907226
 30
0.0
 10
41.79024158829057
 20
-126.0537153953876
 30
0.0
 10
41.78972482362688
 20
-126.0926450000526
 30
0.0
 10
41.78972482362688
 20
-126.125717938529
 30
0.0
 10
41.78972482362688
 20
-129.1636051414996
 30
0.0
 10
44.25228070101789
 20
-131.6265055286664
 30
0.0
 10
47.2899956491006
 20
-131.6265055286664
 30
0.0
 10
50.32753834229543
 20
-131.6265055286664
 30
0.0
 10
52.79043872946224
 20
-129.1636051414996
 30
0.0
 10
52.79043872946224
 20
-126.125717938529
 30
0.0
  0
SPLINE
  5
590
330
1F
100
AcDbEntity
  8
STANDARDEBENE
 62
   250
100
AcDbSpline
210
0.0
220
0.0
230
1.0
 70
     8
 71
     3
 72
    11
 73
     7
 74
     0
 42
0.0000000001
 43
0.0000000001
 40
0.0
 40
0.0
 40
0.0
 40
0.0
 40
1.0
 40
1.0
 40
1.0
 40
2.0
 40
2.0
 40
2.0
 40
2.0
 10
53.29032241414248
 20
-126.125717938529
 30
0.0
 10
53.29032241414248
 20
-122.8115338953699
 30
0.0
 10
50.60349067270816
 20
-120.1250466637113
 30
0.0
 10
47.2899956491006
 20
-120.1250466637113
 30
0.0
 10
45.6456504892255
 20
-120.1250466637113
 30
0.0
 10
44.15581796379496
 20
-120.7871944527916
 30
0.0
 10
43.0728514835797
 20
-121.8575863261903
 30
0.0
  0
SPLINE
  5
591
330
1F
100
AcDbEntity
  8
STANDARDEBENE
 62
   250
100
AcDbSpline
210
0.0
220
0.0
230
1.0
 70
     8
 71
     3
 72
    11
 73
     7
 74
     0
 42
0.0000000001
 43
0.0000000001
 40
0.0
 40
0.0
 40
0.0
 40
0.0
 40
1.0
 40
1.0
 40
1.0
 40
2.0
 40
2.0
 40
2.0
 40
2.0
 10
41.29793711867784
 20
-126.4271639923507
 30
0.0
 10
41.45899543886255
 20
-129.6304158877034
 30
0.0
 10
44.10448600720133
 20
-132.1208770569339
 30
0.0
 10
47.2899956491006
 20
-132.1253556840193
 30
0.0
 10
50.60349067270816
 20
-132.1253556840193
 30
0.0
 10
53.29032241414248
 20
-129.4399019816881
 30
0.0
 10
53.29032241414248
 20
-126.125717938529
 30
0.0
  0
SPLINE
  5
592
330
1F
100
AcDbEntity
  8
STANDARDEBENE
 62
   250
100
AcDbSpline
210
0.0
220
0.0
230
1.0
 70
    11
 71
     3
 72
    17
 73
    13
 74
     0
 42
0.0000000001
 43
0.0000000001
 40
0.0
 40
0.0
 40
0.0
 40
0.0
 40
1.0
 40
1.0
 40
1.0
 40
2.0
 40
2.0
 40
2.0
 40
3.0
 40
3.0
 40
3.0
 40
4.0
 40
4.0
 40
4.0
 40
4.0
 10
51.96275399311195
 20
-126.125717938529
 30
0.0
 10
51.96275399311195
 20
-123.5449952080399
 30
0.0
 10
49.8708906344776
 20
-121.4527873396298
 30
0.0
 10
47.2899956491006
 20
-121.4527873396298
 30
0.0
 10
44.70858389905992
 20
-121.4527873396298
 30
0.0
 10
42.61706505020138
 20
-123.5449952080399
 30
0.0
 10
42.61706505020138
 20
-126.125717938529
 30
0.0
 10
42.61706505020138
 20
-128.7064406690181
 30
0.0
 10
44.70858389905992
 20
-130.7986485374282
 30
0.0
 10
47.2899956491006
 20
-130.7986485374282
 30
0.0
 10
49.8708906344776
 20
-130.7986485374282
 30
0.0
 10
51.96275399311195
 20
-128.7064406690181
 30
0.0
 10
51.96275399311195
 20
-126.125717938529
 30
0.0
  0
SPLINE
  5
593
330
1F
100
AcDbEntity
  8
STANDARDEBENE
 62
   250
100
AcDbSpline
210
0.0
220
0.0
230
1.0
 70
    11
 71
     3
 72
    17
 73
    13
 74
     0
 42
0.0000000001
 43
0.0000000001
 40
0.0
 40
0.0
 40
0.0
 40
0.0
 40
1.0
 40
1.0
 40
1.0
 40
2.0
 40
2.0
 40
2.0
 40
3.0
 40
3.0
 40
3.0
 40
4.0
 40
4.0
 40
4.0
 40
4.0
 10
68.30853707042486
 20
-147.5004824680265
 30
0.0
 10
68.30853707042486
 20
-128.7233216480321
 30
0.0
 10
53.08551135243166
 20
-113.5015017142542
 30
0.0
 10
34.30852278732517
 20
-113.5015017142542
 30
0.0
 10
15.53084520266709
 20
-113.5015017142542
 30
0.0
 10
0.308163994449673
 20
-128.7233216480321
 30
0.0
 10
0.308163994449673
 20
-147.5004824680265
 30
0.0
 10
0.308163994449673
 20
-166.2779877977967
 30
0.0
 10
15.53084520266709
 20
-181.5004967511262
 30
0.0
 10
34.30852278732517
 20
-181.5004967511262
 30
0.0
 10
53.08551135243166
 20
-181.5004967511262
 30
0.0
 10
68.30853707042486
 20
-166.2779877977967
 30
0.0
 10
68.30853707042486
 20
-147.5004824680265
 30
0.0
  0
SPLINE
  5
594
330
1F
100
AcDbEntity
  8
STANDARDEBENE
 62
   250
100
AcDbSpline
210
0.0
220
0.0
230
1.0
 70
     8
 71
     3
 72
    11
 73
     7
 74
     0
 42
0.0000000001
 43
0.0000000001
 40
0.0
 40
0.0
 40
0.0
 40
0.0
 40
1.0
 40
1.0
 40
1.0
 40
2.0
 40
2.0
 40
2.0
 40
2.0
 10
53.78986158904692
 20
-126.125717938529
 30
0.0
 10
53.78986158904692
 20
-122.5359260747329
 30
0.0
 10
50.87978751289668
 20
-119.6258519985827
 30
0.0
 10
47.2899956491006
 20
-119.6258519985827
 30
0.0
 10
45.60585961012104
 20
-119.6258519985827
 30
0.0
 10
44.07192983338859
 20
-120.265951162012
 30
0.0
 10
42.92247296644468
 20
-121.3118828413291
 30
0.0
  0
SPLINE
  5
595
330
1F
100
AcDbEntity
  8
STANDARDEBENE
 62
   250
100
AcDbSpline
210
0.0
220
0.0
230
1.0
 70
     8
 71
     3
 72
    11
 73
     7
 74
     0
 42
0.0000000001
 43
0.0000000001
 40
0.0
 40
0.0
 40
0.0
 40
0.0
 40
1.0
 40
1.0
 40
1.0
 40
2.0
 40
2.0
 40
2.0
 40
2.0
 10
40.81751823633009
 20
-126.7289545559481
 30
0.0
 10
41.13136664208039
 20
-130.0913699677187
 30
0.0
 10
43.95410749006631
 20
-132.6162821145288
 30
0.0
 10
47.2899956491006
 20
-132.6262728980269
 30
0.0
 10
50.87978751289668
 20
-132.6262728980269
 30
0.0
 10
53.78986158904692
 20
-129.7155098023251
 30
0.0
 10
53.78986158904692
 20
-126.125717938529
 30
0.0
  0
SPLINE
  5
596
330
1F
100
AcDbEntity
  8
STANDARDEBENE
 62
   250
100
AcDbSpline
210
0.0
220
0.0
230
1.0
 70
     8
 71
     3
 72
    11
 73
     7
 74
     0
 42
0.0000000001
 43
0.0000000001
 40
0.0
 40
0.0
 40
0.0
 40
0.0
 40
1.0
 40
1.0
 40
1.0
 40
2.0
 40
2.0
 40
2.0
 40
2.0
 10
53.29032241414248
 20
-126.125717938529
 30
0.0
 10
53.29032241414248
 20
-122.8115338953699
 30
0.0
 10
50.60349067270816
 20
-120.1250466637113
 30
0.0
 10
47.2899956491006
 20
-120.1250466637113
 30
0.0
 10
45.64599499900129
 20
-120.1250466637113
 30
0.0
 10
44.15650698334655
 20
-120.7871944527916
 30
0.0
 10
43.0731959933555
 20
-121.8575863261903
 30
0.0
  0
SPLINE
  5
597
330
1F
100
AcDbEntity
  8
STANDARDEBENE
 62
   250
100
AcDbSpline
210
0.0
220
0.0
230
1.0
 70
     8
 71
     3
 72
    11
 73
     7
 74
     0
 42
0.0000000001
 43
0.0000000001
 40
0.0
 40
0.0
 40
0.0
 40
0.0
 40
1.0
 40
1.0
 40
1.0
 40
2.0
 40
2.0
 40
2.0
 40
2.0
 10
41.29793711867784
 20
-126.428197521678
 30
0.0
 10
41.45899543886255
 20
-129.631104907255
 30
0.0
 10
44.10483051697713
 20
-132.1208770569339
 30
0.0
 10
47.2899956491006
 20
-132.1253556840193
 30
0.0
 10
50.60349067270816
 20
-132.1253556840193
 30
0.0
 10
53.29032241414248
 20
-129.4399019816881
 30
0.0
 10
53.29032241414248
 20
-126.125717938529
 30
0.0
  0
POLYLINE
  5
598
330
1F
100
AcDbEntity
  8
STANDARDEBENE
 62
   250
100
AcDb2dPolyline
 66
     1
 10
0.0
 20
0.0
 30
0.0
  0
VERTEX
  5
599
330
598
100
AcDbEntity
  8
STANDARDEBENE
 62
   250
100
AcDbVertex
100
AcDb2dVertex
 10
24.16426018411908
 20
-39.99637918571992
 30
0.0
  0
VERTEX
  5
59A
330
598
100
AcDbEntity
  8
STANDARDEBENE
 62
   250
100
AcDbVertex
100
AcDb2dVertex
 10
45.50595177514015
 20
-39.99637918571992
 30
0.0
  0
SEQEND
  5
59B
330
598
100
AcDbEntity
  8
STANDARDEBENE
  0
POLYLINE
  5
59C
330
1F
100
AcDbEntity
  8
STANDARDEBENE
 62
   250
100
AcDb2dPolyline
 66
     1
 10
0.0
 20
0.0
 30
0.0
  0
VERTEX
  5
59D
330
59C
100
AcDbEntity
  8
STANDARDEBENE
 62
   250
100
AcDbVertex
100
AcDb2dVertex
 10
24.16426018411908
 20
-39.51871638157853
 30
0.0
  0
VERTEX
  5
59E
330
59C
100
AcDbEntity
  8
STANDARDEBENE
 62
   250
100
AcDbVertex
100
AcDb2dVertex
 10
45.50595177514015
 20
-39.51871638157853
 30
0.0
  0
SEQEND
  5
59F
330
59C
100
AcDbEntity
  8
STANDARDEBENE
  0
POLYLINE
  5
5A0
330
1F
100
AcDbEntity
  8
STANDARDEBENE
 62
   250
100
AcDb2dPolyline
 66
     1
 10
0.0
 20
0.0
 30
0.0
  0
VERTEX
  5
5A1
330
5A0
100
AcDbEntity
  8
STANDARDEBENE
 62
   250
100
AcDbVertex
100
AcDb2dVertex
 10
24.16426018411908
 20
-43.98201278190579
 30
0.0
  0
VERTEX
  5
5A2
330
5A0
100
AcDbEntity
  8
STANDARDEBENE
 62
   250
100
AcDbVertex
100
AcDb2dVertex
 10
45.50595177514015
 20
-43.98201278190579
 30
0.0
  0
SEQEND
  5
5A3
330
5A0
100
AcDbEntity
  8
STANDARDEBENE
  0
POLYLINE
  5
5A4
330
1F
100
AcDbEntity
  8
STANDARDEBENE
 62
   250
100
AcDb2dPolyline
 66
     1
 10
0.0
 20
0.0
 30
0.0
  0
VERTEX
  5
5A5
330
5A4
100
AcDbEntity
  8
STANDARDEBENE
 62
   250
100
AcDbVertex
100
AcDb2dVertex
 10
24.16426018411908
 20
-43.50434997776441
 30
0.0
  0
VERTEX
  5
5A6
330
5A4
100
AcDbEntity
  8
STANDARDEBENE
 62
   250
100
AcDbVertex
100
AcDb2dVertex
 10
45.50595177514015
 20
-43.50434997776441
 30
0.0
  0
SEQEND
  5
5A7
330
5A4
100
AcDbEntity
  8
STANDARDEBENE
  0
POLYLINE
  5
5A8
330
1F
100
AcDbEntity
  8
STANDARDEBENE
 62
   250
100
AcDb2dPolyline
 66
     1
 10
0.0
 20
0.0
 30
0.0
  0
VERTEX
  5
5A9
330
5A8
100
AcDbEntity
  8
STANDARDEBENE
 62
   250
100
AcDbVertex
100
AcDb2dVertex
 10
24.16426018411908
 20
-47.96764637809167
 30
0.0
  0
VERTEX
  5
5AA
330
5A8
100
AcDbEntity
  8
STANDARDEBENE
 62
   250
100
AcDbVertex
100
AcDb2dVertex
 10
45.50595177514015
 20
-47.96764637809167
 30
0.0
  0
SEQEND
  5
5AB
330
5A8
100
AcDbEntity
  8
STANDARDEBENE
  0
POLYLINE
  5
5AC
330
1F
100
AcDbEntity
  8
STANDARDEBENE
 62
   250
100
AcDb2dPolyline
 66
     1
 10
0.0
 20
0.0
 30
0.0
  0
VERTEX
  5
5AD
330
5AC
100
AcDbEntity
  8
STANDARDEBENE
 62
   250
100
AcDbVertex
100
AcDb2dVertex
 10
24.16426018411908
 20
-47.48981131906238
 30
0.0
  0
VERTEX
  5
5AE
330
5AC
100
AcDbEntity
  8
STANDARDEBENE
 62
   250
100
AcDbVertex
100
AcDb2dVertex
 10
45.50595177514015
 20
-47.48981131906238
 30
0.0
  0
SEQEND
  5
5AF
330
5AC
100
AcDbEntity
  8
STANDARDEBENE
  0
POLYLINE
  5
5B0
330
1F
100
AcDbEntity
  8
STANDARDEBENE
 62
   250
100
AcDb2dPolyline
 66
     1
 10
0.0
 20
0.0
 30
0.0
  0
VERTEX
  5
5B1
330
5B0
100
AcDbEntity
  8
STANDARDEBENE
 62
   250
100
AcDbVertex
100
AcDb2dVertex
 10
24.16426018411908
 20
-51.98308006988392
 30
0.0
  0
VERTEX
  5
5B2
330
5B0
100
AcDbEntity
  8
STANDARDEBENE
 62
   250
100
AcDbVertex
100
AcDb2dVertex
 10
45.50595177514015
 20
-51.98308006988392
 30
0.0
  0
SEQEND
  5
5B3
330
5B0
100
AcDbEntity
  8
STANDARDEBENE
  0
POLYLINE
  5
5B4
330
1F
100
AcDbEntity
  8
STANDARDEBENE
 62
   250
100
AcDb2dPolyline
 66
     1
 10
0.0
 20
0.0
 30
0.0
  0
VERTEX
  5
5B5
330
5B4
100
AcDbEntity
  8
STANDARDEBENE
 62
   250
100
AcDbVertex
100
AcDb2dVertex
 10
24.16426018411908
 20
-51.50576177551832
 30
0.0
  0
VERTEX
  5
5B6
330
5B4
100
AcDbEntity
  8
STANDARDEBENE
 62
   250
100
AcDbVertex
100
AcDb2dVertex
 10
45.50595177514015
 20
-51.50576177551832
 30
0.0
  0
SEQEND
  5
5B7
330
5B4
100
AcDbEntity
  8
STANDARDEBENE
  0
POLYLINE
  5
5B8
330
1F
100
AcDbEntity
  8
STANDARDEBENE
 62
   250
100
AcDb2dPolyline
 66
     1
 10
0.0
 20
0.0
 30
0.0
  0
VERTEX
  5
5B9
330
5B8
100
AcDbEntity
  8
STANDARDEBENE
 62
   250
100
AcDbVertex
100
AcDb2dVertex
 10
24.16426018411908
 20
-55.99885827145196
 30
0.0
  0
VERTEX
  5
5BA
330
5B8
100
AcDbEntity
  8
STANDARDEBENE
 62
   250
100
AcDbVertex
100
AcDb2dVertex
 10
45.50595177514015
 20
-55.99885827145196
 30
0.0
  0
SEQEND
  5
5BB
330
5B8
100
AcDbEntity
  8
STANDARDEBENE
  0
POLYLINE
  5
5BC
330
1F
100
AcDbEntity
  8
STANDARDEBENE
 62
   250
100
AcDb2dPolyline
 66
     1
 10
0.0
 20
0.0
 30
0.0
  0
VERTEX
  5
5BD
330
5BC
100
AcDbEntity
  8
STANDARDEBENE
 62
   250
100
AcDbVertex
100
AcDb2dVertex
 10
24.16426018411908
 20
-55.52119546731057
 30
0.0
  0
VERTEX
  5
5BE
330
5BC
100
AcDbEntity
  8
STANDARDEBENE
 62
   250
100
AcDbVertex
100
AcDb2dVertex
 10
45.50595177514015
 20
-55.52119546731057
 30
0.0
  0
SEQEND
  5
5BF
330
5BC
100
AcDbEntity
  8
STANDARDEBENE
  0
POLYLINE
  5
5C0
330
1F
100
AcDbEntity
  8
STANDARDEBENE
 62
   250
100
AcDb2dPolyline
 66
     1
 10
0.0
 20
0.0
 30
0.0
  0
VERTEX
  5
5C1
330
5C0
100
AcDbEntity
  8
STANDARDEBENE
 62
   250
100
AcDbVertex
100
AcDb2dVertex
 10
24.16426018411908
 20
-59.98449186763784
 30
0.0
  0
VERTEX
  5
5C2
330
5C0
100
AcDbEntity
  8
STANDARDEBENE
 62
   250
100
AcDbVertex
100
AcDb2dVertex
 10
45.50595177514015
 20
-59.98449186763784
 30
0.0
  0
SEQEND
  5
5C3
330
5C0
100
AcDbEntity
  8
STANDARDEBENE
  0
POLYLINE
  5
5C4
330
1F
100
AcDbEntity
  8
STANDARDEBENE
 62
   250
100
AcDb2dPolyline
 66
     1
 10
0.0
 20
0.0
 30
0.0
  0
VERTEX
  5
5C5
330
5C4
100
AcDbEntity
  8
STANDARDEBENE
 62
   250
100
AcDbVertex
100
AcDb2dVertex
 10
24.16426018411908
 20
-59.50682906349645
 30
0.0
  0
VERTEX
  5
5C6
330
5C4
100
AcDbEntity
  8
STANDARDEBENE
 62
   250
100
AcDbVertex
100
AcDb2dVertex
 10
45.50595177514015
 20
-59.50682906349645
 30
0.0
  0
SEQEND
  5
5C7
330
5C4
100
AcDbEntity
  8
STANDARDEBENE
  0
POLYLINE
  5
5C8
330
1F
100
AcDbEntity
  8
STANDARDEBENE
 62
   250
100
AcDb2dPolyline
 66
     1
 10
0.0
 20
0.0
 30
0.0
  0
VERTEX
  5
5C9
330
5C8
100
AcDbEntity
  8
STANDARDEBENE
 62
   250
100
AcDbVertex
100
AcDb2dVertex
 10
24.10000911093309
 20
-64.00182036319696
 30
0.0
  0
VERTEX
  5
5CA
330
5C8
100
AcDbEntity
  8
STANDARDEBENE
 62
   250
100
AcDbVertex
100
AcDb2dVertex
 10
45.44152844706626
 20
-64.00182036319696
 30
0.0
  0
SEQEND
  5
5CB
330
5C8
100
AcDbEntity
  8
STANDARDEBENE
  0
POLYLINE
  5
5CC
330
1F
100
AcDbEntity
  8
STANDARDEBENE
 62
   250
100
AcDb2dPolyline
 66
     1
 10
0.0
 20
0.0
 30
0.0
  0
VERTEX
  5
5CD
330
5CC
100
AcDbEntity
  8
STANDARDEBENE
 62
   250
100
AcDbVertex
100
AcDb2dVertex
 10
24.10000911093309
 20
-63.52450206883137
 30
0.0
  0
VERTEX
  5
5CE
330
5CC
100
AcDbEntity
  8
STANDARDEBENE
 62
   250
100
AcDbVertex
100
AcDb2dVertex
 10
45.44152844706626
 20
-63.52450206883137
 30
0.0
  0
SEQEND
  5
5CF
330
5CC
100
AcDbEntity
  8
STANDARDEBENE
  0
POLYLINE
  5
5D0
330
1F
100
AcDbEntity
  8
STANDARDEBENE
 62
   250
100
AcDb2dPolyline
 66
     1
 10
0.0
 20
0.0
 30
0.0
  0
VERTEX
  5
5D1
330
5D0
100
AcDbEntity
  8
STANDARDEBENE
 62
   250
100
AcDbVertex
100
AcDb2dVertex
 10
24.03575803774711
 20
-68.01914885875608
 30
0.0
  0
VERTEX
  5
5D2
330
5D0
100
AcDbEntity
  8
STANDARDEBENE
 62
   250
100
AcDbVertex
100
AcDb2dVertex
 10
45.37727737388028
 20
-68.01914885875608
 30
0.0
  0
SEQEND
  5
5D3
330
5D0
100
AcDbEntity
  8
STANDARDEBENE
  0
POLYLINE
  5
5D4
330
1F
100
AcDbEntity
  8
STANDARDEBENE
 62
   250
100
AcDb2dPolyline
 66
     1
 10
0.0
 20
0.0
 30
0.0
  0
VERTEX
  5
5D5
330
5D4
100
AcDbEntity
  8
STANDARDEBENE
 62
   250
100
AcDbVertex
100
AcDb2dVertex
 10
24.03575803774711
 20
-67.5418305643905
 30
0.0
  0
VERTEX
  5
5D6
330
5D4
100
AcDbEntity
  8
STANDARDEBENE
 62
   250
100
AcDbVertex
100
AcDb2dVertex
 10
45.37727737388028
 20
-67.5418305643905
 30
0.0
  0
SEQEND
  5
5D7
330
5D4
100
AcDbEntity
  8
STANDARDEBENE
  0
POLYLINE
  5
5D8
330
1F
100
AcDbEntity
  8
STANDARDEBENE
 62
   250
100
AcDb2dPolyline
 66
     1
 10
0.0
 20
0.0
 30
0.0
  0
VERTEX
  5
5D9
330
5D8
100
AcDbEntity
  8
STANDARDEBENE
 62
   250
100
AcDbVertex
100
AcDb2dVertex
 10
24.06125176115603
 20
-72.00667725870885
 30
0.0
  0
VERTEX
  5
5DA
330
5D8
100
AcDbEntity
  8
STANDARDEBENE
 62
   250
100
AcDbVertex
100
AcDb2dVertex
 10
45.40294335217709
 20
-72.00667725870885
 30
0.0
  0
SEQEND
  5
5DB
330
5D8
100
AcDbEntity
  8
STANDARDEBENE
  0
POLYLINE
  5
5DC
330
1F
100
AcDbEntity
  8
STANDARDEBENE
 62
   250
100
AcDb2dPolyline
 66
     1
 10
0.0
 20
0.0
 30
0.0
  0
VERTEX
  5
5DD
330
5DC
100
AcDbEntity
  8
STANDARDEBENE
 62
   250
100
AcDbVertex
100
AcDb2dVertex
 10
24.06125176115603
 20
-71.52935896434325
 30
0.0
  0
VERTEX
  5
5DE
330
5DC
100
AcDbEntity
  8
STANDARDEBENE
 62
   250
100
AcDbVertex
100
AcDb2dVertex
 10
45.40294335217709
 20
-71.52935896434325
 30
0.0
  0
SEQEND
  5
5DF
330
5DC
100
AcDbEntity
  8
STANDARDEBENE
  0
POLYLINE
  5
5E0
330
1F
100
AcDbEntity
  8
STANDARDEBENE
 62
   250
100
AcDb2dPolyline
 66
     1
 10
0.0
 20
0.0
 30
0.0
  0
VERTEX
  5
5E1
330
5E0
100
AcDbEntity
  8
STANDARDEBENE
 62
   250
100
AcDbVertex
100
AcDb2dVertex
 10
24.09346342519297
 20
-75.99231085489473
 30
0.0
  0
VERTEX
  5
5E2
330
5E0
100
AcDbEntity
  8
STANDARDEBENE
 62
   250
100
AcDbVertex
100
AcDb2dVertex
 10
45.43549952598983
 20
-75.99231085489473
 30
0.0
  0
SEQEND
  5
5E3
330
5E0
100
AcDbEntity
  8
STANDARDEBENE
  0
POLYLINE
  5
5E4
330
1F
100
AcDbEntity
  8
STANDARDEBENE
 62
   250
100
AcDb2dPolyline
 66
     1
 10
0.0
 20
0.0
 30
0.0
  0
VERTEX
  5
5E5
330
5E4
100
AcDbEntity
  8
STANDARDEBENE
 62
   250
100
AcDbVertex
100
AcDb2dVertex
 10
24.09346342519297
 20
-75.51499256052912
 30
0.0
  0
VERTEX
  5
5E6
330
5E4
100
AcDbEntity
  8
STANDARDEBENE
 62
   250
100
AcDbVertex
100
AcDb2dVertex
 10
45.43549952598983
 20
-75.51499256052912
 30
0.0
  0
SEQEND
  5
5E7
330
5E4
100
AcDbEntity
  8
STANDARDEBENE
  0
POLYLINE
  5
5E8
330
1F
100
AcDbEntity
  8
STANDARDEBENE
 62
   250
100
AcDb2dPolyline
 66
     1
 10
0.0
 20
0.0
 30
0.0
  0
VERTEX
  5
5E9
330
5E8
100
AcDbEntity
  8
STANDARDEBENE
 62
   250
100
AcDbVertex
100
AcDb2dVertex
 10
24.12567508922991
 20
-79.9779444510806
 30
0.0
  0
VERTEX
  5
5EA
330
5E8
100
AcDbEntity
  8
STANDARDEBENE
 62
   250
100
AcDbVertex
100
AcDb2dVertex
 10
45.46753893513888
 20
-79.9779444510806
 30
0.0
  0
SEQEND
  5
5EB
330
5E8
100
AcDbEntity
  8
STANDARDEBENE
  0
POLYLINE
  5
5EC
330
1F
100
AcDbEntity
  8
STANDARDEBENE
 62
   250
100
AcDb2dPolyline
 66
     1
 10
0.0
 20
0.0
 30
0.0
  0
VERTEX
  5
5ED
330
5EC
100
AcDbEntity
  8
STANDARDEBENE
 62
   250
100
AcDbVertex
100
AcDb2dVertex
 10
24.12567508922991
 20
-79.50010939205131
 30
0.0
  0
VERTEX
  5
5EE
330
5EC
100
AcDbEntity
  8
STANDARDEBENE
 62
   250
100
AcDbVertex
100
AcDb2dVertex
 10
45.46753893513888
 20
-79.50010939205131
 30
0.0
  0
SEQEND
  5
5EF
330
5EC
100
AcDbEntity
  8
STANDARDEBENE
  0
POLYLINE
  5
5F1
330
1F
100
AcDbEntity
  8
BEMA_UNG
 62
     7
100
AcDb2dPolyline
 66
     1
 10
0.0
 20
0.0
 30
0.0
  0
VERTEX
  5
5F2
330
5F1
100
AcDbEntity
  8
BEMA_UNG
 62
     7
100
AcDbVertex
100
AcDb2dVertex
 10
105.5040517789219
 20
-85.36039293323203
 30
0.0
  0
VERTEX
  5
5F3
330
5F1
100
AcDbEntity
  8
BEMA_UNG
 62
     7
100
AcDbVertex
100
AcDb2dVertex
 10
105.5040517789219
 20
-91.75036025469939
 30
0.0
  0
SEQEND
  5
5F4
330
5F1
100
AcDbEntity
  8
BEMA_UNG
  0
POLYLINE
  5
5F5
330
1F
100
AcDbEntity
  8
BEMA_UNG
 62
     7
100
AcDb2dPolyline
 66
     1
 10
0.0
 20
0.0
 30
0.0
  0
VERTEX
  5
5F6
330
5F5
100
AcDbEntity
  8
BEMA_UNG
 62
     7
100
AcDbVertex
100
AcDb2dVertex
 10
119.0043563630464
 20
-64.66052305451923
 30
0.0
  0
VERTEX
  5
5F7
330
5F5
100
AcDbEntity
  8
BEMA_UNG
 62
     7
100
AcDbVertex
100
AcDb2dVertex
 10
119.0043563630464
 20
-91.75036025469939
 30
0.0
  0
SEQEND
  5
5F8
330
5F5
100
AcDbEntity
  8
BEMA_UNG
  0
POLYLINE
  5
5F9
330
1F
100
AcDbEntity
  8
BEMA_UNG
 62
     7
100
AcDb2dPolyline
 66
     1
 10
0.0
 20
0.0
 30
0.0
  0
VERTEX
  5
5FA
330
5F9
100
AcDbEntity
  8
BEMA_UNG
 62
     7
100
AcDbVertex
100
AcDb2dVertex
 10
105.5040517789219
 20
-90.8498117007682
 30
0.0
  0
VERTEX
  5
5FB
330
5F9
100
AcDbEntity
  8
BEMA_UNG
 62
     7
100
AcDbVertex
100
AcDb2dVertex
 10
119.0043563630464
 20
-90.8498117007682
 30
0.0
  0
SEQEND
  5
5FC
330
5F9
100
AcDbEntity
  8
BEMA_UNG
  0
POLYLINE
  5
5FD
330
1F
100
AcDbEntity
  8
BEMA_UNG
 62
     7
100
AcDb2dPolyline
 66
     1
 10
0.0
 20
0.0
 30
0.0
  0
VERTEX
  5
5FE
330
5FD
100
AcDbEntity
  8
BEMA_UNG
 62
     7
100
AcDbVertex
100
AcDb2dVertex
 10
105.5040517789219
 20
-90.8498117007682
 30
0.0
  0
VERTEX
  5
5FF
330
5FD
100
AcDbEntity
  8
BEMA_UNG
 62
     7
100
AcDbVertex
100
AcDb2dVertex
 10
106.6305987457754
 20
-90.99812315924845
 30
0.0
  0
VERTEX
  5
600
330
5FD
100
AcDbEntity
  8
BEMA_UNG
 62
     7
100
AcDbVertex
100
AcDb2dVertex
 10
106.6305987457754
 20
-90.70167249717585
 30
0.0
  0
VERTEX
  5
601
330
5FD
100
AcDbEntity
  8
BEMA_UNG
 62
     7
100
AcDbVertex
100
AcDb2dVertex
 10
105.5040517789219
 20
-90.8498117007682
 30
0.0
  0
SEQEND
  5
602
330
5FD
100
AcDbEntity
  8
BEMA_UNG
  0
POLYLINE
  5
603
330
1F
100
AcDbEntity
  8
BEMA_UNG
 62
     7
100
AcDb2dPolyline
 66
     1
 10
0.0
 20
0.0
 30
0.0
  0
VERTEX
  5
604
330
603
100
AcDbEntity
  8
BEMA_UNG
 62
     7
100
AcDbVertex
100
AcDb2dVertex
 10
106.6305987457754
 20
-90.98709884642297
 30
0.0
  0
VERTEX
  5
605
330
603
100
AcDbEntity
  8
BEMA_UNG
 62
     7
100
AcDbVertex
100
AcDb2dVertex
 10
106.5465383604811
 20
-90.98709884642297
 30
0.0
  0
SEQEND
  5
606
330
603
100
AcDbEntity
  8
BEMA_UNG
  0
POLYLINE
  5
607
330
1F
100
AcDbEntity
  8
BEMA_UNG
 62
     7
100
AcDb2dPolyline
 66
     1
 10
0.0
 20
0.0
 30
0.0
  0
VERTEX
  5
608
330
607
100
AcDbEntity
  8
BEMA_UNG
 62
     7
100
AcDbVertex
100
AcDb2dVertex
 10
106.6305987457754
 20
-90.98709884642297
 30
0.0
  0
VERTEX
  5
609
330
607
100
AcDbEntity
  8
BEMA_UNG
 62
     7
100
AcDbVertex
100
AcDb2dVertex
 10
106.5465383604811
 20
-90.98709884642297
 30
0.0
  0
SEQEND
  5
60A
330
607
100
AcDbEntity
  8
BEMA_UNG
  0
POLYLINE
  5
60B
330
1F
100
AcDbEntity
  8
BEMA_UNG
 62
     7
100
AcDb2dPolyline
 66
     1
 10
0.0
 20
0.0
 30
0.0
  0
VERTEX
  5
60C
330
60B
100
AcDbEntity
  8
BEMA_UNG
 62
     7
100
AcDbVertex
100
AcDb2dVertex
 10
106.6305987457754
 20
-90.96401669144463
 30
0.0
  0
VERTEX
  5
60D
330
60B
100
AcDbEntity
  8
BEMA_UNG
 62
     7
100
AcDbVertex
100
AcDb2dVertex
 10
106.3725609237041
 20
-90.96401669144463
 30
0.0
  0
SEQEND
  5
60E
330
60B
100
AcDbEntity
  8
BEMA_UNG
  0
POLYLINE
  5
60F
330
1F
100
AcDbEntity
  8
BEMA_UNG
 62
     7
100
AcDb2dPolyline
 66
     1
 10
0.0
 20
0.0
 30
0.0
  0
VERTEX
  5
610
330
60F
100
AcDbEntity
  8
BEMA_UNG
 62
     7
100
AcDbVertex
100
AcDb2dVertex
 10
106.6305987457754
 20
-90.94127904624207
 30
0.0
  0
VERTEX
  5
611
330
60F
100
AcDbEntity
  8
BEMA_UNG
 62
     7
100
AcDbVertex
100
AcDb2dVertex
 10
106.198583486927
 20
-90.94127904624207
 30
0.0
  0
SEQEND
  5
612
330
60F
100
AcDbEntity
  8
BEMA_UNG
  0
POLYLINE
  5
613
330
1F
100
AcDbEntity
  8
BEMA_UNG
 62
     7
100
AcDb2dPolyline
 66
     1
 10
0.0
 20
0.0
 30
0.0
  0
VERTEX
  5
614
330
613
100
AcDbEntity
  8
BEMA_UNG
 62
     7
100
AcDbVertex
100
AcDb2dVertex
 10
106.6305987457754
 20
-90.91836914615163
 30
0.0
  0
VERTEX
  5
615
330
613
100
AcDbEntity
  8
BEMA_UNG
 62
     7
100
AcDbVertex
100
AcDb2dVertex
 10
106.0252950697015
 20
-90.91836914615163
 30
0.0
  0
SEQEND
  5
616
330
613
100
AcDbEntity
  8
BEMA_UNG
  0
POLYLINE
  5
617
330
1F
100
AcDbEntity
  8
BEMA_UNG
 62
     7
100
AcDb2dPolyline
 66
     1
 10
0.0
 20
0.0
 30
0.0
  0
VERTEX
  5
618
330
617
100
AcDbEntity
  8
BEMA_UNG
 62
     7
100
AcDbVertex
100
AcDb2dVertex
 10
106.6305987457754
 20
-90.8954592460612
 30
0.0
  0
VERTEX
  5
619
330
617
100
AcDbEntity
  8
BEMA_UNG
 62
     7
100
AcDbVertex
100
AcDb2dVertex
 10
105.8516621427003
 20
-90.8954592460612
 30
0.0
  0
SEQEND
  5
61A
330
617
100
AcDbEntity
  8
BEMA_UNG
  0
POLYLINE
  5
61B
330
1F
100
AcDbEntity
  8
BEMA_UNG
 62
     7
100
AcDb2dPolyline
 66
     1
 10
0.0
 20
0.0
 30
0.0
  0
VERTEX
  5
61C
330
61B
100
AcDbEntity
  8
BEMA_UNG
 62
     7
100
AcDbVertex
100
AcDb2dVertex
 10
106.6305987457754
 20
-90.87254934597074
 30
0.0
  0
VERTEX
  5
61D
330
61B
100
AcDbEntity
  8
BEMA_UNG
 62
     7
100
AcDbVertex
100
AcDb2dVertex
 10
105.6783737254748
 20
-90.87254934597074
 30
0.0
  0
SEQEND
  5
61E
330
61B
100
AcDbEntity
  8
BEMA_UNG
  0
POLYLINE
  5
61F
330
1F
100
AcDbEntity
  8
BEMA_UNG
 62
     7
100
AcDb2dPolyline
 66
     1
 10
0.0
 20
0.0
 30
0.0
  0
VERTEX
  5
620
330
61F
100
AcDbEntity
  8
BEMA_UNG
 62
     7
100
AcDbVertex
100
AcDb2dVertex
 10
106.6305987457754
 20
-90.8498117007682
 30
0.0
  0
VERTEX
  5
621
330
61F
100
AcDbEntity
  8
BEMA_UNG
 62
     7
100
AcDbVertex
100
AcDb2dVertex
 10
105.5040517789219
 20
-90.8498117007682
 30
0.0
  0
SEQEND
  5
622
330
61F
100
AcDbEntity
  8
BEMA_UNG
  0
POLYLINE
  5
623
330
1F
100
AcDbEntity
  8
BEMA_UNG
 62
     7
100
AcDb2dPolyline
 66
     1
 10
0.0
 20
0.0
 30
0.0
  0
VERTEX
  5
624
330
623
100
AcDbEntity
  8
BEMA_UNG
 62
     7
100
AcDbVertex
100
AcDb2dVertex
 10
106.6305987457754
 20
-90.71269681000132
 30
0.0
  0
VERTEX
  5
625
330
623
100
AcDbEntity
  8
BEMA_UNG
 62
     7
100
AcDbVertex
100
AcDb2dVertex
 10
106.5465383604811
 20
-90.71269681000132
 30
0.0
  0
SEQEND
  5
626
330
623
100
AcDbEntity
  8
BEMA_UNG
  0
POLYLINE
  5
627
330
1F
100
AcDbEntity
  8
BEMA_UNG
 62
     7
100
AcDb2dPolyline
 66
     1
 10
0.0
 20
0.0
 30
0.0
  0
VERTEX
  5
628
330
627
100
AcDbEntity
  8
BEMA_UNG
 62
     7
100
AcDbVertex
100
AcDb2dVertex
 10
106.6305987457754
 20
-90.71269681000132
 30
0.0
  0
VERTEX
  5
629
330
627
100
AcDbEntity
  8
BEMA_UNG
 62
     7
100
AcDbVertex
100
AcDb2dVertex
 10
106.5465383604811
 20
-90.71269681000132
 30
0.0
  0
SEQEND
  5
62A
330
627
100
AcDbEntity
  8
BEMA_UNG
  0
POLYLINE
  5
62B
330
1F
100
AcDbEntity
  8
BEMA_UNG
 62
     7
100
AcDb2dPolyline
 66
     1
 10
0.0
 20
0.0
 30
0.0
  0
VERTEX
  5
62C
330
62B
100
AcDbEntity
  8
BEMA_UNG
 62
     7
100
AcDbVertex
100
AcDb2dVertex
 10
106.6305987457754
 20
-90.73560671009177
 30
0.0
  0
VERTEX
  5
62D
330
62B
100
AcDbEntity
  8
BEMA_UNG
 62
     7
100
AcDbVertex
100
AcDb2dVertex
 10
106.3725609237041
 20
-90.73560671009177
 30
0.0
  0
SEQEND
  5
62E
330
62B
100
AcDbEntity
  8
BEMA_UNG
  0
POLYLINE
  5
62F
330
1F
100
AcDbEntity
  8
BEMA_UNG
 62
     7
100
AcDb2dPolyline
 66
     1
 10
0.0
 20
0.0
 30
0.0
  0
VERTEX
  5
630
330
62F
100
AcDbEntity
  8
BEMA_UNG
 62
     7
100
AcDbVertex
100
AcDb2dVertex
 10
106.6305987457754
 20
-90.75851661018221
 30
0.0
  0
VERTEX
  5
631
330
62F
100
AcDbEntity
  8
BEMA_UNG
 62
     7
100
AcDbVertex
100
AcDb2dVertex
 10
106.198583486927
 20
-90.75851661018221
 30
0.0
  0
SEQEND
  5
632
330
62F
100
AcDbEntity
  8
BEMA_UNG
  0
POLYLINE
  5
633
330
1F
100
AcDbEntity
  8
BEMA_UNG
 62
     7
100
AcDb2dPolyline
 66
     1
 10
0.0
 20
0.0
 30
0.0
  0
VERTEX
  5
634
330
633
100
AcDbEntity
  8
BEMA_UNG
 62
     7
100
AcDbVertex
100
AcDb2dVertex
 10
106.6305987457754
 20
-90.78142651027265
 30
0.0
  0
VERTEX
  5
635
330
633
100
AcDbEntity
  8
BEMA_UNG
 62
     7
100
AcDbVertex
100
AcDb2dVertex
 10
106.0252950697015
 20
-90.78142651027265
 30
0.0
  0
SEQEND
  5
636
330
633
100
AcDbEntity
  8
BEMA_UNG
  0
POLYLINE
  5
637
330
1F
100
AcDbEntity
  8
BEMA_UNG
 62
     7
100
AcDb2dPolyline
 66
     1
 10
0.0
 20
0.0
 30
0.0
  0
VERTEX
  5
638
330
637
100
AcDbEntity
  8
BEMA_UNG
 62
     7
100
AcDbVertex
100
AcDb2dVertex
 10
106.6305987457754
 20
-90.8041641554752
 30
0.0
  0
VERTEX
  5
639
330
637
100
AcDbEntity
  8
BEMA_UNG
 62
     7
100
AcDbVertex
100
AcDb2dVertex
 10
105.8516621427003
 20
-90.8041641554752
 30
0.0
  0
SEQEND
  5
63A
330
637
100
AcDbEntity
  8
BEMA_UNG
  0
POLYLINE
  5
63B
330
1F
100
AcDbEntity
  8
BEMA_UNG
 62
     7
100
AcDb2dPolyline
 66
     1
 10
0.0
 20
0.0
 30
0.0
  0
VERTEX
  5
63C
330
63B
100
AcDbEntity
  8
BEMA_UNG
 62
     7
100
AcDbVertex
100
AcDb2dVertex
 10
106.6305987457754
 20
-90.82707405556565
 30
0.0
  0
VERTEX
  5
63D
330
63B
100
AcDbEntity
  8
BEMA_UNG
 62
     7
100
AcDbVertex
100
AcDb2dVertex
 10
105.6783737254748
 20
-90.82707405556565
 30
0.0
  0
SEQEND
  5
63E
330
63B
100
AcDbEntity
  8
BEMA_UNG
  0
POLYLINE
  5
63F
330
1F
100
AcDbEntity
  8
BEMA_UNG
 62
     7
100
AcDb2dPolyline
 66
     1
 10
0.0
 20
0.0
 30
0.0
  0
VERTEX
  5
640
330
63F
100
AcDbEntity
  8
BEMA_UNG
 62
     7
100
AcDbVertex
100
AcDb2dVertex
 10
106.6305987457754
 20
-90.8498117007682
 30
0.0
  0
VERTEX
  5
641
330
63F
100
AcDbEntity
  8
BEMA_UNG
 62
     7
100
AcDbVertex
100
AcDb2dVertex
 10
105.5040517789219
 20
-90.8498117007682
 30
0.0
  0
SEQEND
  5
642
330
63F
100
AcDbEntity
  8
BEMA_UNG
  0
POLYLINE
  5
643
330
1F
100
AcDbEntity
  8
BEMA_UNG
 62
     7
100
AcDb2dPolyline
 66
     1
 10
0.0
 20
0.0
 30
0.0
  0
VERTEX
  5
644
330
643
100
AcDbEntity
  8
BEMA_UNG
 62
     7
100
AcDbVertex
100
AcDb2dVertex
 10
119.0043563630464
 20
-90.8498117007682
 30
0.0
  0
VERTEX
  5
645
330
643
100
AcDbEntity
  8
BEMA_UNG
 62
     7
100
AcDbVertex
100
AcDb2dVertex
 10
117.8784984157445
 20
-90.70167249717585
 30
0.0
  0
VERTEX
  5
646
330
643
100
AcDbEntity
  8
BEMA_UNG
 62
     7
100
AcDbVertex
100
AcDb2dVertex
 10
117.8784984157445
 20
-90.99812315924845
 30
0.0
  0
VERTEX
  5
647
330
643
100
AcDbEntity
  8
BEMA_UNG
 62
     7
100
AcDbVertex
100
AcDb2dVertex
 10
119.0043563630464
 20
-90.8498117007682
 30
0.0
  0
SEQEND
  5
648
330
643
100
AcDbEntity
  8
BEMA_UNG
  0
POLYLINE
  5
649
330
1F
100
AcDbEntity
  8
BEMA_UNG
 62
     7
100
AcDb2dPolyline
 66
     1
 10
0.0
 20
0.0
 30
0.0
  0
VERTEX
  5
64A
330
649
100
AcDbEntity
  8
BEMA_UNG
 62
     7
100
AcDbVertex
100
AcDb2dVertex
 10
117.8784984157445
 20
-90.71269681000132
 30
0.0
  0
VERTEX
  5
64B
330
649
100
AcDbEntity
  8
BEMA_UNG
 62
     7
100
AcDbVertex
100
AcDb2dVertex
 10
117.9625588010388
 20
-90.71269681000132
 30
0.0
  0
SEQEND
  5
64C
330
649
100
AcDbEntity
  8
BEMA_UNG
  0
POLYLINE
  5
64D
330
1F
100
AcDbEntity
  8
BEMA_UNG
 62
     7
100
AcDb2dPolyline
 66
     1
 10
0.0
 20
0.0
 30
0.0
  0
VERTEX
  5
64E
330
64D
100
AcDbEntity
  8
BEMA_UNG
 62
     7
100
AcDbVertex
100
AcDb2dVertex
 10
117.8784984157445
 20
-90.71269681000132
 30
0.0
  0
VERTEX
  5
64F
330
64D
100
AcDbEntity
  8
BEMA_UNG
 62
     7
100
AcDbVertex
100
AcDb2dVertex
 10
117.9625588010388
 20
-90.71269681000132
 30
0.0
  0
SEQEND
  5
650
330
64D
100
AcDbEntity
  8
BEMA_UNG
  0
POLYLINE
  5
651
330
1F
100
AcDbEntity
  8
BEMA_UNG
 62
     7
100
AcDb2dPolyline
 66
     1
 10
0.0
 20
0.0
 30
0.0
  0
VERTEX
  5
652
330
651
100
AcDbEntity
  8
BEMA_UNG
 62
     7
100
AcDbVertex
100
AcDb2dVertex
 10
117.8784984157445
 20
-90.73560671009177
 30
0.0
  0
VERTEX
  5
653
330
651
100
AcDbEntity
  8
BEMA_UNG
 62
     7
100
AcDbVertex
100
AcDb2dVertex
 10
118.1361917280401
 20
-90.73560671009177
 30
0.0
  0
SEQEND
  5
654
330
651
100
AcDbEntity
  8
BEMA_UNG
  0
POLYLINE
  5
655
330
1F
100
AcDbEntity
  8
BEMA_UNG
 62
     7
100
AcDb2dPolyline
 66
     1
 10
0.0
 20
0.0
 30
0.0
  0
VERTEX
  5
656
330
655
100
AcDbEntity
  8
BEMA_UNG
 62
     7
100
AcDbVertex
100
AcDb2dVertex
 10
117.8784984157445
 20
-90.75851661018221
 30
0.0
  0
VERTEX
  5
657
330
655
100
AcDbEntity
  8
BEMA_UNG
 62
     7
100
AcDbVertex
100
AcDb2dVertex
 10
118.3098246550413
 20
-90.75851661018221
 30
0.0
  0
SEQEND
  5
658
330
655
100
AcDbEntity
  8
BEMA_UNG
  0
POLYLINE
  5
659
330
1F
100
AcDbEntity
  8
BEMA_UNG
 62
     7
100
AcDb2dPolyline
 66
     1
 10
0.0
 20
0.0
 30
0.0
  0
VERTEX
  5
65A
330
659
100
AcDbEntity
  8
BEMA_UNG
 62
     7
100
AcDbVertex
100
AcDb2dVertex
 10
117.8784984157445
 20
-90.78142651027265
 30
0.0
  0
VERTEX
  5
65B
330
659
100
AcDbEntity
  8
BEMA_UNG
 62
     7
100
AcDbVertex
100
AcDb2dVertex
 10
118.4831130722668
 20
-90.78142651027265
 30
0.0
  0
SEQEND
  5
65C
330
659
100
AcDbEntity
  8
BEMA_UNG
  0
POLYLINE
  5
65D
330
1F
100
AcDbEntity
  8
BEMA_UNG
 62
     7
100
AcDb2dPolyline
 66
     1
 10
0.0
 20
0.0
 30
0.0
  0
VERTEX
  5
65E
330
65D
100
AcDbEntity
  8
BEMA_UNG
 62
     7
100
AcDbVertex
100
AcDb2dVertex
 10
117.8784984157445
 20
-90.8041641554752
 30
0.0
  0
VERTEX
  5
65F
330
65D
100
AcDbEntity
  8
BEMA_UNG
 62
     7
100
AcDbVertex
100
AcDb2dVertex
 10
118.6574350188197
 20
-90.8041641554752
 30
0.0
  0
SEQEND
  5
660
330
65D
100
AcDbEntity
  8
BEMA_UNG
  0
POLYLINE
  5
661
330
1F
100
AcDbEntity
  8
BEMA_UNG
 62
     7
100
AcDb2dPolyline
 66
     1
 10
0.0
 20
0.0
 30
0.0
  0
VERTEX
  5
662
330
661
100
AcDbEntity
  8
BEMA_UNG
 62
     7
100
AcDbVertex
100
AcDb2dVertex
 10
117.8784984157445
 20
-90.82707405556565
 30
0.0
  0
VERTEX
  5
663
330
661
100
AcDbEntity
  8
BEMA_UNG
 62
     7
100
AcDbVertex
100
AcDb2dVertex
 10
118.8307234360451
 20
-90.82707405556565
 30
0.0
  0
SEQEND
  5
664
330
661
100
AcDbEntity
  8
BEMA_UNG
  0
POLYLINE
  5
665
330
1F
100
AcDbEntity
  8
BEMA_UNG
 62
     7
100
AcDb2dPolyline
 66
     1
 10
0.0
 20
0.0
 30
0.0
  0
VERTEX
  5
666
330
665
100
AcDbEntity
  8
BEMA_UNG
 62
     7
100
AcDbVertex
100
AcDb2dVertex
 10
117.8784984157445
 20
-90.8498117007682
 30
0.0
  0
VERTEX
  5
667
330
665
100
AcDbEntity
  8
BEMA_UNG
 62
     7
100
AcDbVertex
100
AcDb2dVertex
 10
119.0043563630464
 20
-90.8498117007682
 30
0.0
  0
SEQEND
  5
668
330
665
100
AcDbEntity
  8
BEMA_UNG
  0
POLYLINE
  5
669
330
1F
100
AcDbEntity
  8
BEMA_UNG
 62
     7
100
AcDb2dPolyline
 66
     1
 10
0.0
 20
0.0
 30
0.0
  0
VERTEX
  5
66A
330
669
100
AcDbEntity
  8
BEMA_UNG
 62
     7
100
AcDbVertex
100
AcDb2dVertex
 10
117.8784984157445
 20
-90.98709884642297
 30
0.0
  0
VERTEX
  5
66B
330
669
100
AcDbEntity
  8
BEMA_UNG
 62
     7
100
AcDbVertex
100
AcDb2dVertex
 10
117.9625588010388
 20
-90.98709884642297
 30
0.0
  0
SEQEND
  5
66C
330
669
100
AcDbEntity
  8
BEMA_UNG
  0
POLYLINE
  5
66D
330
1F
100
AcDbEntity
  8
BEMA_UNG
 62
     7
100
AcDb2dPolyline
 66
     1
 10
0.0
 20
0.0
 30
0.0
  0
VERTEX
  5
66E
330
66D
100
AcDbEntity
  8
BEMA_UNG
 62
     7
100
AcDbVertex
100
AcDb2dVertex
 10
117.8784984157445
 20
-90.98709884642297
 30
0.0
  0
VERTEX
  5
66F
330
66D
100
AcDbEntity
  8
BEMA_UNG
 62
     7
100
AcDbVertex
100
AcDb2dVertex
 10
117.9625588010388
 20
-90.98709884642297
 30
0.0
  0
SEQEND
  5
670
330
66D
100
AcDbEntity
  8
BEMA_UNG
  0
POLYLINE
  5
671
330
1F
100
AcDbEntity
  8
BEMA_UNG
 62
     7
100
AcDb2dPolyline
 66
     1
 10
0.0
 20
0.0
 30
0.0
  0
VERTEX
  5
672
330
671
100
AcDbEntity
  8
BEMA_UNG
 62
     7
100
AcDbVertex
100
AcDb2dVertex
 10
117.8784984157445
 20
-90.96401669144463
 30
0.0
  0
VERTEX
  5
673
330
671
100
AcDbEntity
  8
BEMA_UNG
 62
     7
100
AcDbVertex
100
AcDb2dVertex
 10
118.1361917280401
 20
-90.96401669144463
 30
0.0
  0
SEQEND
  5
674
330
671
100
AcDbEntity
  8
BEMA_UNG
  0
POLYLINE
  5
675
330
1F
100
AcDbEntity
  8
BEMA_UNG
 62
     7
100
AcDb2dPolyline
 66
     1
 10
0.0
 20
0.0
 30
0.0
  0
VERTEX
  5
676
330
675
100
AcDbEntity
  8
BEMA_UNG
 62
     7
100
AcDbVertex
100
AcDb2dVertex
 10
117.8784984157445
 20
-90.94127904624207
 30
0.0
  0
VERTEX
  5
677
330
675
100
AcDbEntity
  8
BEMA_UNG
 62
     7
100
AcDbVertex
100
AcDb2dVertex
 10
118.3098246550413
 20
-90.94127904624207
 30
0.0
  0
SEQEND
  5
678
330
675
100
AcDbEntity
  8
BEMA_UNG
  0
POLYLINE
  5
679
330
1F
100
AcDbEntity
  8
BEMA_UNG
 62
     7
100
AcDb2dPolyline
 66
     1
 10
0.0
 20
0.0
 30
0.0
  0
VERTEX
  5
67A
330
679
100
AcDbEntity
  8
BEMA_UNG
 62
     7
100
AcDbVertex
100
AcDb2dVertex
 10
117.8784984157445
 20
-90.91836914615163
 30
0.0
  0
VERTEX
  5
67B
330
679
100
AcDbEntity
  8
BEMA_UNG
 62
     7
100
AcDbVertex
100
AcDb2dVertex
 10
118.4831130722668
 20
-90.91836914615163
 30
0.0
  0
SEQEND
  5
67C
330
679
100
AcDbEntity
  8
BEMA_UNG
  0
POLYLINE
  5
67D
330
1F
100
AcDbEntity
  8
BEMA_UNG
 62
     7
100
AcDb2dPolyline
 66
     1
 10
0.0
 20
0.0
 30
0.0
  0
VERTEX
  5
67E
330
67D
100
AcDbEntity
  8
BEMA_UNG
 62
     7
100
AcDbVertex
100
AcDb2dVertex
 10
117.8784984157445
 20
-90.8954592460612
 30
0.0
  0
VERTEX
  5
67F
330
67D
100
AcDbEntity
  8
BEMA_UNG
 62
     7
100
AcDbVertex
100
AcDb2dVertex
 10
118.6574350188197
 20
-90.8954592460612
 30
0.0
  0
SEQEND
  5
680
330
67D
100
AcDbEntity
  8
BEMA_UNG
  0
POLYLINE
  5
681
330
1F
100
AcDbEntity
  8
BEMA_UNG
 62
     7
100
AcDb2dPolyline
 66
     1
 10
0.0
 20
0.0
 30
0.0
  0
VERTEX
  5
682
330
681
100
AcDbEntity
  8
BEMA_UNG
 62
     7
100
AcDbVertex
100
AcDb2dVertex
 10
117.8784984157445
 20
-90.87254934597074
 30
0.0
  0
VERTEX
  5
683
330
681
100
AcDbEntity
  8
BEMA_UNG
 62
     7
100
AcDbVertex
100
AcDb2dVertex
 10
118.8307234360451
 20
-90.87254934597074
 30
0.0
  0
SEQEND
  5
684
330
681
100
AcDbEntity
  8
BEMA_UNG
  0
POLYLINE
  5
685
330
1F
100
AcDbEntity
  8
BEMA_UNG
 62
     7
100
AcDb2dPolyline
 66
     1
 10
0.0
 20
0.0
 30
0.0
  0
VERTEX
  5
686
330
685
100
AcDbEntity
  8
BEMA_UNG
 62
     7
100
AcDbVertex
100
AcDb2dVertex
 10
117.8784984157445
 20
-90.8498117007682
 30
0.0
  0
VERTEX
  5
687
330
685
100
AcDbEntity
  8
BEMA_UNG
 62
     7
100
AcDbVertex
100
AcDb2dVertex
 10
119.0043563630464
 20
-90.8498117007682
 30
0.0
  0
SEQEND
  5
688
330
685
100
AcDbEntity
  8
BEMA_UNG
  0
POLYLINE
  5
689
330
1F
100
AcDbEntity
  8
BEMA_UNG
 62
     7
100
AcDb2dPolyline
 66
     1
 10
0.0
 20
0.0
 30
0.0
  0
VERTEX
  5
68A
330
689
100
AcDbEntity
  8
BEMA_UNG
 62
     7
100
AcDbVertex
100
AcDb2dVertex
 10
78.75837984476216
 20
-61.51049791952697
 30
0.0
  0
VERTEX
  5
68B
330
689
100
AcDbEntity
  8
BEMA_UNG
 62
     7
100
AcDbVertex
100
AcDb2dVertex
 10
86.10263924518489
 20
-61.51049791952697
 30
0.0
  0
SEQEND
  5
68C
330
689
100
AcDbEntity
  8
BEMA_UNG
  0
POLYLINE
  5
68D
330
1F
100
AcDbEntity
  8
BEMA_UNG
 62
     7
100
AcDb2dPolyline
 66
     1
 10
0.0
 20
0.0
 30
0.0
  0
VERTEX
  5
68E
330
68D
100
AcDbEntity
  8
BEMA_UNG
 62
     7
100
AcDbVertex
100
AcDb2dVertex
 10
78.75837984476216
 20
-48.0101933354025
 30
0.0
  0
VERTEX
  5
68F
330
68D
100
AcDbEntity
  8
BEMA_UNG
 62
     7
100
AcDbVertex
100
AcDb2dVertex
 10
85.97585964769189
 20
-48.0101933354025
 30
0.0
  0
SEQEND
  5
690
330
68D
100
AcDbEntity
  8
BEMA_UNG
  0
POLYLINE
  5
691
330
1F
100
AcDbEntity
  8
BEMA_UNG
 62
     7
100
AcDb2dPolyline
 66
     1
 10
0.0
 20
0.0
 30
0.0
  0
VERTEX
  5
692
330
691
100
AcDbEntity
  8
BEMA_UNG
 62
     7
100
AcDbVertex
100
AcDb2dVertex
 10
85.44186949520784
 20
-61.51049791952697
 30
0.0
  0
VERTEX
  5
693
330
691
100
AcDbEntity
  8
BEMA_UNG
 62
     7
100
AcDbVertex
100
AcDb2dVertex
 10
85.44186949520784
 20
-48.0101933354025
 30
0.0
  0
SEQEND
  5
694
330
691
100
AcDbEntity
  8
BEMA_UNG
  0
POLYLINE
  5
695
330
1F
100
AcDbEntity
  8
BEMA_UNG
 62
     7
100
AcDb2dPolyline
 66
     1
 10
0.0
 20
0.0
 30
0.0
  0
VERTEX
  5
696
330
695
100
AcDbEntity
  8
BEMA_UNG
 62
     7
100
AcDbVertex
100
AcDb2dVertex
 10
85.44186949520784
 20
-61.51049791952697
 30
0.0
  0
VERTEX
  5
697
330
695
100
AcDbEntity
  8
BEMA_UNG
 62
     7
100
AcDbVertex
100
AcDb2dVertex
 10
85.58966418902439
 20
-60.38550124666457
 30
0.0
  0
VERTEX
  5
698
330
695
100
AcDbEntity
  8
BEMA_UNG
 62
     7
100
AcDbVertex
100
AcDb2dVertex
 10
85.29373029161549
 20
-60.38550124666457
 30
0.0
  0
VERTEX
  5
699
330
695
100
AcDbEntity
  8
BEMA_UNG
 62
     7
100
AcDbVertex
100
AcDb2dVertex
 10
85.44186949520784
 20
-61.51049791952697
 30
0.0
  0
SEQEND
  5
69A
330
695
100
AcDbEntity
  8
BEMA_UNG
  0
POLYLINE
  5
69B
330
1F
100
AcDbEntity
  8
BEMA_UNG
 62
     7
100
AcDb2dPolyline
 66
     1
 10
0.0
 20
0.0
 30
0.0
  0
VERTEX
  5
69C
330
69B
100
AcDbEntity
  8
BEMA_UNG
 62
     7
100
AcDbVertex
100
AcDb2dVertex
 10
85.57863987619892
 20
-60.38550124666457
 30
0.0
  0
VERTEX
  5
69D
330
69B
100
AcDbEntity
  8
BEMA_UNG
 62
     7
100
AcDbVertex
100
AcDb2dVertex
 10
85.57863987619892
 20
-60.46870035751935
 30
0.0
  0
SEQEND
  5
69E
330
69B
100
AcDbEntity
  8
BEMA_UNG
  0
POLYLINE
  5
69F
330
1F
100
AcDbEntity
  8
BEMA_UNG
 62
     7
100
AcDb2dPolyline
 66
     1
 10
0.0
 20
0.0
 30
0.0
  0
VERTEX
  5
6A0
330
69F
100
AcDbEntity
  8
BEMA_UNG
 62
     7
100
AcDbVertex
100
AcDb2dVertex
 10
85.57863987619892
 20
-60.38550124666457
 30
0.0
  0
VERTEX
  5
6A1
330
69F
100
AcDbEntity
  8
BEMA_UNG
 62
     7
100
AcDbVertex
100
AcDb2dVertex
 10
85.57863987619892
 20
-60.46870035751935
 30
0.0
  0
SEQEND
  5
6A2
330
69F
100
AcDbEntity
  8
BEMA_UNG
  0
POLYLINE
  5
6A3
330
1F
100
AcDbEntity
  8
BEMA_UNG
 62
     7
100
AcDb2dPolyline
 66
     1
 10
0.0
 20
0.0
 30
0.0
  0
VERTEX
  5
6A4
330
6A3
100
AcDbEntity
  8
BEMA_UNG
 62
     7
100
AcDbVertex
100
AcDb2dVertex
 10
85.55555772122057
 20
-60.38550124666457
 30
0.0
  0
VERTEX
  5
6A5
330
6A3
100
AcDbEntity
  8
BEMA_UNG
 62
     7
100
AcDbVertex
100
AcDb2dVertex
 10
85.55555772122057
 20
-60.64216102963272
 30
0.0
  0
SEQEND
  5
6A6
330
6A3
100
AcDbEntity
  8
BEMA_UNG
  0
POLYLINE
  5
6A7
330
1F
100
AcDbEntity
  8
BEMA_UNG
 62
     7
100
AcDb2dPolyline
 66
     1
 10
0.0
 20
0.0
 30
0.0
  0
VERTEX
  5
6A8
330
6A7
100
AcDbEntity
  8
BEMA_UNG
 62
     7
100
AcDbVertex
100
AcDb2dVertex
 10
85.53282007601803
 20
-60.38550124666457
 30
0.0
  0
VERTEX
  5
6A9
330
6A7
100
AcDbEntity
  8
BEMA_UNG
 62
     7
100
AcDbVertex
100
AcDb2dVertex
 10
85.53282007601803
 20
-60.81596621152189
 30
0.0
  0
SEQEND
  5
6AA
330
6A7
100
AcDbEntity
  8
BEMA_UNG
  0
POLYLINE
  5
6AB
330
1F
100
AcDbEntity
  8
BEMA_UNG
 62
     7
100
AcDb2dPolyline
 66
     1
 10
0.0
 20
0.0
 30
0.0
  0
VERTEX
  5
6AC
330
6AB
100
AcDbEntity
  8
BEMA_UNG
 62
     7
100
AcDbVertex
100
AcDb2dVertex
 10
85.51008243081547
 20
-60.38550124666457
 30
0.0
  0
VERTEX
  5
6AD
330
6AB
100
AcDbEntity
  8
BEMA_UNG
 62
     7
100
AcDbVertex
100
AcDb2dVertex
 10
85.51008243081547
 20
-60.98942688363526
 30
0.0
  0
SEQEND
  5
6AE
330
6AB
100
AcDbEntity
  8
BEMA_UNG
  0
POLYLINE
  5
6AF
330
1F
100
AcDbEntity
  8
BEMA_UNG
 62
     7
100
AcDb2dPolyline
 66
     1
 10
0.0
 20
0.0
 30
0.0
  0
VERTEX
  5
6B0
330
6AF
100
AcDbEntity
  8
BEMA_UNG
 62
     7
100
AcDbVertex
100
AcDb2dVertex
 10
85.48734478561293
 20
-60.38550124666457
 30
0.0
  0
VERTEX
  5
6B1
330
6AF
100
AcDbEntity
  8
BEMA_UNG
 62
     7
100
AcDbVertex
100
AcDb2dVertex
 10
85.48734478561293
 20
-61.16323206552443
 30
0.0
  0
SEQEND
  5
6B2
330
6AF
100
AcDbEntity
  8
BEMA_UNG
  0
POLYLINE
  5
6B3
330
1F
100
AcDbEntity
  8
BEMA_UNG
 62
     7
100
AcDb2dPolyline
 66
     1
 10
0.0
 20
0.0
 30
0.0
  0
VERTEX
  5
6B4
330
6B3
100
AcDbEntity
  8
BEMA_UNG
 62
     7
100
AcDbVertex
100
AcDb2dVertex
 10
85.4642626306346
 20
-60.38550124666457
 30
0.0
  0
VERTEX
  5
6B5
330
6B3
100
AcDbEntity
  8
BEMA_UNG
 62
     7
100
AcDbVertex
100
AcDb2dVertex
 10
85.4642626306346
 20
-61.3366927376378
 30
0.0
  0
SEQEND
  5
6B6
330
6B3
100
AcDbEntity
  8
BEMA_UNG
  0
POLYLINE
  5
6B7
330
1F
100
AcDbEntity
  8
BEMA_UNG
 62
     7
100
AcDb2dPolyline
 66
     1
 10
0.0
 20
0.0
 30
0.0
  0
VERTEX
  5
6B8
330
6B7
100
AcDbEntity
  8
BEMA_UNG
 62
     7
100
AcDbVertex
100
AcDb2dVertex
 10
85.44186949520784
 20
-60.38550124666457
 30
0.0
  0
VERTEX
  5
6B9
330
6B7
100
AcDbEntity
  8
BEMA_UNG
 62
     7
100
AcDbVertex
100
AcDb2dVertex
 10
85.44186949520784
 20
-61.51049791952697
 30
0.0
  0
SEQEND
  5
6BA
330
6B7
100
AcDbEntity
  8
BEMA_UNG
  0
POLYLINE
  5
6BB
330
1F
100
AcDbEntity
  8
BEMA_UNG
 62
     7
100
AcDb2dPolyline
 66
     1
 10
0.0
 20
0.0
 30
0.0
  0
VERTEX
  5
6BC
330
6BB
100
AcDbEntity
  8
BEMA_UNG
 62
     7
100
AcDbVertex
100
AcDb2dVertex
 10
85.30406558488937
 20
-60.38550124666457
 30
0.0
  0
VERTEX
  5
6BD
330
6BB
100
AcDbEntity
  8
BEMA_UNG
 62
     7
100
AcDbVertex
100
AcDb2dVertex
 10
85.30406558488937
 20
-60.46870035751935
 30
0.0
  0
SEQEND
  5
6BE
330
6BB
100
AcDbEntity
  8
BEMA_UNG
  0
POLYLINE
  5
6BF
330
1F
100
AcDbEntity
  8
BEMA_UNG
 62
     7
100
AcDb2dPolyline
 66
     1
 10
0.0
 20
0.0
 30
0.0
  0
VERTEX
  5
6C0
330
6BF
100
AcDbEntity
  8
BEMA_UNG
 62
     7
100
AcDbVertex
100
AcDb2dVertex
 10
85.30406558488937
 20
-60.38550124666457
 30
0.0
  0
VERTEX
  5
6C1
330
6BF
100
AcDbEntity
  8
BEMA_UNG
 62
     7
100
AcDbVertex
100
AcDb2dVertex
 10
85.30406558488937
 20
-60.46870035751935
 30
0.0
  0
SEQEND
  5
6C2
330
6BF
100
AcDbEntity
  8
BEMA_UNG
  0
POLYLINE
  5
6C3
330
1F
100
AcDbEntity
  8
BEMA_UNG
 62
     7
100
AcDb2dPolyline
 66
     1
 10
0.0
 20
0.0
 30
0.0
  0
VERTEX
  5
6C4
330
6C3
100
AcDbEntity
  8
BEMA_UNG
 62
     7
100
AcDbVertex
100
AcDb2dVertex
 10
85.32714773986771
 20
-60.38550124666457
 30
0.0
  0
VERTEX
  5
6C5
330
6C3
100
AcDbEntity
  8
BEMA_UNG
 62
     7
100
AcDbVertex
100
AcDb2dVertex
 10
85.32714773986771
 20
-60.64216102963272
 30
0.0
  0
SEQEND
  5
6C6
330
6C3
100
AcDbEntity
  8
BEMA_UNG
  0
POLYLINE
  5
6C7
330
1F
100
AcDbEntity
  8
BEMA_UNG
 62
     7
100
AcDb2dPolyline
 66
     1
 10
0.0
 20
0.0
 30
0.0
  0
VERTEX
  5
6C8
330
6C7
100
AcDbEntity
  8
BEMA_UNG
 62
     7
100
AcDbVertex
100
AcDb2dVertex
 10
85.35022989484605
 20
-60.38550124666457
 30
0.0
  0
VERTEX
  5
6C9
330
6C7
100
AcDbEntity
  8
BEMA_UNG
 62
     7
100
AcDbVertex
100
AcDb2dVertex
 10
85.35022989484605
 20
-60.81596621152189
 30
0.0
  0
SEQEND
  5
6CA
330
6C7
100
AcDbEntity
  8
BEMA_UNG
  0
POLYLINE
  5
6CB
330
1F
100
AcDbEntity
  8
BEMA_UNG
 62
     7
100
AcDb2dPolyline
 66
     1
 10
0.0
 20
0.0
 30
0.0
  0
VERTEX
  5
6CC
330
6CB
100
AcDbEntity
  8
BEMA_UNG
 62
     7
100
AcDbVertex
100
AcDb2dVertex
 10
85.3729675400486
 20
-60.38550124666457
 30
0.0
  0
VERTEX
  5
6CD
330
6CB
100
AcDbEntity
  8
BEMA_UNG
 62
     7
100
AcDbVertex
100
AcDb2dVertex
 10
85.3729675400486
 20
-60.98942688363526
 30
0.0
  0
SEQEND
  5
6CE
330
6CB
100
AcDbEntity
  8
BEMA_UNG
  0
POLYLINE
  5
6CF
330
1F
100
AcDbEntity
  8
BEMA_UNG
 62
     7
100
AcDb2dPolyline
 66
     1
 10
0.0
 20
0.0
 30
0.0
  0
VERTEX
  5
6D0
330
6CF
100
AcDbEntity
  8
BEMA_UNG
 62
     7
100
AcDbVertex
100
AcDb2dVertex
 10
85.39570518525115
 20
-60.38550124666457
 30
0.0
  0
VERTEX
  5
6D1
330
6CF
100
AcDbEntity
  8
BEMA_UNG
 62
     7
100
AcDbVertex
100
AcDb2dVertex
 10
85.39570518525115
 20
-61.16323206552443
 30
0.0
  0
SEQEND
  5
6D2
330
6CF
100
AcDbEntity
  8
BEMA_UNG
  0
POLYLINE
  5
6D3
330
1F
100
AcDbEntity
  8
BEMA_UNG
 62
     7
100
AcDb2dPolyline
 66
     1
 10
0.0
 20
0.0
 30
0.0
  0
VERTEX
  5
6D4
330
6D3
100
AcDbEntity
  8
BEMA_UNG
 62
     7
100
AcDbVertex
100
AcDb2dVertex
 10
85.41878734022949
 20
-60.38550124666457
 30
0.0
  0
VERTEX
  5
6D5
330
6D3
100
AcDbEntity
  8
BEMA_UNG
 62
     7
100
AcDbVertex
100
AcDb2dVertex
 10
85.41878734022949
 20
-61.3366927376378
 30
0.0
  0
SEQEND
  5
6D6
330
6D3
100
AcDbEntity
  8
BEMA_UNG
  0
POLYLINE
  5
6D7
330
1F
100
AcDbEntity
  8
BEMA_UNG
 62
     7
100
AcDb2dPolyline
 66
     1
 10
0.0
 20
0.0
 30
0.0
  0
VERTEX
  5
6D8
330
6D7
100
AcDbEntity
  8
BEMA_UNG
 62
     7
100
AcDbVertex
100
AcDb2dVertex
 10
85.44186949520784
 20
-60.38550124666457
 30
0.0
  0
VERTEX
  5
6D9
330
6D7
100
AcDbEntity
  8
BEMA_UNG
 62
     7
100
AcDbVertex
100
AcDb2dVertex
 10
85.44186949520784
 20
-61.51049791952697
 30
0.0
  0
SEQEND
  5
6DA
330
6D7
100
AcDbEntity
  8
BEMA_UNG
  0
POLYLINE
  5
6DB
330
1F
100
AcDbEntity
  8
BEMA_UNG
 62
     7
100
AcDb2dPolyline
 66
     1
 10
0.0
 20
0.0
 30
0.0
  0
VERTEX
  5
6DC
330
6DB
100
AcDbEntity
  8
BEMA_UNG
 62
     7
100
AcDbVertex
100
AcDb2dVertex
 10
85.44186949520784
 20
-48.0101933354025
 30
0.0
  0
VERTEX
  5
6DD
330
6DB
100
AcDbEntity
  8
BEMA_UNG
 62
     7
100
AcDbVertex
100
AcDb2dVertex
 10
85.29373029161549
 20
-49.13553451804069
 30
0.0
  0
VERTEX
  5
6DE
330
6DB
100
AcDbEntity
  8
BEMA_UNG
 62
     7
100
AcDbVertex
100
AcDb2dVertex
 10
85.58966418902439
 20
-49.13553451804069
 30
0.0
  0
VERTEX
  5
6DF
330
6DB
100
AcDbEntity
  8
BEMA_UNG
 62
     7
100
AcDbVertex
100
AcDb2dVertex
 10
85.44186949520784
 20
-48.0101933354025
 30
0.0
  0
SEQEND
  5
6E0
330
6DB
100
AcDbEntity
  8
BEMA_UNG
  0
POLYLINE
  5
6E1
330
1F
100
AcDbEntity
  8
BEMA_UNG
 62
     7
100
AcDb2dPolyline
 66
     1
 10
0.0
 20
0.0
 30
0.0
  0
VERTEX
  5
6E2
330
6E1
100
AcDbEntity
  8
BEMA_UNG
 62
     7
100
AcDbVertex
100
AcDb2dVertex
 10
85.30406558488937
 20
-49.13553451804069
 30
0.0
  0
VERTEX
  5
6E3
330
6E1
100
AcDbEntity
  8
BEMA_UNG
 62
     7
100
AcDbVertex
100
AcDb2dVertex
 10
85.30406558488937
 20
-49.05233540718591
 30
0.0
  0
SEQEND
  5
6E4
330
6E1
100
AcDbEntity
  8
BEMA_UNG
  0
POLYLINE
  5
6E5
330
1F
100
AcDbEntity
  8
BEMA_UNG
 62
     7
100
AcDb2dPolyline
 66
     1
 10
0.0
 20
0.0
 30
0.0
  0
VERTEX
  5
6E6
330
6E5
100
AcDbEntity
  8
BEMA_UNG
 62
     7
100
AcDbVertex
100
AcDb2dVertex
 10
85.30406558488937
 20
-49.13553451804069
 30
0.0
  0
VERTEX
  5
6E7
330
6E5
100
AcDbEntity
  8
BEMA_UNG
 62
     7
100
AcDbVertex
100
AcDb2dVertex
 10
85.30406558488937
 20
-49.05233540718591
 30
0.0
  0
SEQEND
  5
6E8
330
6E5
100
AcDbEntity
  8
BEMA_UNG
  0
POLYLINE
  5
6E9
330
1F
100
AcDbEntity
  8
BEMA_UNG
 62
     7
100
AcDb2dPolyline
 66
     1
 10
0.0
 20
0.0
 30
0.0
  0
VERTEX
  5
6EA
330
6E9
100
AcDbEntity
  8
BEMA_UNG
 62
     7
100
AcDbVertex
100
AcDb2dVertex
 10
85.32714773986771
 20
-49.13553451804069
 30
0.0
  0
VERTEX
  5
6EB
330
6E9
100
AcDbEntity
  8
BEMA_UNG
 62
     7
100
AcDbVertex
100
AcDb2dVertex
 10
85.32714773986771
 20
-48.87870248018464
 30
0.0
  0
SEQEND
  5
6EC
330
6E9
100
AcDbEntity
  8
BEMA_UNG
  0
POLYLINE
  5
6ED
330
1F
100
AcDbEntity
  8
BEMA_UNG
 62
     7
100
AcDb2dPolyline
 66
     1
 10
0.0
 20
0.0
 30
0.0
  0
VERTEX
  5
6EE
330
6ED
100
AcDbEntity
  8
BEMA_UNG
 62
     7
100
AcDbVertex
100
AcDb2dVertex
 10
85.35022989484605
 20
-49.13553451804069
 30
0.0
  0
VERTEX
  5
6EF
330
6ED
100
AcDbEntity
  8
BEMA_UNG
 62
     7
100
AcDbVertex
100
AcDb2dVertex
 10
85.35022989484605
 20
-48.70506955318337
 30
0.0
  0
SEQEND
  5
6F0
330
6ED
100
AcDbEntity
  8
BEMA_UNG
  0
POLYLINE
  5
6F1
330
1F
100
AcDbEntity
  8
BEMA_UNG
 62
     7
100
AcDb2dPolyline
 66
     1
 10
0.0
 20
0.0
 30
0.0
  0
VERTEX
  5
6F2
330
6F1
100
AcDbEntity
  8
BEMA_UNG
 62
     7
100
AcDbVertex
100
AcDb2dVertex
 10
85.3729675400486
 20
-49.13553451804069
 30
0.0
  0
VERTEX
  5
6F3
330
6F1
100
AcDbEntity
  8
BEMA_UNG
 62
     7
100
AcDbVertex
100
AcDb2dVertex
 10
85.3729675400486
 20
-48.53126437129421
 30
0.0
  0
SEQEND
  5
6F4
330
6F1
100
AcDbEntity
  8
BEMA_UNG
  0
POLYLINE
  5
6F5
330
1F
100
AcDbEntity
  8
BEMA_UNG
 62
     7
100
AcDb2dPolyline
 66
     1
 10
0.0
 20
0.0
 30
0.0
  0
VERTEX
  5
6F6
330
6F5
100
AcDbEntity
  8
BEMA_UNG
 62
     7
100
AcDbVertex
100
AcDb2dVertex
 10
85.39570518525115
 20
-49.13553451804069
 30
0.0
  0
VERTEX
  5
6F7
330
6F5
100
AcDbEntity
  8
BEMA_UNG
 62
     7
100
AcDbVertex
100
AcDb2dVertex
 10
85.39570518525115
 20
-48.35780369918083
 30
0.0
  0
SEQEND
  5
6F8
330
6F5
100
AcDbEntity
  8
BEMA_UNG
  0
POLYLINE
  5
6F9
330
1F
100
AcDbEntity
  8
BEMA_UNG
 62
     7
100
AcDb2dPolyline
 66
     1
 10
0.0
 20
0.0
 30
0.0
  0
VERTEX
  5
6FA
330
6F9
100
AcDbEntity
  8
BEMA_UNG
 62
     7
100
AcDbVertex
100
AcDb2dVertex
 10
85.41878734022949
 20
-49.13553451804069
 30
0.0
  0
VERTEX
  5
6FB
330
6F9
100
AcDbEntity
  8
BEMA_UNG
 62
     7
100
AcDbVertex
100
AcDb2dVertex
 10
85.41878734022949
 20
-48.18417077217956
 30
0.0
  0
SEQEND
  5
6FC
330
6F9
100
AcDbEntity
  8
BEMA_UNG
  0
POLYLINE
  5
6FD
330
1F
100
AcDbEntity
  8
BEMA_UNG
 62
     7
100
AcDb2dPolyline
 66
     1
 10
0.0
 20
0.0
 30
0.0
  0
VERTEX
  5
6FE
330
6FD
100
AcDbEntity
  8
BEMA_UNG
 62
     7
100
AcDbVertex
100
AcDb2dVertex
 10
85.44186949520784
 20
-49.13553451804069
 30
0.0
  0
VERTEX
  5
6FF
330
6FD
100
AcDbEntity
  8
BEMA_UNG
 62
     7
100
AcDbVertex
100
AcDb2dVertex
 10
85.44186949520784
 20
-48.0101933354025
 30
0.0
  0
SEQEND
  5
700
330
6FD
100
AcDbEntity
  8
BEMA_UNG
  0
POLYLINE
  5
701
330
1F
100
AcDbEntity
  8
BEMA_UNG
 62
     7
100
AcDb2dPolyline
 66
     1
 10
0.0
 20
0.0
 30
0.0
  0
VERTEX
  5
702
330
701
100
AcDbEntity
  8
BEMA_UNG
 62
     7
100
AcDbVertex
100
AcDb2dVertex
 10
85.57863987619892
 20
-49.13553451804069
 30
0.0
  0
VERTEX
  5
703
330
701
100
AcDbEntity
  8
BEMA_UNG
 62
     7
100
AcDbVertex
100
AcDb2dVertex
 10
85.57863987619892
 20
-49.05233540718591
 30
0.0
  0
SEQEND
  5
704
330
701
100
AcDbEntity
  8
BEMA_UNG
  0
POLYLINE
  5
705
330
1F
100
AcDbEntity
  8
BEMA_UNG
 62
     7
100
AcDb2dPolyline
 66
     1
 10
0.0
 20
0.0
 30
0.0
  0
VERTEX
  5
706
330
705
100
AcDbEntity
  8
BEMA_UNG
 62
     7
100
AcDbVertex
100
AcDb2dVertex
 10
85.57863987619892
 20
-49.13553451804069
 30
0.0
  0
VERTEX
  5
707
330
705
100
AcDbEntity
  8
BEMA_UNG
 62
     7
100
AcDbVertex
100
AcDb2dVertex
 10
85.57863987619892
 20
-49.05233540718591
 30
0.0
  0
SEQEND
  5
708
330
705
100
AcDbEntity
  8
BEMA_UNG
  0
POLYLINE
  5
709
330
1F
100
AcDbEntity
  8
BEMA_UNG
 62
     7
100
AcDb2dPolyline
 66
     1
 10
0.0
 20
0.0
 30
0.0
  0
VERTEX
  5
70A
330
709
100
AcDbEntity
  8
BEMA_UNG
 62
     7
100
AcDbVertex
100
AcDb2dVertex
 10
85.55555772122057
 20
-49.13553451804069
 30
0.0
  0
VERTEX
  5
70B
330
709
100
AcDbEntity
  8
BEMA_UNG
 62
     7
100
AcDbVertex
100
AcDb2dVertex
 10
85.55555772122057
 20
-48.87870248018464
 30
0.0
  0
SEQEND
  5
70C
330
709
100
AcDbEntity
  8
BEMA_UNG
  0
POLYLINE
  5
70D
330
1F
100
AcDbEntity
  8
BEMA_UNG
 62
     7
100
AcDb2dPolyline
 66
     1
 10
0.0
 20
0.0
 30
0.0
  0
VERTEX
  5
70E
330
70D
100
AcDbEntity
  8
BEMA_UNG
 62
     7
100
AcDbVertex
100
AcDb2dVertex
 10
85.53282007601803
 20
-49.13553451804069
 30
0.0
  0
VERTEX
  5
70F
330
70D
100
AcDbEntity
  8
BEMA_UNG
 62
     7
100
AcDbVertex
100
AcDb2dVertex
 10
85.53282007601803
 20
-48.70506955318337
 30
0.0
  0
SEQEND
  5
710
330
70D
100
AcDbEntity
  8
BEMA_UNG
  0
POLYLINE
  5
711
330
1F
100
AcDbEntity
  8
BEMA_UNG
 62
     7
100
AcDb2dPolyline
 66
     1
 10
0.0
 20
0.0
 30
0.0
  0
VERTEX
  5
712
330
711
100
AcDbEntity
  8
BEMA_UNG
 62
     7
100
AcDbVertex
100
AcDb2dVertex
 10
85.51008243081547
 20
-49.13553451804069
 30
0.0
  0
VERTEX
  5
713
330
711
100
AcDbEntity
  8
BEMA_UNG
 62
     7
100
AcDbVertex
100
AcDb2dVertex
 10
85.51008243081547
 20
-48.53126437129421
 30
0.0
  0
SEQEND
  5
714
330
711
100
AcDbEntity
  8
BEMA_UNG
  0
POLYLINE
  5
715
330
1F
100
AcDbEntity
  8
BEMA_UNG
 62
     7
100
AcDb2dPolyline
 66
     1
 10
0.0
 20
0.0
 30
0.0
  0
VERTEX
  5
716
330
715
100
AcDbEntity
  8
BEMA_UNG
 62
     7
100
AcDbVertex
100
AcDb2dVertex
 10
85.48734478561293
 20
-49.13553451804069
 30
0.0
  0
VERTEX
  5
717
330
715
100
AcDbEntity
  8
BEMA_UNG
 62
     7
100
AcDbVertex
100
AcDb2dVertex
 10
85.48734478561293
 20
-48.35780369918083
 30
0.0
  0
SEQEND
  5
718
330
715
100
AcDbEntity
  8
BEMA_UNG
  0
POLYLINE
  5
719
330
1F
100
AcDbEntity
  8
BEMA_UNG
 62
     7
100
AcDb2dPolyline
 66
     1
 10
0.0
 20
0.0
 30
0.0
  0
VERTEX
  5
71A
330
719
100
AcDbEntity
  8
BEMA_UNG
 62
     7
100
AcDbVertex
100
AcDb2dVertex
 10
85.4642626306346
 20
-49.13553451804069
 30
0.0
  0
VERTEX
  5
71B
330
719
100
AcDbEntity
  8
BEMA_UNG
 62
     7
100
AcDbVertex
100
AcDb2dVertex
 10
85.4642626306346
 20
-48.18417077217956
 30
0.0
  0
SEQEND
  5
71C
330
719
100
AcDbEntity
  8
BEMA_UNG
  0
POLYLINE
  5
71D
330
1F
100
AcDbEntity
  8
BEMA_UNG
 62
     7
100
AcDb2dPolyline
 66
     1
 10
0.0
 20
0.0
 30
0.0
  0
VERTEX
  5
71E
330
71D
100
AcDbEntity
  8
BEMA_UNG
 62
     7
100
AcDbVertex
100
AcDb2dVertex
 10
85.44186949520784
 20
-49.13553451804069
 30
0.0
  0
VERTEX
  5
71F
330
71D
100
AcDbEntity
  8
BEMA_UNG
 62
     7
100
AcDbVertex
100
AcDb2dVertex
 10
85.44186949520784
 20
-48.0101933354025
 30
0.0
  0
SEQEND
  5
720
330
71D
100
AcDbEntity
  8
BEMA_UNG
  0
POLYLINE
  5
721
330
1F
100
AcDbEntity
  8
BEMA_UNG
 62
     7
100
AcDb2dPolyline
 66
     1
 10
0.0
 20
0.0
 30
0.0
  0
VERTEX
  5
722
330
721
100
AcDbEntity
  8
BEMA_UNG
 62
     7
100
AcDbVertex
100
AcDb2dVertex
 10
48.25806811908785
 20
-48.0101933354025
 30
0.0
  0
VERTEX
  5
723
330
721
100
AcDbEntity
  8
BEMA_UNG
 62
     7
100
AcDbVertex
100
AcDb2dVertex
 10
48.25806811908785
 20
-42.42155575243704
 30
0.0
  0
SEQEND
  5
724
330
721
100
AcDbEntity
  8
BEMA_UNG
  0
POLYLINE
  5
725
330
1F
100
AcDbEntity
  8
BEMA_UNG
 62
     7
100
AcDb2dPolyline
 66
     1
 10
0.0
 20
0.0
 30
0.0
  0
VERTEX
  5
726
330
725
100
AcDbEntity
  8
BEMA_UNG
 62
     7
100
AcDbVertex
100
AcDb2dVertex
 10
78.85828767974304
 20
-48.0101933354025
 30
0.0
  0
VERTEX
  5
727
330
725
100
AcDbEntity
  8
BEMA_UNG
 62
     7
100
AcDbVertex
100
AcDb2dVertex
 10
78.85828767974304
 20
-42.42155575243704
 30
0.0
  0
SEQEND
  5
728
330
725
100
AcDbEntity
  8
BEMA_UNG
  0
POLYLINE
  5
729
330
1F
100
AcDbEntity
  8
BEMA_UNG
 62
     7
100
AcDb2dPolyline
 66
     1
 10
0.0
 20
0.0
 30
0.0
  0
VERTEX
  5
72A
330
729
100
AcDbEntity
  8
BEMA_UNG
 62
     7
100
AcDbVertex
100
AcDb2dVertex
 10
48.25806811908785
 20
-43.32158754170454
 30
0.0
  0
VERTEX
  5
72B
330
729
100
AcDbEntity
  8
BEMA_UNG
 62
     7
100
AcDbVertex
100
AcDb2dVertex
 10
78.85828767974304
 20
-43.32158754170454
 30
0.0
  0
SEQEND
  5
72C
330
729
100
AcDbEntity
  8
BEMA_UNG
  0
POLYLINE
  5
72D
330
1F
100
AcDbEntity
  8
BEMA_UNG
 62
     7
100
AcDb2dPolyline
 66
     1
 10
0.0
 20
0.0
 30
0.0
  0
VERTEX
  5
72E
330
72D
100
AcDbEntity
  8
BEMA_UNG
 62
     7
100
AcDbVertex
100
AcDb2dVertex
 10
48.25806811908785
 20
-43.32158754170454
 30
0.0
  0
VERTEX
  5
72F
330
72D
100
AcDbEntity
  8
BEMA_UNG
 62
     7
100
AcDbVertex
100
AcDb2dVertex
 10
49.38289253706233
 20
-43.469554490409
 30
0.0
  0
VERTEX
  5
730
330
72D
100
AcDbEntity
  8
BEMA_UNG
 62
     7
100
AcDbVertex
100
AcDb2dVertex
 10
49.38289253706233
 20
-43.17344833811219
 30
0.0
  0
VERTEX
  5
731
330
72D
100
AcDbEntity
  8
BEMA_UNG
 62
     7
100
AcDbVertex
100
AcDb2dVertex
 10
48.25806811908785
 20
-43.32158754170454
 30
0.0
  0
SEQEND
  5
732
330
72D
100
AcDbEntity
  8
BEMA_UNG
  0
POLYLINE
  5
733
330
1F
100
AcDbEntity
  8
BEMA_UNG
 62
     7
100
AcDb2dPolyline
 66
     1
 10
0.0
 20
0.0
 30
0.0
  0
VERTEX
  5
734
330
733
100
AcDbEntity
  8
BEMA_UNG
 62
     7
100
AcDbVertex
100
AcDb2dVertex
 10
49.38289253706233
 20
-43.45853017758351
 30
0.0
  0
VERTEX
  5
735
330
733
100
AcDbEntity
  8
BEMA_UNG
 62
     7
100
AcDbVertex
100
AcDb2dVertex
 10
49.29986568109545
 20
-43.45853017758351
 30
0.0
  0
SEQEND
  5
736
330
733
100
AcDbEntity
  8
BEMA_UNG
  0
POLYLINE
  5
737
330
1F
100
AcDbEntity
  8
BEMA_UNG
 62
     7
100
AcDb2dPolyline
 66
     1
 10
0.0
 20
0.0
 30
0.0
  0
VERTEX
  5
738
330
737
100
AcDbEntity
  8
BEMA_UNG
 62
     7
100
AcDbVertex
100
AcDb2dVertex
 10
49.38289253706233
 20
-43.45853017758351
 30
0.0
  0
VERTEX
  5
739
330
737
100
AcDbEntity
  8
BEMA_UNG
 62
     7
100
AcDbVertex
100
AcDb2dVertex
 10
49.29986568109545
 20
-43.45853017758351
 30
0.0
  0
SEQEND
  5
73A
330
737
100
AcDbEntity
  8
BEMA_UNG
  0
POLYLINE
  5
73B
330
1F
100
AcDbEntity
  8
BEMA_UNG
 62
     7
100
AcDb2dPolyline
 66
     1
 10
0.0
 20
0.0
 30
0.0
  0
VERTEX
  5
73C
330
73B
100
AcDbEntity
  8
BEMA_UNG
 62
     7
100
AcDbVertex
100
AcDb2dVertex
 10
49.38289253706233
 20
-43.43562027749307
 30
0.0
  0
VERTEX
  5
73D
330
73B
100
AcDbEntity
  8
BEMA_UNG
 62
     7
100
AcDbVertex
100
AcDb2dVertex
 10
49.12640500898208
 20
-43.43562027749307
 30
0.0
  0
SEQEND
  5
73E
330
73B
100
AcDbEntity
  8
BEMA_UNG
  0
POLYLINE
  5
73F
330
1F
100
AcDbEntity
  8
BEMA_UNG
 62
     7
100
AcDb2dPolyline
 66
     1
 10
0.0
 20
0.0
 30
0.0
  0
VERTEX
  5
740
330
73F
100
AcDbEntity
  8
BEMA_UNG
 62
     7
100
AcDbVertex
100
AcDb2dVertex
 10
49.38289253706233
 20
-43.41305488717842
 30
0.0
  0
VERTEX
  5
741
330
73F
100
AcDbEntity
  8
BEMA_UNG
 62
     7
100
AcDbVertex
100
AcDb2dVertex
 10
48.95259982709292
 20
-43.41305488717842
 30
0.0
  0
SEQEND
  5
742
330
73F
100
AcDbEntity
  8
BEMA_UNG
  0
POLYLINE
  5
743
330
1F
100
AcDbEntity
  8
BEMA_UNG
 62
     7
100
AcDb2dPolyline
 66
     1
 10
0.0
 20
0.0
 30
0.0
  0
VERTEX
  5
744
330
743
100
AcDbEntity
  8
BEMA_UNG
 62
     7
100
AcDbVertex
100
AcDb2dVertex
 10
49.38289253706233
 20
-43.39014498708798
 30
0.0
  0
VERTEX
  5
745
330
743
100
AcDbEntity
  8
BEMA_UNG
 62
     7
100
AcDbVertex
100
AcDb2dVertex
 10
48.77896690009165
 20
-43.39014498708798
 30
0.0
  0
SEQEND
  5
746
330
743
100
AcDbEntity
  8
BEMA_UNG
  0
POLYLINE
  5
747
330
1F
100
AcDbEntity
  8
BEMA_UNG
 62
     7
100
AcDb2dPolyline
 66
     1
 10
0.0
 20
0.0
 30
0.0
  0
VERTEX
  5
748
330
747
100
AcDbEntity
  8
BEMA_UNG
 62
     7
100
AcDbVertex
100
AcDb2dVertex
 10
49.38289253706233
 20
-43.36723508699753
 30
0.0
  0
VERTEX
  5
749
330
747
100
AcDbEntity
  8
BEMA_UNG
 62
     7
100
AcDbVertex
100
AcDb2dVertex
 10
48.60533397309038
 20
-43.36723508699753
 30
0.0
  0
SEQEND
  5
74A
330
747
100
AcDbEntity
  8
BEMA_UNG
  0
POLYLINE
  5
74B
330
1F
100
AcDbEntity
  8
BEMA_UNG
 62
     7
100
AcDb2dPolyline
 66
     1
 10
0.0
 20
0.0
 30
0.0
  0
VERTEX
  5
74C
330
74B
100
AcDbEntity
  8
BEMA_UNG
 62
     7
100
AcDbVertex
100
AcDb2dVertex
 10
49.38289253706233
 20
-43.34432518690708
 30
0.0
  0
VERTEX
  5
74D
330
74B
100
AcDbEntity
  8
BEMA_UNG
 62
     7
100
AcDbVertex
100
AcDb2dVertex
 10
48.43187330097701
 20
-43.34432518690708
 30
0.0
  0
SEQEND
  5
74E
330
74B
100
AcDbEntity
  8
BEMA_UNG
  0
POLYLINE
  5
74F
330
1F
100
AcDbEntity
  8
BEMA_UNG
 62
     7
100
AcDb2dPolyline
 66
     1
 10
0.0
 20
0.0
 30
0.0
  0
VERTEX
  5
750
330
74F
100
AcDbEntity
  8
BEMA_UNG
 62
     7
100
AcDbVertex
100
AcDb2dVertex
 10
49.38289253706233
 20
-43.32158754170454
 30
0.0
  0
VERTEX
  5
751
330
74F
100
AcDbEntity
  8
BEMA_UNG
 62
     7
100
AcDbVertex
100
AcDb2dVertex
 10
48.25806811908785
 20
-43.32158754170454
 30
0.0
  0
SEQEND
  5
752
330
74F
100
AcDbEntity
  8
BEMA_UNG
  0
POLYLINE
  5
753
330
1F
100
AcDbEntity
  8
BEMA_UNG
 62
     7
100
AcDb2dPolyline
 66
     1
 10
0.0
 20
0.0
 30
0.0
  0
VERTEX
  5
754
330
753
100
AcDbEntity
  8
BEMA_UNG
 62
     7
100
AcDbVertex
100
AcDb2dVertex
 10
49.38289253706233
 20
-43.18430039604976
 30
0.0
  0
VERTEX
  5
755
330
753
100
AcDbEntity
  8
BEMA_UNG
 62
     7
100
AcDbVertex
100
AcDb2dVertex
 10
49.29986568109545
 20
-43.18430039604976
 30
0.0
  0
SEQEND
  5
756
330
753
100
AcDbEntity
  8
BEMA_UNG
  0
POLYLINE
  5
757
330
1F
100
AcDbEntity
  8
BEMA_UNG
 62
     7
100
AcDb2dPolyline
 66
     1
 10
0.0
 20
0.0
 30
0.0
  0
VERTEX
  5
758
330
757
100
AcDbEntity
  8
BEMA_UNG
 62
     7
100
AcDbVertex
100
AcDb2dVertex
 10
49.38289253706233
 20
-43.18430039604976
 30
0.0
  0
VERTEX
  5
759
330
757
100
AcDbEntity
  8
BEMA_UNG
 62
     7
100
AcDbVertex
100
AcDb2dVertex
 10
49.29986568109545
 20
-43.18430039604976
 30
0.0
  0
SEQEND
  5
75A
330
757
100
AcDbEntity
  8
BEMA_UNG
  0
POLYLINE
  5
75B
330
1F
100
AcDbEntity
  8
BEMA_UNG
 62
     7
100
AcDb2dPolyline
 66
     1
 10
0.0
 20
0.0
 30
0.0
  0
VERTEX
  5
75C
330
75B
100
AcDbEntity
  8
BEMA_UNG
 62
     7
100
AcDbVertex
100
AcDb2dVertex
 10
49.38289253706233
 20
-43.20721029614021
 30
0.0
  0
VERTEX
  5
75D
330
75B
100
AcDbEntity
  8
BEMA_UNG
 62
     7
100
AcDbVertex
100
AcDb2dVertex
 10
49.12640500898208
 20
-43.20721029614021
 30
0.0
  0
SEQEND
  5
75E
330
75B
100
AcDbEntity
  8
BEMA_UNG
  0
POLYLINE
  5
75F
330
1F
100
AcDbEntity
  8
BEMA_UNG
 62
     7
100
AcDb2dPolyline
 66
     1
 10
0.0
 20
0.0
 30
0.0
  0
VERTEX
  5
760
330
75F
100
AcDbEntity
  8
BEMA_UNG
 62
     7
100
AcDbVertex
100
AcDb2dVertex
 10
49.38289253706233
 20
-43.23012019623066
 30
0.0
  0
VERTEX
  5
761
330
75F
100
AcDbEntity
  8
BEMA_UNG
 62
     7
100
AcDbVertex
100
AcDb2dVertex
 10
48.95259982709292
 20
-43.23012019623066
 30
0.0
  0
SEQEND
  5
762
330
75F
100
AcDbEntity
  8
BEMA_UNG
  0
POLYLINE
  5
763
330
1F
100
AcDbEntity
  8
BEMA_UNG
 62
     7
100
AcDb2dPolyline
 66
     1
 10
0.0
 20
0.0
 30
0.0
  0
VERTEX
  5
764
330
763
100
AcDbEntity
  8
BEMA_UNG
 62
     7
100
AcDbVertex
100
AcDb2dVertex
 10
49.38289253706233
 20
-43.2530300963211
 30
0.0
  0
VERTEX
  5
765
330
763
100
AcDbEntity
  8
BEMA_UNG
 62
     7
100
AcDbVertex
100
AcDb2dVertex
 10
48.77896690009165
 20
-43.2530300963211
 30
0.0
  0
SEQEND
  5
766
330
763
100
AcDbEntity
  8
BEMA_UNG
  0
POLYLINE
  5
767
330
1F
100
AcDbEntity
  8
BEMA_UNG
 62
     7
100
AcDb2dPolyline
 66
     1
 10
0.0
 20
0.0
 30
0.0
  0
VERTEX
  5
768
330
767
100
AcDbEntity
  8
BEMA_UNG
 62
     7
100
AcDbVertex
100
AcDb2dVertex
 10
49.38289253706233
 20
-43.27576774152364
 30
0.0
  0
VERTEX
  5
769
330
767
100
AcDbEntity
  8
BEMA_UNG
 62
     7
100
AcDbVertex
100
AcDb2dVertex
 10
48.60533397309038
 20
-43.27576774152364
 30
0.0
  0
SEQEND
  5
76A
330
767
100
AcDbEntity
  8
BEMA_UNG
  0
POLYLINE
  5
76B
330
1F
100
AcDbEntity
  8
BEMA_UNG
 62
     7
100
AcDb2dPolyline
 66
     1
 10
0.0
 20
0.0
 30
0.0
  0
VERTEX
  5
76C
330
76B
100
AcDbEntity
  8
BEMA_UNG
 62
     7
100
AcDbVertex
100
AcDb2dVertex
 10
49.38289253706233
 20
-43.29867764161409
 30
0.0
  0
VERTEX
  5
76D
330
76B
100
AcDbEntity
  8
BEMA_UNG
 62
     7
100
AcDbVertex
100
AcDb2dVertex
 10
48.43187330097701
 20
-43.29867764161409
 30
0.0
  0
SEQEND
  5
76E
330
76B
100
AcDbEntity
  8
BEMA_UNG
  0
POLYLINE
  5
76F
330
1F
100
AcDbEntity
  8
BEMA_UNG
 62
     7
100
AcDb2dPolyline
 66
     1
 10
0.0
 20
0.0
 30
0.0
  0
VERTEX
  5
770
330
76F
100
AcDbEntity
  8
BEMA_UNG
 62
     7
100
AcDbVertex
100
AcDb2dVertex
 10
49.38289253706233
 20
-43.32158754170454
 30
0.0
  0
VERTEX
  5
771
330
76F
100
AcDbEntity
  8
BEMA_UNG
 62
     7
100
AcDbVertex
100
AcDb2dVertex
 10
48.25806811908785
 20
-43.32158754170454
 30
0.0
  0
SEQEND
  5
772
330
76F
100
AcDbEntity
  8
BEMA_UNG
  0
POLYLINE
  5
773
330
1F
100
AcDbEntity
  8
BEMA_UNG
 62
     7
100
AcDb2dPolyline
 66
     1
 10
0.0
 20
0.0
 30
0.0
  0
VERTEX
  5
774
330
773
100
AcDbEntity
  8
BEMA_UNG
 62
     7
100
AcDbVertex
100
AcDb2dVertex
 10
78.85828767974304
 20
-43.32158754170454
 30
0.0
  0
VERTEX
  5
775
330
773
100
AcDbEntity
  8
BEMA_UNG
 62
     7
100
AcDbVertex
100
AcDb2dVertex
 10
77.73311875199276
 20
-43.17344833811219
 30
0.0
  0
VERTEX
  5
776
330
773
100
AcDbEntity
  8
BEMA_UNG
 62
     7
100
AcDbVertex
100
AcDb2dVertex
 10
77.73311875199276
 20
-43.469554490409
 30
0.0
  0
VERTEX
  5
777
330
773
100
AcDbEntity
  8
BEMA_UNG
 62
     7
100
AcDbVertex
100
AcDb2dVertex
 10
78.85828767974304
 20
-43.32158754170454
 30
0.0
  0
SEQEND
  5
778
330
773
100
AcDbEntity
  8
BEMA_UNG
  0
POLYLINE
  5
779
330
1F
100
AcDbEntity
  8
BEMA_UNG
 62
     7
100
AcDb2dPolyline
 66
     1
 10
0.0
 20
0.0
 30
0.0
  0
VERTEX
  5
77A
330
779
100
AcDbEntity
  8
BEMA_UNG
 62
     7
100
AcDbVertex
100
AcDb2dVertex
 10
77.73311875199276
 20
-43.18430039604976
 30
0.0
  0
VERTEX
  5
77B
330
779
100
AcDbEntity
  8
BEMA_UNG
 62
     7
100
AcDbVertex
100
AcDb2dVertex
 10
77.81614560795964
 20
-43.18430039604976
 30
0.0
  0
SEQEND
  5
77C
330
779
100
AcDbEntity
  8
BEMA_UNG
  0
POLYLINE
  5
77D
330
1F
100
AcDbEntity
  8
BEMA_UNG
 62
     7
100
AcDb2dPolyline
 66
     1
 10
0.0
 20
0.0
 30
0.0
  0
VERTEX
  5
77E
330
77D
100
AcDbEntity
  8
BEMA_UNG
 62
     7
100
AcDbVertex
100
AcDb2dVertex
 10
77.73311875199276
 20
-43.18430039604976
 30
0.0
  0
VERTEX
  5
77F
330
77D
100
AcDbEntity
  8
BEMA_UNG
 62
     7
100
AcDbVertex
100
AcDb2dVertex
 10
77.81614560795964
 20
-43.18430039604976
 30
0.0
  0
SEQEND
  5
780
330
77D
100
AcDbEntity
  8
BEMA_UNG
  0
POLYLINE
  5
781
330
1F
100
AcDbEntity
  8
BEMA_UNG
 62
     7
100
AcDb2dPolyline
 66
     1
 10
0.0
 20
0.0
 30
0.0
  0
VERTEX
  5
782
330
781
100
AcDbEntity
  8
BEMA_UNG
 62
     7
100
AcDbVertex
100
AcDb2dVertex
 10
77.73311875199276
 20
-43.20721029614021
 30
0.0
  0
VERTEX
  5
783
330
781
100
AcDbEntity
  8
BEMA_UNG
 62
     7
100
AcDbVertex
100
AcDb2dVertex
 10
77.9897785349609
 20
-43.20721029614021
 30
0.0
  0
SEQEND
  5
784
330
781
100
AcDbEntity
  8
BEMA_UNG
  0
POLYLINE
  5
785
330
1F
100
AcDbEntity
  8
BEMA_UNG
 62
     7
100
AcDb2dPolyline
 66
     1
 10
0.0
 20
0.0
 30
0.0
  0
VERTEX
  5
786
330
785
100
AcDbEntity
  8
BEMA_UNG
 62
     7
100
AcDbVertex
100
AcDb2dVertex
 10
77.73311875199276
 20
-43.23012019623066
 30
0.0
  0
VERTEX
  5
787
330
785
100
AcDbEntity
  8
BEMA_UNG
 62
     7
100
AcDbVertex
100
AcDb2dVertex
 10
78.16341146196217
 20
-43.23012019623066
 30
0.0
  0
SEQEND
  5
788
330
785
100
AcDbEntity
  8
BEMA_UNG
  0
POLYLINE
  5
789
330
1F
100
AcDbEntity
  8
BEMA_UNG
 62
     7
100
AcDb2dPolyline
 66
     1
 10
0.0
 20
0.0
 30
0.0
  0
VERTEX
  5
78A
330
789
100
AcDbEntity
  8
BEMA_UNG
 62
     7
100
AcDbVertex
100
AcDb2dVertex
 10
77.73311875199276
 20
-43.2530300963211
 30
0.0
  0
VERTEX
  5
78B
330
789
100
AcDbEntity
  8
BEMA_UNG
 62
     7
100
AcDbVertex
100
AcDb2dVertex
 10
78.33704438896345
 20
-43.2530300963211
 30
0.0
  0
SEQEND
  5
78C
330
789
100
AcDbEntity
  8
BEMA_UNG
  0
POLYLINE
  5
78D
330
1F
100
AcDbEntity
  8
BEMA_UNG
 62
     7
100
AcDb2dPolyline
 66
     1
 10
0.0
 20
0.0
 30
0.0
  0
VERTEX
  5
78E
330
78D
100
AcDbEntity
  8
BEMA_UNG
 62
     7
100
AcDbVertex
100
AcDb2dVertex
 10
77.73311875199276
 20
-43.27576774152364
 30
0.0
  0
VERTEX
  5
78F
330
78D
100
AcDbEntity
  8
BEMA_UNG
 62
     7
100
AcDbVertex
100
AcDb2dVertex
 10
78.51102182574051
 20
-43.27576774152364
 30
0.0
  0
SEQEND
  5
790
330
78D
100
AcDbEntity
  8
BEMA_UNG
  0
POLYLINE
  5
791
330
1F
100
AcDbEntity
  8
BEMA_UNG
 62
     7
100
AcDb2dPolyline
 66
     1
 10
0.0
 20
0.0
 30
0.0
  0
VERTEX
  5
792
330
791
100
AcDbEntity
  8
BEMA_UNG
 62
     7
100
AcDbVertex
100
AcDb2dVertex
 10
77.73311875199276
 20
-43.29867764161409
 30
0.0
  0
VERTEX
  5
793
330
791
100
AcDbEntity
  8
BEMA_UNG
 62
     7
100
AcDbVertex
100
AcDb2dVertex
 10
78.68465475274178
 20
-43.29867764161409
 30
0.0
  0
SEQEND
  5
794
330
791
100
AcDbEntity
  8
BEMA_UNG
  0
POLYLINE
  5
795
330
1F
100
AcDbEntity
  8
BEMA_UNG
 62
     7
100
AcDb2dPolyline
 66
     1
 10
0.0
 20
0.0
 30
0.0
  0
VERTEX
  5
796
330
795
100
AcDbEntity
  8
BEMA_UNG
 62
     7
100
AcDbVertex
100
AcDb2dVertex
 10
77.73311875199276
 20
-43.32158754170454
 30
0.0
  0
VERTEX
  5
797
330
795
100
AcDbEntity
  8
BEMA_UNG
 62
     7
100
AcDbVertex
100
AcDb2dVertex
 10
78.85828767974304
 20
-43.32158754170454
 30
0.0
  0
SEQEND
  5
798
330
795
100
AcDbEntity
  8
BEMA_UNG
  0
POLYLINE
  5
799
330
1F
100
AcDbEntity
  8
BEMA_UNG
 62
     7
100
AcDb2dPolyline
 66
     1
 10
0.0
 20
0.0
 30
0.0
  0
VERTEX
  5
79A
330
799
100
AcDbEntity
  8
BEMA_UNG
 62
     7
100
AcDbVertex
100
AcDb2dVertex
 10
77.73311875199276
 20
-43.45853017758351
 30
0.0
  0
VERTEX
  5
79B
330
799
100
AcDbEntity
  8
BEMA_UNG
 62
     7
100
AcDbVertex
100
AcDb2dVertex
 10
77.81614560795964
 20
-43.45853017758351
 30
0.0
  0
SEQEND
  5
79C
330
799
100
AcDbEntity
  8
BEMA_UNG
  0
POLYLINE
  5
79D
330
1F
100
AcDbEntity
  8
BEMA_UNG
 62
     7
100
AcDb2dPolyline
 66
     1
 10
0.0
 20
0.0
 30
0.0
  0
VERTEX
  5
79E
330
79D
100
AcDbEntity
  8
BEMA_UNG
 62
     7
100
AcDbVertex
100
AcDb2dVertex
 10
77.73311875199276
 20
-43.45853017758351
 30
0.0
  0
VERTEX
  5
79F
330
79D
100
AcDbEntity
  8
BEMA_UNG
 62
     7
100
AcDbVertex
100
AcDb2dVertex
 10
77.81614560795964
 20
-43.45853017758351
 30
0.0
  0
SEQEND
  5
7A0
330
79D
100
AcDbEntity
  8
BEMA_UNG
  0
POLYLINE
  5
7A1
330
1F
100
AcDbEntity
  8
BEMA_UNG
 62
     7
100
AcDb2dPolyline
 66
     1
 10
0.0
 20
0.0
 30
0.0
  0
VERTEX
  5
7A2
330
7A1
100
AcDbEntity
  8
BEMA_UNG
 62
     7
100
AcDbVertex
100
AcDb2dVertex
 10
77.73311875199276
 20
-43.43562027749307
 30
0.0
  0
VERTEX
  5
7A3
330
7A1
100
AcDbEntity
  8
BEMA_UNG
 62
     7
100
AcDbVertex
100
AcDb2dVertex
 10
77.9897785349609
 20
-43.43562027749307
 30
0.0
  0
SEQEND
  5
7A4
330
7A1
100
AcDbEntity
  8
BEMA_UNG
  0
POLYLINE
  5
7A5
330
1F
100
AcDbEntity
  8
BEMA_UNG
 62
     7
100
AcDb2dPolyline
 66
     1
 10
0.0
 20
0.0
 30
0.0
  0
VERTEX
  5
7A6
330
7A5
100
AcDbEntity
  8
BEMA_UNG
 62
     7
100
AcDbVertex
100
AcDb2dVertex
 10
77.73311875199276
 20
-43.41305488717842
 30
0.0
  0
VERTEX
  5
7A7
330
7A5
100
AcDbEntity
  8
BEMA_UNG
 62
     7
100
AcDbVertex
100
AcDb2dVertex
 10
78.16341146196217
 20
-43.41305488717842
 30
0.0
  0
SEQEND
  5
7A8
330
7A5
100
AcDbEntity
  8
BEMA_UNG
  0
POLYLINE
  5
7A9
330
1F
100
AcDbEntity
  8
BEMA_UNG
 62
     7
100
AcDb2dPolyline
 66
     1
 10
0.0
 20
0.0
 30
0.0
  0
VERTEX
  5
7AA
330
7A9
100
AcDbEntity
  8
BEMA_UNG
 62
     7
100
AcDbVertex
100
AcDb2dVertex
 10
77.73311875199276
 20
-43.39014498708798
 30
0.0
  0
VERTEX
  5
7AB
330
7A9
100
AcDbEntity
  8
BEMA_UNG
 62
     7
100
AcDbVertex
100
AcDb2dVertex
 10
78.33704438896345
 20
-43.39014498708798
 30
0.0
  0
SEQEND
  5
7AC
330
7A9
100
AcDbEntity
  8
BEMA_UNG
  0
POLYLINE
  5
7AD
330
1F
100
AcDbEntity
  8
BEMA_UNG
 62
     7
100
AcDb2dPolyline
 66
     1
 10
0.0
 20
0.0
 30
0.0
  0
VERTEX
  5
7AE
330
7AD
100
AcDbEntity
  8
BEMA_UNG
 62
     7
100
AcDbVertex
100
AcDb2dVertex
 10
77.73311875199276
 20
-43.36723508699753
 30
0.0
  0
VERTEX
  5
7AF
330
7AD
100
AcDbEntity
  8
BEMA_UNG
 62
     7
100
AcDbVertex
100
AcDb2dVertex
 10
78.51102182574051
 20
-43.36723508699753
 30
0.0
  0
SEQEND
  5
7B0
330
7AD
100
AcDbEntity
  8
BEMA_UNG
  0
POLYLINE
  5
7B1
330
1F
100
AcDbEntity
  8
BEMA_UNG
 62
     7
100
AcDb2dPolyline
 66
     1
 10
0.0
 20
0.0
 30
0.0
  0
VERTEX
  5
7B2
330
7B1
100
AcDbEntity
  8
BEMA_UNG
 62
     7
100
AcDbVertex
100
AcDb2dVertex
 10
77.73311875199276
 20
-43.34432518690708
 30
0.0
  0
VERTEX
  5
7B3
330
7B1
100
AcDbEntity
  8
BEMA_UNG
 62
     7
100
AcDbVertex
100
AcDb2dVertex
 10
78.68465475274178
 20
-43.34432518690708
 30
0.0
  0
SEQEND
  5
7B4
330
7B1
100
AcDbEntity
  8
BEMA_UNG
  0
POLYLINE
  5
7B5
330
1F
100
AcDbEntity
  8
BEMA_UNG
 62
     7
100
AcDb2dPolyline
 66
     1
 10
0.0
 20
0.0
 30
0.0
  0
VERTEX
  5
7B6
330
7B5
100
AcDbEntity
  8
BEMA_UNG
 62
     7
100
AcDbVertex
100
AcDb2dVertex
 10
77.73311875199276
 20
-43.32158754170454
 30
0.0
  0
VERTEX
  5
7B7
330
7B5
100
AcDbEntity
  8
BEMA_UNG
 62
     7
100
AcDbVertex
100
AcDb2dVertex
 10
78.85828767974304
 20
-43.32158754170454
 30
0.0
  0
SEQEND
  5
7B8
330
7B5
100
AcDbEntity
  8
BEMA_UNG
  0
MTEXT
  5
7BA
330
1F
100
AcDbEntity
  8
TEXT
 62
     7
100
AcDbMText
 10
107.3471790794314
 20
-90.10222548729051
 30
0.0
 40
2.398890470823883
 41
0.0
 71
     7
 72
     1
  1
\fINDEX Univers 45 Light|b0|i0|c0|p34;\W1;\U+00F830h6
  0
MTEXT
  5
7BB
330
1F
100
AcDbEntity
  8
TEXT
 62
     7
100
AcDbMText
 10
84.78523386254034
 20
-56.89716751184047
 30
0.0
 40
2.398890470823883
 41
0.0
 71
     7
 72
     1
  1
\fINDEX Univers 45 Light|b0|i0|c0|p34;\W1;30
 11
-4.371139000186241E-8
 21
0.999999999999999
 31
0.0
  0
MTEXT
  5
7BC
330
1F
100
AcDbEntity
  8
TEXT
 62
     7
100
AcDbMText
 10
60.18051793006585
 20
-42.59604995387781
 30
0.0
 40
2.398890470823883
 41
0.0
 71
     7
 72
     1
  1
\fINDEX Univers 45 Light|b0|i0|c0|p34;\W1;\U+00F868
  0
ENDSEC
  0
SECTION
  2
OBJECTS
  0
DICTIONARY
  5
C
330
0
100
AcDbDictionary
  3
ACAD_GROUP
350
D
  3
ACAD_LAYOUT
350
1A
  3
ACAD_MLINESTYLE
350
17
  3
ACAD_PLOTSETTINGS
350
19
  3
ACAD_TABLESTYLE
350
7DD
  3
ACAD_VISUALSTYLE
350
2A
  3
ACDBHEADERROUNDTRIPXREC
350
7BD
  0
DICTIONARY
  5
D
102
{ACAD_REACTORS
330
C
102
}
330
C
100
AcDbDictionary
  0
DICTIONARY
  5
1A
102
{ACAD_REACTORS
330
C
102
}
330
C
100
AcDbDictionary
  0
DICTIONARY
  5
17
102
{ACAD_REACTORS
330
C
102
}
330
C
100
AcDbDictionary
  3
STANDARD
350
18
  0
DICTIONARY
  5
19
102
{ACAD_REACTORS
330
C
102
}
330
C
100
AcDbDictionary
  0
DICTIONARY
  5
7DD
102
{ACAD_REACTORS
330
C
102
}
330
C
100
AcDbDictionary
  0
DICTIONARY
  5
2A
102
{ACAD_REACTORS
330
C
102
}
330
C
100
AcDbDictionary
  3
2DWIREFRAME
350
2F
  3
3D_HIDDEN
350
31
  3
3DWIREFRAME
350
30
  3
BASIC
350
32
  3
BRIGHTEN
350
36
  3
COLORCHANGE
350
3A
  3
CONCEPTUAL
350
34
  3
DIM
350
35
  3
FACEPATTERN
350
39
  3
FLAT
350
2B
  3
FLATWITHEDGES
350
2C
  3
GOURAUD
350
2D
  3
GOURAUDWITHEDGES
350
2E
  3
LINEPATTERN
350
38
  3
REALISTIC
350
33
  3
THICKEN
350
37
  0
DICTIONARY
  5
7BD
102
{ACAD_REACTORS
330
C
102
}
330
C
100
AcDbDictionary
  3
CEPSNTYPE
350
7C6
  3
DIMSTYLEDATA
350
7DC
  3
FINGERPRINTGUID
350
7C7
  3
HYPERLINKBASE
350
7C0
  3
INSUNITS
350
7C5
  3
LAYOUTDICT
350
7C2
  3
LWETCUNION
350
7C4
  3
PLOTSETDICT
350
7C3
  3
PSVPSCALE
350
7C9
  3
PUCSBASE
350
7CC
  3
PUCSORGBACK
350
7D2
  3
PUCSORGBOTTOM
350
7CE
  3
PUCSORGFRONT
350
7D1
  3
PUCSORGLEFT
350
7CF
  3
PUCSORGRIGHT
350
7D0
  3
PUCSORGTOP
350
7CD
  3
PUCSORTHOREF
350
7CA
  3
PUCSORTHOVIEW
350
7CB
  3
STYLESHEET
350
7C1
  3
TSTACKALIGN
350
7BE
  3
TSTACKSIZE
350
7BF
  3
UCSBASE
350
7D5
  3
UCSORGBACK
350
7DB
  3
UCSORGBOTTOM
350
7D7
  3
UCSORGFRONT
350
7DA
  3
UCSORGLEFT
350
7D8
  3
UCSORGRIGHT
350
7D9
  3
UCSORGTOP
350
7D6
  3
UCSORTHOREF
350
7D3
  3
UCSORTHOVIEW
350
7D4
  3
VERSIONGUID
350
7C8
  0
MLINESTYLE
  5
18
102
{ACAD_REACTORS
330
17
102
}
330
17
100
AcDbMlineStyle
  2
Standard
 70
     0
  3

 62
   256
 51
90.0
 52
90.0
 71
     2
 49
0.5
 62
   256
  6
BYLAYER
 49
-0.5
 62
   256
  6
BYLAYER
  0
VISUALSTYLE
  5
2F
102
{ACAD_REACTORS
330
2A
102
}
330
2A
100
AcDbVisualStyle
  2
2dWireframe
 70
     4
 71
     0
 72
     2
 73
     0
 90
        0
 40
-0.6
 41
-30.0
 62
     5
 63
     7
 74
     1
 91
        4
 64
     7
 65
   257
 75
     1
175
     1
 42
1.0
 92
        0
 66
   257
 43
1.0
 76
     1
 77
     6
 78
     2
 67
     7
 79
     5
170
     0
171
     0
290
     0
174
     0
 93
        1
 44
0.0
173
     0
291
     0
 45
0.0
1001
ACAD
1000
AcDbSavedByObjectVersion
1070
     0
  0
VISUALSTYLE
  5
31
102
{ACAD_REACTORS
330
2A
102
}
330
2A
100
AcDbVisualStyle
  2
3D Hidden
 70
     6
 71
     1
 72
     2
 73
     2
 90
        0
 40
-0.6
 41
-30.0
 62
     5
 63
     7
 74
     2
 91
        2
 64
     7
 65
   257
 75
     2
175
     1
 42
40.0
 92
        0
 66
   257
 43
1.0
 76
     1
 77
     6
 78
     2
 67
     7
 79
     3
170
     0
171
     0
290
     0
174
     0
 93
        1
 44
0.0
173
     0
291
     0
 45
0.0
1001
ACAD
1000
AcDbSavedByObjectVersion
1070
     0
  0
VISUALSTYLE
  5
30
102
{ACAD_REACTORS
330
2A
102
}
330
2A
100
AcDbVisualStyle
  2
3dWireframe
 70
     5
 71
     0
 72
     2
 73
     0
 90
        0
 40
-0.6
 41
-30.0
 62
     5
 63
     7
 74
     1
 91
        4
 64
     7
 65
   257
 75
     1
175
     1
 42
1.0
 92
        0
 66
   257
 43
1.0
 76
     1
 77
     6
 78
     2
 67
     7
 79
     5
170
     0
171
     0
290
     0
174
     0
 93
        1
 44
0.0
173
     0
291
     0
 45
0.0
1001
ACAD
1000
AcDbSavedByObjectVersion
1070
     0
  0
VISUALSTYLE
  5
32
102
{ACAD_REACTORS
330
2A
102
}
330
2A
100
AcDbVisualStyle
  2
Basic
 70
     7
 71
     1
 72
     0
 73
     1
 90
        0
 40
-0.6
 41
-30.0
 62
     5
 63
     7
 74
     0
 91
        4
 64
     7
 65
   257
 75
     1
175
     1
 42
1.0
 92
        8
 66
     7
 43
1.0
 76
     1
 77
     6
 78
     2
 67
     7
 79
     5
170
     0
171
     0
290
     0
174
     0
 93
        1
 44
0.0
173
     0
291
     1
 45
0.0
1001
ACAD
1000
AcDbSavedByObjectVersion
1070
     0
  0
VISUALSTYLE
  5
36
102
{ACAD_REACTORS
330
2A
102
}
330
2A
100
AcDbVisualStyle
  2
Brighten
 70
    12
 71
     2
 72
     2
 73
     0
 90
        0
 40
-0.6
 41
-30.0
 62
     5
 63
     7
 74
     1
 91
        4
 64
     7
 65
   257
 75
     1
175
     1
 42
1.0
 92
        8
 66
     7
 43
1.0
 76
     1
 77
     6
 78
     2
 67
     7
 79
     5
170
     0
171
     0
290
     0
174
     0
 93
        1
 44
50.0
173
     0
291
     1
 45
0.0
1001
ACAD
1000
AcDbSavedByObjectVersion
1070
     0
  0
VISUALSTYLE
  5
3A
102
{ACAD_REACTORS
330
2A
102
}
330
2A
100
AcDbVisualStyle
  2
ColorChange
 70
    16
 71
     2
 72
     2
 73
     3
 90
        0
 40
-0.6
 41
-30.0
 62
     5
 63
     8
 74
     1
 91
        4
 64
     7
 65
   257
 75
     1
175
     1
 42
1.0
 92
        8
 66
     8
 43
1.0
 76
     1
 77
     6
 78
     2
 67
     7
 79
     5
170
     0
171
     0
290
     0
174
     0
 93
        1
 44
0.0
173
     0
291
     1
 45
0.0
1001
ACAD
1000
AcDbSavedByObjectVersion
1070
     0
  0
VISUALSTYLE
  5
34
102
{ACAD_REACTORS
330
2A
102
}
330
2A
100
AcDbVisualStyle
  2
Conceptual
 70
     9
 71
     3
 72
     2
 73
     0
 90
        0
 40
-0.6
 41
-30.0
 62
     5
 63
     7
 74
     2
 91
        2
 64
     7
 65
   257
 75
     1
175
     1
 42
40.0
 92
        8
 66
     7
 43
1.0
 76
     1
 77
     6
 78
     2
 67
     7
 79
     3
170
     0
171
     0
290
     0
174
     0
 93
        1
 44
0.0
173
     0
291
     0
 45
0.0
1001
ACAD
1000
AcDbSavedByObjectVersion
1070
     0
  0
VISUALSTYLE
  5
35
102
{ACAD_REACTORS
330
2A
102
}
330
2A
100
AcDbVisualStyle
  2
Dim
 70
    11
 71
     2
 72
     2
 73
     0
 90
        0
 40
-0.6
 41
-30.0
 62
     5
 63
     7
 74
     1
 91
        4
 64
     7
 65
   257
 75
     1
175
     1
 42
1.0
 92
        8
 66
     7
 43
1.0
 76
     1
 77
     6
 78
     2
 67
     7
 79
     5
170
     0
171
     0
290
     0
174
     0
 93
        1
 44
-50.0
173
     0
291
     1
 45
0.0
1001
ACAD
1000
AcDbSavedByObjectVersion
1070
     0
  0
VISUALSTYLE
  5
39
102
{ACAD_REACTORS
330
2A
102
}
330
2A
100
AcDbVisualStyle
  2
Facepattern
 70
    15
 71
     2
 72
     2
 73
     0
 90
        0
 40
-0.6
 41
-30.0
 62
     5
 63
     7
 74
     1
 91
        4
 64
     7
 65
   257
 75
     1
175
     1
 42
1.0
 92
        8
 66
     7
 43
1.0
 76
     1
 77
     6
 78
     2
 67
     7
 79
     5
170
     0
171
     0
290
     0
174
     0
 93
        1
 44
0.0
173
     0
291
     1
 45
0.0
1001
ACAD
1000
AcDbSavedByObjectVersion
1070
     0
  0
VISUALSTYLE
  5
2B
102
{ACAD_REACTORS
330
2A
102
}
330
2A
100
AcDbVisualStyle
  2
Flat
 70
     0
 71
     2
 72
     1
 73
     1
 90
        2
 40
-0.6
 41
30.0
 62
     5
 63
     7
 74
     0
 91
        4
 64
     7
 65
   257
 75
     1
175
     1
 42
1.0
 92
        8
 66
     7
 43
1.0
 76
     1
 77
     6
 78
     2
 67
     7
 79
     5
170
     0
171
     0
290
     0
174
     0
 93
       13
 44
0.0
173
     0
291
     1
 45
0.0
1001
ACAD
1000
AcDbSavedByObjectVersion
1070
     0
  0
VISUALSTYLE
  5
2C
102
{ACAD_REACTORS
330
2A
102
}
330
2A
100
AcDbVisualStyle
  2
FlatWithEdges
 70
     1
 71
     2
 72
     1
 73
     1
 90
        2
 40
-0.6
 41
30.0
 62
     5
 63
     7
 74
     1
 91
        4
 64
     7
 65
   257
 75
     1
175
     1
 42
1.0
 92
        0
 66
   257
 43
1.0
 76
     1
 77
     6
 78
     2
 67
     7
 79
     5
170
     0
171
     0
290
     0
174
     0
 93
       13
 44
0.0
173
     0
291
     1
 45
0.0
1001
ACAD
1000
AcDbSavedByObjectVersion
1070
     0
  0
VISUALSTYLE
  5
2D
102
{ACAD_REACTORS
330
2A
102
}
330
2A
100
AcDbVisualStyle
  2
Gouraud
 70
     2
 71
     2
 72
     2
 73
     1
 90
        2
 40
-0.6
 41
30.0
 62
     5
 63
     7
 74
     0
 91
        4
 64
     7
 65
   257
 75
     1
175
     1
 42
1.0
 92
        0
 66
     7
 43
1.0
 76
     1
 77
     6
 78
     2
 67
     7
 79
     5
170
     0
171
     0
290
     0
174
     0
 93
       13
 44
0.0
173
     0
291
     1
 45
0.0
1001
ACAD
1000
AcDbSavedByObjectVersion
1070
     0
  0
VISUALSTYLE
  5
2E
102
{ACAD_REACTORS
330
2A
102
}
330
2A
100
AcDbVisualStyle
  2
GouraudWithEdges
 70
     3
 71
     2
 72
     2
 73
     1
 90
        2
 40
-0.6
 41
30.0
 62
     5
 63
     7
 74
     1
 91
        4
 64
     7
 65
   257
 75
     1
175
     1
 42
1.0
 92
        0
 66
   257
 43
1.0
 76
     1
 77
     6
 78
     2
 67
     7
 79
     5
170
     0
171
     0
290
     0
174
     0
 93
       13
 44
0.0
173
     0
291
     1
 45
0.0
1001
ACAD
1000
AcDbSavedByObjectVersion
1070
     0
  0
VISUALSTYLE
  5
38
102
{ACAD_REACTORS
330
2A
102
}
330
2A
100
AcDbVisualStyle
  2
Linepattern
 70
    14
 71
     2
 72
     2
 73
     0
 90
        0
 40
-0.6
 41
-30.0
 62
     5
 63
     7
 74
     1
 91
        4
 64
     7
 65
   257
 75
     7
175
     7
 42
1.0
 92
        8
 66
     7
 43
1.0
 76
     1
 77
     6
 78
     2
 67
     7
 79
     5
170
     0
171
     0
290
     0
174
     0
 93
        1
 44
0.0
173
     0
291
     1
 45
0.0
1001
ACAD
1000
AcDbSavedByObjectVersion
1070
     0
  0
VISUALSTYLE
  5
33
102
{ACAD_REACTORS
330
2A
102
}
330
2A
100
AcDbVisualStyle
  2
Realistic
 70
     8
 71
     2
 72
     2
 73
     0
 90
        0
 40
-0.6
 41
-30.0
 62
     5
 63
     7
 74
     1
 91
        0
 64
     7
 65
   257
 75
     1
175
     1
 42
1.0
 92
        8
 66
     8
 43
1.0
 76
     1
 77
     6
 78
     2
 67
     7
 79
     5
170
     0
171
     0
290
     0
174
     0
 93
       13
 44
0.0
173
     0
291
     0
 45
0.0
1001
ACAD
1000
AcDbSavedByObjectVersion
1070
     0
  0
VISUALSTYLE
  5
37
102
{ACAD_REACTORS
330
2A
102
}
330
2A
100
AcDbVisualStyle
  2
Thicken
 70
    13
 71
     2
 72
     2
 73
     0
 90
        0
 40
-0.6
 41
-30.0
 62
     5
 63
     7
 74
     1
 91
        4
 64
     7
 65
   257
 75
     1
175
     1
 42
1.0
 92
       12
 66
     7
 43
1.0
 76
     1
 77
     6
 78
     2
 67
     7
 79
     5
170
     0
171
     0
290
     0
174
     0
 93
        1
 44
0.0
173
     0
291
     1
 45
0.0
1001
ACAD
1000
AcDbSavedByObjectVersion
1070
     0
  0
XRECORD
  5
7C6
102
{ACAD_REACTORS
330
7BD
102
}
330
7BD
100
AcDbXrecord
 90
        0
  0
XRECORD
  5
7DC
102
{ACAD_REACTORS
330
7BD
102
}
330
7BD
100
AcDbXrecord
1000
DSTYLE
1002
{
1070
   340
340
11
1002
}
  0
XRECORD
  5
7C7
102
{ACAD_REACTORS
330
7BD
102
}
330
7BD
100
AcDbXrecord
  1
{ECAC8566-F68B-4813-8592-3FB7A48CE7E6}
  0
XRECORD
  5
7C0
102
{ACAD_REACTORS
330
7BD
102
}
330
7BD
100
AcDbXrecord
  1

  0
XRECORD
  5
7C5
102
{ACAD_REACTORS
330
7BD
102
}
330
7BD
100
AcDbXrecord
 90
        1
  0
XRECORD
  5
7C2
102
{ACAD_REACTORS
330
7BD
102
}
330
7BD
100
AcDbXrecord
340
1A
  0
XRECORD
  5
7C4
102
{ACAD_REACTORS
330
7BD
102
}
330
7BD
100
AcDbXrecord
 90
    10269
  0
XRECORD
  5
7C3
102
{ACAD_REACTORS
330
7BD
102
}
330
7BD
100
AcDbXrecord
340
19
  0
XRECORD
  5
7C9
102
{ACAD_REACTORS
330
7BD
102
}
330
7BD
100
AcDbXrecord
 40
0.0
  0
XRECORD
  5
7CC
102
{ACAD_REACTORS
330
7BD
102
}
330
7BD
100
AcDbXrecord
340
0
  0
XRECORD
  5
7D2
102
{ACAD_REACTORS
330
7BD
102
}
330
7BD
100
AcDbXrecord
 10
0.0
 20
0.0
 30
0.0
  0
XRECORD
  5
7CE
102
{ACAD_REACTORS
330
7BD
102
}
330
7BD
100
AcDbXrecord
 10
0.0
 20
0.0
 30
0.0
  0
XRECORD
  5
7D1
102
{ACAD_REACTORS
330
7BD
102
}
330
7BD
100
AcDbXrecord
 10
0.0
 20
0.0
 30
0.0
  0
XRECORD
  5
7CF
102
{ACAD_REACTORS
330
7BD
102
}
330
7BD
100
AcDbXrecord
 10
0.0
 20
0.0
 30
0.0
  0
XRECORD
  5
7D0
102
{ACAD_REACTORS
330
7BD
102
}
330
7BD
100
AcDbXrecord
 10
0.0
 20
0.0
 30
0.0
  0
XRECORD
  5
7CD
102
{ACAD_REACTORS
330
7BD
102
}
330
7BD
100
AcDbXrecord
 10
0.0
 20
0.0
 30
0.0
  0
XRECORD
  5
7CA
102
{ACAD_REACTORS
330
7BD
102
}
330
7BD
100
AcDbXrecord
340
0
  0
XRECORD
  5
7CB
102
{ACAD_REACTORS
330
7BD
102
}
330
7BD
100
AcDbXrecord
 70
     0
  0
XRECORD
  5
7C1
102
{ACAD_REACTORS
330
7BD
102
}
330
7BD
100
AcDbXrecord
  1

  0
XRECORD
  5
7BE
102
{ACAD_REACTORS
330
7BD
102
}
330
7BD
100
AcDbXrecord
 90
        1
  0
XRECORD
  5
7BF
102
{ACAD_REACTORS
330
7BD
102
}
330
7BD
100
AcDbXrecord
 90
       70
  0
XRECORD
  5
7D5
102
{ACAD_REACTORS
330
7BD
102
}
330
7BD
100
AcDbXrecord
340
0
  0
XRECORD
  5
7DB
102
{ACAD_REACTORS
330
7BD
102
}
330
7BD
100
AcDbXrecord
 10
0.0
 20
0.0
 30
0.0
  0
XRECORD
  5
7D7
102
{ACAD_REACTORS
330
7BD
102
}
330
7BD
100
AcDbXrecord
 10
0.0
 20
0.0
 30
0.0
  0
XRECORD
  5
7DA
102
{ACAD_REACTORS
330
7BD
102
}
330
7BD
100
AcDbXrecord
 10
0.0
 20
0.0
 30
0.0
  0
XRECORD
  5
7D8
102
{ACAD_REACTORS
330
7BD
102
}
330
7BD
100
AcDbXrecord
 10
0.0
 20
0.0
 30
0.0
  0
XRECORD
  5
7D9
102
{ACAD_REACTORS
330
7BD
102
}
330
7BD
100
AcDbXrecord
 10
0.0
 20
0.0
 30
0.0
  0
XRECORD
  5
7D6
102
{ACAD_REACTORS
330
7BD
102
}
330
7BD
100
AcDbXrecord
 10
0.0
 20
0.0
 30
0.0
  0
XRECORD
  5
7D3
102
{ACAD_REACTORS
330
7BD
102
}
330
7BD
100
AcDbXrecord
340
0
  0
XRECORD
  5
7D4
102
{ACAD_REACTORS
330
7BD
102
}
330
7BD
100
AcDbXrecord
 70
     0
  0
XRECORD
  5
7C8
102
{ACAD_REACTORS
330
7BD
102
}
330
7BD
100
AcDbXrecord
  1
{FAEB1C32-E019-11D5-929B-00C0DF256EC4}
  0
ENDSEC
  0
EOF
