  0
SECTION
  2
HEADER
  9
$ACADVER
  1
AC1032
  9
$ACADMAINTVER
 90
      228
  9
$DWGCODEPAGE
  3
ANSI_1252
  9
$REQUIREDVERSIONS
160
                 0
  9
$INSBASE
 10
0.0
 20
0.0
 30
0.0
  9
$EXTMIN
 10
1.000000000000000E+20
 20
1.000000000000000E+20
 30
1.000000000000000E+20
  9
$EXTMAX
 10
-1.000000000000000E+20
 20
-1.000000000000000E+20
 30
-1.000000000000000E+20
  9
$LIMMIN
 10
0.0
 20
0.0
  9
$LIMMAX
 10
12.0
 20
9.0
  9
$ORTHOMODE
 70
     0
  9
$REGENMODE
 70
     1
  9
$FILLMODE
 70
     1
  9
$QTEXTMODE
 70
     0
  9
$MIRRTEXT
 70
     0
  9
$LTSCALE
 40
1.0
  9
$ATTMODE
 70
     1
  9
$TEXTSIZE
 40
0.2
  9
$TRACEWID
 40
0.05
  9
$TEXTSTYLE
  7
Standard
  9
$CLAYER
  8
0
  9
$CELTYPE
  6
ByLayer
  9
$CECOLOR
 62
   256
  9
$CELTSCALE
 40
1.0
  9
$DISPSILH
 70
     0
  9
$DIMSCALE
 40
1.0
  9
$DIMASZ
 40
0.18
  9
$DIMEXO
 40
0.0625
  9
$DIMDLI
 40
0.38
  9
$DIMRND
 40
0.0
  9
$DIMDLE
 40
0.0
  9
$DIMEXE
 40
0.18
  9
$DIMTP
 40
0.0
  9
$DIMTM
 40
0.0
  9
$DIMTXT
 40
0.18
  9
$DIMCEN
 40
0.09
  9
$DIMTSZ
 40
0.0
  9
$DIMTOL
 70
     0
  9
$DIMLIM
 70
     0
  9
$DIMTIH
 70
     1
  9
$DIMTOH
 70
     1
  9
$DIMSE1
 70
     0
  9
$DIMSE2
 70
     0
  9
$DIMTAD
 70
     0
  9
$DIMZIN
 70
     0
  9
$DIMBLK
  1

  9
$DIMASO
 70
     1
  9
$DIMSHO
 70
     1
  9
$DIMPOST
  1

  9
$DIMAPOST
  1

  9
$DIMALT
 70
     0
  9
$DIMALTD
 70
     2
  9
$DIMALTF
 40
25.4
  9
$DIMLFAC
 40
1.0
  9
$DIMTOFL
 70
     0
  9
$DIMTVP
 40
0.0
  9
$DIMTIX
 70
     0
  9
$DIMSOXD
 70
     0
  9
$DIMSAH
 70
     0
  9
$DIMBLK1
  1

  9
$DIMBLK2
  1

  9
$DIMSTYLE
  2
Standard
  9
$DIMCLRD
 70
     0
  9
$DIMCLRE
 70
     0
  9
$DIMCLRT
 70
     0
  9
$DIMTFAC
 40
1.0
  9
$DIMGAP
 40
0.09
  9
$DIMJUST
 70
     0
  9
$DIMSD1
 70
     0
  9
$DIMSD2
 70
     0
  9
$DIMTOLJ
 70
     1
  9
$DIMTZIN
 70
     0
  9
$DIMALTZ
 70
     0
  9
$DIMALTTZ
 70
     0
  9
$DIMUPT
 70
     0
  9
$DIMDEC
 70
     4
  9
$DIMTDEC
 70
     4
  9
$DIMALTU
 70
     2
  9
$DIMALTTD
 70
     2
  9
$DIMTXSTY
  7
Standard
  9
$DIMAUNIT
 70
     0
  9
$DIMADEC
 70
     0
  9
$DIMALTRND
 40
0.0
  9
$DIMAZIN
 70
     0
  9
$DIMDSEP
 70
    46
  9
$DIMATFIT
 70
     3
  9
$DIMFRAC
 70
     0
  9
$DIMLDRBLK
  1

  9
$DIMLUNIT
 70
     2
  9
$DIMLWD
 70
    -2
  9
$DIMLWE
 70
    -2
  9
$DIMTMOVE
 70
     0
  9
$DIMFXL
 40
1.0
  9
$DIMFXLON
 70
     0
  9
$DIMJOGANG
 40
0.7853981633974483
  9
$DIMTFILL
 70
     0
  9
$DIMTFILLCLR
 70
     0
  9
$DIMARCSYM
 70
     0
  9
$DIMLTYPE
  6

  9
$DIMLTEX1
  6

  9
$DIMLTEX2
  6

  9
$DIMTXTDIRECTION
 70
     0
  9
$LUNITS
 70
     2
  9
$LUPREC
 70
     4
  9
$SKETCHINC
 40
0.1
  9
$FILLETRAD
 40
0.0
  9
$AUNITS
 70
     0
  9
$AUPREC
 70
     0
  9
$MENU
  1
.
  9
$ELEVATION
 40
0.0
  9
$PELEVATION
 40
0.0
  9
$THICKNESS
 40
0.0
  9
$LIMCHECK
 70
     0
  9
$CHAMFERA
 40
0.0
  9
$CHAMFERB
 40
0.0
  9
$CHAMFERC
 40
0.0
  9
$CHAMFERD
 40
0.0
  9
$SKPOLY
 70
     0
  9
$TDCREATE
 40
2460101.429074074
  9
$TDUCREATE
 40
2460101.345740741
  9
$TDUPDATE
 40
2460101.429074074
  9
$TDUUPDATE
 40
2460101.345740741
  9
$TDINDWG
 40
0.0000000000
  9
$TDUSRTIMER
 40
0.0000000000
  9
$USRTIMER
 70
     1
  9
$ANGBASE
 50
0.0
  9
$ANGDIR
 70
     0
  9
$PDMODE
 70
     0
  9
$PDSIZE
 40
0.0
  9
$PLINEWID
 40
0.0
  9
$SPLFRAME
 70
     0
  9
$SPLINETYPE
 70
     6
  9
$SPLINESEGS
 70
     8
  9
$HANDSEED
  5
2B6
  9
$SURFTAB1
 70
     6
  9
$SURFTAB2
 70
     6
  9
$SURFTYPE
 70
     6
  9
$SURFU
 70
     6
  9
$SURFV
 70
     6
  9
$UCSBASE
  2

  9
$UCSNAME
  2

  9
$UCSORG
 10
0.0
 20
0.0
 30
0.0
  9
$UCSXDIR
 10
1.0
 20
0.0
 30
0.0
  9
$UCSYDIR
 10
0.0
 20
1.0
 30
0.0
  9
$UCSORTHOREF
  2

  9
$UCSORTHOVIEW
 70
     0
  9
$UCSORGTOP
 10
0.0
 20
0.0
 30
0.0
  9
$UCSORGBOTTOM
 10
0.0
 20
0.0
 30
0.0
  9
$UCSORGLEFT
 10
0.0
 20
0.0
 30
0.0
  9
$UCSORGRIGHT
 10
0.0
 20
0.0
 30
0.0
  9
$UCSORGFRONT
 10
0.0
 20
0.0
 30
0.0
  9
$UCSORGBACK
 10
0.0
 20
0.0
 30
0.0
  9
$PUCSBASE
  2

  9
$PUCSNAME
  2

  9
$PUCSORG
 10
0.0
 20
0.0
 30
0.0
  9
$PUCSXDIR
 10
1.0
 20
0.0
 30
0.0
  9
$PUCSYDIR
 10
0.0
 20
1.0
 30
0.0
  9
$PUCSORTHOREF
  2

  9
$PUCSORTHOVIEW
 70
     0
  9
$PUCSORGTOP
 10
0.0
 20
0.0
 30
0.0
  9
$PUCSORGBOTTOM
 10
0.0
 20
0.0
 30
0.0
  9
$PUCSORGLEFT
 10
0.0
 20
0.0
 30
0.0
  9
$PUCSORGRIGHT
 10
0.0
 20
0.0
 30
0.0
  9
$PUCSORGFRONT
 10
0.0
 20
0.0
 30
0.0
  9
$PUCSORGBACK
 10
0.0
 20
0.0
 30
0.0
  9
$USERI1
 70
     0
  9
$USERI2
 70
     0
  9
$USERI3
 70
     0
  9
$USERI4
 70
     0
  9
$USERI5
 70
     0
  9
$USERR1
 40
0.0
  9
$USERR2
 40
0.0
  9
$USERR3
 40
0.0
  9
$USERR4
 40
0.0
  9
$USERR5
 40
0.0
  9
$WORLDVIEW
 70
     1
  9
$SHADEDGE
 70
     3
  9
$SHADEDIF
 70
    70
  9
$TILEMODE
 70
     1
  9
$MAXACTVP
 70
    64
  9
$PINSBASE
 10
0.0
 20
0.0
 30
0.0
  9
$PLIMCHECK
 70
     0
  9
$PEXTMIN
 10
1.000000000000000E+20
 20
1.000000000000000E+20
 30
1.000000000000000E+20
  9
$PEXTMAX
 10
-1.000000000000000E+20
 20
-1.000000000000000E+20
 30
-1.000000000000000E+20
  9
$PLIMMIN
 10
0.0
 20
0.0
  9
$PLIMMAX
 10
12.0
 20
9.0
  9
$UNITMODE
 70
     0
  9
$VISRETAIN
 70
     1
  9
$PLINEGEN
 70
     0
  9
$PSLTSCALE
 70
     1
  9
$TREEDEPTH
 70
  3020
  9
$CMLSTYLE
  2
Standard
  9
$CMLJUST
 70
     0
  9
$CMLSCALE
 40
1.0
  9
$PROXYGRAPHICS
 70
     1
  9
$MEASUREMENT
 70
     0
  9
$CELWEIGHT
370
    -1
  9
$ENDCAPS
280
     0
  9
$JOINSTYLE
280
     0
  9
$LWDISPLAY
290
     1
  9
$INSUNITS
 70
     4
  9
$HYPERLINKBASE
  1

  9
$STYLESHEET
  1

  9
$XEDIT
290
     1
  9
$CEPSNTYPE
380
     0
  9
$PSTYLEMODE
290
     1
  9
$FINGERPRINTGUID
  2
{929542AF-FCFB-C54D-B7C9-36B9574DCC71}
  9
$VERSIONGUID
  2
{1B1E99AB-FF98-1C48-A540-7312E15FCC93}
  9
$EXTNAMES
290
     1
  9
$PSVPSCALE
 40
0.0
  9
$OLESTARTUP
290
     0
  9
$SORTENTS
280
   127
  9
$INDEXCTL
280
     0
  9
$HIDETEXT
280
     1
  9
$XCLIPFRAME
280
     2
  9
$HALOGAP
280
     0
  9
$OBSCOLOR
 70
   257
  9
$OBSLTYPE
280
     0
  9
$INTERSECTIONDISPLAY
280
     0
  9
$INTERSECTIONCOLOR
 70
   257
  9
$DIMASSOC
280
     2
  9
$PROJECTNAME
  1

  9
$CAMERADISPLAY
290
     0
  9
$LENSLENGTH
 40
50.0
  9
$CAMERAHEIGHT
 40
0.0
  9
$STEPSPERSEC
 40
2.0
  9
$STEPSIZE
 40
6.0
  9
$3DDWFPREC
 40
2.0
  9
$PSOLWIDTH
 40
0.25
  9
$PSOLHEIGHT
 40
4.0
  9
$LOFTANG1
 40
1.570796326794896
  9
$LOFTANG2
 40
1.570796326794896
  9
$LOFTMAG1
 40
0.0
  9
$LOFTMAG2
 40
0.0
  9
$LOFTPARAM
 70
     7
  9
$LOFTNORMALS
280
     1
  9
$LATITUDE
 40
37.795
  9
$LONGITUDE
 40
-122.394
  9
$NORTHDIRECTION
 40
0.0
  9
$TIMEZONE
 70
 -8000
  9
$LIGHTGLYPHDISPLAY
280
     1
  9
$TILEMODELIGHTSYNCH
280
     1
  9
$CMATERIAL
347
11
  9
$SOLIDHIST
280
     0
  9
$SHOWHIST
280
     1
  9
$DWFFRAME
280
     2
  9
$DGNFRAME
280
     0
  9
$REALWORLDSCALE
290
     1
  9
$INTERFERECOLOR
 62
     1
  9
$INTERFEREOBJVS
345
33
  9
$INTERFEREVPVS
346
30
  9
$CSHADOW
280
     0
  9
$SHADOWPLANELOCATION
 40
0.0
  0
ENDSEC
  0
SECTION
  2
CLASSES
  0
CLASS
  1
ACDBDICTIONARYWDFLT
  2
AcDbDictionaryWithDefault
  3
ObjectDBX Classes
 90
        0
 91
        1
280
     0
281
     0
  0
CLASS
  1
MATERIAL
  2
AcDbMaterial
  3
ObjectDBX Classes
 90
     1153
 91
        3
280
     0
281
     0
  0
CLASS
  1
VISUALSTYLE
  2
AcDbVisualStyle
  3
ObjectDBX Classes
 90
     4095
 91
       24
280
     0
281
     0
  0
CLASS
  1
SCALE
  2
AcDbScale
  3
ObjectDBX Classes
 90
     1153
 91
       17
280
     0
281
     0
  0
CLASS
  1
TABLESTYLE
  2
AcDbTableStyle
  3
ObjectDBX Classes
 90
     4095
 91
        1
280
     0
281
     0
  0
CLASS
  1
MLEADERSTYLE
  2
AcDbMLeaderStyle
  3
ACDB_MLEADERSTYLE_CLASS
 90
     4095
 91
        1
280
     0
281
     0
  0
CLASS
  1
ACDBSECTIONVIEWSTYLE
  2
AcDbSectionViewStyle
  3
ObjectDBX Classes
 90
     1025
 91
        1
280
     0
281
     0
  0
CLASS
  1
ACDBDETAILVIEWSTYLE
  2
AcDbDetailViewStyle
  3
ObjectDBX Classes
 90
     1025
 91
        1
280
     0
281
     0
  0
CLASS
  1
DICTIONARYVAR
  2
AcDbDictionaryVar
  3
ObjectDBX Classes
 90
        0
 91
        5
280
     0
281
     0
  0
CLASS
  1
CELLSTYLEMAP
  2
AcDbCellStyleMap
  3
ObjectDBX Classes
 90
     1152
 91
        1
280
     0
281
     0
  0
ENDSEC
  0
SECTION
  2
TABLES
  0
TABLE
  2
VPORT
  5
8
330
0
100
AcDbSymbolTable
 70
     1
  0
VPORT
  5
57
330
8
100
AcDbSymbolTableRecord
100
AcDbViewportTableRecord
  2
*Active
 70
     0
 10
0.0
 20
0.0
 11
1.0
 21
1.0
 12
0.0
 22
0.0
 13
0.0
 23
0.0
 14
1.0
 24
1.0
 15
0.0
 25
0.0
 16
0.0
 26
0.0
 36
1.0
 17
100.1411731413015
 27
145.2160119896753
 37
0.0
 40
181.9694928740622
 41
0.8827993666021283
 42
50.0
 43
0.0
 44
0.0
 50
0.0
 51
0.0
 71
     0
 72
   100
 73
     1
 74
     1
 75
     0
 76
     0
 77
     0
 78
     0
281
     0
 65
     1
110
0.0
120
0.0
130
0.0
111
1.0
121
0.0
131
0.0
112
0.0
122
1.0
132
0.0
 79
     0
146
0.0
 60
     3
 61
     5
292
     1
282
     1
141
0.0
142
0.0
 63
   250
421
  3355443
  0
ENDTAB
  0
TABLE
  2
LTYPE
  5
5
330
0
100
AcDbSymbolTable
 70
     7
  0
LTYPE
  5
5B
330
5
100
AcDbSymbolTableRecord
100
AcDbLinetypeTableRecord
  2
ByBlock
 70
     0
  3

 72
    65
 73
     0
 40
0.0
  0
LTYPE
  5
5C
330
5
100
AcDbSymbolTableRecord
100
AcDbLinetypeTableRecord
  2
ByLayer
 70
     0
  3

 72
    65
 73
     0
 40
0.0
  0
LTYPE
  5
5D
330
5
100
AcDbSymbolTableRecord
100
AcDbLinetypeTableRecord
  2
Continuous
 70
     0
  3
Solid line
 72
    65
 73
     0
 40
0.0
  0
LTYPE
  5
15B
330
5
100
AcDbSymbolTableRecord
100
AcDbLinetypeTableRecord
  2
AI-Linetype-0
 70
     0
  3
Adobe Illustrator Linetype No. 0
 72
    65
 73
     4
 40
8.819444442239584
 49
7.055555553791666
 74
     0
 49
-0.7055555553791667
 74
     0
 49
0.3527777776895833
 74
     0
 49
-0.7055555553791667
 74
     0
  0
LTYPE
  5
15D
330
5
100
AcDbSymbolTableRecord
100
AcDbLinetypeTableRecord
  2
AI-Linetype-1
 70
     0
  3
Adobe Illustrator Linetype No. 1
 72
    65
 73
     4
 40
8.819444442239584
 49
7.055555553791666
 74
     0
 49
-0.7055555553791667
 74
     0
 49
0.3527777776895833
 74
     0
 49
-0.7055555553791667
 74
     0
  0
LTYPE
  5
15F
330
5
100
AcDbSymbolTableRecord
100
AcDbLinetypeTableRecord
  2
AI-Linetype-2
 70
     0
  3
Adobe Illustrator Linetype No. 2
 72
    65
 73
     4
 40
8.819444442239584
 49
7.055555553791666
 74
     0
 49
-0.7055555553791667
 74
     0
 49
0.3527777776895833
 74
     0
 49
-0.7055555553791667
 74
     0
  0
LTYPE
  5
161
330
5
100
AcDbSymbolTableRecord
100
AcDbLinetypeTableRecord
  2
AI-Linetype-3
 70
     0
  3
Adobe Illustrator Linetype No. 3
 72
    65
 73
     4
 40
8.819444442239584
 49
7.055555553791666
 74
     0
 49
-0.7055555553791667
 74
     0
 49
0.3527777776895833
 74
     0
 49
-0.7055555553791667
 74
     0
  0
LTYPE
  5
163
330
5
100
AcDbSymbolTableRecord
100
AcDbLinetypeTableRecord
  2
AI-Linetype-4
 70
     0
  3
Adobe Illustrator Linetype No. 4
 72
    65
 73
     4
 40
8.819444442239584
 49
7.055555553791666
 74
     0
 49
-0.7055555553791667
 74
     0
 49
0.3527777776895833
 74
     0
 49
-0.7055555553791667
 74
     0
  0
LTYPE
  5
165
330
5
100
AcDbSymbolTableRecord
100
AcDbLinetypeTableRecord
  2
AI-Linetype-5
 70
     0
  3
Adobe Illustrator Linetype No. 5
 72
    65
 73
     4
 40
8.819444442239584
 49
7.055555553791666
 74
     0
 49
-0.7055555553791667
 74
     0
 49
0.3527777776895833
 74
     0
 49
-0.7055555553791667
 74
     0
  0
ENDTAB
  0
TABLE
  2
LAYER
  5
2
330
0
100
AcDbSymbolTable
 70
     5
  0
LAYER
  5
54
330
2
100
AcDbSymbolTableRecord
100
AcDbLayerTableRecord
  2
0
 70
     0
 62
     7
  6
Continuous
370
    -3
390
F
347
21
348
0
  0
LAYER
  5
78
330
2
100
AcDbSymbolTableRecord
100
AcDbLayerTableRecord
  2
grau 10%
 70
     1
 62
     7
  6
Continuous
370
     0
390
F
347
21
348
0
  0
LAYER
  5
7D
330
2
100
AcDbSymbolTableRecord
100
AcDbLayerTableRecord
  2
Standardebene
 70
     0
 62
     7
  6
Continuous
370
     0
390
F
347
21
348
0
  0
LAYER
  5
166
330
2
100
AcDbSymbolTableRecord
100
AcDbLayerTableRecord
  2
Text
 70
     1
 62
     7
  6
Continuous
370
     0
390
F
347
21
348
0
  0
LAYER
  5
1D0
330
2
100
AcDbSymbolTableRecord
100
AcDbLayerTableRecord
  2
Bemaßung
 70
     1
 62
     7
  6
Continuous
370
     0
390
F
347
21
348
0
  0
ENDTAB
  0
TABLE
  2
STYLE
  5
3
330
0
100
AcDbSymbolTable
 70
     2
  0
STYLE
  5
55
330
3
100
AcDbSymbolTableRecord
100
AcDbTextStyleTableRecord
  2
Standard
 70
     0
 40
0.0
 41
1.0
 50
0.0
 71
     0
 42
0.2
  3
txt
  4

  0
STYLE
  5
5A
330
3
100
AcDbSymbolTableRecord
100
AcDbTextStyleTableRecord
  2
Annotative
 70
     0
 40
0.0
 41
1.0
 50
0.0
 71
     0
 42
0.2
  3
txt
  4

1001
AcadAnnotative
1000
AnnotativeData
1002
{
1070
     1
1070
     1
1002
}
  0
ENDTAB
  0
TABLE
  2
VIEW
  5
6
330
0
100
AcDbSymbolTable
 70
     0
  0
ENDTAB
  0
TABLE
  2
UCS
  5
7
330
0
100
AcDbSymbolTable
 70
     0
  0
ENDTAB
  0
TABLE
  2
APPID
  5
9
330
0
100
AcDbSymbolTable
 70
     2
  0
APPID
  5
56
330
9
100
AcDbSymbolTableRecord
100
AcDbRegAppTableRecord
  2
ACAD
 70
     0
  0
APPID
  5
5E
330
9
100
AcDbSymbolTableRecord
100
AcDbRegAppTableRecord
  2
AcadAnnotative
 70
     0
  0
ENDTAB
  0
TABLE
  2
DIMSTYLE
  5
A
330
0
100
AcDbSymbolTable
 70
     2
100
AcDbDimStyleTable
 71
     0
  0
DIMSTYLE
105
58
330
A
100
AcDbSymbolTableRecord
100
AcDbDimStyleTableRecord
  2
Standard
 70
     0
340
55
  0
DIMSTYLE
105
59
330
A
100
AcDbSymbolTableRecord
100
AcDbDimStyleTableRecord
  2
Annotative
 70
     0
340
55
1001
AcadAnnotative
1000
AnnotativeData
1002
{
1070
     1
1070
     1
1002
}
  0
ENDTAB
  0
TABLE
  2
BLOCK_RECORD
  5
1
330
0
100
AcDbSymbolTable
 70
     1
  0
BLOCK_RECORD
  5
70
330
1
100
AcDbSymbolTableRecord
100
AcDbBlockTableRecord
  2
*Model_Space
340
73
 70
     0
280
     1
281
     0
  0
BLOCK_RECORD
  5
6C
330
1
100
AcDbSymbolTableRecord
100
AcDbBlockTableRecord
  2
*Paper_Space
340
6F
 70
     0
280
     1
281
     0
  0
BLOCK_RECORD
  5
74
330
1
100
AcDbSymbolTableRecord
100
AcDbBlockTableRecord
  2
*Paper_Space0
340
77
 70
     0
280
     1
281
     0
  0
ENDTAB
  0
ENDSEC
  0
SECTION
  2
BLOCKS
  0
BLOCK
  5
71
330
70
100
AcDbEntity
  8
0
100
AcDbBlockBegin
  2
*Model_Space
 70
     0
 10
0.0
 20
0.0
 30
0.0
  3
*Model_Space
  1

  0
ENDBLK
  5
72
330
70
100
AcDbEntity
  8
0
100
AcDbBlockEnd
  0
BLOCK
  5
6D
330
6C
100
AcDbEntity
 67
     1
  8
0
100
AcDbBlockBegin
  2
*Paper_Space
 70
     0
 10
0.0
 20
0.0
 30
0.0
  3
*Paper_Space
  1

  0
ENDBLK
  5
6E
330
6C
100
AcDbEntity
 67
     1
  8
0
100
AcDbBlockEnd
  0
BLOCK
  5
75
330
74
100
AcDbEntity
 67
     1
  8
0
100
AcDbBlockBegin
  2
*Paper_Space0
 70
     0
 10
0.0
 20
0.0
 30
0.0
  3
*Paper_Space0
  1

  0
ENDBLK
  5
76
330
74
100
AcDbEntity
 67
     1
  8
0
100
AcDbBlockEnd
  0
ENDSEC
  0
SECTION
  2
ENTITIES
  0
SPLINE
  5
79
330
70
100
AcDbEntity
  8
grau 10%
100
AcDbSpline
210
0.0
220
0.0
230
1.0
 70
    11
 71
     3
 72
   185
 73
   181
 74
     0
 42
0.0000000001
 43
0.0000000001
 40
0.0
 40
0.0
 40
0.0
 40
0.0
 40
1.0
 40
1.0
 40
1.0
 40
2.0
 40
2.0
 40
2.0
 40
3.0
 40
3.0
 40
3.0
 40
4.0
 40
4.0
 40
4.0
 40
5.0
 40
5.0
 40
5.0
 40
6.0
 40
6.0
 40
6.0
 40
7.0
 40
7.0
 40
7.0
 40
8.0
 40
8.0
 40
8.0
 40
9.0
 40
9.0
 40
9.0
 40
10.0
 40
10.0
 40
10.0
 40
11.0
 40
11.0
 40
11.0
 40
12.0
 40
12.0
 40
12.0
 40
13.0
 40
13.0
 40
13.0
 40
14.0
 40
14.0
 40
14.0
 40
15.0
 40
15.0
 40
15.0
 40
16.0
 40
16.0
 40
16.0
 40
17.0
 40
17.0
 40
17.0
 40
18.0
 40
18.0
 40
18.0
 40
19.0
 40
19.0
 40
19.0
 40
20.0
 40
20.0
 40
20.0
 40
21.0
 40
21.0
 40
21.0
 40
22.0
 40
22.0
 40
22.0
 40
23.0
 40
23.0
 40
23.0
 40
24.0
 40
24.0
 40
24.0
 40
25.0
 40
25.0
 40
25.0
 40
26.0
 40
26.0
 40
26.0
 40
27.0
 40
27.0
 40
27.0
 40
28.0
 40
28.0
 40
28.0
 40
29.0
 40
29.0
 40
29.0
 40
30.0
 40
30.0
 40
30.0
 40
31.0
 40
31.0
 40
31.0
 40
32.0
 40
32.0
 40
32.0
 40
33.0
 40
33.0
 40
33.0
 40
34.0
 40
34.0
 40
34.0
 40
35.0
 40
35.0
 40
35.0
 40
36.0
 40
36.0
 40
36.0
 40
37.0
 40
37.0
 40
37.0
 40
38.0
 40
38.0
 40
38.0
 40
39.0
 40
39.0
 40
39.0
 40
40.0
 40
40.0
 40
40.0
 40
41.0
 40
41.0
 40
41.0
 40
42.0
 40
42.0
 40
42.0
 40
43.0
 40
43.0
 40
43.0
 40
44.0
 40
44.0
 40
44.0
 40
45.0
 40
45.0
 40
45.0
 40
46.0
 40
46.0
 40
46.0
 40
47.0
 40
47.0
 40
47.0
 40
48.0
 40
48.0
 40
48.0
 40
49.0
 40
49.0
 40
49.0
 40
50.0
 40
50.0
 40
50.0
 40
51.0
 40
51.0
 40
51.0
 40
52.0
 40
52.0
 40
52.0
 40
53.0
 40
53.0
 40
53.0
 40
54.0
 40
54.0
 40
54.0
 40
55.0
 40
55.0
 40
55.0
 40
56.0
 40
56.0
 40
56.0
 40
57.0
 40
57.0
 40
57.0
 40
58.0
 40
58.0
 40
58.0
 40
59.0
 40
59.0
 40
59.0
 40
60.0
 40
60.0
 40
60.0
 40
60.0
 10
93.43149872747501
 20
100.0714138638708
 30
0.0
 10
93.43149872747501
 20
100.0714138638708
 30
0.0
 10
93.41530622788809
 20
139.7621911565916
 30
0.0
 10
93.41530622788809
 20
139.7621911565916
 30
0.0
 10
93.41530622788809
 20
139.7621911565916
 30
0.0
 10
99.25233191230651
 20
139.8104194094919
 30
0.0
 10
99.25233191230651
 20
139.8104194094919
 30
0.0
 10
99.25233191230651
 20
139.8104194094919
 30
0.0
 10
99.30090941106719
 20
146.3912382096928
 30
0.0
 10
99.30090941106719
 20
146.3912382096928
 30
0.0
 10
99.30090941106719
 20
146.3912382096928
 30
0.0
 10
93.38292122871431
 20
146.3750457101059
 30
0.0
 10
93.38292122871431
 20
146.3750457101059
 30
0.0
 10
93.38292122871431
 20
146.3750457101059
 30
0.0
 10
93.39911372830121
 20
178.8865862695563
 30
0.0
 10
93.39911372830121
 20
178.8865862695563
 30
0.0
 10
93.39911372830121
 20
178.8865862695563
 30
0.0
 10
92.78485707730553
 20
179.4684579213782
 30
0.0
 10
92.78485707730553
 20
179.4684579213782
 30
0.0
 10
92.78485707730553
 20
179.4684579213782
 30
0.0
 10
92.38057375428633
 20
179.4036879230306
 30
0.0
 10
92.38057375428633
 20
179.4036879230306
 30
0.0
 10
92.38057375428633
 20
179.4036879230306
 30
0.0
 10
92.41278236457572
 20
192.6301025855966
 30
0.0
 10
92.41278236457572
 20
192.6301025855966
 30
0.0
 10
92.41278236457572
 20
192.6301025855966
 30
0.0
 10
91.32964878109765
 20
192.6462999518384
 30
0.0
 10
91.32964878109765
 20
192.6462999518384
 30
0.0
 10
91.32964878109765
 20
192.6462999518384
 30
0.0
 10
91.28107128233697
 20
192.9050223008051
 30
0.0
 10
91.28107128233697
 20
192.9050223008051
 30
0.0
 10
91.28107128233697
 20
192.9050223008051
 30
0.0
 10
91.03853886612922
 20
193.1151720176659
 30
0.0
 10
91.03853886612922
 20
193.1151720176659
 30
0.0
 10
91.03853886612922
 20
193.1151720176659
 30
0.0
 10
80.04351386887817
 20
193.1151720176659
 30
0.0
 10
80.04351386887817
 20
193.1151720176659
 30
0.0
 10
80.04351386887817
 20
193.1151720176659
 30
0.0
 10
79.80097713077412
 20
192.8564448020444
 30
0.0
 10
79.80097713077412
 20
192.8564448020444
 30
0.0
 10
79.80097713077412
 20
192.8564448020444
 30
0.0
 10
79.78496102007162
 20
192.6139100860097
 30
0.0
 10
79.78496102007162
 20
192.6139100860097
 30
0.0
 10
79.78496102007162
 20
192.6139100860097
 30
0.0
 10
73.99633644552952
 20
192.6462999518384
 30
0.0
 10
73.99633644552952
 20
192.6462999518384
 30
0.0
 10
73.99633644552952
 20
192.6462999518384
 30
0.0
 10
73.96412783524012
 20
190.7222098564933
 30
0.0
 10
73.96412783524012
 20
190.7222098564933
 30
0.0
 10
73.96412783524012
 20
190.7222098564933
 30
0.0
 10
73.57603887049484
 20
191.4012365058365
 30
0.0
 10
73.57603887049484
 20
191.4012365058365
 30
0.0
 10
73.57603887049484
 20
191.4012365058365
 30
0.0
 10
70.97274874488988
 20
191.4174290054234
 30
0.0
 10
70.97274874488988
 20
191.4174290054234
 30
0.0
 10
70.97274874488988
 20
191.4174290054234
 30
0.0
 10
70.58465792145757
 20
190.7222098564933
 30
0.0
 10
70.58465792145757
 20
190.7222098564933
 30
0.0
 10
70.58465792145757
 20
190.7222098564933
 30
0.0
 10
70.55244931116817
 20
189.6387234952464
 30
0.0
 10
70.55244931116817
 20
189.6387234952464
 30
0.0
 10
70.55244931116817
 20
189.6387234952464
 30
0.0
 10
70.43910181405991
 20
189.4123860637581
 30
0.0
 10
70.43910181405991
 20
189.4123860637581
 30
0.0
 10
70.43910181405991
 20
189.4123860637581
 30
0.0
 10
70.21275959761216
 20
189.315579059046
 30
0.0
 10
70.21275959761216
 20
189.315579059046
 30
0.0
 10
70.21275959761216
 20
189.315579059046
 30
0.0
 10
63.90685698071136
 20
189.3152262812773
 30
0.0
 10
63.90685698071136
 20
189.3152262812773
 30
0.0
 10
63.90685698071136
 20
189.3152262812773
 30
0.0
 10
63.2278303313681
 20
188.7657443972529
 30
0.0
 10
63.2278303313681
 20
188.7657443972529
 30
0.0
 10
63.2278303313681
 20
188.7657443972529
 30
0.0
 10
61.64325842734946
 20
188.7657443972529
 30
0.0
 10
61.64325842734946
 20
188.7657443972529
 30
0.0
 10
61.64325842734946
 20
188.7657443972529
 30
0.0
 10
61.06121038664318
 20
189.2670015602854
 30
0.0
 10
61.06121038664318
 20
189.2670015602854
 30
0.0
 10
61.06121038664318
 20
189.2670015602854
 30
0.0
 10
58.37713601067519
 20
189.3152262812773
 30
0.0
 10
58.37713601067519
 20
189.3152262812773
 30
0.0
 10
58.37713601067519
 20
189.3152262812773
 30
0.0
 10
58.00523768682976
 20
189.1860390623509
 30
0.0
 10
58.00523768682976
 20
189.1860390623509
 30
0.0
 10
58.00523768682976
 20
189.1860390623509
 30
0.0
 10
57.79508796996891
 20
188.8625418483818
 30
0.0
 10
57.79508796996891
 20
188.8625418483818
 30
0.0
 10
57.79508796996891
 20
188.8625418483818
 30
0.0
 10
57.79508796996891
 20
183.3975908766932
 30
0.0
 10
57.79508796996891
 20
183.3975908766932
 30
0.0
 10
57.79508796996891
 20
183.3975908766932
 30
0.0
 10
57.89206657860589
 20
183.0093236643765
 30
0.0
 10
57.89206657860589
 20
183.0093236643765
 30
0.0
 10
57.89206657860589
 20
183.0093236643765
 30
0.0
 10
58.13460276324419
 20
182.7667889483418
 30
0.0
 10
58.13460276324419
 20
182.7667889483418
 30
0.0
 10
58.13460276324419
 20
182.7667889483418
 30
0.0
 10
61.07740288623008
 20
182.6861792281762
 30
0.0
 10
61.07740288623008
 20
182.6861792281762
 30
0.0
 10
61.07740288623008
 20
182.6861792281762
 30
0.0
 10
61.64325842734946
 20
183.3166283787587
 30
0.0
 10
61.64325842734946
 20
183.3166283787587
 30
0.0
 10
61.64325842734946
 20
183.3166283787587
 30
0.0
 10
63.244022830955
 20
183.3166283787587
 30
0.0
 10
63.244022830955
 20
183.3166283787587
 30
0.0
 10
63.244022830955
 20
183.3166283787587
 30
0.0
 10
63.80987837207438
 20
182.7509492265237
 30
0.0
 10
63.80987837207438
 20
182.7509492265237
 30
0.0
 10
63.80987837207438
 20
182.7509492265237
 30
0.0
 10
69.9865937700488
 20
182.7509492265237
 30
0.0
 10
69.9865937700488
 20
182.7509492265237
 30
0.0
 10
69.9865937700488
 20
182.7509492265237
 30
0.0
 10
70.30991459513353
 20
182.702371727763
 30
0.0
 10
70.30991459513353
 20
182.702371727763
 30
0.0
 10
70.30991459513353
 20
182.702371727763
 30
0.0
 10
70.60085042104446
 20
182.4598416210516
 30
0.0
 10
70.60085042104446
 20
182.4598416210516
 30
0.0
 10
70.60085042104446
 20
182.4598416210516
 30
0.0
 10
70.60085042104446
 20
181.4897027324053
 30
0.0
 10
70.60085042104446
 20
181.4897027324053
 30
0.0
 10
70.60085042104446
 20
181.4897027324053
 30
0.0
 10
70.98894124447678
 20
180.6487465023776
 30
0.0
 10
70.98894124447678
 20
180.6487465023776
 30
0.0
 10
70.98894124447678
 20
180.6487465023776
 30
0.0
 10
73.57603887049484
 20
180.5843292817988
 30
0.0
 10
73.57603887049484
 20
180.5843292817988
 30
0.0
 10
73.57603887049484
 20
180.5843292817988
 30
0.0
 10
73.96412783524012
 20
181.3763506504815
 30
0.0
 10
73.96412783524012
 20
181.3763506504815
 30
0.0
 10
73.96412783524012
 20
181.3763506504815
 30
0.0
 10
74.02872144470331
 20
179.4684579213782
 30
0.0
 10
74.02872144470331
 20
179.4684579213782
 30
0.0
 10
74.02872144470331
 20
179.4684579213782
 30
0.0
 10
78.21640522675548
 20
179.4198804226175
 30
0.0
 10
78.21640522675548
 20
179.4198804226175
 30
0.0
 10
78.21640522675548
 20
179.4198804226175
 30
0.0
 10
77.73133579468619
 20
178.8542012703825
 30
0.0
 10
77.73133579468619
 20
178.8542012703825
 30
0.0
 10
77.73133579468619
 20
178.8542012703825
 30
0.0
 10
77.7151432950993
 20
146.4480707082429
 30
0.0
 10
77.7151432950993
 20
146.4480707082429
 30
0.0
 10
77.7151432950993
 20
146.4480707082429
 30
0.0
 10
76.50246971492606
 20
146.3667554325396
 30
0.0
 10
76.50246971492606
 20
146.3667554325396
 30
0.0
 10
76.50246971492606
 20
146.3667554325396
 30
0.0
 10
76.51866221451296
 20
139.8589933763442
 30
0.0
 10
76.51866221451296
 20
139.8589933763442
 30
0.0
 10
76.51866221451296
 20
139.8589933763442
 30
0.0
 10
77.7151432950993
 20
139.8183180996042
 30
0.0
 10
77.7151432950993
 20
139.8183180996042
 30
0.0
 10
77.7151432950993
 20
139.8183180996042
 30
0.0
 10
77.73839135006174
 20
108.4619483440163
 30
0.0
 10
77.73839135006174
 20
108.4619483440163
 30
0.0
 10
77.73839135006174
 20
108.4619483440163
 30
0.0
 10
78.43036494351913
 20
106.0775939604018
 30
0.0
 10
77.83434690316926
 20
104.7477981609943
 30
0.0
 10
77.83434690316926
 20
104.7477981609943
 30
0.0
 10
77.83434690316926
 20
101.9513993434475
 30
0.0
 10
77.83434690316926
 20
101.9513993434475
 30
0.0
 10
77.83434690316926
 20
101.9513993434475
 30
0.0
 10
77.9259985674977
 20
101.1259699200615
 30
0.0
 10
77.9259985674977
 20
101.1259699200615
 30
0.0
 10
77.9259985674977
 20
101.1259699200615
 30
0.0
 10
78.01761495404926
 20
100.0255855036902
 30
0.0
 10
78.01761495404926
 20
100.0255855036902
 30
0.0
 10
78.01761495404926
 20
100.0255855036902
 30
0.0
 10
78.15526883942631
 20
98.19142332826142
 30
0.0
 10
78.15526883942631
 20
98.19142332826142
 30
0.0
 10
78.15526883942631
 20
98.19142332826142
 30
0.0
 10
77.23818775171189
 20
97.64123112007577
 30
0.0
 10
78.24688522597788
 20
96.90777086101013
 30
0.0
 10
78.24688522597788
 20
96.90777086101013
 30
0.0
 10
93.05600207038805
 20
96.90777086101013
 30
0.0
 10
93.05600207038805
 20
96.90777086101013
 30
0.0
 10
93.05600207038805
 20
96.90777086101013
 30
0.0
 10
93.74381288617387
 20
97.54993223351611
 30
0.0
 10
93.19362067798822
 20
98.05394583176877
 30
0.0
 10
93.19362067798822
 20
98.05394583176877
 30
0.0
 10
93.43149872747501
 20
100.0714138638708
 30
0.0
 10
93.43149872747501
 20
100.0714138638708
 30
0.0
  0
HATCH
  5
7A
330
70
100
AcDbEntity
  8
grau 10%
 62
   255
440
 33554687
100
AcDbHatch
 10
0.0
 20
0.0
 30
0.0
210
0.0
220
0.0
230
1.0
  2
SOLID
 70
     1
 71
     1
 91
        1
 92
        1
 93
        1
 72
     4
 94
        3
 73
     0
 74
     0
 95
      185
 96
      181
 40
0.0
 40
0.0
 40
0.0
 40
0.0
 40
1.0
 40
1.0
 40
1.0
 40
2.0
 40
2.0
 40
2.0
 40
3.0
 40
3.0
 40
3.0
 40
4.0
 40
4.0
 40
4.0
 40
5.0
 40
5.0
 40
5.0
 40
6.0
 40
6.0
 40
6.0
 40
7.0
 40
7.0
 40
7.0
 40
8.0
 40
8.0
 40
8.0
 40
9.0
 40
9.0
 40
9.0
 40
10.0
 40
10.0
 40
10.0
 40
11.0
 40
11.0
 40
11.0
 40
12.0
 40
12.0
 40
12.0
 40
13.0
 40
13.0
 40
13.0
 40
14.0
 40
14.0
 40
14.0
 40
15.0
 40
15.0
 40
15.0
 40
16.0
 40
16.0
 40
16.0
 40
17.0
 40
17.0
 40
17.0
 40
18.0
 40
18.0
 40
18.0
 40
19.0
 40
19.0
 40
19.0
 40
20.0
 40
20.0
 40
20.0
 40
21.0
 40
21.0
 40
21.0
 40
22.0
 40
22.0
 40
22.0
 40
23.0
 40
23.0
 40
23.0
 40
24.0
 40
24.0
 40
24.0
 40
25.0
 40
25.0
 40
25.0
 40
26.0
 40
26.0
 40
26.0
 40
27.0
 40
27.0
 40
27.0
 40
28.0
 40
28.0
 40
28.0
 40
29.0
 40
29.0
 40
29.0
 40
30.0
 40
30.0
 40
30.0
 40
31.0
 40
31.0
 40
31.0
 40
32.0
 40
32.0
 40
32.0
 40
33.0
 40
33.0
 40
33.0
 40
34.0
 40
34.0
 40
34.0
 40
35.0
 40
35.0
 40
35.0
 40
36.0
 40
36.0
 40
36.0
 40
37.0
 40
37.0
 40
37.0
 40
38.0
 40
38.0
 40
38.0
 40
39.0
 40
39.0
 40
39.0
 40
40.0
 40
40.0
 40
40.0
 40
41.0
 40
41.0
 40
41.0
 40
42.0
 40
42.0
 40
42.0
 40
43.0
 40
43.0
 40
43.0
 40
44.0
 40
44.0
 40
44.0
 40
45.0
 40
45.0
 40
45.0
 40
46.0
 40
46.0
 40
46.0
 40
47.0
 40
47.0
 40
47.0
 40
48.0
 40
48.0
 40
48.0
 40
49.0
 40
49.0
 40
49.0
 40
50.0
 40
50.0
 40
50.0
 40
51.0
 40
51.0
 40
51.0
 40
52.0
 40
52.0
 40
52.0
 40
53.0
 40
53.0
 40
53.0
 40
54.0
 40
54.0
 40
54.0
 40
55.0
 40
55.0
 40
55.0
 40
56.0
 40
56.0
 40
56.0
 40
57.0
 40
57.0
 40
57.0
 40
58.0
 40
58.0
 40
58.0
 40
59.0
 40
59.0
 40
59.0
 40
60.0
 40
60.0
 40
60.0
 40
60.0
 10
93.43149872747501
 20
100.0714138638708
 10
93.43149872747501
 20
100.0714138638708
 10
93.41530622788809
 20
139.7621911565916
 10
93.41530622788809
 20
139.7621911565916
 10
93.41530622788809
 20
139.7621911565916
 10
99.25233191230651
 20
139.8104194094919
 10
99.25233191230651
 20
139.8104194094919
 10
99.25233191230651
 20
139.8104194094919
 10
99.30090941106719
 20
146.3912382096928
 10
99.30090941106719
 20
146.3912382096928
 10
99.30090941106719
 20
146.3912382096928
 10
93.38292122871431
 20
146.3750457101059
 10
93.38292122871431
 20
146.3750457101059
 10
93.38292122871431
 20
146.3750457101059
 10
93.39911372830121
 20
178.8865862695563
 10
93.39911372830121
 20
178.8865862695563
 10
93.39911372830121
 20
178.8865862695563
 10
92.78485707730553
 20
179.4684579213782
 10
92.78485707730553
 20
179.4684579213782
 10
92.78485707730553
 20
179.4684579213782
 10
92.38057375428633
 20
179.4036879230306
 10
92.38057375428633
 20
179.4036879230306
 10
92.38057375428633
 20
179.4036879230306
 10
92.41278236457572
 20
192.6301025855966
 10
92.41278236457572
 20
192.6301025855966
 10
92.41278236457572
 20
192.6301025855966
 10
91.32964878109765
 20
192.6462999518384
 10
91.32964878109765
 20
192.6462999518384
 10
91.32964878109765
 20
192.6462999518384
 10
91.28107128233697
 20
192.9050223008051
 10
91.28107128233697
 20
192.9050223008051
 10
91.28107128233697
 20
192.9050223008051
 10
91.03853886612922
 20
193.1151720176659
 10
91.03853886612922
 20
193.1151720176659
 10
91.03853886612922
 20
193.1151720176659
 10
80.04351386887817
 20
193.1151720176659
 10
80.04351386887817
 20
193.1151720176659
 10
80.04351386887817
 20
193.1151720176659
 10
79.80097713077412
 20
192.8564448020444
 10
79.80097713077412
 20
192.8564448020444
 10
79.80097713077412
 20
192.8564448020444
 10
79.78496102007162
 20
192.6139100860097
 10
79.78496102007162
 20
192.6139100860097
 10
79.78496102007162
 20
192.6139100860097
 10
73.99633644552952
 20
192.6462999518384
 10
73.99633644552952
 20
192.6462999518384
 10
73.99633644552952
 20
192.6462999518384
 10
73.96412783524012
 20
190.7222098564933
 10
73.96412783524012
 20
190.7222098564933
 10
73.96412783524012
 20
190.7222098564933
 10
73.57603887049484
 20
191.4012365058365
 10
73.57603887049484
 20
191.4012365058365
 10
73.57603887049484
 20
191.4012365058365
 10
70.97274874488988
 20
191.4174290054234
 10
70.97274874488988
 20
191.4174290054234
 10
70.97274874488988
 20
191.4174290054234
 10
70.58465792145757
 20
190.7222098564933
 10
70.58465792145757
 20
190.7222098564933
 10
70.58465792145757
 20
190.7222098564933
 10
70.55244931116817
 20
189.6387234952464
 10
70.55244931116817
 20
189.6387234952464
 10
70.55244931116817
 20
189.6387234952464
 10
70.43910181405991
 20
189.4123860637581
 10
70.43910181405991
 20
189.4123860637581
 10
70.43910181405991
 20
189.4123860637581
 10
70.21275959761216
 20
189.315579059046
 10
70.21275959761216
 20
189.315579059046
 10
70.21275959761216
 20
189.315579059046
 10
63.90685698071136
 20
189.3152262812773
 10
63.90685698071136
 20
189.3152262812773
 10
63.90685698071136
 20
189.3152262812773
 10
63.2278303313681
 20
188.7657443972529
 10
63.2278303313681
 20
188.7657443972529
 10
63.2278303313681
 20
188.7657443972529
 10
61.64325842734946
 20
188.7657443972529
 10
61.64325842734946
 20
188.7657443972529
 10
61.64325842734946
 20
188.7657443972529
 10
61.06121038664318
 20
189.2670015602854
 10
61.06121038664318
 20
189.2670015602854
 10
61.06121038664318
 20
189.2670015602854
 10
58.37713601067519
 20
189.3152262812773
 10
58.37713601067519
 20
189.3152262812773
 10
58.37713601067519
 20
189.3152262812773
 10
58.00523768682976
 20
189.1860390623509
 10
58.00523768682976
 20
189.1860390623509
 10
58.00523768682976
 20
189.1860390623509
 10
57.79508796996891
 20
188.8625418483818
 10
57.79508796996891
 20
188.8625418483818
 10
57.79508796996891
 20
188.8625418483818
 10
57.79508796996891
 20
183.3975908766932
 10
57.79508796996891
 20
183.3975908766932
 10
57.79508796996891
 20
183.3975908766932
 10
57.89206657860589
 20
183.0093236643765
 10
57.89206657860589
 20
183.0093236643765
 10
57.89206657860589
 20
183.0093236643765
 10
58.13460276324419
 20
182.7667889483418
 10
58.13460276324419
 20
182.7667889483418
 10
58.13460276324419
 20
182.7667889483418
 10
61.07740288623008
 20
182.6861792281762
 10
61.07740288623008
 20
182.6861792281762
 10
61.07740288623008
 20
182.6861792281762
 10
61.64325842734946
 20
183.3166283787587
 10
61.64325842734946
 20
183.3166283787587
 10
61.64325842734946
 20
183.3166283787587
 10
63.244022830955
 20
183.3166283787587
 10
63.244022830955
 20
183.3166283787587
 10
63.244022830955
 20
183.3166283787587
 10
63.80987837207438
 20
182.7509492265237
 10
63.80987837207438
 20
182.7509492265237
 10
63.80987837207438
 20
182.7509492265237
 10
69.9865937700488
 20
182.7509492265237
 10
69.9865937700488
 20
182.7509492265237
 10
69.9865937700488
 20
182.7509492265237
 10
70.30991459513353
 20
182.702371727763
 10
70.30991459513353
 20
182.702371727763
 10
70.30991459513353
 20
182.702371727763
 10
70.60085042104446
 20
182.4598416210516
 10
70.60085042104446
 20
182.4598416210516
 10
70.60085042104446
 20
182.4598416210516
 10
70.60085042104446
 20
181.4897027324053
 10
70.60085042104446
 20
181.4897027324053
 10
70.60085042104446
 20
181.4897027324053
 10
70.98894124447678
 20
180.6487465023776
 10
70.98894124447678
 20
180.6487465023776
 10
70.98894124447678
 20
180.6487465023776
 10
73.57603887049484
 20
180.5843292817988
 10
73.57603887049484
 20
180.5843292817988
 10
73.57603887049484
 20
180.5843292817988
 10
73.96412783524012
 20
181.3763506504815
 10
73.96412783524012
 20
181.3763506504815
 10
73.96412783524012
 20
181.3763506504815
 10
74.02872144470331
 20
179.4684579213782
 10
74.02872144470331
 20
179.4684579213782
 10
74.02872144470331
 20
179.4684579213782
 10
78.21640522675548
 20
179.4198804226175
 10
78.21640522675548
 20
179.4198804226175
 10
78.21640522675548
 20
179.4198804226175
 10
77.73133579468619
 20
178.8542012703825
 10
77.73133579468619
 20
178.8542012703825
 10
77.73133579468619
 20
178.8542012703825
 10
77.7151432950993
 20
146.4480707082429
 10
77.7151432950993
 20
146.4480707082429
 10
77.7151432950993
 20
146.4480707082429
 10
76.50246971492606
 20
146.3667554325396
 10
76.50246971492606
 20
146.3667554325396
 10
76.50246971492606
 20
146.3667554325396
 10
76.51866221451296
 20
139.8589933763442
 10
76.51866221451296
 20
139.8589933763442
 10
76.51866221451296
 20
139.8589933763442
 10
77.7151432950993
 20
139.8183180996042
 10
77.7151432950993
 20
139.8183180996042
 10
77.7151432950993
 20
139.8183180996042
 10
77.73839135006174
 20
108.4619483440163
 10
77.73839135006174
 20
108.4619483440163
 10
77.73839135006174
 20
108.4619483440163
 10
78.43036494351913
 20
106.0775939604018
 10
77.83434690316926
 20
104.7477981609943
 10
77.83434690316926
 20
104.7477981609943
 10
77.83434690316926
 20
101.9513993434475
 10
77.83434690316926
 20
101.9513993434475
 10
77.83434690316926
 20
101.9513993434475
 10
77.9259985674977
 20
101.1259699200615
 10
77.9259985674977
 20
101.1259699200615
 10
77.9259985674977
 20
101.1259699200615
 10
78.01761495404926
 20
100.0255855036902
 10
78.01761495404926
 20
100.0255855036902
 10
78.01761495404926
 20
100.0255855036902
 10
78.15526883942631
 20
98.19142332826142
 10
78.15526883942631
 20
98.19142332826142
 10
78.15526883942631
 20
98.19142332826142
 10
77.23818775171189
 20
97.64123112007577
 10
78.24688522597788
 20
96.90777086101013
 10
78.24688522597788
 20
96.90777086101013
 10
93.05600207038805
 20
96.90777086101013
 10
93.05600207038805
 20
96.90777086101013
 10
93.05600207038805
 20
96.90777086101013
 10
93.74381288617387
 20
97.54993223351611
 10
93.19362067798822
 20
98.05394583176877
 10
93.19362067798822
 20
98.05394583176877
 10
93.43149872747501
 20
100.0714138638708
 10
93.43149872747501
 20
100.0714138638708
 97
        0
 97
        1
330
79
 75
     0
 76
     1
 98
        1
 10
0.0
 20
0.0
450
        0
451
        0
460
0.0
461
0.0
452
        0
462
0.0
453
        0
470

  0
SPLINE
  5
7B
330
70
100
AcDbEntity
  8
grau 10%
100
AcDbSpline
210
0.0
220
0.0
230
1.0
 70
    11
 71
     3
 72
    98
 73
    94
 74
     0
 42
0.0000000001
 43
0.0000000001
 40
0.0
 40
0.0
 40
0.0
 40
0.0
 40
1.0
 40
1.0
 40
1.0
 40
2.0
 40
2.0
 40
2.0
 40
3.0
 40
3.0
 40
3.0
 40
4.0
 40
4.0
 40
4.0
 40
5.0
 40
5.0
 40
5.0
 40
6.0
 40
6.0
 40
6.0
 40
7.0
 40
7.0
 40
7.0
 40
8.0
 40
8.0
 40
8.0
 40
9.0
 40
9.0
 40
9.0
 40
10.0
 40
10.0
 40
10.0
 40
11.0
 40
11.0
 40
11.0
 40
12.0
 40
12.0
 40
12.0
 40
13.0
 40
13.0
 40
13.0
 40
14.0
 40
14.0
 40
14.0
 40
15.0
 40
15.0
 40
15.0
 40
16.0
 40
16.0
 40
16.0
 40
17.0
 40
17.0
 40
17.0
 40
18.0
 40
18.0
 40
18.0
 40
19.0
 40
19.0
 40
19.0
 40
20.0
 40
20.0
 40
20.0
 40
21.0
 40
21.0
 40
21.0
 40
22.0
 40
22.0
 40
22.0
 40
23.0
 40
23.0
 40
23.0
 40
24.0
 40
24.0
 40
24.0
 40
25.0
 40
25.0
 40
25.0
 40
26.0
 40
26.0
 40
26.0
 40
27.0
 40
27.0
 40
27.0
 40
28.0
 40
28.0
 40
28.0
 40
29.0
 40
29.0
 40
29.0
 40
30.0
 40
30.0
 40
30.0
 40
31.0
 40
31.0
 40
31.0
 40
31.0
 10
137.4007320501708
 20
99.998388863889
 30
0.0
 10
137.4007320501708
 20
99.998388863889
 30
0.0
 10
137.3845395505839
 20
139.7618383788229
 30
0.0
 10
137.3845395505839
 20
139.7618383788229
 30
0.0
 10
137.3845395505839
 20
139.7618383788229
 30
0.0
 10
143.2215652350023
 20
139.8100666317141
 30
0.0
 10
143.2215652350023
 20
139.8100666317141
 30
0.0
 10
143.2215652350023
 20
139.8100666317141
 30
0.0
 10
143.2697899559942
 20
146.390885431924
 30
0.0
 10
143.2697899559942
 20
146.390885431924
 30
0.0
 10
143.2697899559942
 20
146.390885431924
 30
0.0
 10
137.3521545514101
 20
146.3746929323371
 30
0.0
 10
137.3521545514101
 20
146.3746929323371
 30
0.0
 10
137.3521545514101
 20
146.3746929323371
 30
0.0
 10
137.368347050997
 20
178.8865862695563
 30
0.0
 10
137.368347050997
 20
178.8865862695563
 30
0.0
 10
137.368347050997
 20
178.8865862695563
 30
0.0
 10
136.7540904000014
 20
179.4684579213782
 30
0.0
 10
136.7540904000014
 20
179.4684579213782
 30
0.0
 10
136.7540904000014
 20
179.4684579213782
 30
0.0
 10
139.5177514406056
 20
179.4212562559157
 30
0.0
 10
139.5177514406056
 20
179.4212562559157
 30
0.0
 10
139.5177514406056
 20
179.4212562559157
 30
0.0
 10
139.4898467190953
 20
192.6201189747402
 30
0.0
 10
139.4898467190953
 20
192.6201189747402
 30
0.0
 10
139.4898467190953
 20
192.6201189747402
 30
0.0
 10
135.3963898790836
 20
192.6201189747402
 30
0.0
 10
135.3963898790836
 20
192.6201189747402
 30
0.0
 10
135.3963898790836
 20
192.6201189747402
 30
0.0
 10
135.3963898790836
 20
192.8150992475436
 30
0.0
 10
135.3963898790836
 20
192.8150992475436
 30
0.0
 10
135.3963898790836
 20
192.8150992475436
 30
0.0
 10
135.0901082202309
 20
193.1492856279067
 30
0.0
 10
135.0901082202309
 20
193.1492856279067
 30
0.0
 10
135.0901082202309
 20
193.1492856279067
 30
0.0
 10
124.0913087786114
 20
193.1213809063964
 30
0.0
 10
124.0913087786114
 20
193.1213809063964
 30
0.0
 10
124.0913087786114
 20
193.1213809063964
 30
0.0
 10
123.8125790635002
 20
192.8709086905643
 30
0.0
 10
123.8125790635002
 20
192.8709086905643
 30
0.0
 10
123.8125790635002
 20
192.8709086905643
 30
0.0
 10
123.7571223982483
 20
192.6480236962505
 30
0.0
 10
123.7571223982483
 20
192.6480236962505
 30
0.0
 10
123.7571223982483
 20
192.6480236962505
 30
0.0
 10
119.691570279747
 20
192.5922142532299
 30
0.0
 10
119.691570279747
 20
192.5922142532299
 30
0.0
 10
119.691570279747
 20
192.5922142532299
 30
0.0
 10
119.691570279747
 20
179.4684579213782
 30
0.0
 10
119.691570279747
 20
179.4684579213782
 30
0.0
 10
119.691570279747
 20
179.4684579213782
 30
0.0
 10
122.1854621605669
 20
179.4198804226175
 30
0.0
 10
122.1854621605669
 20
179.4198804226175
 30
0.0
 10
122.1854621605669
 20
179.4198804226175
 30
0.0
 10
121.7003927284976
 20
178.8542012703825
 30
0.0
 10
121.7003927284976
 20
178.8542012703825
 30
0.0
 10
121.7003927284976
 20
178.8542012703825
 30
0.0
 10
121.6842002289107
 20
146.4477179304741
 30
0.0
 10
121.6842002289107
 20
146.4477179304741
 30
0.0
 10
121.6842002289107
 20
146.4477179304741
 30
0.0
 10
115.8147895453185
 20
146.366441630075
 30
0.0
 10
115.8147895453185
 20
146.366441630075
 30
0.0
 10
115.8147895453185
 20
146.366441630075
 30
0.0
 10
115.8309820449054
 20
139.8586405985755
 30
0.0
 10
115.8309820449054
 20
139.8586405985755
 30
0.0
 10
115.8309820449054
 20
139.8586405985755
 30
0.0
 10
121.6842002289107
 20
139.8180005996123
 30
0.0
 10
121.6842002289107
 20
139.8180005996123
 30
0.0
 10
121.6842002289107
 20
139.8180005996123
 30
0.0
 10
121.7076277473507
 20
107.132117266832
 30
0.0
 10
121.7076277473507
 20
107.132117266832
 30
0.0
 10
121.7076277473507
 20
107.132117266832
 30
0.0
 10
121.9637970147188
 20
104.8860116421472
 30
0.0
 10
121.768972726748
 20
103.2715643097673
 30
0.0
 10
121.768972726748
 20
103.2715643097673
 30
0.0
 10
121.7179610613827
 20
99.998388863889
 30
0.0
 10
121.7179610613827
 20
99.998388863889
 30
0.0
 10
121.7179610613827
 20
99.998388863889
 30
0.0
 10
122.0245954980043
 20
98.18316832847202
 30
0.0
 10
122.0245954980043
 20
98.18316832847202
 30
0.0
 10
122.0245954980043
 20
98.18316832847202
 30
0.0
 10
121.2063627411014
 20
97.54376108672532
 30
0.0
 10
122.0501013306869
 20
97.03247780227304
 30
0.0
 10
122.0501013306869
 20
97.03247780227304
 30
0.0
 10
122.3057241019432
 20
96.85333725128772
 30
0.0
 10
122.3057241019432
 20
96.85333725128772
 30
0.0
 10
122.3057241019432
 20
96.85333725128772
 30
0.0
 10
137.0331376151045
 20
96.87919586173913
 30
0.0
 10
137.0331376151045
 20
96.87919586173913
 30
0.0
 10
137.0331376151045
 20
96.87919586173913
 30
0.0
 10
137.8003587066422
 20
97.44177056960888
 30
0.0
 10
137.1357959458188
 20
98.1576624957894
 30
0.0
 10
137.1357959458188
 20
98.1576624957894
 30
0.0
 10
137.4007320501708
 20
99.998388863889
 30
0.0
 10
137.4007320501708
 20
99.998388863889
 30
0.0
  0
HATCH
  5
7C
330
70
100
AcDbEntity
  8
grau 10%
 62
   255
440
 33554687
100
AcDbHatch
 10
0.0
 20
0.0
 30
0.0
210
0.0
220
0.0
230
1.0
  2
SOLID
 70
     1
 71
     1
 91
        1
 92
        1
 93
        1
 72
     4
 94
        3
 73
     0
 74
     0
 95
       98
 96
       94
 40
0.0
 40
0.0
 40
0.0
 40
0.0
 40
1.0
 40
1.0
 40
1.0
 40
2.0
 40
2.0
 40
2.0
 40
3.0
 40
3.0
 40
3.0
 40
4.0
 40
4.0
 40
4.0
 40
5.0
 40
5.0
 40
5.0
 40
6.0
 40
6.0
 40
6.0
 40
7.0
 40
7.0
 40
7.0
 40
8.0
 40
8.0
 40
8.0
 40
9.0
 40
9.0
 40
9.0
 40
10.0
 40
10.0
 40
10.0
 40
11.0
 40
11.0
 40
11.0
 40
12.0
 40
12.0
 40
12.0
 40
13.0
 40
13.0
 40
13.0
 40
14.0
 40
14.0
 40
14.0
 40
15.0
 40
15.0
 40
15.0
 40
16.0
 40
16.0
 40
16.0
 40
17.0
 40
17.0
 40
17.0
 40
18.0
 40
18.0
 40
18.0
 40
19.0
 40
19.0
 40
19.0
 40
20.0
 40
20.0
 40
20.0
 40
21.0
 40
21.0
 40
21.0
 40
22.0
 40
22.0
 40
22.0
 40
23.0
 40
23.0
 40
23.0
 40
24.0
 40
24.0
 40
24.0
 40
25.0
 40
25.0
 40
25.0
 40
26.0
 40
26.0
 40
26.0
 40
27.0
 40
27.0
 40
27.0
 40
28.0
 40
28.0
 40
28.0
 40
29.0
 40
29.0
 40
29.0
 40
30.0
 40
30.0
 40
30.0
 40
31.0
 40
31.0
 40
31.0
 40
31.0
 10
137.4007320501708
 20
99.998388863889
 10
137.4007320501708
 20
99.998388863889
 10
137.3845395505839
 20
139.7618383788229
 10
137.3845395505839
 20
139.7618383788229
 10
137.3845395505839
 20
139.7618383788229
 10
143.2215652350023
 20
139.8100666317141
 10
143.2215652350023
 20
139.8100666317141
 10
143.2215652350023
 20
139.8100666317141
 10
143.2697899559942
 20
146.390885431924
 10
143.2697899559942
 20
146.390885431924
 10
143.2697899559942
 20
146.390885431924
 10
137.3521545514101
 20
146.3746929323371
 10
137.3521545514101
 20
146.3746929323371
 10
137.3521545514101
 20
146.3746929323371
 10
137.368347050997
 20
178.8865862695563
 10
137.368347050997
 20
178.8865862695563
 10
137.368347050997
 20
178.8865862695563
 10
136.7540904000014
 20
179.4684579213782
 10
136.7540904000014
 20
179.4684579213782
 10
136.7540904000014
 20
179.4684579213782
 10
139.5177514406056
 20
179.4212562559157
 10
139.5177514406056
 20
179.4212562559157
 10
139.5177514406056
 20
179.4212562559157
 10
139.4898467190953
 20
192.6201189747402
 10
139.4898467190953
 20
192.6201189747402
 10
139.4898467190953
 20
192.6201189747402
 10
135.3963898790836
 20
192.6201189747402
 10
135.3963898790836
 20
192.6201189747402
 10
135.3963898790836
 20
192.6201189747402
 10
135.3963898790836
 20
192.8150992475436
 10
135.3963898790836
 20
192.8150992475436
 10
135.3963898790836
 20
192.8150992475436
 10
135.0901082202309
 20
193.1492856279067
 10
135.0901082202309
 20
193.1492856279067
 10
135.0901082202309
 20
193.1492856279067
 10
124.0913087786114
 20
193.1213809063964
 10
124.0913087786114
 20
193.1213809063964
 10
124.0913087786114
 20
193.1213809063964
 10
123.8125790635002
 20
192.8709086905643
 10
123.8125790635002
 20
192.8709086905643
 10
123.8125790635002
 20
192.8709086905643
 10
123.7571223982483
 20
192.6480236962505
 10
123.7571223982483
 20
192.6480236962505
 10
123.7571223982483
 20
192.6480236962505
 10
119.691570279747
 20
192.5922142532299
 10
119.691570279747
 20
192.5922142532299
 10
119.691570279747
 20
192.5922142532299
 10
119.691570279747
 20
179.4684579213782
 10
119.691570279747
 20
179.4684579213782
 10
119.691570279747
 20
179.4684579213782
 10
122.1854621605669
 20
179.4198804226175
 10
122.1854621605669
 20
179.4198804226175
 10
122.1854621605669
 20
179.4198804226175
 10
121.7003927284976
 20
178.8542012703825
 10
121.7003927284976
 20
178.8542012703825
 10
121.7003927284976
 20
178.8542012703825
 10
121.6842002289107
 20
146.4477179304741
 10
121.6842002289107
 20
146.4477179304741
 10
121.6842002289107
 20
146.4477179304741
 10
115.8147895453185
 20
146.366441630075
 10
115.8147895453185
 20
146.366441630075
 10
115.8147895453185
 20
146.366441630075
 10
115.8309820449054
 20
139.8586405985755
 10
115.8309820449054
 20
139.8586405985755
 10
115.8309820449054
 20
139.8586405985755
 10
121.6842002289107
 20
139.8180005996123
 10
121.6842002289107
 20
139.8180005996123
 10
121.6842002289107
 20
139.8180005996123
 10
121.7076277473507
 20
107.132117266832
 10
121.7076277473507
 20
107.132117266832
 10
121.7076277473507
 20
107.132117266832
 10
121.9637970147188
 20
104.8860116421472
 10
121.768972726748
 20
103.2715643097673
 10
121.768972726748
 20
103.2715643097673
 10
121.7179610613827
 20
99.998388863889
 10
121.7179610613827
 20
99.998388863889
 10
121.7179610613827
 20
99.998388863889
 10
122.0245954980043
 20
98.18316832847202
 10
122.0245954980043
 20
98.18316832847202
 10
122.0245954980043
 20
98.18316832847202
 10
121.2063627411014
 20
97.54376108672532
 10
122.0501013306869
 20
97.03247780227304
 10
122.0501013306869
 20
97.03247780227304
 10
122.3057241019432
 20
96.85333725128772
 10
122.3057241019432
 20
96.85333725128772
 10
122.3057241019432
 20
96.85333725128772
 10
137.0331376151045
 20
96.87919586173913
 10
137.0331376151045
 20
96.87919586173913
 10
137.0331376151045
 20
96.87919586173913
 10
137.8003587066422
 20
97.44177056960888
 10
137.1357959458188
 20
98.1576624957894
 10
137.1357959458188
 20
98.1576624957894
 10
137.4007320501708
 20
99.998388863889
 10
137.4007320501708
 20
99.998388863889
 97
        0
 97
        1
330
7B
 75
     0
 76
     1
 98
        1
 10
0.0
 20
0.0
450
        0
451
        0
460
0.0
461
0.0
452
        0
462
0.0
453
        0
470

  0
LINE
  5
7E
330
70
100
AcDbEntity
  8
Standardebene
 62
     7
370
     9
100
AcDbLine
 10
68.8123775689802
 20
57.38607706042849
 30
0.0
 11
68.8123775689802
 21
57.90158107722698
 31
0.0
  0
LINE
  5
7F
330
70
100
AcDbEntity
  8
Standardebene
 62
     7
370
     9
100
AcDbLine
 10
68.8123775689802
 20
58.93323052430733
 30
0.0
 11
68.8123775689802
 21
59.96423855790432
 31
0.0
  0
LINE
  5
80
330
70
100
AcDbEntity
  8
Standardebene
 62
     7
370
     9
100
AcDbLine
 10
68.8123775689802
 20
60.99531073284901
 30
0.0
 11
68.8123775689802
 21
62.02696017992936
 31
0.0
  0
LINE
  5
81
330
70
100
AcDbEntity
  8
Standardebene
 62
     7
370
     9
100
AcDbLine
 10
68.8123775689802
 20
63.05796821352635
 30
0.0
 11
68.8123775689802
 21
64.08897624712335
 31
0.0
  0
LINE
  5
82
330
70
100
AcDbEntity
  8
Standardebene
 62
     7
370
     9
100
AcDbLine
 10
68.8123775689802
 20
65.12126710768704
 30
0.0
 11
68.8123775689802
 21
66.15227514128403
 31
0.0
  0
LINE
  5
83
330
70
100
AcDbEntity
  8
Standardebene
 62
     7
370
     9
100
AcDbLine
 10
68.8123775689802
 20
67.18328317488104
 30
0.0
 11
68.8123775689802
 21
68.21429120847739
 31
0.0
  0
LINE
  5
84
330
70
100
AcDbEntity
  8
Standardebene
 62
     7
370
     9
100
AcDbLine
 10
68.8123775689802
 20
69.24594065555838
 30
0.0
 11
68.8123775689802
 21
70.27701283050307
 31
0.0
  0
LINE
  5
85
330
70
100
AcDbEntity
  8
Standardebene
 62
     7
370
     9
100
AcDbLine
 10
68.8123775689802
 20
71.30866227758341
 30
0.0
 11
68.8123775689802
 21
72.33967031118041
 31
0.0
  0
LINE
  5
86
330
70
100
AcDbEntity
  8
Standardebene
 62
     7
370
     9
100
AcDbLine
 10
68.8123775689802
 20
73.37068319974143
 30
0.0
 11
68.8123775689802
 21
74.40232779185776
 31
0.0
  0
LINE
  5
87
330
70
100
AcDbEntity
  8
Standardebene
 62
     7
370
     9
100
AcDbLine
 10
68.8123775689802
 20
75.43333582545475
 30
0.0
 11
68.8123775689802
 21
76.46434385905109
 31
0.0
  0
LINE
  5
88
330
70
100
AcDbEntity
  8
Standardebene
 62
     7
370
     9
100
AcDbLine
 10
68.8123775689802
 20
77.49599330613145
 30
0.0
 11
68.8123775689802
 21
78.52706548107677
 31
0.0
  0
LINE
  5
89
330
70
100
AcDbEntity
  8
Standardebene
 62
     7
370
     9
100
AcDbLine
 10
68.8123775689802
 20
79.55871492815713
 30
0.0
 11
68.8123775689802
 21
80.58972296175411
 31
0.0
  0
LINE
  5
8A
330
70
100
AcDbEntity
  8
Standardebene
 62
     7
370
     9
100
AcDbLine
 10
68.8123775689802
 20
81.62137240883447
 30
0.0
 11
68.8123775689802
 21
82.65173902894748
 31
0.0
  0
LINE
  5
8B
330
70
100
AcDbEntity
  8
Standardebene
 62
     7
370
     9
100
AcDbLine
 10
68.8123775689802
 20
83.68274706254446
 30
0.0
 11
68.8123775689802
 21
84.71439650962482
 31
0.0
  0
LINE
  5
8C
330
70
100
AcDbEntity
  8
Standardebene
 62
     7
370
     9
100
AcDbLine
 10
68.8123775689802
 20
85.74547385214748
 30
0.0
 11
68.8123775689802
 21
86.77647671816714
 31
0.0
  0
LINE
  5
8D
330
70
100
AcDbEntity
  8
Standardebene
 62
     7
370
     9
100
AcDbLine
 10
68.8123775689802
 20
87.80812616524748
 30
0.0
 11
68.8123775689802
 21
88.83977561232782
 31
0.0
  0
LWPOLYLINE
  5
8E
330
70
100
AcDbEntity
  8
Standardebene
 62
     7
370
     9
100
AcDbPolyline
 90
        3
 70
     0
 43
0.0
 10
68.8123775689802
 20
89.87014223244084
 10
68.8123775689802
 20
90.38628766272267
 10
69.31190658324197
 20
90.38628766272267
  0
LINE
  5
8F
330
70
100
AcDbEntity
  8
Standardebene
 62
     7
370
     9
100
AcDbLine
 10
70.31257575906298
 20
90.38628766272267
 30
0.0
 11
71.31196597785532
 21
90.38628766272267
 31
0.0
  0
LINE
  5
90
330
70
100
AcDbEntity
  8
Standardebene
 62
     7
370
     9
100
AcDbLine
 10
72.31231057699533
 20
90.38628766272267
 30
0.0
 11
73.31259490472632
 21
90.38628766272267
 31
0.0
  0
LINE
  5
91
330
70
100
AcDbEntity
  8
Standardebene
 62
     7
370
     9
100
AcDbLine
 10
74.31198125357998
 20
90.38628766272267
 30
0.0
 11
75.31265042940034
 21
90.38628766272267
 31
0.0
  0
LINE
  5
92
330
70
100
AcDbEntity
  8
Standardebene
 62
     7
370
     9
100
AcDbLine
 10
76.31203677825401
 20
90.38628766272267
 30
0.0
 11
77.31206454059102
 21
90.38628766272267
 31
0.0
  0
LWPOLYLINE
  5
93
330
70
100
AcDbEntity
  8
Standardebene
 62
     7
370
     9
100
AcDbPolyline
 90
        3
 70
     0
 43
0.0
 10
78.31235291510525
 20
90.38628766272267
 10
78.8119458307257
 20
90.38628766272267
 10
78.8119458307257
 20
89.87014223244084
  0
LINE
  5
94
330
70
100
AcDbEntity
  8
Standardebene
 62
     7
370
     9
100
AcDbLine
 10
78.8119458307257
 20
88.83977561232782
 30
0.0
 11
78.8119458307257
 21
87.80812616524748
 31
0.0
  0
LINE
  5
95
330
70
100
AcDbEntity
  8
Standardebene
 62
     7
370
     9
100
AcDbLine
 10
78.8119458307257
 20
86.77647671816714
 30
0.0
 11
78.8119458307257
 21
85.74547385214748
 31
0.0
  0
LINE
  5
96
330
70
100
AcDbEntity
  8
Standardebene
 62
     7
370
     9
100
AcDbLine
 10
78.8119458307257
 20
84.71439650962482
 30
0.0
 11
78.8119458307257
 21
83.68274706254446
 31
0.0
  0
LINE
  5
97
330
70
100
AcDbEntity
  8
Standardebene
 62
     7
370
     9
100
AcDbLine
 10
78.8119458307257
 20
82.65173902894748
 30
0.0
 11
78.8119458307257
 21
81.62137240883447
 31
0.0
  0
LINE
  5
98
330
70
100
AcDbEntity
  8
Standardebene
 62
     7
370
     9
100
AcDbLine
 10
78.8119458307257
 20
80.58972296175411
 30
0.0
 11
78.8119458307257
 21
79.55871492815713
 31
0.0
  0
LINE
  5
99
330
70
100
AcDbEntity
  8
Standardebene
 62
     7
370
     9
100
AcDbLine
 10
78.8119458307257
 20
78.52706548107677
 30
0.0
 11
78.8119458307257
 21
77.49599330613145
 31
0.0
  0
LINE
  5
9A
330
70
100
AcDbEntity
  8
Standardebene
 62
     7
370
     9
100
AcDbLine
 10
78.8119458307257
 20
76.46434385905109
 30
0.0
 11
78.8119458307257
 21
75.43333582545475
 31
0.0
  0
LINE
  5
9B
330
70
100
AcDbEntity
  8
Standardebene
 62
     7
370
     9
100
AcDbLine
 10
78.8119458307257
 20
74.40232779185776
 30
0.0
 11
78.8119458307257
 21
73.37068319974143
 31
0.0
  0
LINE
  5
9C
330
70
100
AcDbEntity
  8
Standardebene
 62
     7
370
     9
100
AcDbLine
 10
78.8119458307257
 20
72.33967031118041
 30
0.0
 11
78.8119458307257
 21
71.30866227758341
 31
0.0
  0
LINE
  5
9D
330
70
100
AcDbEntity
  8
Standardebene
 62
     7
370
     9
100
AcDbLine
 10
78.8119458307257
 20
70.27701283050307
 30
0.0
 11
78.8119458307257
 21
69.24594065555838
 31
0.0
  0
LINE
  5
9E
330
70
100
AcDbEntity
  8
Standardebene
 62
     7
370
     9
100
AcDbLine
 10
78.8119458307257
 20
68.21429120847739
 30
0.0
 11
78.8119458307257
 21
67.18328317488104
 31
0.0
  0
LINE
  5
9F
330
70
100
AcDbEntity
  8
Standardebene
 62
     7
370
     9
100
AcDbLine
 10
78.8119458307257
 20
66.15227514128403
 30
0.0
 11
78.8119458307257
 21
65.12126710768704
 31
0.0
  0
LINE
  5
A0
330
70
100
AcDbEntity
  8
Standardebene
 62
     7
370
     9
100
AcDbLine
 10
78.8119458307257
 20
64.08897624712335
 30
0.0
 11
78.8119458307257
 21
63.05796821352635
 31
0.0
  0
LINE
  5
A1
330
70
100
AcDbEntity
  8
Standardebene
 62
     7
370
     9
100
AcDbLine
 10
78.8119458307257
 20
62.02696017992936
 30
0.0
 11
78.8119458307257
 21
60.99531073284901
 31
0.0
  0
LINE
  5
A2
330
70
100
AcDbEntity
  8
Standardebene
 62
     7
370
     9
100
AcDbLine
 10
78.8119458307257
 20
59.96423855790432
 30
0.0
 11
78.8119458307257
 21
58.93323052430733
 31
0.0
  0
LINE
  5
A3
330
70
100
AcDbEntity
  8
Standardebene
 62
     7
370
     9
100
AcDbLine
 10
78.8119458307257
 20
57.90158107722698
 30
0.0
 11
78.8119458307257
 21
57.38607706042849
 31
0.0
  0
LINE
  5
A4
330
70
100
AcDbEntity
  8
Standardebene
 62
     7
370
     9
100
AcDbLine
 10
68.8123775689802
 20
90.38628766272267
 30
0.0
 11
68.8123775689802
 21
91.13667729722902
 31
0.0
  0
LWPOLYLINE
  5
A5
330
70
100
AcDbEntity
  8
Standardebene
 62
     7
370
     9
100
AcDbPolyline
 90
        3
 70
     0
 43
0.0
 10
68.8123775689802
 20
92.63687929410536
 10
68.8123775689802
 20
93.38669165647603
 10
69.31190658324197
 20
93.38669165647603
  0
LINE
  5
A6
330
70
100
AcDbEntity
  8
Standardebene
 62
     7
370
     9
100
AcDbLine
 10
70.31257575906298
 20
93.38669165647603
 30
0.0
 11
71.31196597785532
 21
93.38669165647603
 31
0.0
  0
LINE
  5
A7
330
70
100
AcDbEntity
  8
Standardebene
 62
     7
370
     9
100
AcDbLine
 10
72.31231057699533
 20
93.38669165647603
 30
0.0
 11
73.31259490472632
 21
93.38669165647603
 31
0.0
  0
LINE
  5
A8
330
70
100
AcDbEntity
  8
Standardebene
 62
     7
370
     9
100
AcDbLine
 10
74.31198125357998
 20
93.38669165647603
 30
0.0
 11
75.31265042940034
 21
93.38669165647603
 31
0.0
  0
LINE
  5
A9
330
70
100
AcDbEntity
  8
Standardebene
 62
     7
370
     9
100
AcDbLine
 10
76.31203677825401
 20
93.38669165647603
 30
0.0
 11
77.31206454059102
 21
93.38669165647603
 31
0.0
  0
LINE
  5
AA
330
70
100
AcDbEntity
  8
Standardebene
 62
     7
370
     9
100
AcDbLine
 10
78.31235291510525
 20
93.38669165647603
 30
0.0
 11
78.8119458307257
 21
93.38669165647603
 31
0.0
  0
LINE
  5
AB
330
70
100
AcDbEntity
  8
Standardebene
 62
     7
370
     9
100
AcDbLine
 10
78.8119458307257
 20
90.38628766272267
 30
0.0
 11
78.8119458307257
 21
90.76151455065001
 31
0.0
  0
LINE
  5
AC
330
70
100
AcDbEntity
  8
Standardebene
 62
     7
370
     9
100
AcDbLine
 10
78.8119458307257
 20
91.51126277167234
 30
0.0
 11
78.8119458307257
 21
92.26165240617802
 31
0.0
  0
LINE
  5
AD
330
70
100
AcDbEntity
  8
Standardebene
 62
     7
370
     9
100
AcDbLine
 10
78.8119458307257
 20
93.01146476854935
 30
0.0
 11
78.8119458307257
 21
93.38669165647603
 31
0.0
  0
SPLINE
  5
AE
330
70
100
AcDbEntity
  8
Standardebene
 62
     7
370
     9
100
AcDbSpline
210
0.0
220
0.0
230
1.0
 70
     8
 71
     3
 72
    17
 73
    13
 74
     0
 42
0.0000000001
 43
0.0000000001
 40
0.0
 40
0.0
 40
0.0
 40
0.0
 40
1.0
 40
1.0
 40
1.0
 40
2.0
 40
2.0
 40
2.0
 40
3.0
 40
3.0
 40
3.0
 40
4.0
 40
4.0
 40
4.0
 40
4.0
 10
71.88006203037305
 20
141.9039131135488
 30
0.0
 10
71.83279373972496
 20
141.7263057199299
 30
0.0
 10
71.81053280874697
 20
141.5471655111974
 30
0.0
 10
71.81245704919766
 20
141.3861707227372
 30
0.0
 10
71.81245704919766
 20
140.2819066961295
 30
0.0
 10
72.70754956561221
 20
139.3864934729733
 30
0.0
 10
73.81212772578232
 20
139.3864934729733
 30
0.0
 10
74.9170907340418
 20
139.3864934729733
 30
0.0
 10
75.81250395719802
 20
140.2819066961295
 30
0.0
 10
75.81250395719802
 20
141.3861707227372
 30
0.0
 10
75.81250395719802
 20
142.3069773466658
 30
0.0
 10
75.19052530211637
 20
143.0821255416404
 30
0.0
 10
74.32987668977318
 20
143.3179732795732
 30
0.0
  0
SPLINE
  5
AF
330
70
100
AcDbEntity
  8
Standardebene
 62
     7
370
     9
100
AcDbSpline
210
0.0
220
0.0
230
1.0
 70
     9
 71
     3
 72
    17
 73
    13
 74
     0
 42
0.0000000001
 43
0.0000000001
 40
0.0
 40
0.0
 40
0.0
 40
0.0
 40
1.0
 40
1.0
 40
1.0
 40
2.0
 40
2.0
 40
2.0
 40
3.0
 40
3.0
 40
3.0
 40
4.0
 40
4.0
 40
4.0
 40
4.0
 10
92.81246278614311
 20
143.3956484524417
 30
0.0
 10
91.7028174594526
 20
143.3956484524417
 30
0.0
 10
90.80272191786599
 20
142.4958160774604
 30
0.0
 10
90.80272191786599
 20
141.3861707227372
 30
0.0
 10
90.80272191786599
 20
140.2768395296091
 30
0.0
 10
91.7028174594526
 20
139.3770646947642
 30
0.0
 10
92.81246278614311
 20
139.3770646947642
 30
0.0
 10
93.92179184720308
 20
139.3770646947642
 30
0.0
 10
94.82188294767857
 20
140.2768395296091
 30
0.0
 10
94.82188294767857
 20
141.3861707227372
 30
0.0
 10
94.82188294767857
 20
142.4958160774604
 30
0.0
 10
93.92179184720308
 20
143.3956484524417
 30
0.0
 10
92.81246278614311
 20
143.3956484524417
 30
0.0
  0
SPLINE
  5
B0
330
70
100
AcDbEntity
  8
Standardebene
 62
     7
370
     9
100
AcDbSpline
210
0.0
220
0.0
230
1.0
 70
     9
 71
     3
 72
    17
 73
    13
 74
     0
 42
0.0000000001
 43
0.0000000001
 40
0.0
 40
0.0
 40
0.0
 40
0.0
 40
1.0
 40
1.0
 40
1.0
 40
2.0
 40
2.0
 40
2.0
 40
3.0
 40
3.0
 40
3.0
 40
4.0
 40
4.0
 40
4.0
 40
4.0
 10
153.7104397284063
 20
77.2736843462648
 30
0.0
 10
152.3925274435793
 20
77.2736843462648
 30
0.0
 10
151.3238684384929
 20
76.20502038761732
 30
0.0
 10
151.3238684384929
 20
74.88653083065459
 30
0.0
 10
151.3238684384929
 20
73.56797713234353
 30
0.0
 10
152.3925274435793
 20
72.50002368208946
 30
0.0
 10
153.7104397284063
 20
72.50002368208946
 30
0.0
 10
155.0289292853691
 20
72.50002368208946
 30
0.0
 10
156.0969468769715
 20
73.56797713234353
 30
0.0
 10
156.0969468769715
 20
74.88653083065459
 30
0.0
 10
156.0969468769715
 20
76.20502038761732
 30
0.0
 10
155.0289292853691
 20
77.2736843462648
 30
0.0
 10
153.7104397284063
 20
77.2736843462648
 30
0.0
  0
SPLINE
  5
B1
330
70
100
AcDbEntity
  8
Standardebene
 62
     7
370
     9
100
AcDbSpline
210
0.0
220
0.0
230
1.0
 70
     8
 71
     3
 72
     8
 73
     4
 74
     0
 42
0.0000000001
 43
0.0000000001
 40
0.0
 40
0.0
 40
0.0
 40
0.0
 40
1.0
 40
1.0
 40
1.0
 40
1.0
 10
152.8127815580571
 20
73.68452196232043
 30
0.0
 10
152.9123930720658
 20
73.60993043518149
 30
0.0
 10
153.0182904382146
 20
73.549183717273
 30
0.0
 10
153.1184851609042
 20
73.50845396106222
 30
0.0
  0
LWPOLYLINE
  5
B2
330
70
100
AcDbEntity
  8
Standardebene
 62
     7
370
     9
100
AcDbPolyline
 90
        3
 70
     0
 43
0.0
 10
152.8127815580571
 20
73.68452196232043
 10
152.2215266088415
 20
74.0265236317954
 10
152.2215266088415
 20
74.70988555726137
  0
SPLINE
  5
B3
330
70
100
AcDbEntity
  8
Standardebene
 62
     7
370
     9
100
AcDbSpline
210
0.0
220
0.0
230
1.0
 70
     8
 71
     3
 72
     8
 73
     4
 74
     0
 42
0.0000000001
 43
0.0000000001
 40
0.0
 40
0.0
 40
0.0
 40
0.0
 40
1.0
 40
1.0
 40
1.0
 40
1.0
 10
152.2215266088415
 20
75.06317610404781
 30
0.0
 10
152.2064533919763
 20
74.93976814979649
 30
0.0
 10
152.2070948054596
 20
74.81764302251185
 30
0.0
 10
152.2215266088415
 20
74.70988555726137
 30
0.0
  0
LWPOLYLINE
  5
B4
330
70
100
AcDbEntity
  8
Standardebene
 62
     7
370
     9
100
AcDbPolyline
 90
        3
 70
     0
 43
0.0
 10
152.2215266088415
 20
75.06317610404781
 10
152.2215266088415
 20
75.75846832030989
 10
153.7210871922344
 20
76.62411995782512
  0
LINE
  5
B5
330
70
100
AcDbEntity
  8
Standardebene
 62
     7
370
     9
100
AcDbLine
 10
155.2205836342792
 20
75.75846832030989
 30
0.0
 11
153.7210871922344
 21
76.62411995782512
 31
0.0
  0
LINE
  5
B6
330
70
100
AcDbEntity
  8
Standardebene
 62
     7
370
     9
100
AcDbLine
 10
155.2205836342792
 20
74.0265236317954
 30
0.0
 11
155.2205836342792
 21
75.75846832030989
 31
0.0
  0
LINE
  5
B7
330
70
100
AcDbEntity
  8
Standardebene
 62
     7
370
     9
100
AcDbLine
 10
153.7210871922344
 20
73.16087199428015
 30
0.0
 11
155.2205836342792
 21
74.0265236317954
 31
0.0
  0
LINE
  5
B8
330
70
100
AcDbEntity
  8
Standardebene
 62
     7
370
     9
100
AcDbLine
 10
153.7210871922344
 20
73.16087199428015
 30
0.0
 11
153.1184851609042
 21
73.50845396106222
 31
0.0
  0
SPLINE
  5
B9
330
70
100
AcDbEntity
  8
Standardebene
 62
     7
370
     9
100
AcDbSpline
210
0.0
220
0.0
230
1.0
 70
     8
 71
     3
 72
     8
 73
     4
 74
     0
 42
0.0000000001
 43
0.0000000001
 40
0.0
 40
0.0
 40
0.0
 40
0.0
 40
1.0
 40
1.0
 40
1.0
 40
1.0
 10
153.7104397284063
 20
76.38666868618262
 30
0.0
 10
152.9443354635515
 20
76.38666868618262
 30
0.0
 10
152.3129280302594
 20
75.81170563945114
 30
0.0
 10
152.2215266088415
 20
75.06317610404781
 30
0.0
  0
SPLINE
  5
BA
330
70
100
AcDbEntity
  8
Standardebene
 62
     7
370
     9
100
AcDbSpline
210
0.0
220
0.0
230
1.0
 70
     8
 71
     3
 72
     8
 73
     4
 74
     0
 42
0.0000000001
 43
0.0000000001
 40
0.0
 40
0.0
 40
0.0
 40
0.0
 40
1.0
 40
1.0
 40
1.0
 40
1.0
 10
152.2215266088415
 20
74.70988555726137
 30
0.0
 10
152.2716210019136
 20
74.28520568974583
 30
0.0
 10
152.4945763288254
 20
73.92255050609796
 30
0.0
 10
152.8127815580571
 20
73.68452196232043
 30
0.0
  0
SPLINE
  5
BB
330
70
100
AcDbEntity
  8
Standardebene
 62
     7
370
     9
100
AcDbSpline
210
0.0
220
0.0
230
1.0
 70
     8
 71
     3
 72
    14
 73
    10
 74
     0
 42
0.0000000001
 43
0.0000000001
 40
0.0
 40
0.0
 40
0.0
 40
0.0
 40
1.0
 40
1.0
 40
1.0
 40
2.0
 40
2.0
 40
2.0
 40
3.0
 40
3.0
 40
3.0
 40
3.0
 10
153.1184851609042
 20
73.50845396106222
 30
0.0
 10
153.3151365984411
 20
73.4232791067283
 30
0.0
 10
153.5193685983038
 20
73.38446873467524
 30
0.0
 10
153.7104397284063
 20
73.38632883377823
 30
0.0
 10
154.5390818079155
 20
73.38632883377823
 30
0.0
 10
155.2105775839344
 20
74.05846602328042
 30
0.0
 10
155.2105775839344
 20
74.88653083065459
 30
0.0
 10
155.2105775839344
 20
75.71459563802877
 30
0.0
 10
154.5390818079155
 20
76.38666868618262
 30
0.0
 10
153.7104397284063
 20
76.38666868618262
 30
0.0
  0
SPLINE
  5
BC
330
70
100
AcDbEntity
  8
Standardebene
 62
     7
370
     9
100
AcDbSpline
210
0.0
220
0.0
230
1.0
 70
     9
 71
     3
 72
    17
 73
    13
 74
     0
 42
0.0000000001
 43
0.0000000001
 40
0.0
 40
0.0
 40
0.0
 40
0.0
 40
1.0
 40
1.0
 40
1.0
 40
2.0
 40
2.0
 40
2.0
 40
3.0
 40
3.0
 40
3.0
 40
4.0
 40
4.0
 40
4.0
 40
4.0
 10
153.7104397284063
 20
65.27283776426583
 30
0.0
 10
152.3925274435793
 20
65.27283776426583
 30
0.0
 10
151.3238684384929
 20
64.20424287353341
 30
0.0
 10
151.3238684384929
 20
62.88632596530518
 30
0.0
 10
151.3238684384929
 20
61.56841368047812
 30
0.0
 10
152.3925274435793
 20
60.49981881674006
 30
0.0
 10
153.7104397284063
 20
60.49981881674006
 30
0.0
 10
155.0289292853691
 20
60.49981881674006
 30
0.0
 10
156.0969468769715
 20
61.56841368047812
 30
0.0
 10
156.0969468769715
 20
62.88632596530518
 30
0.0
 10
156.0969468769715
 20
64.20424287353341
 30
0.0
 10
155.0289292853691
 20
65.27283776426583
 30
0.0
 10
153.7104397284063
 20
65.27283776426583
 30
0.0
  0
SPLINE
  5
BD
330
70
100
AcDbEntity
  8
Standardebene
 62
     7
370
     9
100
AcDbSpline
210
0.0
220
0.0
230
1.0
 70
     8
 71
     3
 72
     8
 73
     4
 74
     0
 42
0.0000000001
 43
0.0000000001
 40
0.0
 40
0.0
 40
0.0
 40
0.0
 40
1.0
 40
1.0
 40
1.0
 40
1.0
 10
152.8127815580571
 20
61.68495851045502
 30
0.0
 10
152.9123930720658
 20
61.61036668018195
 30
0.0
 10
153.0182904382146
 20
61.54962026540758
 30
0.0
 10
153.1184851609042
 20
61.50831323706115
 30
0.0
  0
LWPOLYLINE
  5
BE
330
70
100
AcDbEntity
  8
Standardebene
 62
     7
370
     9
100
AcDbPolyline
 90
        3
 70
     0
 43
0.0
 10
152.8127815580571
 20
61.68495851045502
 10
152.2215266088415
 20
62.026318766446
 10
152.2215266088415
 20
62.70968069191197
  0
SPLINE
  5
BF
330
70
100
AcDbEntity
  8
Standardebene
 62
     7
370
     9
100
AcDbSpline
210
0.0
220
0.0
230
1.0
 70
     8
 71
     3
 72
     8
 73
     4
 74
     0
 42
0.0000000001
 43
0.0000000001
 40
0.0
 40
0.0
 40
0.0
 40
0.0
 40
1.0
 40
1.0
 40
1.0
 40
1.0
 10
152.2215266088415
 20
63.06297123869907
 30
0.0
 10
152.2064533919763
 20
62.93892187096374
 30
0.0
 10
152.2070948054596
 20
62.81807957064646
 30
0.0
 10
152.2215266088415
 20
62.70968069191197
 30
0.0
  0
LWPOLYLINE
  5
C0
330
70
100
AcDbEntity
  8
Standardebene
 62
     7
370
     9
100
AcDbPolyline
 90
        3
 70
     0
 43
0.0
 10
152.2215266088415
 20
63.06297123869907
 10
152.2215266088415
 20
63.75826345496048
 10
153.7210871922344
 20
64.62455650595973
  0
LINE
  5
C1
330
70
100
AcDbEntity
  8
Standardebene
 62
     7
370
     9
100
AcDbLine
 10
155.2205836342792
 20
63.75826345496048
 30
0.0
 11
153.7210871922344
 21
64.62455650595973
 31
0.0
  0
LINE
  5
C2
330
70
100
AcDbEntity
  8
Standardebene
 62
     7
370
     9
100
AcDbLine
 10
155.2205836342792
 20
62.026318766446
 30
0.0
 11
155.2205836342792
 21
63.75826345496048
 31
0.0
  0
LINE
  5
C3
330
70
100
AcDbEntity
  8
Standardebene
 62
     7
370
     9
100
AcDbLine
 10
153.7210871922344
 20
61.16002571544677
 30
0.0
 11
155.2205836342792
 21
62.026318766446
 31
0.0
  0
LINE
  5
C4
330
70
100
AcDbEntity
  8
Standardebene
 62
     7
370
     9
100
AcDbLine
 10
153.7210871922344
 20
61.16002571544677
 30
0.0
 11
153.1184851609042
 21
61.50831323706115
 31
0.0
  0
SPLINE
  5
C5
330
70
100
AcDbEntity
  8
Standardebene
 62
     7
370
     9
100
AcDbSpline
210
0.0
220
0.0
230
1.0
 70
     8
 71
     3
 72
     8
 73
     4
 74
     0
 42
0.0000000001
 43
0.0000000001
 40
0.0
 40
0.0
 40
0.0
 40
0.0
 40
1.0
 40
1.0
 40
1.0
 40
1.0
 10
153.7104397284063
 20
64.3871052343172
 30
0.0
 10
152.9443354635515
 20
64.3871052343172
 30
0.0
 10
152.3129280302594
 20
63.81214218758573
 30
0.0
 10
152.2215266088415
 20
63.06297123869907
 30
0.0
  0
SPLINE
  5
C6
330
70
100
AcDbEntity
  8
Standardebene
 62
     7
370
     9
100
AcDbSpline
210
0.0
220
0.0
230
1.0
 70
     8
 71
     3
 72
     8
 73
     4
 74
     0
 42
0.0000000001
 43
0.0000000001
 40
0.0
 40
0.0
 40
0.0
 40
0.0
 40
1.0
 40
1.0
 40
1.0
 40
1.0
 10
152.2215266088415
 20
62.70968069191197
 30
0.0
 10
152.2716210019136
 20
62.28500082439643
 30
0.0
 10
152.4945763288254
 20
61.92292291288358
 30
0.0
 10
152.8127815580571
 20
61.68495851045502
 30
0.0
  0
SPLINE
  5
C7
330
70
100
AcDbEntity
  8
Standardebene
 62
     7
370
     9
100
AcDbSpline
210
0.0
220
0.0
230
1.0
 70
     8
 71
     3
 72
    14
 73
    10
 74
     0
 42
0.0000000001
 43
0.0000000001
 40
0.0
 40
0.0
 40
0.0
 40
0.0
 40
1.0
 40
1.0
 40
1.0
 40
2.0
 40
2.0
 40
2.0
 40
3.0
 40
3.0
 40
3.0
 40
3.0
 10
153.1184851609042
 20
61.50831323706115
 30
0.0
 10
153.3151365984411
 20
61.42371535172811
 30
0.0
 10
153.5193685983038
 20
61.38490528280982
 30
0.0
 10
153.7104397284063
 20
61.38676538191219
 30
0.0
 10
154.5390818079155
 20
61.38676538191219
 30
0.0
 10
155.2105775839344
 20
62.05826115793101
 30
0.0
 10
155.2105775839344
 20
62.88632596530518
 30
0.0
 10
155.2105775839344
 20
63.71503218616336
 30
0.0
 10
154.5390818079155
 20
64.3871052343172
 30
0.0
 10
153.7104397284063
 20
64.3871052343172
 30
0.0
  0
LINE
  5
C8
330
70
100
AcDbEntity
  8
Standardebene
 62
     7
370
    35
100
AcDbLine
 10
34.31228186975711
 20
213.3864312214281
 30
0.0
 11
45.81263320730883
 21
213.3864312214281
 31
0.0
  0
LINE
  5
C9
330
70
100
AcDbEntity
  8
Standardebene
 62
     7
370
    35
100
AcDbLine
 10
45.81263320730883
 20
225.3866360867768
 30
0.0
 11
34.31228186975711
 21
225.3866360867768
 31
0.0
  0
LINE
  5
CA
330
70
100
AcDbEntity
  8
Standardebene
 62
     7
370
    35
100
AcDbLine
 10
24.5125742427182
 20
213.3864312214281
 30
0.0
 11
29.31252790616142
 21
213.3864312214281
 31
0.0
  0
LINE
  5
CB
330
70
100
AcDbEntity
  8
Standardebene
 62
     7
370
    35
100
AcDbLine
 10
29.31252790616142
 20
225.3866360867768
 30
0.0
 11
24.5125742427182
 21
225.3866360867768
 31
0.0
  0
LINE
  5
CC
330
70
100
AcDbEntity
  8
Standardebene
 62
     7
370
    35
100
AcDbLine
 10
29.31252790616142
 20
213.3864312214281
 30
0.0
 11
30.31255566849843
 21
214.386458983765
 31
0.0
  0
LINE
  5
CD
330
70
100
AcDbEntity
  8
Standardebene
 62
     7
370
    35
100
AcDbLine
 10
30.31255566849843
 20
224.3862876176981
 30
0.0
 11
29.31252790616142
 21
225.3866360867768
 31
0.0
  0
LINE
  5
CE
330
70
100
AcDbEntity
  8
Standardebene
 62
     7
370
    35
100
AcDbLine
 10
34.31228186975711
 20
225.3866360867768
 30
0.0
 11
33.3122541074201
 21
224.3862876176981
 31
0.0
  0
LINE
  5
CF
330
70
100
AcDbEntity
  8
Standardebene
 62
     7
370
    35
100
AcDbLine
 10
33.3122541074201
 20
214.386458983765
 30
0.0
 11
34.31228186975711
 21
213.3864312214281
 31
0.0
  0
LINE
  5
D0
330
70
100
AcDbEntity
  8
Standardebene
 62
     7
370
    35
100
AcDbLine
 10
30.31255566849843
 20
214.386458983765
 30
0.0
 11
33.3122541074201
 21
214.386458983765
 31
0.0
  0
LINE
  5
D1
330
70
100
AcDbEntity
  8
Standardebene
 62
     7
370
    35
100
AcDbLine
 10
33.3122541074201
 20
224.3862876176981
 30
0.0
 11
30.31255566849843
 21
224.3862876176981
 31
0.0
  0
LINE
  5
D2
330
70
100
AcDbEntity
  8
Standardebene
 62
     7
370
    35
100
AcDbLine
 10
52.81244269557856
 20
227.8861602911591
 30
0.0
 11
52.05294498960479
 21
229.2009296499165
 31
0.0
  0
LINE
  5
D3
330
70
100
AcDbEntity
  8
Standardebene
 62
     7
370
    35
100
AcDbLine
 10
47.37171696198315
 20
229.2009296499165
 30
0.0
 11
46.6118985492677
 21
227.8861602911591
 31
0.0
  0
LINE
  5
D4
330
70
100
AcDbEntity
  8
Standardebene
 62
     7
370
    35
100
AcDbLine
 10
52.05294498960479
 20
209.5714321034567
 30
0.0
 11
52.81244269557856
 21
210.886201462214
 31
0.0
  0
LINE
  5
D5
330
70
100
AcDbEntity
  8
Standardebene
 62
     7
370
    35
100
AcDbLine
 10
46.6118985492677
 20
210.886201462214
 30
0.0
 11
47.37171696198315
 21
209.5714321034567
 31
0.0
  0
LINE
  5
D6
330
70
100
AcDbEntity
  8
Standardebene
 62
     7
370
    35
100
AcDbLine
 10
59.56229334927527
 20
71.3863374504519
 30
0.0
 11
59.56229334927527
 21
66.38337641943818
 31
0.0
  0
LINE
  5
D7
330
70
100
AcDbEntity
  8
Standardebene
 62
     7
370
    35
100
AcDbLine
 10
59.56229334927527
 20
206.3866217331577
 30
0.0
 11
59.56229334927527
 21
147.385368603355
 31
0.0
  0
LINE
  5
D8
330
70
100
AcDbEntity
  8
Standardebene
 62
     7
370
    35
100
AcDbLine
 10
59.56229334927527
 20
135.3867031303669
 30
0.0
 11
59.56229334927527
 21
78.37607674702915
 31
0.0
  0
LINE
  5
D9
330
70
100
AcDbEntity
  8
Standardebene
 62
     7
370
    35
100
AcDbLine
 10
88.06196210228874
 20
62.88632596530518
 30
0.0
 11
88.06196210228874
 21
135.3854844447479
 31
0.0
  0
LWPOLYLINE
  5
DA
330
70
100
AcDbEntity
  8
Standardebene
 62
     7
370
    35
100
AcDbPolyline
 90
        3
 70
     0
 43
0.0
 10
88.06196210228874
 20
147.385368603355
 10
88.06196210228874
 20
206.3866217331577
 10
87.06225504669339
 20
207.3860080820113
  0
LINE
  5
DB
330
70
100
AcDbEntity
  8
Standardebene
 62
     7
370
    35
100
AcDbLine
 10
60.5620004048706
 20
207.3860080820113
 30
0.0
 11
59.56229334927527
 21
206.3866217331577
 31
0.0
  0
LINE
  5
DC
330
70
100
AcDbEntity
  8
Standardebene
 62
     7
370
    35
100
AcDbLine
 10
87.6648630145695
 20
59.65360200777934
 30
0.0
 11
88.06196210228874
 21
62.88632596530518
 31
0.0
  0
LINE
  5
DD
330
70
100
AcDbEntity
  8
Standardebene
 62
     7
370
    35
100
AcDbLine
 10
87.93137031702002
 20
59.1318121388408
 30
0.0
 11
87.6648630145695
 21
59.65360200777934
 31
0.0
  0
LINE
  5
DE
330
70
100
AcDbEntity
  8
Standardebene
 62
     7
370
    35
100
AcDbLine
 10
59.82411833329604
 20
59.38863409768885
 30
0.0
 11
59.69320584128565
 21
59.1318121388408
 31
0.0
  0
LINE
  5
DF
330
70
100
AcDbEntity
  8
Standardebene
 62
     7
370
    35
100
AcDbLine
 10
63.31244556405096
 20
231.7863479766377
 30
0.0
 11
63.31244556405096
 21
231.3861059527375
 31
0.0
  0
LWPOLYLINE
  5
E0
330
70
100
AcDbEntity
  8
Standardebene
 62
     7
370
    35
100
AcDbPolyline
 90
        3
 70
     0
 43
0.0
 10
84.31219473560306
 20
231.3861059527375
 10
84.31219473560306
 20
231.7863479766377
 10
83.81202050106372
 20
232.2865133542967
  0
LINE
  5
E1
330
70
100
AcDbEntity
  8
Standardebene
 62
     7
370
    35
100
AcDbLine
 10
63.81197838510694
 20
232.2865133542967
 30
0.0
 11
63.31244556405096
 21
231.7863479766377
 31
0.0
  0
LINE
  5
E2
330
70
100
AcDbEntity
  8
Standardebene
 62
     7
370
    35
100
AcDbLine
 10
86.31250682567106
 20
207.3860080820113
 30
0.0
 11
86.31250682567106
 21
231.3861059527375
 31
0.0
  0
SPLINE
  5
E3
330
70
100
AcDbEntity
  8
Standardebene
 62
     7
370
    35
100
AcDbSpline
210
0.0
220
0.0
230
1.0
 70
     8
 71
     3
 72
     8
 73
     4
 74
     0
 42
0.0000000001
 43
0.0000000001
 40
0.0
 40
0.0
 40
0.0
 40
0.0
 40
1.0
 40
1.0
 40
1.0
 40
1.0
 10
46.6118985492677
 20
212.5858830525012
 30
0.0
 10
46.6118985492677
 20
213.0278169427266
 30
0.0
 10
46.2542463907919
 20
213.3864312214281
 30
0.0
 10
45.81263320730883
 20
213.3864312214281
 30
0.0
  0
SPLINE
  5
E4
330
70
100
AcDbEntity
  8
Standardebene
 62
     7
370
    35
100
AcDbSpline
210
0.0
220
0.0
230
1.0
 70
     8
 71
     3
 72
     8
 73
     4
 74
     0
 42
0.0000000001
 43
0.0000000001
 40
0.0
 40
0.0
 40
0.0
 40
0.0
 40
1.0
 40
1.0
 40
1.0
 40
1.0
 10
45.81263320730883
 20
225.3866360867768
 30
0.0
 10
46.2542463907919
 20
225.3866360867768
 30
0.0
 10
46.6118985492677
 20
225.7442882452526
 30
0.0
 10
46.6118985492677
 20
226.1859014287363
 30
0.0
  0
SPLINE
  5
E5
330
70
100
AcDbEntity
  8
Standardebene
 62
     7
370
    35
100
AcDbSpline
210
0.0
220
0.0
230
1.0
 70
     8
 71
     3
 72
     8
 73
     4
 74
     0
 42
0.0000000001
 43
0.0000000001
 40
0.0
 40
0.0
 40
0.0
 40
0.0
 40
1.0
 40
1.0
 40
1.0
 40
1.0
 10
23.31178671735577
 20
214.5865799906592
 30
0.0
 10
23.31178671735577
 20
213.9232301658828
 30
0.0
 10
23.84922441794178
 20
213.3864312214281
 30
0.0
 10
24.5125742427182
 20
213.3864312214281
 30
0.0
  0
SPLINE
  5
E6
330
70
100
AcDbEntity
  8
Standardebene
 62
     7
370
    35
100
AcDbSpline
210
0.0
220
0.0
230
1.0
 70
     8
 71
     3
 72
     8
 73
     4
 74
     0
 42
0.0000000001
 43
0.0000000001
 40
0.0
 40
0.0
 40
0.0
 40
0.0
 40
1.0
 40
1.0
 40
1.0
 40
1.0
 10
24.5125742427182
 20
225.3866360867768
 30
0.0
 10
23.84922441794178
 20
225.3866360867768
 30
0.0
 10
23.31178671735577
 20
224.8488750220964
 30
0.0
 10
23.31178671735577
 20
224.1861666108033
 30
0.0
  0
SPLINE
  5
E7
330
70
100
AcDbEntity
  8
Standardebene
 62
     7
370
    35
100
AcDbSpline
210
0.0
220
0.0
230
1.0
 70
     8
 71
     3
 72
    11
 73
     7
 74
     0
 42
0.0000000001
 43
0.0000000001
 40
0.0
 40
0.0
 40
0.0
 40
0.0
 40
1.0
 40
1.0
 40
1.0
 40
2.0
 40
2.0
 40
2.0
 40
2.0
 10
59.69320584128565
 20
59.1318121388408
 30
0.0
 10
59.60270239874436
 20
58.95388403848022
 30
0.0
 10
59.56075395691458
 20
58.76473120215587
 30
0.0
 10
59.56229334927527
 20
58.58686724314363
 30
0.0
 10
59.56229334927527
 20
57.92416329660254
 30
0.0
 10
60.09941658715863
 20
57.38607706042849
 30
0.0
 10
60.76212141176539
 20
57.38607706042849
 30
0.0
  0
SPLINE
  5
E8
330
70
100
AcDbEntity
  8
Standardebene
 62
     7
370
    35
100
AcDbSpline
210
0.0
220
0.0
230
1.0
 70
     8
 71
     3
 72
    11
 73
     7
 74
     0
 42
0.0000000001
 43
0.0000000001
 40
0.0
 40
0.0
 40
0.0
 40
0.0
 40
1.0
 40
1.0
 40
1.0
 40
2.0
 40
2.0
 40
2.0
 40
2.0
 10
86.86245474654027
 20
57.38607706042849
 30
0.0
 10
87.52516315783335
 20
57.38607706042849
 30
0.0
 10
88.06196210228874
 20
57.92416329660254
 30
0.0
 10
88.06196210228874
 20
58.58686724314363
 30
0.0
 10
88.06196210228874
 20
58.78538471632941
 30
0.0
 10
88.01373210017983
 20
58.97267745355076
 30
0.0
 10
87.93137031702002
 20
59.1318121388408
 30
0.0
  0
LWPOLYLINE
  5
E9
330
70
100
AcDbEntity
  8
Standardebene
 62
     7
370
    35
100
AcDbPolyline
 90
        6
 70
     0
 43
0.0
 10
84.55676569691334
 20
207.3860080820113
 10
85.43967135713844
 20
207.3860080820113
 10
86.14118528419158
 20
207.3860080820113
 10
86.65046759019835
 20
207.3860080820113
 10
86.95892333447931
 20
207.3860080820113
 10
87.06225504669339
 20
207.3860080820113
  0
LWPOLYLINE
  5
EA
330
70
100
AcDbEntity
  8
Standardebene
 62
     7
370
    35
100
AcDbPolyline
 90
        9
 70
     0
 43
0.0
 10
59.99890350758691
 20
62.88632596530518
 10
59.99390048241419
 20
63.2427640372729
 10
59.99390048241419
 20
63.2427640372729
 10
59.92244702033742
 20
64.34265527990106
 10
59.79063654945035
 20
65.29290935590821
 10
59.71796440175392
 20
65.68500541845537
 10
59.65279679181655
 20
65.99878489465005
 10
59.60148371312599
 20
66.22430587549647
 10
59.56447772829271
 20
66.3783733942661
  0
LWPOLYLINE
  5
EB
330
70
100
AcDbEntity
  8
Standardebene
 62
     7
370
    35
100
AcDbPolyline
 90
       25
 70
     0
 43
0.0
 10
59.99890350758691
 20
62.88632596530518
 10
60.51973125629914
 20
62.88632596530518
 10
61.23381688763174
 20
62.88632596530518
 10
62.13077314115098
 20
62.88632596530518
 10
63.19718356104203
 20
62.88632596530518
 10
64.41766513770442
 20
62.88632596530518
 10
65.77444707964054
 20
62.88632596530518
 10
67.24797004287118
 20
62.88632596530518
 10
68.81673537387534
 20
62.88632596530518
 10
70.45817661984853
 20
62.88632596530518
 10
72.14817286653323
 20
62.88632596530518
 10
73.86228626020221
 20
62.88632596530518
 10
75.57544151128952
 20
62.88632596530518
 10
77.26318883313784
 20
62.88632596530518
 10
78.90117050795812
 20
62.88632596530518
 10
80.46525322614668
 20
62.88632596530518
 10
81.93223000457066
 20
62.88632596530518
 10
83.28208468088339
 20
62.88632596530518
 10
84.49352232742667
 20
62.88632596530518
 10
85.55050760711095
 20
62.88632596530518
 10
86.43687690014806
 20
62.88632596530518
 10
87.14025092630356
 20
62.88632596530518
 10
87.64985393905202
 20
62.88632596530518
 10
87.95830968333296
 20
62.88632596530518
 10
88.06196210228874
 20
62.88632596530518
  0
LWPOLYLINE
  5
EC
330
70
100
AcDbEntity
  8
Standardebene
 62
     7
370
    35
100
AcDbPolyline
 90
       17
 70
     0
 43
0.0
 10
59.56229334927527
 20
71.3863374504519
 10
59.56229334927527
 20
71.38691472258756
 10
59.57422364007137
 20
71.43450760307276
 10
59.57422364007137
 20
71.43450760307276
 10
59.60738471717539
 20
71.57670897239526
 10
59.72547251675219
 20
72.12415538067877
 10
59.8683117223182
 20
72.9842267208863
 10
59.93001569944418
 20
73.50973678802957
 10
59.97510706734367
 20
74.07661802486696
 10
59.99672270174222
 20
74.65600682463547
 10
59.99390048241419
 20
75.24290016216305
 10
59.92244702033742
 20
76.34221873176712
 10
59.79063654945035
 20
77.29247280777426
 10
59.71796440175392
 20
77.68521028380414
 10
59.65279679181655
 20
77.99834834651547
 10
59.60148371312599
 20
78.22515215432922
 10
59.56447772829271
 20
78.37857825961487
  0
LWPOLYLINE
  5
ED
330
70
100
AcDbEntity
  8
Standardebene
 62
     7
370
    35
100
AcDbPolyline
 90
       27
 70
     0
 43
0.0
 10
88.06196210228874
 20
206.3866217331577
 10
87.9579889765913
 20
206.3866217331577
 10
87.64792969860133
 20
206.3866217331577
 10
87.13621002135653
 20
206.3866217331577
 10
86.42994963452466
 20
206.3866217331577
 10
85.5395394365405
 20
206.3866217331577
 10
84.47844911056149
 20
206.3866217331577
 10
83.26200843884551
 20
206.3866217331577
 10
81.9068941719674
 20
206.3866217331577
 10
80.43452952028067
 20
206.3866217331577
 10
78.86550385660992
 20
206.3866217331577
 10
77.22213837018539
 20
206.3866217331577
 10
75.52970475226267
 20
206.3866217331577
 10
73.81212772578232
 20
206.3866217331577
 10
72.09493554739133
 20
206.3866217331577
 10
70.4021170813786
 20
206.3866217331577
 10
68.75881573630241
 20
206.3866217331577
 10
67.19004663802564
 20
206.3866217331577
 10
65.71774612768662
 20
206.3866217331577
 10
64.36256771946016
 20
206.3866217331577
 10
63.14613071139714
 20
206.3866217331577
 10
62.08471601502349
 20
206.3866217331577
 10
61.19462652378102
 20
206.3866217331577
 10
60.48843027829812
 20
206.3866217331577
 10
59.97664645970434
 20
206.3866217331577
 10
59.66658718171502
 20
206.3866217331577
 10
59.56229334927527
 20
206.3866217331577
  0
LWPOLYLINE
  5
EE
330
70
100
AcDbEntity
  8
Standardebene
 62
     7
370
    35
100
AcDbPolyline
 90
        8
 70
     0
 43
0.0
 10
60.02423934019019
 20
59.65360200777934
 10
60.05149941324481
 20
59.92479162866025
 10
60.0790801930411
 20
60.27930086106636
 10
60.10069941415806
 20
60.70776506813494
 10
60.10852107194041
 20
61.19825395907183
 10
60.09601350900928
 20
61.73312866307588
 10
60.06029036366865
 20
62.29943262777826
 10
59.99890350758691
 20
62.88632596530518
  0
LWPOLYLINE
  5
EF
330
70
100
AcDbEntity
  8
Standardebene
 62
     7
370
    35
100
AcDbPolyline
 90
       26
 70
     0
 43
0.0
 10
60.02423934019019
 20
59.65360200777934
 10
60.28920725028067
 20
59.65360200777934
 10
60.75461687400697
 20
59.65360200777934
 10
61.41328438035301
 20
59.65360200777934
 10
62.25603755650234
 20
59.65360200777934
 10
63.26921429525382
 20
59.65360200777934
 10
64.43902420670965
 20
59.65360200777934
 10
65.74814912681095
 20
59.65360200777934
 10
67.17625624812717
 20
59.65360200777934
 10
68.70275619783313
 20
59.65360200777934
 10
70.30442980782057
 20
59.65360200777934
 10
71.95902003020889
 20
59.65360200777934
 10
73.64022891216781
 20
59.65360200777934
 10
75.32451657884748
 20
59.65360200777934
 10
76.98603406685919
 20
59.65360200777934
 10
78.6011132186551
 20
59.65360200777934
 10
80.14454648432858
 20
59.65360200777934
 10
81.59426924004273
 20
59.65360200777934
 10
82.9294355475803
 20
59.65360200777934
 10
84.12830148984475
 20
59.65360200777934
 10
85.17502415379027
 20
59.65360200777934
 10
86.05350406097832
 20
59.65360200777934
 10
86.75065637634274
 20
59.65360200777934
 10
87.25615434279648
 20
59.65360200777934
 10
87.56307069471608
 20
59.65360200777934
 10
87.6648630145695
 20
59.65360200777934
  0
LWPOLYLINE
  5
F0
330
70
100
AcDbEntity
  8
Standardebene
 62
     7
370
    35
100
AcDbPolyline
 90
        3
 70
     0
 43
0.0
 10
60.02423934019019
 20
59.65360200777934
 10
59.84259104162426
 20
59.41114771096476
 10
59.84823548028032
 20
59.41929816472891
  0
LWPOLYLINE
  5
F1
330
70
100
AcDbEntity
  8
Standardebene
 62
     7
370
    35
100
AcDbPolyline
 90
       26
 70
     0
 43
0.0
 10
60.76212141176539
 20
57.38607706042849
 10
60.8651965585855
 20
57.38607706042849
 10
61.17243361724744
 20
57.38607706042849
 10
61.67825229044284
 20
57.38607706042849
 10
62.37662329142628
 20
57.38607706042849
 10
63.25484663322098
 20
57.38607706042849
 10
64.29932434997413
 20
57.38607706042849
 10
65.49414938729156
 20
57.38607706042849
 10
66.81956620987704
 20
57.38607706042849
 10
68.25549857569336
 20
57.38607706042849
 10
69.77981771955464
 20
57.38607706042849
 10
71.3670595261609
 20
57.38607706042849
 10
72.99252957639159
 20
57.38607706042849
 10
74.63211072326243
 20
57.38607706042849
 10
76.2571959254031
 20
57.38607706042849
 10
77.84476247372251
 20
57.38607706042849
 10
79.36811953584144
 20
57.38607706042849
 10
80.80443267629361
 20
57.38607706042849
 10
82.1304909123631
 20
57.38607706042849
 10
83.32499941635239
 20
57.38607706042849
 10
84.36979366643367
 20
57.38607706042849
 10
85.24763216013772
 20
57.38607706042849
 10
85.9454258889855
 20
57.38607706042849
 10
86.45220668240657
 20
57.38607706042849
 10
86.75912729449425
 20
57.38607706042849
 10
86.86245474654027
 20
57.38607706042849
  0
LINE
  5
F2
330
70
100
AcDbEntity
  8
Standardebene
 62
     7
370
    35
100
AcDbLine
 10
52.81244269557856
 20
231.3861059527375
 30
0.0
 11
52.81244269557856
 21
207.3860080820113
 31
0.0
  0
LWPOLYLINE
  5
F3
330
70
100
AcDbEntity
  8
Standardebene
 62
     7
370
    35
100
AcDbPolyline
 90
       25
 70
     0
 43
0.0
 10
86.31250682567106
 20
231.3861059527375
 10
86.20635289412893
 20
231.3861059527375
 10
85.88878907838056
 20
231.3861059527375
 10
85.36385628337296
 20
231.3861059527375
 10
84.63790450259322
 20
231.3861059527375
 10
83.71991352481341
 20
231.3861059527375
 10
82.61937626959033
 20
231.3861059527375
 10
81.35033969221643
 20
231.3861059527375
 10
79.92717145472394
 20
231.3861059527375
 10
78.36718972117293
 20
231.3861059527375
 10
76.68816164505803
 20
231.3861059527375
 10
74.91048417516072
 20
231.3861059527375
 10
73.05519567374324
 20
231.3861059527375
 10
71.14410419924919
 20
231.3861059527375
 10
69.19979132288353
 20
231.3861059527375
 10
67.24456678413424
 20
231.3861059527375
 10
65.30217433163918
 20
231.3861059527375
 10
63.39448234860816
 20
231.3861059527375
 10
61.54573626472343
 20
231.3861059527375
 10
59.77652545281021
 20
231.3861059527375
 10
58.10782767015627
 20
231.3861059527375
 10
56.55945548154366
 20
231.3861059527375
 10
55.1500741366905
 20
231.3861059527375
 10
53.89636734157512
 20
231.3861059527375
 10
52.81244269557856
 20
231.3861059527375
  0
LWPOLYLINE
  5
F4
330
70
100
AcDbEntity
  8
Standardebene
 62
     7
370
    35
100
AcDbPolyline
 90
       21
 70
     0
 43
0.0
 10
52.81244269557856
 20
207.3860080820113
 10
53.89072290291907
 20
207.3860080820113
 10
55.1372458670177
 20
207.3860080820113
 10
56.53847776336932
 20
207.3860080820113
 10
58.0768438625224
 20
207.3860080820113
 10
59.73457701098041
 20
207.3860080820113
 10
61.49314035906552
 20
207.3860080820113
 10
63.33059756563813
 20
207.3860080820113
 10
65.22667996461471
 20
207.3860080820113
 10
67.15906636676567
 20
207.3860080820113
 10
69.1046017453311
 20
207.3860080820113
 10
71.04070834568675
 20
207.3860080820113
 10
72.94557810938974
 20
207.3860080820113
 10
74.79586358563451
 20
207.3860080820113
 10
76.57039812946277
 20
207.3860080820113
 10
78.24814337860968
 20
207.3860080820113
 10
79.81037005935434
 20
207.3860080820113
 10
81.23854132201826
 20
207.3860080820113
 10
82.51444102366722
 20
207.3860080820113
 10
83.62536917732507
 20
207.3860080820113
 10
84.55740711039734
 20
207.3860080820113
  0
LWPOLYLINE
  5
F5
330
70
100
AcDbEntity
  8
Standardebene
 62
     7
370
    35
100
AcDbPolyline
 90
       23
 70
     0
 43
0.0
 10
63.81197838510694
 20
232.2865133542967
 10
63.91377070496035
 20
232.2865133542967
 10
64.21722342406859
 20
232.2865133542967
 10
64.71585826624725
 20
232.2865133542967
 10
65.39954089845489
 20
232.2865133542967
 10
66.25486577888368
 20
232.2865133542967
 10
67.26336396686754
 20
232.2865133542967
 10
68.40616660299932
 20
232.2865133542967
 10
69.65769259227065
 20
232.2865133542967
 10
70.99471899890993
 20
232.2865133542967
 10
72.38902362963816
 20
232.2865133542967
 10
73.81212772578232
 20
232.2865133542967
 10
75.23561667001586
 20
232.2865133542967
 10
76.6296005940024
 20
232.2865133542967
 10
77.9663062939
 20
232.2865133542967
 10
79.21840955530637
 20
232.2865133542967
 10
80.36128010044924
 20
232.2865133542967
 10
81.36971037942199
 20
232.2865133542967
 10
82.22445798771577
 20
232.2865133542967
 10
82.90878203340676
 20
232.2865133542967
 10
83.40735273423772
 20
232.2865133542967
 10
83.71054888795198
 20
232.2865133542967
 10
83.81202050106372
 20
232.2865133542967
  0
LWPOLYLINE
  5
F6
330
70
100
AcDbEntity
  8
Standardebene
 62
     7
370
    35
100
AcDbPolyline
 90
       23
 70
     0
 43
0.0
 10
84.31219473560306
 20
231.7863479766377
 10
84.20533524922925
 20
231.7863479766377
 10
83.88719416134584
 20
231.7863479766377
 10
83.36348422634234
 20
231.7863479766377
 10
82.64567422241929
 20
231.7863479766377
 10
81.74743877993504
 20
231.7863479766377
 10
80.68852925980007
 20
231.7863479766377
 10
79.48870527381153
 20
231.7863479766377
 10
78.17393183855322
 20
231.7863479766377
 10
76.77051913635691
 20
231.7863479766377
 10
75.30668925485681
 20
231.7863479766377
 10
73.81212772578232
 20
231.7863479766377
 10
72.31763430890971
 20
231.7863479766377
 10
70.85373631520709
 20
231.7863479766377
 10
69.45032361301078
 20
231.7863479766377
 10
68.13523354751175
 20
231.7863479766377
 10
66.93604689850561
 20
231.7863479766377
 10
65.87713737837065
 20
231.7863479766377
 10
64.9789019358864
 20
231.7863479766377
 10
64.26109610634907
 20
231.7863479766377
 10
63.7374461383088
 20
231.7863479766377
 10
63.41924090907642
 20
231.7863479766377
 10
63.31244556405096
 20
231.7863479766377
  0
LWPOLYLINE
  5
F7
330
70
100
AcDbEntity
  8
Standardebene
 62
     7
370
    35
100
AcDbPolyline
 90
        9
 70
     0
 43
0.0
 10
34.31228186975711
 20
219.3865421977373
 10
34.31228186975711
 20
218.2158257637699
 10
34.31228186975711
 20
217.0902092413363
 10
34.31228186975711
 20
216.0525946488581
 10
34.31228186975711
 20
215.1437117425458
 10
34.31228186975711
 20
214.3974271543349
 10
34.31228186975711
 20
213.8433741871703
 10
34.31228186975711
 20
213.5016932244369
 10
34.31228186975711
 20
213.3864312214281
  0
LWPOLYLINE
  5
F8
330
70
100
AcDbEntity
  8
Standardebene
 62
     7
370
    35
100
AcDbPolyline
 90
        9
 70
     0
 43
0.0
 10
34.31228186975711
 20
225.3866360867768
 10
34.31228186975711
 20
225.2710533770255
 10
34.31228186975711
 20
224.9296931210346
 10
34.31228186975711
 20
224.3746780336443
 10
34.31228186975711
 20
223.6286500108274
 10
34.31228186975711
 20
222.719510539121
 10
34.31228186975711
 20
221.6828580668686
 10
34.31228186975711
 20
220.5569208376932
 10
34.31228186975711
 20
219.3865421977373
  0
LWPOLYLINE
  5
F9
330
70
100
AcDbEntity
  8
Standardebene
 62
     7
370
    35
100
AcDbPolyline
 90
        8
 70
     0
 43
0.0
 10
52.05294498960479
 20
229.2009296499165
 10
47.37171696198315
 20
229.2009296499165
 10
46.82048621414594
 20
227.999241488324
 10
46.66577728189295
 20
227.377583539984
 10
46.6118985492677
 20
226.7474035218968
 10
46.6165808676981
 20
226.5729944661108
 10
46.84242255528682
 20
225.4317274546769
 10
47.37171696198315
 20
224.2936033693128
  0
LINE
  5
FA
330
70
100
AcDbEntity
  8
Standardebene
 62
     7
370
    35
100
AcDbLine
 10
52.05294498960479
 20
224.2936033693128
 30
0.0
 11
47.37171696198315
 21
224.2936033693128
 31
0.0
  0
LWPOLYLINE
  5
FB
330
70
100
AcDbEntity
  8
Standardebene
 62
     7
370
    35
100
AcDbPolyline
 90
        4
 70
     0
 43
0.0
 10
52.81244269557856
 20
226.7474035218968
 10
52.80808108388984
 20
226.5729944661108
 10
52.58223939630175
 20
225.4317274546769
 10
52.05294498960479
 20
224.2936033693128
  0
LWPOLYLINE
  5
FC
330
70
100
AcDbEntity
  8
Standardebene
 62
     7
370
    35
100
AcDbPolyline
 90
        4
 70
     0
 43
0.0
 10
52.05294498960479
 20
229.2009296499165
 10
52.60417573744199
 20
227.999241488324
 10
52.75824325621162
 20
227.377583539984
 10
52.81244269557856
 20
226.7474035218968
  0
LINE
  5
FD
330
70
100
AcDbEntity
  8
Standardebene
 62
     7
370
    35
100
AcDbLine
 10
52.05294498960479
 20
209.5714321034567
 30
0.0
 11
47.37171696198315
 21
209.5714321034567
 31
0.0
  0
LWPOLYLINE
  5
FE
330
70
100
AcDbEntity
  8
Standardebene
 62
     7
370
    35
100
AcDbPolyline
 90
        8
 70
     0
 43
0.0
 10
52.05294498960479
 20
214.4788225254087
 10
47.37171696198315
 20
214.4788225254087
 10
46.82048621414594
 20
213.2768136570745
 10
46.66577728189295
 20
212.6548350019922
 10
46.6118985492677
 20
212.0249669610615
 10
46.6165808676981
 20
211.8505024935123
 10
46.84242255528682
 20
210.7089789166852
 10
47.37171696198315
 20
209.5714321034567
  0
LWPOLYLINE
  5
FF
330
70
100
AcDbEntity
  8
Standardebene
 62
     7
370
    35
100
AcDbPolyline
 90
        4
 70
     0
 43
0.0
 10
52.81244269557856
 20
212.0249669610615
 10
52.80808108388984
 20
211.8505024935123
 10
52.58223939630175
 20
210.7089789166852
 10
52.05294498960479
 20
209.5714321034567
  0
LWPOLYLINE
  5
100
330
70
100
AcDbEntity
  8
Standardebene
 62
     7
370
    35
100
AcDbPolyline
 90
        4
 70
     0
 43
0.0
 10
52.05294498960479
 20
214.4788225254087
 10
52.60417573744199
 20
213.2768136570745
 10
52.75824325621162
 20
212.6548350019922
 10
52.81244269557856
 20
212.0249669610615
  0
LWPOLYLINE
  5
101
330
70
100
AcDbEntity
  8
Standardebene
 62
     7
370
    35
100
AcDbPolyline
 90
        7
 70
     0
 43
0.0
 10
47.37171696198315
 20
224.2936033693128
 10
47.05569253859545
 20
223.0799849169248
 10
46.7293413581213
 20
221.2569039632696
 10
46.6118985492677
 20
219.3865421977373
 10
46.67078355451584
 20
218.0720850020867
 10
46.93228458434412
 20
216.2674681658764
 10
47.37171696198315
 20
214.4788225254087
  0
LWPOLYLINE
  5
102
330
70
100
AcDbEntity
  8
Standardebene
 62
     7
370
    35
100
AcDbPolyline
 90
        4
 70
     0
 43
0.0
 10
52.81244269557856
 20
219.3865421977373
 10
52.75388164452291
 20
218.0720850020867
 10
52.49205666050213
 20
216.2674681658764
 10
52.05294498960479
 20
214.4788225254087
  0
LWPOLYLINE
  5
103
330
70
100
AcDbEntity
  8
Standardebene
 62
     7
370
    35
100
AcDbPolyline
 90
        4
 70
     0
 43
0.0
 10
52.05294498960479
 20
224.2936033693128
 10
52.36896941299248
 20
223.0799849169248
 10
52.69435847324096
 20
221.2569039632696
 10
52.81244269557856
 20
219.3865421977373
  0
LWPOLYLINE
  5
104
330
70
100
AcDbEntity
  8
Standardebene
 62
     7
370
    35
100
AcDbPolyline
 90
        4
 70
     0
 43
0.0
 10
46.6118985492677
 20
210.886201462214
 10
46.6118985492677
 20
211.0152538551214
 10
46.6118985492677
 20
211.3988832596845
 10
46.6118985492677
 20
212.0249669610615
  0
LWPOLYLINE
  5
105
330
70
100
AcDbEntity
  8
Standardebene
 62
     7
370
    35
100
AcDbPolyline
 90
        4
 70
     0
 43
0.0
 10
46.6118985492677
 20
226.7474035218968
 10
46.6118985492677
 20
227.373157786947
 10
46.6118985492677
 20
227.7568513328578
 10
46.6118985492677
 20
227.8861602911591
  0
LWPOLYLINE
  5
106
330
70
100
AcDbEntity
  8
Standardebene
 62
     7
370
    35
100
AcDbPolyline
 90
        7
 70
     0
 43
0.0
 10
46.6118985492677
 20
219.3865421977373
 10
46.6118985492677
 20
220.8625543626462
 10
46.6118985492677
 20
222.2935478446381
 10
46.6118985492677
 20
223.6364752553274
 10
46.6118985492677
 20
224.8504144144571
 10
46.6118985492677
 20
225.8974577851449
 10
46.6118985492677
 20
226.7474035218968
  0
LWPOLYLINE
  5
107
330
70
100
AcDbEntity
  8
Standardebene
 62
     7
370
    35
100
AcDbPolyline
 90
        7
 70
     0
 43
0.0
 10
46.6118985492677
 20
212.0249669610615
 10
46.6118985492677
 20
212.8746474028342
 10
46.6118985492677
 20
213.9225887523994
 10
46.6118985492677
 20
215.1365363477994
 10
46.6118985492677
 20
216.479198756825
 10
46.6118985492677
 20
217.9104488042103
 10
46.6118985492677
 20
219.3865421977373
  0
LWPOLYLINE
  5
108
330
70
100
AcDbEntity
  8
Standardebene
 62
     7
370
    35
100
AcDbPolyline
 90
       16
 70
     0
 43
0.0
 10
30.31255566849843
 20
214.386458983765
 10
30.31255566849843
 20
214.4954351346346
 10
30.31255566849843
 20
214.8183226822973
 10
30.31255566849843
 20
215.3410105301126
 10
30.31255566849843
 20
216.0404077926694
 10
30.31255566849843
 20
216.8863123753622
 10
30.31255566849843
 20
217.8409195825842
 10
30.31255566849843
 20
218.8634609581972
 10
30.31255566849843
 20
219.908900795176
 10
30.31255566849843
 20
220.9315063121372
 10
30.31255566849843
 20
221.8866992719681
 10
30.31255566849843
 20
222.7320181020521
 10
30.31255566849843
 20
223.4310305165189
 10
30.31255566849843
 20
223.9537825056825
 10
30.31255566849843
 20
224.2769907600863
 10
30.31255566849843
 20
224.3862876176981
  0
LWPOLYLINE
  5
109
330
70
100
AcDbEntity
  8
Standardebene
 62
     7
370
    35
100
AcDbPolyline
 90
       16
 70
     0
 43
0.0
 10
33.3122541074201
 20
214.386458983765
 10
33.3122541074201
 20
214.4954351346346
 10
33.3122541074201
 20
214.8183226822973
 10
33.3122541074201
 20
215.3410105301126
 10
33.3122541074201
 20
216.0404077926694
 10
33.3122541074201
 20
216.8863123753622
 10
33.3122541074201
 20
217.8409195825842
 10
33.3122541074201
 20
218.8634609581972
 10
33.3122541074201
 20
219.908900795176
 10
33.3122541074201
 20
220.9315063121372
 10
33.3122541074201
 20
221.8866992719681
 10
33.3122541074201
 20
222.7320181020521
 10
33.3122541074201
 20
223.4310305165189
 10
33.3122541074201
 20
223.9537825056825
 10
33.3122541074201
 20
224.2769907600863
 10
33.3122541074201
 20
224.3862876176981
  0
LWPOLYLINE
  5
10A
330
70
100
AcDbEntity
  8
Standardebene
 62
     7
370
    35
100
AcDbPolyline
 90
       16
 70
     0
 43
0.0
 10
23.31178671735577
 20
214.5865799906592
 10
23.31178671735577
 20
214.691451095234
 10
23.31178671735577
 20
215.0012538078299
 10
23.31178671735577
 20
215.5029674347306
 10
23.31178671735577
 20
216.1744632107494
 10
23.31178671735577
 20
216.9859154088972
 10
23.31178671735577
 20
217.9026235597103
 10
23.31178671735577
 20
218.8844993204607
 10
23.31178671735577
 20
219.8879265742608
 10
23.31178671735577
 20
220.8694902093662
 10
23.31178671735577
 20
221.7858690723403
 10
23.31178671735577
 20
222.597962683972
 10
23.31178671735577
 20
223.2691377532492
 10
23.31178671735577
 20
223.7708513801492
 10
23.31178671735577
 20
224.0815520716225
 10
23.31178671735577
 20
224.1861666108033
  0
LWPOLYLINE
  5
10B
330
70
100
AcDbEntity
  8
Standardebene
 62
     7
370
    35
100
AcDbPolyline
 90
       18
 70
     0
 43
0.0
 10
29.31252790616142
 20
213.3864312214281
 10
29.31252790616142
 20
213.4885442480225
 10
29.31252790616142
 20
213.7913555536474
 10
29.31252790616142
 20
214.2852439360473
 10
29.31252790616142
 20
214.9523781003774
 10
29.31252790616142
 20
215.7707575641485
 10
29.31252790616142
 20
216.7119035686882
 10
29.31252790616142
 20
217.7441302879036
 10
29.31252790616142
 20
218.8328013936795
 10
29.31252790616142
 20
219.9399452077837
 10
29.31252790616142
 20
221.028231465469
 10
29.31252790616142
 20
222.0605223260333
 10
29.31252790616142
 20
223.0023097440563
 10
29.31252790616142
 20
223.8206892078274
 10
29.31252790616142
 20
224.4877592308092
 10
29.31252790616142
 20
224.9807496343318
 10
29.31252790616142
 20
225.2838816466984
 10
29.31252790616142
 20
225.3866360867768
  0
LINE
  5
10C
330
70
100
AcDbEntity
  8
Standardebene
 62
     7
370
    35
100
AcDbLine
 10
74.062407267097
 20
147.1864730017873
 30
0.0
 11
74.062407267097
 21
147.3862665822323
 31
0.0
  0
LWPOLYLINE
  5
10D
330
70
100
AcDbEntity
  8
Standardebene
 62
     7
370
    35
100
AcDbPolyline
 90
        3
 70
     0
 43
0.0
 10
73.56223303255766
 20
147.1864730017873
 10
73.81212772578232
 20
147.1864730017873
 10
74.062407267097
 20
147.1864730017873
  0
LINE
  5
10E
330
70
100
AcDbEntity
  8
Standardebene
 62
     7
370
    35
100
AcDbLine
 10
73.56223303255766
 20
147.3862665822323
 30
0.0
 11
73.56223303255766
 21
147.1864730017873
 31
0.0
  0
LWPOLYLINE
  5
10F
330
70
100
AcDbEntity
  8
Standardebene
 62
     7
370
    35
100
AcDbPolyline
 90
       16
 70
     0
 43
0.0
 10
73.56223303255766
 20
147.3862665822323
 10
71.02948360972297
 20
147.3862665822323
 10
68.5248922388209
 20
147.3862665822323
 10
66.0757189929041
 20
147.3862665822323
 10
63.70582445356546
 20
147.3862665822323
 10
61.43990303992363
 20
147.3862665822323
 10
59.3014304854808
 20
147.3862665822323
 10
57.31234313137657
 20
147.3862665822323
 10
57.31234313137657
 20
135.3867031303669
 10
59.3014304854808
 20
135.3867031303669
 10
61.43990303992363
 20
135.3867031303669
 10
63.70582445356546
 20
135.3867031303669
 10
66.0757189929041
 20
135.3867031303669
 10
68.5248922388209
 20
135.3867031303669
 10
71.02948360972297
 20
135.3867031303669
 10
73.56223303255766
 20
135.3867031303669
  0
LINE
  5
110
330
70
100
AcDbEntity
  8
Standardebene
 62
     7
370
    35
100
AcDbLine
 10
73.56223303255766
 20
135.5865098571872
 30
0.0
 11
73.56223303255766
 21
135.3867031303669
 31
0.0
  0
LWPOLYLINE
  5
111
330
70
100
AcDbEntity
  8
Standardebene
 62
     7
370
    35
100
AcDbPolyline
 90
        3
 70
     0
 43
0.0
 10
74.062407267097
 20
135.5865098571872
 10
73.81212772578232
 20
135.5865098571872
 10
73.56223303255766
 20
135.5865098571872
  0
LINE
  5
112
330
70
100
AcDbEntity
  8
Standardebene
 62
     7
370
    35
100
AcDbLine
 10
74.062407267097
 20
135.3867031303669
 30
0.0
 11
74.062407267097
 21
135.5865098571872
 31
0.0
  0
LWPOLYLINE
  5
113
330
70
100
AcDbEntity
  8
Standardebene
 62
     7
370
    35
100
AcDbPolyline
 90
       17
 70
     0
 43
0.0
 10
74.062407267097
 20
135.3867031303669
 10
76.43352049205464
 20
135.3867031303669
 10
78.78154283160139
 20
135.3867031303669
 10
81.08376824841695
 20
135.3867031303669
 10
83.32121090338516
 20
135.3867031303669
 10
85.47315314098478
 20
135.3867031303669
 10
87.51894144704229
 20
135.3867031303669
 10
89.4415783642418
 20
135.3867031303669
 10
91.22272383987789
 20
135.3867031303669
 10
92.84658598347281
 20
135.3867031303669
 10
94.29919509986332
 20
135.3867031303669
 10
95.56630743678651
 20
135.3867031303669
 10
96.63714724771693
 20
135.3867031303669
 10
97.50216200330811
 20
135.3867031303669
 10
98.15299973359477
 20
135.3867031303669
 10
98.58454272538537
 20
135.3867031303669
 10
98.79216827003794
 20
135.3867031303669
  0
LINE
  5
114
330
70
100
AcDbEntity
  8
Standardebene
 62
     7
370
    35
100
AcDbLine
 10
98.79216827003794
 20
147.3862665822323
 30
0.0
 11
98.79216827003794
 21
135.3867031303669
 31
0.0
  0
LWPOLYLINE
  5
115
330
70
100
AcDbEntity
  8
Standardebene
 62
     7
370
    35
100
AcDbPolyline
 90
       17
 70
     0
 43
0.0
 10
98.79216827003794
 20
147.3862665822323
 10
98.58454272538537
 20
147.3862665822323
 10
98.15299973359477
 20
147.3862665822323
 10
97.50216200330811
 20
147.3862665822323
 10
96.63714724771693
 20
147.3862665822323
 10
95.56630743678651
 20
147.3862665822323
 10
94.29919509986332
 20
147.3862665822323
 10
92.84658598347281
 20
147.3862665822323
 10
91.22272383987789
 20
147.3862665822323
 10
89.4415783642418
 20
147.3862665822323
 10
87.51894144704229
 20
147.3862665822323
 10
85.47315314098478
 20
147.3862665822323
 10
83.32121090338516
 20
147.3862665822323
 10
81.08376824841695
 20
147.3862665822323
 10
78.78154283160139
 20
147.3862665822323
 10
76.43352049205464
 20
147.3862665822323
 10
74.062407267097
 20
147.3862665822323
  0
LWPOLYLINE
  5
116
330
70
100
AcDbEntity
  8
Standardebene
 62
     7
370
    35
100
AcDbPolyline
 90
       26
 70
     0
 43
0.0
 10
94.91206568347754
 20
141.3861707227372
 10
94.87415814659478
 20
141.7845460642439
 10
94.73920474963801
 20
142.2205148090715
 10
94.41849800781991
 20
142.7391617519397
 10
94.08560440981238
 20
143.0567255676881
 10
93.71505984031607
 20
143.2819258417928
 10
92.84440517762812
 20
143.4861585212128
 10
92.39150311683294
 20
143.4435620396692
 10
91.93520156457408
 20
143.2944334047233
 10
91.33701934973503
 20
142.8813631212622
 10
90.96307528877503
 20
142.3815095934646
 10
90.76699518682728
 20
141.8610025514934
 10
90.71472434800512
 20
141.2778294121718
 10
90.80618555067736
 20
140.7651476147013
 10
91.0116302894859
 20
140.3060303890074
 10
91.43380864441573
 20
139.8020652690214
 10
91.77080728871798
 20
139.5628180396248
 10
92.12377712876277
 20
139.4024646687158
 10
92.62048773049073
 20
139.2947072034653
 10
93.10623016164825
 20
139.3072147663958
 10
93.5806837154943
 20
139.4319055476151
 10
94.02011609313333
 20
139.6689719711669
 10
94.50367771844682
 20
140.14156542591
 10
94.76614411595031
 20
140.617622513465
 10
94.88140611895985
 20
141.0269791628271
 10
94.91206568347754
 20
141.3861707227372
  0
LWPOLYLINE
  5
117
330
70
100
AcDbEntity
  8
Standardebene
 62
     7
370
    35
100
AcDbPolyline
 90
       20
 70
     0
 43
0.0
 10
73.81212772578232
 20
143.5863406811267
 10
73.08521382477692
 20
143.4629327268748
 10
72.4409781218127
 20
143.1065633953663
 10
71.94894983851577
 20
142.5562947677554
 10
71.6664713403221
 20
141.8728687009405
 10
71.626703704337
 20
141.1353073361076
 10
71.83151091272617
 20
140.4291110906241
 10
72.25811113762841
 20
139.829325342076
 10
72.86162099346801
 20
139.4018232552324
 10
73.5725597896441
 20
139.1995214424936
 10
74.3085817621163
 20
139.2426885699424
 10
74.9872653319367
 20
139.5267706018445
 10
75.53624716979607
 20
140.018798885142
 10
75.89139781568552
 20
140.6673961997949
 10
76.01230425735113
 20
141.3965550479927
 10
75.88575337702946
 20
142.1221861220301
 10
75.52720323967696
 20
142.7645683338931
 10
74.97501037161409
 20
143.2540243552542
 10
74.28978834704577
 20
143.5337447754682
 10
73.81212772578232
 20
143.5863406811267
  0
SPLINE
  5
118
330
70
100
AcDbEntity
  8
Standardebene
 62
     7
370
    35
100
AcDbSpline
210
0.0
220
0.0
230
1.0
 70
     9
 71
     3
 72
    17
 73
    13
 74
     0
 42
0.0000000001
 43
0.0000000001
 40
0.0
 40
0.0
 40
0.0
 40
0.0
 40
1.0
 40
1.0
 40
1.0
 40
2.0
 40
2.0
 40
2.0
 40
3.0
 40
3.0
 40
3.0
 40
4.0
 40
4.0
 40
4.0
 40
4.0
 10
73.81212772578232
 20
143.0363927602569
 30
0.0
 10
72.90106401362527
 20
143.0363927602569
 30
0.0
 10
72.16260466991506
 20
142.2978692751983
 30
0.0
 10
72.16260466991506
 20
141.3861707227372
 30
0.0
 10
72.16260466991506
 20
140.4751004374009
 30
0.0
 10
72.90106401362527
 20
139.7359996802067
 30
0.0
 10
73.81212772578232
 20
139.7359996802067
 30
0.0
 10
74.72383285142273
 20
139.7359996802067
 30
0.0
 10
75.4620356297396
 20
140.4751004374009
 30
0.0
 10
75.4620356297396
 20
141.3861707227372
 30
0.0
 10
75.4620356297396
 20
142.2978692751983
 30
0.0
 10
74.72383285142273
 20
143.0363927602569
 30
0.0
 10
73.81212772578232
 20
143.0363927602569
 30
0.0
  0
LINE
  5
119
330
70
100
AcDbEntity
  8
Standardebene
 62
     7
370
    35
100
AcDbLine
 10
167.9605306703061
 20
206.3866217331577
 30
0.0
 11
166.9602463425758
 21
207.3860080820113
 31
0.0
  0
LINE
  5
11A
330
70
100
AcDbEntity
  8
Standardebene
 62
     7
370
    35
100
AcDbLine
 10
140.4605689728886
 20
207.3860080820113
 30
0.0
 11
139.4608675088187
 21
206.3866217331577
 31
0.0
  0
LINE
  5
11B
330
70
100
AcDbEntity
  8
Standardebene
 62
     7
370
    35
100
AcDbLine
 10
139.4608675088187
 20
68.89207283663627
 30
0.0
 11
139.4608675088187
 21
62.88632596530518
 31
0.0
  0
LINE
  5
11C
330
70
100
AcDbEntity
  8
Standardebene
 62
     7
370
    35
100
AcDbLine
 10
139.4608675088187
 20
206.3866217331577
 30
0.0
 11
139.4608675088187
 21
147.3850478966133
 31
0.0
  0
LINE
  5
11D
330
70
100
AcDbEntity
  8
Standardebene
 62
     7
370
    35
100
AcDbLine
 10
139.4608675088187
 20
135.3873445438503
 30
0.0
 11
139.4608675088187
 21
68.2252225812008
 31
0.0
  0
LINE
  5
11E
330
70
100
AcDbEntity
  8
Standardebene
 62
     7
370
    35
100
AcDbLine
 10
167.9605306703061
 20
62.88632596530518
 30
0.0
 11
167.9605306703061
 21
135.3854844447479
 31
0.0
  0
LINE
  5
11F
330
70
100
AcDbEntity
  8
Standardebene
 62
     7
370
    35
100
AcDbLine
 10
167.9605306703061
 20
147.385368603355
 30
0.0
 11
167.9605306703061
 21
206.3866217331577
 31
0.0
  0
LINE
  5
120
330
70
100
AcDbEntity
  8
Standardebene
 62
     7
370
    35
100
AcDbLine
 10
167.8296181782957
 20
59.1318121388408
 30
0.0
 11
167.5640729960709
 21
59.65360200777934
 31
0.0
  0
LINE
  5
121
330
70
100
AcDbEntity
  8
Standardebene
 62
     7
370
    35
100
AcDbLine
 10
139.8580251463608
 20
59.65360200777934
 30
0.0
 11
139.591197137168
 21
59.1318121388408
 31
0.0
  0
LINE
  5
122
330
70
100
AcDbEntity
  8
Standardebene
 62
     7
370
    35
100
AcDbLine
 10
139.4608675088187
 20
62.88632596530518
 30
0.0
 11
139.8580251463608
 21
59.65360200777934
 31
0.0
  0
LINE
  5
123
330
70
100
AcDbEntity
  8
Standardebene
 62
     7
370
    35
100
AcDbLine
 10
167.5640729960709
 20
59.65360200777934
 30
0.0
 11
167.9605306703061
 21
62.88632596530518
 31
0.0
  0
LINE
  5
124
330
70
100
AcDbEntity
  8
Standardebene
 62
     7
370
    35
100
AcDbLine
 10
143.210372718585
 20
231.7863479766377
 30
0.0
 11
143.210372718585
 21
231.3861059527375
 31
0.0
  0
LWPOLYLINE
  5
125
330
70
100
AcDbEntity
  8
Standardebene
 62
     7
370
    35
100
AcDbPolyline
 90
        3
 70
     0
 43
0.0
 10
164.2104488136308
 20
231.3861059527375
 10
164.2104488136308
 20
231.7863479766377
 10
163.7105890690811
 20
232.2865133542967
  0
LINE
  5
126
330
70
100
AcDbEntity
  8
Standardebene
 62
     7
370
    35
100
AcDbLine
 10
143.710231945256
 20
232.2865133542967
 30
0.0
 11
143.210372718585
 21
231.7863479766377
 31
0.0
  0
LINE
  5
127
330
70
100
AcDbEntity
  8
Standardebene
 62
     7
370
    35
100
AcDbLine
 10
135.7107738438659
 20
231.3861059527375
 30
0.0
 11
135.7107738438659
 21
207.3860080820113
 31
0.0
  0
LINE
  5
128
330
70
100
AcDbEntity
  8
Standardebene
 62
     7
370
    35
100
AcDbLine
 10
171.7106828850818
 20
207.3860080820113
 30
0.0
 11
171.7106828850818
 21
231.3861059527375
 31
0.0
  0
LINE
  5
129
330
70
100
AcDbEntity
  8
Standardebene
 62
     7
370
    35
100
AcDbLine
 10
178.7111337868355
 20
143.5863406811267
 30
0.0
 11
178.7111337868355
 21
147.1864730017873
 31
0.0
  0
LINE
  5
12A
330
70
100
AcDbEntity
  8
Standardebene
 62
     7
370
    35
100
AcDbLine
 10
178.7111337868355
 20
135.5865098571872
 30
0.0
 11
178.7111337868355
 21
139.1932355903542
 31
0.0
  0
SPLINE
  5
12B
330
70
100
AcDbEntity
  8
Standardebene
 62
     7
370
    35
100
AcDbSpline
210
0.0
220
0.0
230
1.0
 70
     8
 71
     3
 72
    11
 73
     7
 74
     0
 42
0.0000000001
 43
0.0000000001
 40
0.0
 40
0.0
 40
0.0
 40
0.0
 40
1.0
 40
1.0
 40
1.0
 40
2.0
 40
2.0
 40
2.0
 40
2.0
 10
139.591197137168
 20
59.1318121388408
 30
0.0
 10
139.5009502600207
 20
58.95388403848022
 30
0.0
 10
139.4596432316743
 20
58.76473120215587
 30
0.0
 10
139.4608675088187
 20
58.58686724314363
 30
0.0
 10
139.4608675088187
 20
57.92416329660254
 30
0.0
 10
139.9976608617486
 20
57.38607706042849
 30
0.0
 10
140.6610106865251
 20
57.38607706042849
 30
0.0
  0
SPLINE
  5
12C
330
70
100
AcDbEntity
  8
Standardebene
 62
     7
370
    35
100
AcDbSpline
210
0.0
220
0.0
230
1.0
 70
     8
 71
     3
 72
    11
 73
     7
 74
     0
 42
0.0000000001
 43
0.0000000001
 40
0.0
 40
0.0
 40
0.0
 40
0.0
 40
1.0
 40
1.0
 40
1.0
 40
2.0
 40
2.0
 40
2.0
 40
2.0
 10
166.7604460424226
 20
57.38607706042849
 30
0.0
 10
167.4231544537157
 20
57.38607706042849
 30
0.0
 10
167.9605306703061
 20
57.92416329660254
 30
0.0
 10
167.9605306703061
 20
58.58686724314363
 30
0.0
 10
167.9605306703061
 20
58.78538471632941
 30
0.0
 10
167.9123605176853
 20
58.97267745355076
 30
0.0
 10
167.8296181782957
 20
59.1318121388408
 30
0.0
  0
LWPOLYLINE
  5
12D
330
70
100
AcDbEntity
  8
Standardebene
 62
     7
370
    35
100
AcDbPolyline
 90
       17
 70
     0
 43
0.0
 10
157.210633108609
 20
62.88632596530518
 10
157.1924811070219
 20
63.2427640372729
 10
156.8936465649957
 20
64.34265527990106
 10
156.2522330813595
 20
65.29290935590821
 10
155.8112613113598
 20
65.68500541845537
 10
155.3114077835621
 20
65.99878489465005
 10
154.7621012761762
 20
66.22430587549647
 10
154.179569550338
 20
66.35521836750687
 10
153.5989038722838
 20
66.38401783292152
 10
153.0220106364193
 20
66.31763153736516
 10
151.9565586987516
 20
65.91553409110563
 10
151.0671106209931
 20
65.18014886548501
 10
150.7175402724114
 20
64.70030743837688
 10
150.4538551892889
 20
64.1678701056102
 10
150.2847203186126
 20
63.60105301012115
 10
150.2126837194417
 20
63.01159401865952
 10
150.2101822068553
 20
62.88632596530518
  0
LWPOLYLINE
  5
12E
330
70
100
AcDbEntity
  8
Standardebene
 62
     7
370
    35
100
AcDbPolyline
 90
       12
 70
     0
 43
0.0
 10
157.210633108609
 20
62.88632596530518
 10
158.8423248696308
 20
62.88632596530518
 10
160.4001257973384
 20
62.88632596530518
 10
161.8602394514873
 20
62.88632596530518
 10
163.20380827566
 20
62.88632596530518
 10
164.4108843105152
 20
62.88632596530518
 10
165.4619044448011
 20
62.88632596530518
 10
166.3438479848012
 20
62.88632596530518
 10
167.0435722424223
 20
62.88632596530518
 10
167.5502889072963
 20
62.88632596530518
 10
167.857840371576
 20
62.88632596530518
 10
167.9605306703061
 20
62.88632596530518
  0
LWPOLYLINE
  5
12F
330
70
100
AcDbEntity
  8
Standardebene
 62
     7
370
    35
100
AcDbPolyline
 90
       12
 70
     0
 43
0.0
 10
139.4608675088187
 20
62.88632596530518
 10
139.5636163573717
 20
62.88632596530518
 10
139.8705327092919
 20
62.88632596530518
 10
140.3772493613641
 20
62.88632596530518
 10
141.0769673306632
 20
62.88632596530518
 10
141.9589108706626
 20
62.88632596530518
 10
143.0112138319165
 20
62.88632596530518
 10
144.2175900236287
 20
62.88632596530518
 10
145.5605758639764
 20
62.88632596530518
 10
147.021266790261
 20
62.88632596530518
 10
148.5791318593169
 20
62.88632596530518
 10
150.2101822068553
 20
62.88632596530518
  0
LWPOLYLINE
  5
130
330
70
100
AcDbEntity
  8
Standardebene
 62
     7
370
    35
100
AcDbPolyline
 90
       29
 70
     0
 43
0.0
 10
153.7104397284063
 20
71.3863374504519
 10
154.2885457012075
 20
71.43450760307276
 10
154.8497824993888
 20
71.57670897239526
 10
155.859495605329
 20
72.12415538067877
 10
156.6487548969437
 20
72.9842267208863
 10
156.9281546104154
 20
73.50973678802957
 10
157.115383206289
 20
74.07661802486696
 10
157.2024871573666
 20
74.65600682463547
 10
157.1924811070219
 20
75.24290016216305
 10
156.8936465649957
 20
76.34221873176712
 10
156.2522330813595
 20
77.29247280777426
 10
155.8112613113598
 20
77.68521028380414
 10
155.3114077835621
 20
77.99834834651547
 10
154.7621012761762
 20
78.22515215432922
 10
154.179569550338
 20
78.35414040588827
 10
153.5989038722838
 20
78.38422269827093
 10
153.0220106364193
 20
78.31783640271455
 10
151.9565586987516
 20
77.91509784610453
 10
151.0671106209931
 20
77.1803537308344
 10
150.7175402724114
 20
76.70051230372627
 10
150.4538551892889
 20
76.16807497095961
 10
150.2847203186126
 20
75.60061646198654
 10
150.2126837194417
 20
75.01244029749227
 10
150.3605295274196
 20
73.87181469954241
 10
150.863525981287
 20
72.85081271629019
 10
151.6878064491081
 20
72.02961103319045
 10
152.2014503668036
 20
71.7289163920619
 10
152.7589669667802
 20
71.5178272145973
 10
153.7104397284063
 20
71.3863374504519
  0
LWPOLYLINE
  5
131
330
70
100
AcDbEntity
  8
Standardebene
 62
     7
370
    35
100
AcDbPolyline
 90
       27
 70
     0
 43
0.0
 10
167.9605306703061
 20
206.3866217331577
 10
167.8571989580927
 20
206.3866217331577
 10
167.5464982666187
 20
206.3866217331577
 10
167.0341371758905
 20
206.3866217331577
 10
166.3281974958003
 20
206.3866217331577
 10
165.4381142523245
 20
206.3866217331577
 10
164.3764404064438
 20
206.3866217331577
 10
163.1599997347279
 20
206.3866217331577
 10
161.8057193053787
 20
206.3866217331577
 10
160.3331042070999
 20
206.3866217331577
 10
158.7640724246273
 20
206.3866217331577
 10
157.1210276449451
 20
206.3866217331577
 10
155.4285940270224
 20
206.3866217331577
 10
153.7104397284063
 20
206.3866217331577
 10
151.9935041154087
 20
206.3866217331577
 10
150.3003649426543
 20
206.3866217331577
 10
148.6573843043204
 20
206.3866217331577
 10
147.0877172271657
 20
206.3866217331577
 10
145.6156732822206
 20
206.3866217331577
 10
144.2614569942198
 20
206.3866217331577
 10
143.0443749090205
 20
206.3866217331577
 10
141.9832845830408
 20
206.3866217331577
 10
141.0926234524103
 20
206.3866217331577
 10
140.3866781395738
 20
206.3866217331577
 10
139.8748943209807
 20
206.3866217331577
 10
139.5648350429907
 20
206.3866217331577
 10
139.4608675088187
 20
206.3866217331577
  0
LWPOLYLINE
  5
132
330
70
100
AcDbEntity
  8
Standardebene
 62
     7
370
    35
100
AcDbPolyline
 90
        5
 70
     0
 43
0.0
 10
150.2101822068553
 20
62.88632596530518
 10
150.3968335305933
 20
61.75884934376981
 10
150.9399183271881
 20
60.74785341086236
 10
151.7836336235631
 20
59.96423855790432
 10
152.3693141930912
 20
59.65360200777934
  0
LWPOLYLINE
  5
133
330
70
100
AcDbEntity
  8
Standardebene
 62
     7
370
    35
100
AcDbPolyline
 90
        8
 70
     0
 43
0.0
 10
155.0520843121283
 20
59.65360200777934
 10
155.5751570080336
 20
59.92479162866025
 10
156.0455696569319
 20
60.27930086106636
 10
156.4495960102746
 20
60.70776506813494
 10
156.7765244628837
 20
61.19825395907183
 10
157.0145530066613
 20
61.73312866307588
 10
157.1611159876719
 20
62.29943262777826
 10
157.210633108609
 20
62.88632596530518
  0
LWPOLYLINE
  5
134
330
70
100
AcDbEntity
  8
Standardebene
 62
     7
370
    35
100
AcDbPolyline
 90
       13
 70
     0
 43
0.0
 10
155.0520843121283
 20
59.65360200777934
 10
156.7307916815009
 20
59.65360200777934
 10
158.3644076829734
 20
59.65360200777934
 10
159.927853049337
 20
59.65360200777934
 10
161.3979727538307
 20
59.65360200777934
 10
162.7516117696965
 20
59.65360200777934
 10
163.9699187511907
 20
59.65360200777934
 10
165.0328629655968
 20
59.65360200777934
 10
165.925453969425
 20
59.65360200777934
 10
166.634536575585
 20
59.65360200777934
 10
167.148122642896
 20
59.65360200777934
 10
167.4588170434061
 20
59.65360200777934
 10
167.5640729960709
 20
59.65360200777934
  0
LWPOLYLINE
  5
135
330
70
100
AcDbEntity
  8
Standardebene
 62
     7
370
    35
100
AcDbPolyline
 90
       13
 70
     0
 43
0.0
 10
139.8580251463608
 20
59.65360200777934
 10
139.9619982720583
 20
59.65360200777934
 10
140.2732762356666
 20
59.65360200777934
 10
140.7875615668461
 20
59.65360200777934
 10
141.4953613460387
 20
59.65360200777934
 10
142.3885937633508
 20
59.65360200777934
 10
143.4521856019162
 20
59.65360200777934
 10
144.6692035457672
 20
59.65360200777934
 10
146.023483975117
 20
59.65360200777934
 10
147.4936036796107
 20
59.65360200777934
 10
149.0570548799189
 20
59.65360200777934
 10
150.6906009060985
 20
59.65360200777934
 10
152.3693141930912
 20
59.65360200777934
  0
LWPOLYLINE
  5
136
330
70
100
AcDbEntity
  8
Standardebene
 62
     7
370
    35
100
AcDbPolyline
 90
        4
 70
     0
 43
0.0
 10
155.0520843121283
 20
59.65360200777934
 10
154.1300524294008
 20
59.41114771096476
 10
153.1567074679834
 20
59.43122395300264
 10
152.3693141930912
 20
59.65360200777934
  0
LWPOLYLINE
  5
137
330
70
100
AcDbEntity
  8
Standardebene
 62
     7
370
    35
100
AcDbPolyline
 90
       13
 70
     0
 43
0.0
 10
153.7104397284063
 20
57.38607706042849
 10
155.4135208101572
 20
57.38607706042849
 10
157.0878665678411
 20
57.38607706042849
 10
158.7045553310078
 20
57.38607706042849
 10
160.2354108147407
 20
57.38607706042849
 10
161.6547947126788
 20
57.38607706042849
 10
162.9388403655702
 20
57.38607706042849
 10
164.0638796158682
 20
57.38607706042849
 10
165.0122156884306
 20
57.38607706042849
 10
165.766960697619
 20
57.38607706042849
 10
166.3163313463532
 20
57.38607706042849
 10
166.6489042376184
 20
57.38607706042849
 10
166.7604460424226
 20
57.38607706042849
  0
LWPOLYLINE
  5
138
330
70
100
AcDbEntity
  8
Standardebene
 62
     7
370
    35
100
AcDbPolyline
 90
       13
 70
     0
 43
0.0
 10
140.6610106865251
 20
57.38607706042849
 10
140.7719167024907
 20
57.38607706042849
 10
141.1057667960785
 20
57.38607706042849
 10
141.6538602647699
 20
57.38607706042849
 10
142.4092472775237
 20
57.38607706042849
 10
143.3575771130795
 20
57.38607706042849
 10
144.4825522220292
 20
57.38607706042849
 10
145.7666620162689
 20
57.38607706042849
 10
147.1854102873872
 20
57.38607706042849
 10
148.7169074756017
 20
57.38607706042849
 10
150.3329487476233
 20
57.38607706042849
 10
152.0072945053072
 20
57.38607706042849
 10
153.7104397284063
 20
57.38607706042849
  0
LINE
  5
139
330
70
100
AcDbEntity
  8
Standardebene
 62
     7
370
    35
100
AcDbLine
 10
162.8618066061857
 20
231.3861059527375
 30
0.0
 11
162.8618066061857
 21
207.3860080820113
 31
0.0
  0
LINE
  5
13A
330
70
100
AcDbEntity
  8
Standardebene
 62
     7
370
    35
100
AcDbLine
 10
144.5590087092787
 20
231.3861059527375
 30
0.0
 11
162.8618066061857
 21
231.3861059527375
 31
0.0
  0
LINE
  5
13B
330
70
100
AcDbEntity
  8
Standardebene
 62
     7
370
    35
100
AcDbLine
 10
144.5590087092787
 20
207.3860080820113
 30
0.0
 11
144.5590087092787
 21
231.3861059527375
 31
0.0
  0
LINE
  5
13C
330
70
100
AcDbEntity
  8
Standardebene
 62
     7
370
    35
100
AcDbLine
 10
162.8618066061857
 20
207.3860080820113
 30
0.0
 11
144.5590087092787
 21
207.3860080820113
 31
0.0
  0
LWPOLYLINE
  5
13D
330
70
100
AcDbEntity
  8
Standardebene
 62
     7
370
    35
100
AcDbPolyline
 90
       10
 70
     0
 43
0.0
 10
144.5590087092787
 20
231.3861059527375
 10
142.8364286576256
 20
231.3861059527375
 10
141.2591929013641
 20
231.3861059527375
 10
139.8467362690487
 20
231.3861059527375
 10
138.6184294478856
 20
231.3861059527375
 10
137.5898643297864
 20
231.3861059527375
 10
136.7762257815343
 20
231.3861059527375
 10
136.1867667900727
 20
231.3861059527375
 10
135.8303974585642
 20
231.3861059527375
 10
135.7107738438659
 20
231.3861059527375
  0
LWPOLYLINE
  5
13E
330
70
100
AcDbEntity
  8
Standardebene
 62
     7
370
    35
100
AcDbPolyline
 90
       10
 70
     0
 43
0.0
 10
171.7106828850818
 20
231.3861059527375
 10
171.5910592703835
 20
231.3861059527375
 10
171.2346257975267
 20
231.3861059527375
 10
170.6452309474134
 20
231.3861059527375
 10
169.8309565299377
 20
231.3861059527375
 10
168.8023858675788
 20
231.3861059527375
 10
167.574720459899
 20
231.3861059527375
 10
166.1616286801424
 20
231.3861059527375
 10
164.5843928840379
 20
231.3861059527375
 10
162.8618066061857
 20
231.3861059527375
  0
LWPOLYLINE
  5
13F
330
70
100
AcDbEntity
  8
Standardebene
 62
     7
370
    35
100
AcDbPolyline
 90
       10
 70
     0
 43
0.0
 10
162.8618066061857
 20
207.3860080820113
 10
164.5843928840379
 20
207.3860080820113
 10
166.1616286801424
 20
207.3860080820113
 10
167.574720459899
 20
207.3860080820113
 10
168.8023858675788
 20
207.3860080820113
 10
169.8309565299377
 20
207.3860080820113
 10
170.6452309474134
 20
207.3860080820113
 10
171.2346257975267
 20
207.3860080820113
 10
171.5910592703835
 20
207.3860080820113
 10
171.7106828850818
 20
207.3860080820113
  0
LWPOLYLINE
  5
140
330
70
100
AcDbEntity
  8
Standardebene
 62
     7
370
    35
100
AcDbPolyline
 90
       10
 70
     0
 43
0.0
 10
135.7107738438659
 20
207.3860080820113
 10
135.8303974585642
 20
207.3860080820113
 10
136.1867667900727
 20
207.3860080820113
 10
136.7762257815343
 20
207.3860080820113
 10
137.5898643297864
 20
207.3860080820113
 10
138.6184294478856
 20
207.3860080820113
 10
139.8467362690487
 20
207.3860080820113
 10
141.2591929013641
 20
207.3860080820113
 10
142.8364286576256
 20
207.3860080820113
 10
144.5590087092787
 20
207.3860080820113
  0
LWPOLYLINE
  5
141
330
70
100
AcDbEntity
  8
Standardebene
 62
     7
370
    35
100
AcDbPolyline
 90
       20
 70
     0
 43
0.0
 10
153.7104397284063
 20
220.7858413100034
 10
153.0614575656634
 20
220.6784045514939
 10
152.4858531054479
 20
220.3674472946272
 10
152.0342338716201
 20
219.877920523916
 10
151.7654816219759
 20
219.2536969216413
 10
151.7203902540765
 20
218.5872683121436
 10
151.8888954817116
 20
217.9621467309916
 10
152.2503260742568
 20
217.4197033478808
 10
152.7858421917448
 20
217.0128547752101
 10
153.4323228419014
 20
216.8058065026925
 10
154.0925297406081
 20
216.8227398186601
 10
154.7000765923086
 20
217.0476193860231
 10
155.2093588983153
 20
217.4626139099355
 10
155.5651509576888
 20
218.0375769566671
 10
155.709212426113
 20
218.6981045621154
 10
155.6302604262755
 20
219.347663996994
 10
155.3509188541539
 20
219.9308371363162
 10
154.8861506439116
 20
220.4047134180266
 10
154.2766795517604
 20
220.7044459389295
 10
153.7104397284063
 20
220.7858413100034
  0
LWPOLYLINE
  5
142
330
70
100
AcDbEntity
  8
Standardebene
 62
     7
370
    35
100
AcDbPolyline
 90
       12
 70
     0
 43
0.0
 10
153.7104397284063
 20
232.2865133542967
 10
155.1341852380332
 20
232.2865133542967
 10
156.5278484552781
 20
232.2865133542967
 10
157.8651955686597
 20
232.2865133542967
 10
159.117298830066
 20
232.2865133542967
 10
160.2592072549832
 20
232.2865133542967
 10
161.2683430887883
 20
232.2865133542967
 10
162.1227058489914
 20
232.2865133542967
 10
162.8067091879408
 20
232.2865133542967
 10
163.3052798887717
 20
232.2865133542967
 10
163.60911745597
 20
232.2865133542967
 10
163.7105890690811
 20
232.2865133542967
  0
LWPOLYLINE
  5
143
330
70
100
AcDbEntity
  8
Standardebene
 62
     7
370
    35
100
AcDbPolyline
 90
       12
 70
     0
 43
0.0
 10
143.710231945256
 20
232.2865133542967
 10
143.8123392729777
 20
232.2865133542967
 10
144.1155354266926
 20
232.2865133542967
 10
144.6147475410069
 20
232.2865133542967
 10
145.2974680529889
 20
232.2865133542967
 10
146.1531136401594
 20
232.2865133542967
 10
147.1616080604811
 20
232.2865133542967
 10
148.3040937575333
 20
232.2865133542967
 10
149.556902573772
 20
232.2865133542967
 10
150.8936082736696
 20
232.2865133542967
 10
152.2872714909145
 20
232.2865133542967
 10
153.7104397284063
 20
232.2865133542967
  0
LWPOLYLINE
  5
144
330
70
100
AcDbEntity
  8
Standardebene
 62
     7
370
    35
100
AcDbPolyline
 90
       23
 70
     0
 43
0.0
 10
164.2104488136308
 20
231.7863479766377
 10
164.1039741726577
 20
231.7863479766377
 10
163.7857627293632
 20
231.7863479766377
 10
163.2614713478389
 20
231.7863479766377
 10
162.5436013769533
 20
231.7863479766377
 10
161.646007347953
 20
231.7863479766377
 10
160.5868412624247
 20
231.7863479766377
 10
159.3866924931929
 20
231.7863479766377
 10
158.0725004065706
 20
231.7863479766377
 10
156.6688311389816
 20
231.7863479766377
 10
155.2049331452783
 20
231.7863479766377
 10
153.7104397284063
 20
231.7863479766377
 10
152.2165235836694
 20
231.7863479766377
 10
150.7519841764828
 20
231.7863479766377
 10
149.3488980223458
 20
231.7863479766377
 10
148.0335455501358
 20
231.7863479766377
 10
146.834615466523
 20
231.7863479766377
 10
145.7754493809947
 20
231.7863479766377
 10
144.8772139385104
 20
231.7863479766377
 10
144.1593439676247
 20
231.7863479766377
 10
143.6356939995845
 20
231.7863479766377
 10
143.3174887703527
 20
231.7863479766377
 10
143.210372718585
 20
231.7863479766377
  0
SPLINE
  5
145
330
70
100
AcDbEntity
  8
Standardebene
 62
     7
370
    35
100
AcDbSpline
210
0.0
220
0.0
230
1.0
 70
     9
 71
     3
 72
    17
 73
    13
 74
     0
 42
0.0000000001
 43
0.0000000001
 40
0.0
 40
0.0
 40
0.0
 40
0.0
 40
1.0
 40
1.0
 40
1.0
 40
2.0
 40
2.0
 40
2.0
 40
3.0
 40
3.0
 40
3.0
 40
4.0
 40
4.0
 40
4.0
 40
4.0
 10
153.7104397284063
 20
225.3866360867768
 30
0.0
 10
150.3968335305933
 20
225.3866360867768
 30
0.0
 10
147.7103372957313
 20
222.7000843379091
 30
0.0
 10
147.7103372957313
 20
219.3865421977373
 30
0.0
 10
147.7103372957313
 20
216.0726708908961
 30
0.0
 10
150.3968335305933
 20
213.3864312214281
 30
0.0
 10
153.7104397284063
 20
213.3864312214281
 30
0.0
 10
157.0245590570061
 20
213.3864312214281
 30
0.0
 10
159.7104780197324
 20
216.0726708908961
 30
0.0
 10
159.7104780197324
 20
219.3865421977373
 30
0.0
 10
159.7104780197324
 20
222.7000843379091
 30
0.0
 10
157.0245590570061
 20
225.3866360867768
 30
0.0
 10
153.7104397284063
 20
225.3866360867768
 30
0.0
  0
LWPOLYLINE
  5
146
330
70
100
AcDbEntity
  8
Standardebene
 62
     7
370
    35
100
AcDbPolyline
 90
        7
 70
     0
 43
0.0
 10
153.7104397284063
 20
229.2009296499165
 10
155.7924678962892
 20
227.999241488324
 10
156.8692728526174
 20
227.377583539984
 10
157.9603813296314
 20
226.7474035218968
 10
158.2629360698623
 20
226.5729944661108
 10
160.2404138399127
 20
225.4317274546769
 10
162.2110284856881
 20
224.2936033693128
  0
LWPOLYLINE
  5
147
330
70
100
AcDbEntity
  8
Standardebene
 62
     7
370
    35
100
AcDbPolyline
 90
        7
 70
     0
 43
0.0
 10
145.211069656743
 20
224.2936033693128
 10
147.2931677553598
 20
225.4962536511303
 10
148.3692613674713
 20
226.1172701859869
 10
149.4610753993163
 20
226.7474035218968
 10
149.7623473125806
 20
226.9218679938538
 10
151.739183669147
 20
228.0634469780357
 10
153.7104397284063
 20
229.2009296499165
  0
LWPOLYLINE
  5
148
330
70
100
AcDbEntity
  8
Standardebene
 62
     7
370
    35
100
AcDbPolyline
 90
        7
 70
     0
 43
0.0
 10
145.211069656743
 20
214.4788225254087
 10
145.211069656743
 20
216.2505348499083
 10
145.211069656743
 20
218.0720850020867
 10
145.211069656743
 20
219.3865421977373
 10
145.211069656743
 20
221.2330989321425
 10
145.211069656743
 20
223.0799849169248
 10
145.211069656743
 20
224.2936033693128
  0
LWPOLYLINE
  5
149
330
70
100
AcDbEntity
  8
Standardebene
 62
     7
370
    35
100
AcDbPolyline
 90
        7
 70
     0
 43
0.0
 10
153.7104397284063
 20
209.5714321034567
 10
151.6283474191751
 20
210.7735051131391
 10
150.5515483345452
 20
211.3954837682208
 10
149.4610753993163
 20
212.0249669610615
 10
149.1585206590855
 20
212.1994314286107
 10
147.18162016117
 20
213.3413398535279
 10
145.211069656743
 20
214.4788225254087
  0
LWPOLYLINE
  5
14A
330
70
100
AcDbEntity
  8
Standardebene
 62
     7
370
    35
100
AcDbPolyline
 90
        7
 70
     0
 43
0.0
 10
162.2110284856881
 20
214.4788225254087
 10
160.1282947629728
 20
213.2768136570745
 10
159.0515600344205
 20
212.6548350019922
 10
157.9603813296314
 20
212.0249669610615
 10
157.6584680028838
 20
211.8505024935123
 10
155.6809902328334
 20
210.7089789166852
 10
153.7104397284063
 20
209.5714321034567
  0
LWPOLYLINE
  5
14B
330
70
100
AcDbEntity
  8
Standardebene
 62
     7
370
    35
100
AcDbPolyline
 90
        7
 70
     0
 43
0.0
 10
162.2110284856881
 20
224.2936033693128
 10
162.2110284856881
 20
223.0799849169248
 10
162.2110284856881
 20
221.2569039632696
 10
162.2110284856881
 20
219.3865421977373
 10
162.2110284856881
 20
218.0720850020867
 10
162.2110284856881
 20
216.2674681658764
 10
162.2110284856881
 20
214.4788225254087
  0
SPLINE
  5
14C
330
70
100
AcDbEntity
  8
Standardebene
 62
     7
370
    35
100
AcDbSpline
210
0.0
220
0.0
230
1.0
 70
     9
 71
     3
 72
    17
 73
    13
 74
     0
 42
0.0000000001
 43
0.0000000001
 40
0.0
 40
0.0
 40
0.0
 40
0.0
 40
1.0
 40
1.0
 40
1.0
 40
2.0
 40
2.0
 40
2.0
 40
3.0
 40
3.0
 40
3.0
 40
4.0
 40
4.0
 40
4.0
 40
4.0
 10
153.7104397284063
 20
227.8861602911591
 30
0.0
 10
149.0163192897629
 20
227.8861602911591
 30
0.0
 10
145.211069656743
 20
224.0809106581392
 30
0.0
 10
145.211069656743
 20
219.3865421977373
 30
0.0
 10
145.211069656743
 20
214.6920925087173
 30
0.0
 10
149.0163192897629
 20
210.886201462214
 30
0.0
 10
153.7104397284063
 20
210.886201462214
 30
0.0
 10
158.4051374391848
 20
210.886201462214
 30
0.0
 10
162.2110284856881
 20
214.6920925087173
 30
0.0
 10
162.2110284856881
 20
219.3865421977373
 30
0.0
 10
162.2110284856881
 20
224.0809106581392
 30
0.0
 10
158.4051374391848
 20
227.8861602911591
 30
0.0
 10
153.7104397284063
 20
227.8861602911591
 30
0.0
  0
SPLINE
  5
14D
330
70
100
AcDbEntity
  8
Standardebene
 62
     7
370
    35
100
AcDbSpline
210
0.0
220
0.0
230
1.0
 70
     9
 71
     3
 72
    17
 73
    13
 74
     0
 42
0.0000000001
 43
0.0000000001
 40
0.0
 40
0.0
 40
0.0
 40
0.0
 40
1.0
 40
1.0
 40
1.0
 40
2.0
 40
2.0
 40
2.0
 40
3.0
 40
3.0
 40
3.0
 40
4.0
 40
4.0
 40
4.0
 40
4.0
 10
153.7104397284063
 20
222.8864063275634
 30
0.0
 10
151.7774119127721
 20
222.8864063275634
 30
0.0
 10
150.2101822068553
 20
221.319240762995
 30
0.0
 10
150.2101822068553
 20
219.3865421977373
 30
0.0
 10
150.2101822068553
 20
217.4535058384681
 30
0.0
 10
151.7774119127721
 20
215.8865968392931
 30
0.0
 10
153.7104397284063
 20
215.8865968392931
 30
0.0
 10
155.6440448161757
 20
215.8865968392931
 30
0.0
 10
157.210633108609
 20
217.4535058384681
 30
0.0
 10
157.210633108609
 20
219.3865421977373
 30
0.0
 10
157.210633108609
 20
221.319240762995
 30
0.0
 10
155.6440448161757
 20
222.8864063275634
 30
0.0
 10
153.7104397284063
 20
222.8864063275634
 30
0.0
  0
SPLINE
  5
14E
330
70
100
AcDbEntity
  8
Standardebene
 62
     7
370
    35
100
AcDbSpline
210
0.0
220
0.0
230
1.0
 70
     9
 71
     3
 72
    17
 73
    13
 74
     0
 42
0.0000000001
 43
0.0000000001
 40
0.0
 40
0.0
 40
0.0
 40
0.0
 40
1.0
 40
1.0
 40
1.0
 40
2.0
 40
2.0
 40
2.0
 40
3.0
 40
3.0
 40
3.0
 40
4.0
 40
4.0
 40
4.0
 40
4.0
 10
153.7104397284063
 20
225.3866360867768
 30
0.0
 10
150.3968335305933
 20
225.3866360867768
 30
0.0
 10
147.7103372957313
 20
222.7000843379091
 30
0.0
 10
147.7103372957313
 20
219.3865421977373
 30
0.0
 10
147.7103372957313
 20
216.0726708908961
 30
0.0
 10
150.3968335305933
 20
213.3864312214281
 30
0.0
 10
153.7104397284063
 20
213.3864312214281
 30
0.0
 10
157.0245590570061
 20
213.3864312214281
 30
0.0
 10
159.7104780197324
 20
216.0726708908961
 30
0.0
 10
159.7104780197324
 20
219.3865421977373
 30
0.0
 10
159.7104780197324
 20
222.7000843379091
 30
0.0
 10
157.0245590570061
 20
225.3866360867768
 30
0.0
 10
153.7104397284063
 20
225.3866360867768
 30
0.0
  0
SPLINE
  5
14F
330
70
100
AcDbEntity
  8
Standardebene
 62
     7
370
    35
100
AcDbSpline
210
0.0
220
0.0
230
1.0
 70
     9
 71
     3
 72
    17
 73
    13
 74
     0
 42
0.0000000001
 43
0.0000000001
 40
0.0
 40
0.0
 40
0.0
 40
0.0
 40
1.0
 40
1.0
 40
1.0
 40
2.0
 40
2.0
 40
2.0
 40
3.0
 40
3.0
 40
3.0
 40
4.0
 40
4.0
 40
4.0
 40
4.0
 10
153.7104397284063
 20
222.3862320930234
 30
0.0
 10
152.0536045588257
 20
222.3862320930234
 30
0.0
 10
150.7106771481363
 20
221.0426718543238
 30
0.0
 10
150.7106771481363
 20
219.3865421977373
 30
0.0
 10
150.7106771481363
 20
217.7291297141521
 30
0.0
 10
152.0536045588257
 20
216.3861296603491
 30
0.0
 10
153.7104397284063
 20
216.3861296603491
 30
0.0
 10
155.3672107566387
 20
216.3861296603491
 30
0.0
 10
156.7101381673274
 20
217.7291297141521
 30
0.0
 10
156.7101381673274
 20
219.3865421977373
 30
0.0
 10
156.7101381673274
 20
221.0426718543238
 30
0.0
 10
155.3672107566387
 20
222.3862320930234
 30
0.0
 10
153.7104397284063
 20
222.3862320930234
 30
0.0
  0
LWPOLYLINE
  5
150
330
70
100
AcDbEntity
  8
Standardebene
 62
     7
370
    35
100
AcDbPolyline
 90
        3
 70
     0
 43
0.0
 10
178.7092736877331
 20
147.1864730017873
 10
178.7098509598681
 20
147.1864730017873
 10
178.7111337868355
 20
147.1864730017873
  0
LINE
  5
151
330
70
100
AcDbEntity
  8
Standardebene
 62
     7
370
    35
100
AcDbLine
 10
178.7092736877331
 20
147.3862665822323
 30
0.0
 11
178.7092736877331
 21
147.1864730017873
 31
0.0
  0
LWPOLYLINE
  5
152
330
70
100
AcDbEntity
  8
Standardebene
 62
     7
370
    35
100
AcDbPolyline
 90
       16
 70
     0
 43
0.0
 10
178.7092736877331
 20
147.3862665822323
 10
178.5551420276151
 20
147.3862665822323
 10
178.1455353769648
 20
147.3862665822323
 10
177.4828269656724
 20
147.3862665822323
 10
176.5764455719457
 20
147.3862665822323
 10
175.4339022338249
 20
147.3862665822323
 10
174.0677491547483
 20
147.3862665822323
 10
172.4924376389375
 20
147.3862665822323
 10
172.4924376389375
 20
135.3867031303669
 10
174.0677491547483
 20
135.3867031303669
 10
175.4339022338249
 20
135.3867031303669
 10
176.5764455719457
 20
135.3867031303669
 10
177.4828269656724
 20
135.3867031303669
 10
178.1455353769648
 20
135.3867031303669
 10
178.5551420276151
 20
135.3867031303669
 10
178.7092736877331
 20
135.3867031303669
  0
LINE
  5
153
330
70
100
AcDbEntity
  8
Standardebene
 62
     7
370
    35
100
AcDbLine
 10
178.7092736877331
 20
135.5865098571872
 30
0.0
 11
178.7092736877331
 21
135.3867031303669
 31
0.0
  0
LWPOLYLINE
  5
154
330
70
100
AcDbEntity
  8
Standardebene
 62
     7
370
    35
100
AcDbPolyline
 90
        3
 70
     0
 43
0.0
 10
178.7111337868355
 20
135.5865098571872
 10
178.7098509598681
 20
135.5865098571872
 10
178.7092736877331
 20
135.5865098571872
  0
LWPOLYLINE
  5
155
330
70
100
AcDbEntity
  8
Standardebene
 62
     7
370
    35
100
AcDbPolyline
 90
       12
 70
     0
 43
0.0
 10
178.7111337868355
 20
143.5863406811267
 10
178.6998449095234
 20
143.4629327268748
 10
178.6998449095234
 20
143.4629327268748
 10
178.6722641297271
 20
143.1065633953663
 10
178.6409697330229
 20
142.5562947677554
 10
178.6159546065298
 20
141.3836626369716
 10
178.6146717795297
 20
141.1353073361076
 10
178.6146717795297
 20
141.1353073361076
 10
178.6321757869997
 20
140.4291110906241
 10
178.6622580793823
 20
139.829325342076
 10
178.6929817852483
 20
139.4018232552324
 10
178.7086322742491
 20
139.2135683977854
  0
LWPOLYLINE
  5
156
330
70
100
AcDbEntity
  8
Standardebene
 62
     7
370
    35
100
AcDbPolyline
 90
       16
 70
     0
 43
0.0
 10
128.7917183131861
 20
135.3867031303669
 10
129.0799053913835
 20
135.3867031303669
 10
129.5728369952896
 20
135.3867031303669
 10
130.2681292291163
 20
135.3867031303669
 10
131.160073460164
 20
135.3867031303669
 10
132.2405986146975
 20
135.3867031303669
 10
133.5002705552106
 20
135.3867031303669
 10
134.9290190900102
 20
135.3867031303669
 10
134.9290190900102
 20
147.3862665822323
 10
133.5002705552106
 20
147.3862665822323
 10
132.2405986146975
 20
147.3862665822323
 10
131.160073460164
 20
147.3862665822323
 10
130.2681292291163
 20
147.3862665822323
 10
129.5728369952896
 20
147.3862665822323
 10
129.0799053913835
 20
147.3862665822323
 10
128.7917183131861
 20
147.3862665822323
  0
LINE
  5
157
330
70
100
AcDbEntity
  8
Standardebene
 62
     7
370
    35
100
AcDbLine
 10
128.7917183131861
 20
135.3867031303669
 30
0.0
 11
128.7917183131861
 21
147.3862665822323
 31
0.0
  0
LINE
  5
158
330
70
100
AcDbEntity
  8
Standardebene
 62
     7
370
    35
100
AcDbLine
 10
134.9290190900102
 20
147.3862665822323
 30
0.0
 11
172.4924376389375
 21
147.3862665822323
 31
0.0
  0
LINE
  5
159
330
70
100
AcDbEntity
  8
Standardebene
 62
     7
370
    35
100
AcDbLine
 10
172.4924376389375
 20
135.3867031303669
 30
0.0
 11
134.9290190900102
 21
135.3867031303669
 31
0.0
  0
LINE
  5
15A
330
70
100
AcDbEntity
  8
Standardebene
  6
AI-Linetype-0
 62
     7
370
     9
100
AcDbLine
 10
73.81212772578232
 20
172.5116514218801
 30
0.0
 11
73.81212772578232
 21
234.372646568475
 31
0.0
  0
LINE
  5
15C
330
70
100
AcDbEntity
  8
Standardebene
  6
AI-Linetype-1
 62
     7
370
     9
100
AcDbLine
 10
73.81212772578232
 20
56.27303224227429
 30
0.0
 11
73.81212772578232
 21
163.5318626509736
 31
0.0
  0
LINE
  5
15E
330
70
100
AcDbEntity
  8
Standardebene
  6
AI-Linetype-2
 62
     7
370
     9
100
AcDbLine
 10
21.43892082913405
 20
219.3865421977373
 30
0.0
 11
90.07016357820516
 21
219.3865421977373
 31
0.0
  0
LINE
  5
160
330
70
100
AcDbEntity
  8
Standardebene
  6
AI-Linetype-3
 62
     7
370
     9
100
AcDbLine
 10
153.7104397284063
 20
173.4885241574579
 30
0.0
 11
153.7104397284063
 21
234.372646568475
 31
0.0
  0
LINE
  5
162
330
70
100
AcDbEntity
  8
Standardebene
  6
AI-Linetype-4
 62
     7
370
     9
100
AcDbLine
 10
153.7104397284063
 20
56.05937741087565
 30
0.0
 11
153.7104397284063
 21
163.225908419279
 31
0.0
  0
LINE
  5
164
330
70
100
AcDbEntity
  8
Standardebene
  6
AI-Linetype-5
 62
     7
370
     9
100
AcDbLine
 10
133.8359863725456
 20
219.3865421977373
 30
0.0
 11
173.3893902544544
 21
219.3865421977373
 31
0.0
  0
MTEXT
  5
167
330
70
100
AcDbEntity
  8
Text
100
AcDbMText
 10
81.37728947618347
 20
156.9340901300373
 30
0.0
 40
0.2
 41
0.0
 46
0.0
 71
     7
 72
     1
  1
\C7;\FINDEX Univers 45 Light|b0|i0|c1;\H2.497667;\W1.000000;ø28,5
 73
     1
 44
1.0
  0
MTEXT
  5
168
330
70
100
AcDbEntity
  8
Text
100
AcDbMText
 10
127.0086208298283
 20
157.0844710587975
 30
0.0
 40
0.2
 41
0.0
 46
0.0
 71
     7
 72
     1
  1
\C7;\FINDEX Univers 45 Light|b0|i0|c1;\H2.497662;\W0.999997;ø50
 11
0.999992968683656
 21
-0.0037500110997827
 31
0.0
 73
     1
 44
1.0
  0
MTEXT
  5
169
330
70
100
AcDbEntity
  8
Text
100
AcDbMText
 10
150.2914292701528
 20
184.3956352620608
 30
0.0
 40
0.2
 41
0.0
 46
0.0
 71
     7
 72
     1
  1
\C7;\FINDEX Univers 45 Light|b0|i0|c1;\H2.497667;\W1.000000;25
 11
0.0000000000000001
 21
1.0
 31
0.0
 73
     1
 44
1.0
  0
MTEXT
  5
16A
330
70
100
AcDbEntity
  8
Text
100
AcDbMText
 10
150.2912570153786
 20
133.2168470261576
 30
0.0
 40
0.2
 41
0.0
 46
0.0
 71
     7
 72
     1
  1
\C7;\FINDEX Univers 45 Light|b0|i0|c1;\H2.497667;\W1.000000;150
 11
0.0000000000000001
 21
1.0
 31
0.0
 73
     1
 44
1.0
  0
MTEXT
  5
16B
330
70
100
AcDbEntity
  8
Text
100
AcDbMText
 10
70.52041556396712
 20
104.4180880815344
 30
0.0
 40
0.2
 41
0.0
 46
0.0
 71
     7
 72
     1
  1
\C7;\FINDEX Univers 45 Light|b0|i0|c1;\H2.497667;\W1.000000;36
 11
0.0000000000000001
 21
1.0
 31
0.0
 73
     1
 44
1.0
  0
MTEXT
  5
16C
330
70
100
AcDbEntity
  8
Text
100
AcDbMText
 10
70.54539250623519
 20
91.12294783963246
 30
0.0
 40
0.2
 41
0.0
 46
0.0
 71
     7
 72
     1
  1
\C7;\FINDEX Univers 45 Light|b0|i0|c1;\H2.497667;\W1.000000;ø10H5
 73
     1
 44
1.0
  0
LINE
  5
16D
330
70
100
AcDbEntity
  8
Text
 62
     7
370
     9
100
AcDbLine
 10
108.8226386874639
 20
96.89279247703943
 30
0.0
 11
127.6407724318484
 21
96.89279247703943
 31
0.0
  0
LINE
  5
16E
330
70
100
AcDbEntity
  8
Text
 62
     7
370
     9
100
AcDbLine
 10
108.8795940838655
 20
106.5177344190773
 30
0.0
 11
130.6325249092576
 21
106.5177344190773
 31
0.0
  0
LINE
  5
16F
330
70
100
AcDbEntity
  8
Text
 62
     7
370
     9
100
AcDbLine
 10
110.1283169052219
 20
96.89279247703943
 30
0.0
 11
110.1283169052219
 21
106.5177344190773
 31
0.0
  0
MTEXT
  5
170
330
70
100
AcDbEntity
  8
Text
100
AcDbMText
 10
108.845396438514
 20
98.77121053981458
 30
0.0
 40
0.2
 41
0.0
 46
0.0
 71
     7
 72
     1
  1
\C7;\FINDEX Univers 45 Light|b0|i0|c1;\H2.497667;\W1.000000;17,5
 11
0.0000000000000001
 21
1.0
 31
0.0
 73
     1
 44
1.0
  0
LWPOLYLINE
  5
171
330
70
100
AcDbEntity
  8
Text
 62
     7
370
     9
100
AcDbPolyline
 90
        4
 70
     0
 43
0.0
 10
110.1283169052219
 20
96.89279247703943
 10
110.3817171829365
 20
98.81774205989117
 10
109.8751106552853
 20
98.81774205989117
 10
110.1283169052219
 20
96.89279247703943
  0
LINE
  5
172
330
70
100
AcDbEntity
  8
Text
 62
     7
370
     9
100
AcDbLine
 10
110.3797769051594
 20
98.81774205989117
 30
0.0
 11
110.3797769051594
 21
98.80280192100611
 31
0.0
  0
LINE
  5
173
330
70
100
AcDbEntity
  8
Text
 62
     7
370
     9
100
AcDbLine
 10
110.3797769051594
 20
98.81774205989117
 30
0.0
 11
110.3797769051594
 21
98.80280192100611
 31
0.0
  0
LINE
  5
174
330
70
100
AcDbEntity
  8
Text
 62
     7
370
     9
100
AcDbLine
 10
110.3518369051664
 20
98.81774205989117
 30
0.0
 11
110.3518369051664
 21
98.59053553217055
 31
0.0
  0
LINE
  5
175
330
70
100
AcDbEntity
  8
Text
 62
     7
370
     9
100
AcDbLine
 10
110.3238969051733
 20
98.81774205989117
 30
0.0
 11
110.3238969051733
 21
98.37846317111232
 31
0.0
  0
LINE
  5
176
330
70
100
AcDbEntity
  8
Text
 62
     7
370
     9
100
AcDbLine
 10
110.2959569051803
 20
98.81774205989117
 30
0.0
 11
110.2959569051803
 21
98.16619678227612
 31
0.0
  0
LINE
  5
177
330
70
100
AcDbEntity
  8
Text
 62
     7
370
     9
100
AcDbLine
 10
110.2680169051872
 20
98.81774205989117
 30
0.0
 11
110.2680169051872
 21
97.95393039344055
 31
0.0
  0
LINE
  5
178
330
70
100
AcDbEntity
  8
Text
 62
     7
370
     9
100
AcDbLine
 10
110.2400769051941
 20
98.81774205989117
 30
0.0
 11
110.2400769051941
 21
97.74166400460501
 31
0.0
  0
LINE
  5
179
330
70
100
AcDbEntity
  8
Text
 62
     7
370
     9
100
AcDbLine
 10
110.2121369052011
 20
98.81774205989117
 30
0.0
 11
110.2121369052011
 21
97.52939761576879
 31
0.0
  0
LINE
  5
17A
330
70
100
AcDbEntity
  8
Text
 62
     7
370
     9
100
AcDbLine
 10
110.184196905208
 20
98.81774205989117
 30
0.0
 11
110.184196905208
 21
97.31732525471056
 31
0.0
  0
LINE
  5
17B
330
70
100
AcDbEntity
  8
Text
 62
     7
370
     9
100
AcDbLine
 10
110.1562569052149
 20
98.81774205989117
 30
0.0
 11
110.1562569052149
 21
97.10505886587499
 31
0.0
  0
LINE
  5
17C
330
70
100
AcDbEntity
  8
Text
 62
     7
370
     9
100
AcDbLine
 10
110.1283169052219
 20
98.81774205989117
 30
0.0
 11
110.1283169052219
 21
96.89279247703943
 31
0.0
  0
LINE
  5
17D
330
70
100
AcDbEntity
  8
Text
 62
     7
370
     9
100
AcDbLine
 10
109.8770509330629
 20
98.81774205989117
 30
0.0
 11
109.8770509330629
 21
98.80280192100611
 31
0.0
  0
LINE
  5
17E
330
70
100
AcDbEntity
  8
Text
 62
     7
370
     9
100
AcDbLine
 10
109.8770509330629
 20
98.81774205989117
 30
0.0
 11
109.8770509330629
 21
98.80280192100611
 31
0.0
  0
LINE
  5
17F
330
70
100
AcDbEntity
  8
Text
 62
     7
370
     9
100
AcDbLine
 10
109.9049909330554
 20
98.81774205989117
 30
0.0
 11
109.9049909330554
 21
98.59053553217055
 31
0.0
  0
LINE
  5
180
330
70
100
AcDbEntity
  8
Text
 62
     7
370
     9
100
AcDbLine
 10
109.9329309330484
 20
98.81774205989117
 30
0.0
 11
109.9329309330484
 21
98.37846317111232
 31
0.0
  0
LINE
  5
181
330
70
100
AcDbEntity
  8
Text
 62
     7
370
     9
100
AcDbLine
 10
109.9608709330415
 20
98.81774205989117
 30
0.0
 11
109.9608709330415
 21
98.16619678227612
 31
0.0
  0
LINE
  5
182
330
70
100
AcDbEntity
  8
Text
 62
     7
370
     9
100
AcDbLine
 10
109.9888109330345
 20
98.81774205989117
 30
0.0
 11
109.9888109330345
 21
97.95393039344055
 31
0.0
  0
LINE
  5
183
330
70
100
AcDbEntity
  8
Text
 62
     7
370
     9
100
AcDbLine
 10
110.0167509330276
 20
98.81774205989117
 30
0.0
 11
110.0167509330276
 21
97.74166400460501
 31
0.0
  0
LINE
  5
184
330
70
100
AcDbEntity
  8
Text
 62
     7
370
     9
100
AcDbLine
 10
110.0446909330207
 20
98.81774205989117
 30
0.0
 11
110.0446909330207
 21
97.52939761576879
 31
0.0
  0
LINE
  5
185
330
70
100
AcDbEntity
  8
Text
 62
     7
370
     9
100
AcDbLine
 10
110.0726309330137
 20
98.81774205989117
 30
0.0
 11
110.0726309330137
 21
97.31732525471056
 31
0.0
  0
LINE
  5
186
330
70
100
AcDbEntity
  8
Text
 62
     7
370
     9
100
AcDbLine
 10
110.1005709330068
 20
98.81774205989117
 30
0.0
 11
110.1005709330068
 21
97.10505886587499
 31
0.0
  0
LINE
  5
187
330
70
100
AcDbEntity
  8
Text
 62
     7
370
     9
100
AcDbLine
 10
110.1283169052219
 20
98.81774205989117
 30
0.0
 11
110.1283169052219
 21
96.89279247703943
 31
0.0
  0
LWPOLYLINE
  5
188
330
70
100
AcDbEntity
  8
Text
 62
     7
370
     9
100
AcDbPolyline
 90
        4
 70
     0
 43
0.0
 10
110.1283169052219
 20
106.5177344190773
 10
109.8751106552853
 20
104.5927848362256
 10
110.3817171829365
 20
104.5927848362256
 10
110.1283169052219
 20
106.5177344190773
  0
LINE
  5
189
330
70
100
AcDbEntity
  8
Text
 62
     7
370
     9
100
AcDbLine
 10
109.8770509330629
 20
104.5927848362256
 30
0.0
 11
109.8770509330629
 21
104.6077249751106
 31
0.0
  0
LINE
  5
18A
330
70
100
AcDbEntity
  8
Text
 62
     7
370
     9
100
AcDbLine
 10
109.8770509330629
 20
104.5927848362256
 30
0.0
 11
109.8770509330629
 21
104.6077249751106
 31
0.0
  0
LINE
  5
18B
330
70
100
AcDbEntity
  8
Text
 62
     7
370
     9
100
AcDbLine
 10
109.9049909330554
 20
104.5927848362256
 30
0.0
 11
109.9049909330554
 21
104.8199913639462
 31
0.0
  0
LINE
  5
18C
330
70
100
AcDbEntity
  8
Text
 62
     7
370
     9
100
AcDbLine
 10
109.9329309330484
 20
104.5927848362256
 30
0.0
 11
109.9329309330484
 21
105.0322577527817
 31
0.0
  0
LINE
  5
18D
330
70
100
AcDbEntity
  8
Text
 62
     7
370
     9
100
AcDbLine
 10
109.9608709330415
 20
104.5927848362256
 30
0.0
 11
109.9608709330415
 21
105.244524141618
 31
0.0
  0
LINE
  5
18E
330
70
100
AcDbEntity
  8
Text
 62
     7
370
     9
100
AcDbLine
 10
109.9888109330345
 20
104.5927848362256
 30
0.0
 11
109.9888109330345
 21
105.4565965026762
 31
0.0
  0
LINE
  5
18F
330
70
100
AcDbEntity
  8
Text
 62
     7
370
     9
100
AcDbLine
 10
110.0167509330276
 20
104.5927848362256
 30
0.0
 11
110.0167509330276
 21
105.6688628915118
 31
0.0
  0
LINE
  5
190
330
70
100
AcDbEntity
  8
Text
 62
     7
370
     9
100
AcDbLine
 10
110.0446909330207
 20
104.5927848362256
 30
0.0
 11
110.0446909330207
 21
105.8811292803473
 31
0.0
  0
LINE
  5
191
330
70
100
AcDbEntity
  8
Text
 62
     7
370
     9
100
AcDbLine
 10
110.0726309330137
 20
104.5927848362256
 30
0.0
 11
110.0726309330137
 21
106.0933956691835
 31
0.0
  0
LINE
  5
192
330
70
100
AcDbEntity
  8
Text
 62
     7
370
     9
100
AcDbLine
 10
110.1005709330068
 20
104.5927848362256
 30
0.0
 11
110.1005709330068
 21
106.305856085797
 31
0.0
  0
LINE
  5
193
330
70
100
AcDbEntity
  8
Text
 62
     7
370
     9
100
AcDbLine
 10
110.1283169052219
 20
104.5927848362256
 30
0.0
 11
110.1283169052219
 21
106.5177344190773
 31
0.0
  0
LINE
  5
194
330
70
100
AcDbEntity
  8
Text
 62
     7
370
     9
100
AcDbLine
 10
110.3797769051594
 20
104.5927848362256
 30
0.0
 11
110.3797769051594
 21
104.6077249751106
 31
0.0
  0
LINE
  5
195
330
70
100
AcDbEntity
  8
Text
 62
     7
370
     9
100
AcDbLine
 10
110.3797769051594
 20
104.5927848362256
 30
0.0
 11
110.3797769051594
 21
104.6077249751106
 31
0.0
  0
LINE
  5
196
330
70
100
AcDbEntity
  8
Text
 62
     7
370
     9
100
AcDbLine
 10
110.3518369051664
 20
104.5927848362256
 30
0.0
 11
110.3518369051664
 21
104.8199913639462
 31
0.0
  0
LINE
  5
197
330
70
100
AcDbEntity
  8
Text
 62
     7
370
     9
100
AcDbLine
 10
110.3238969051733
 20
104.5927848362256
 30
0.0
 11
110.3238969051733
 21
105.0322577527817
 31
0.0
  0
LINE
  5
198
330
70
100
AcDbEntity
  8
Text
 62
     7
370
     9
100
AcDbLine
 10
110.2959569051803
 20
104.5927848362256
 30
0.0
 11
110.2959569051803
 21
105.244524141618
 31
0.0
  0
LINE
  5
199
330
70
100
AcDbEntity
  8
Text
 62
     7
370
     9
100
AcDbLine
 10
110.2680169051872
 20
104.5927848362256
 30
0.0
 11
110.2680169051872
 21
105.4565965026762
 31
0.0
  0
LINE
  5
19A
330
70
100
AcDbEntity
  8
Text
 62
     7
370
     9
100
AcDbLine
 10
110.2400769051941
 20
104.5927848362256
 30
0.0
 11
110.2400769051941
 21
105.6688628915118
 31
0.0
  0
LINE
  5
19B
330
70
100
AcDbEntity
  8
Text
 62
     7
370
     9
100
AcDbLine
 10
110.2121369052011
 20
104.5927848362256
 30
0.0
 11
110.2121369052011
 21
105.8811292803473
 31
0.0
  0
LINE
  5
19C
330
70
100
AcDbEntity
  8
Text
 62
     7
370
     9
100
AcDbLine
 10
110.184196905208
 20
104.5927848362256
 30
0.0
 11
110.184196905208
 21
106.0933956691835
 31
0.0
  0
LINE
  5
19D
330
70
100
AcDbEntity
  8
Text
 62
     7
370
     9
100
AcDbLine
 10
110.1562569052149
 20
104.5927848362256
 30
0.0
 11
110.1562569052149
 21
106.305856085797
 31
0.0
  0
LINE
  5
19E
330
70
100
AcDbEntity
  8
Text
 62
     7
370
     9
100
AcDbLine
 10
110.1283169052219
 20
104.5927848362256
 30
0.0
 11
110.1283169052219
 21
106.5177344190773
 31
0.0
  0
LINE
  5
19F
330
70
100
AcDbEntity
  8
Text
 62
     7
370
     9
100
AcDbLine
 10
115.03181569421
 20
99.91807358739427
 30
0.0
 11
130.6419359818146
 21
99.91807358739427
 31
0.0
  0
LINE
  5
1A0
330
70
100
AcDbEntity
  8
Text
 62
     7
370
     9
100
AcDbLine
 10
116.0077361177009
 20
106.5177344190773
 30
0.0
 11
116.0077361177009
 21
99.91807358739427
 31
0.0
  0
MTEXT
  5
1A1
330
70
100
AcDbEntity
  8
Text
100
AcDbMText
 10
114.7250009461858
 20
101.0962947168863
 30
0.0
 40
0.2
 41
0.0
 46
0.0
 71
     7
 72
     1
  1
\C7;\FINDEX Univers 45 Light|b0|i0|c1;\H2.497667;\W1.000000;12
 11
0.0000000000000001
 21
1.0
 31
0.0
 73
     1
 44
1.0
  0
LWPOLYLINE
  5
1A2
330
70
100
AcDbEntity
  8
Text
 62
     7
370
     9
100
AcDbPolyline
 90
        4
 70
     0
 43
0.0
 10
116.0077361177009
 20
106.5177344190773
 10
115.7545298677636
 20
104.5927848362256
 10
116.2611363954148
 20
104.5927848362256
 10
116.0077361177009
 20
106.5177344190773
  0
LINE
  5
1A3
330
70
100
AcDbEntity
  8
Text
 62
     7
370
     9
100
AcDbLine
 10
115.7564701455406
 20
104.5927848362256
 30
0.0
 11
115.7564701455406
 21
104.6077249751106
 31
0.0
  0
LINE
  5
1A4
330
70
100
AcDbEntity
  8
Text
 62
     7
370
     9
100
AcDbLine
 10
115.7564701455406
 20
104.5927848362256
 30
0.0
 11
115.7564701455406
 21
104.6077249751106
 31
0.0
  0
LINE
  5
1A5
330
70
100
AcDbEntity
  8
Text
 62
     7
370
     9
100
AcDbLine
 10
115.7844101455337
 20
104.5927848362256
 30
0.0
 11
115.7844101455337
 21
104.8199913639462
 31
0.0
  0
LINE
  5
1A6
330
70
100
AcDbEntity
  8
Text
 62
     7
370
     9
100
AcDbLine
 10
115.8123501455267
 20
104.5927848362256
 30
0.0
 11
115.8123501455267
 21
105.0322577527817
 31
0.0
  0
LINE
  5
1A7
330
70
100
AcDbEntity
  8
Text
 62
     7
370
     9
100
AcDbLine
 10
115.8402901455198
 20
104.5927848362256
 30
0.0
 11
115.8402901455198
 21
105.244524141618
 31
0.0
  0
LINE
  5
1A8
330
70
100
AcDbEntity
  8
Text
 62
     7
370
     9
100
AcDbLine
 10
115.8682301455129
 20
104.5927848362256
 30
0.0
 11
115.8682301455129
 21
105.4565965026762
 31
0.0
  0
LINE
  5
1A9
330
70
100
AcDbEntity
  8
Text
 62
     7
370
     9
100
AcDbLine
 10
115.8961701455059
 20
104.5927848362256
 30
0.0
 11
115.8961701455059
 21
105.6688628915118
 31
0.0
  0
LINE
  5
1AA
330
70
100
AcDbEntity
  8
Text
 62
     7
370
     9
100
AcDbLine
 10
115.924110145499
 20
104.5927848362256
 30
0.0
 11
115.924110145499
 21
105.8811292803473
 31
0.0
  0
LINE
  5
1AB
330
70
100
AcDbEntity
  8
Text
 62
     7
370
     9
100
AcDbLine
 10
115.9518561177141
 20
104.5927848362256
 30
0.0
 11
115.9518561177141
 21
106.0933956691835
 31
0.0
  0
LINE
  5
1AC
330
70
100
AcDbEntity
  8
Text
 62
     7
370
     9
100
AcDbLine
 10
115.9797961177078
 20
104.5927848362256
 30
0.0
 11
115.9797961177078
 21
106.305856085797
 31
0.0
  0
LINE
  5
1AD
330
70
100
AcDbEntity
  8
Text
 62
     7
370
     9
100
AcDbLine
 10
116.0077361177009
 20
104.5927848362256
 30
0.0
 11
116.0077361177009
 21
106.5177344190773
 31
0.0
  0
LINE
  5
1AE
330
70
100
AcDbEntity
  8
Text
 62
     7
370
     9
100
AcDbLine
 10
116.2593901454151
 20
104.5927848362256
 30
0.0
 11
116.2593901454151
 21
104.6077249751106
 31
0.0
  0
LINE
  5
1AF
330
70
100
AcDbEntity
  8
Text
 62
     7
370
     9
100
AcDbLine
 10
116.2593901454151
 20
104.5927848362256
 30
0.0
 11
116.2593901454151
 21
104.6077249751106
 31
0.0
  0
LINE
  5
1B0
330
70
100
AcDbEntity
  8
Text
 62
     7
370
     9
100
AcDbLine
 10
116.2312561176441
 20
104.5927848362256
 30
0.0
 11
116.2312561176441
 21
104.8199913639462
 31
0.0
  0
LINE
  5
1B1
330
70
100
AcDbEntity
  8
Text
 62
     7
370
     9
100
AcDbLine
 10
116.203316117651
 20
104.5927848362256
 30
0.0
 11
116.203316117651
 21
105.0322577527817
 31
0.0
  0
LINE
  5
1B2
330
70
100
AcDbEntity
  8
Text
 62
     7
370
     9
100
AcDbLine
 10
116.1753761176586
 20
104.5927848362256
 30
0.0
 11
116.1753761176586
 21
105.244524141618
 31
0.0
  0
LINE
  5
1B3
330
70
100
AcDbEntity
  8
Text
 62
     7
370
     9
100
AcDbLine
 10
116.1474361176655
 20
104.5927848362256
 30
0.0
 11
116.1474361176655
 21
105.4565965026762
 31
0.0
  0
LINE
  5
1B4
330
70
100
AcDbEntity
  8
Text
 62
     7
370
     9
100
AcDbLine
 10
116.1194961176725
 20
104.5927848362256
 30
0.0
 11
116.1194961176725
 21
105.6688628915118
 31
0.0
  0
LINE
  5
1B5
330
70
100
AcDbEntity
  8
Text
 62
     7
370
     9
100
AcDbLine
 10
116.0915561176794
 20
104.5927848362256
 30
0.0
 11
116.0915561176794
 21
105.8811292803473
 31
0.0
  0
LINE
  5
1B6
330
70
100
AcDbEntity
  8
Text
 62
     7
370
     9
100
AcDbLine
 10
116.0636161176863
 20
104.5927848362256
 30
0.0
 11
116.0636161176863
 21
106.0933956691835
 31
0.0
  0
LINE
  5
1B7
330
70
100
AcDbEntity
  8
Text
 62
     7
370
     9
100
AcDbLine
 10
116.0356761176939
 20
104.5927848362256
 30
0.0
 11
116.0356761176939
 21
106.305856085797
 31
0.0
  0
LINE
  5
1B8
330
70
100
AcDbEntity
  8
Text
 62
     7
370
     9
100
AcDbLine
 10
116.0077361177009
 20
104.5927848362256
 30
0.0
 11
116.0077361177009
 21
106.5177344190773
 31
0.0
  0
LWPOLYLINE
  5
1B9
330
70
100
AcDbEntity
  8
Text
 62
     7
370
     9
100
AcDbPolyline
 90
        4
 70
     0
 43
0.0
 10
116.0077361177009
 20
99.91807358739427
 10
116.2611363954148
 20
101.842829142468
 10
115.7545298677636
 20
101.842829142468
 10
116.0077361177009
 20
99.91807358739427
  0
LINE
  5
1BA
330
70
100
AcDbEntity
  8
Text
 62
     7
370
     9
100
AcDbLine
 10
116.2593901454151
 20
101.842829142468
 30
0.0
 11
116.2593901454151
 21
101.827889003583
 31
0.0
  0
LINE
  5
1BB
330
70
100
AcDbEntity
  8
Text
 62
     7
370
     9
100
AcDbLine
 10
116.2593901454151
 20
101.842829142468
 30
0.0
 11
116.2593901454151
 21
101.827889003583
 31
0.0
  0
LINE
  5
1BC
330
70
100
AcDbEntity
  8
Text
 62
     7
370
     9
100
AcDbLine
 10
116.2312561176441
 20
101.842829142468
 30
0.0
 11
116.2312561176441
 21
101.6158166425254
 31
0.0
  0
LINE
  5
1BD
330
70
100
AcDbEntity
  8
Text
 62
     7
370
     9
100
AcDbLine
 10
116.203316117651
 20
101.842829142468
 30
0.0
 11
116.203316117651
 21
101.4035502536892
 31
0.0
  0
LINE
  5
1BE
330
70
100
AcDbEntity
  8
Text
 62
     7
370
     9
100
AcDbLine
 10
116.1753761176586
 20
101.842829142468
 30
0.0
 11
116.1753761176586
 21
101.191283864853
 31
0.0
  0
LINE
  5
1BF
330
70
100
AcDbEntity
  8
Text
 62
     7
370
     9
100
AcDbLine
 10
116.1474361176655
 20
101.842829142468
 30
0.0
 11
116.1474361176655
 21
100.9790174760174
 31
0.0
  0
LINE
  5
1C0
330
70
100
AcDbEntity
  8
Text
 62
     7
370
     9
100
AcDbLine
 10
116.1194961176725
 20
101.842829142468
 30
0.0
 11
116.1194961176725
 21
100.7669451149598
 31
0.0
  0
LINE
  5
1C1
330
70
100
AcDbEntity
  8
Text
 62
     7
370
     9
100
AcDbLine
 10
116.0915561176794
 20
101.842829142468
 30
0.0
 11
116.0915561176794
 21
100.5546787261236
 31
0.0
  0
LINE
  5
1C2
330
70
100
AcDbEntity
  8
Text
 62
     7
370
     9
100
AcDbLine
 10
116.0636161176863
 20
101.842829142468
 30
0.0
 11
116.0636161176863
 21
100.3424123372874
 31
0.0
  0
LINE
  5
1C3
330
70
100
AcDbEntity
  8
Text
 62
     7
370
     9
100
AcDbLine
 10
116.0356761176939
 20
101.842829142468
 30
0.0
 11
116.0356761176939
 21
100.1301459484518
 31
0.0
  0
LINE
  5
1C4
330
70
100
AcDbEntity
  8
Text
 62
     7
370
     9
100
AcDbLine
 10
116.0077361177009
 20
101.842829142468
 30
0.0
 11
116.0077361177009
 21
99.91807358739427
 31
0.0
  0
LINE
  5
1C5
330
70
100
AcDbEntity
  8
Text
 62
     7
370
     9
100
AcDbLine
 10
115.7564701455406
 20
101.842829142468
 30
0.0
 11
115.7564701455406
 21
101.827889003583
 31
0.0
  0
LINE
  5
1C6
330
70
100
AcDbEntity
  8
Text
 62
     7
370
     9
100
AcDbLine
 10
115.7564701455406
 20
101.842829142468
 30
0.0
 11
115.7564701455406
 21
101.827889003583
 31
0.0
  0
LINE
  5
1C7
330
70
100
AcDbEntity
  8
Text
 62
     7
370
     9
100
AcDbLine
 10
115.7844101455337
 20
101.842829142468
 30
0.0
 11
115.7844101455337
 21
101.6158166425254
 31
0.0
  0
LINE
  5
1C8
330
70
100
AcDbEntity
  8
Text
 62
     7
370
     9
100
AcDbLine
 10
115.8123501455267
 20
101.842829142468
 30
0.0
 11
115.8123501455267
 21
101.4035502536892
 31
0.0
  0
LINE
  5
1C9
330
70
100
AcDbEntity
  8
Text
 62
     7
370
     9
100
AcDbLine
 10
115.8402901455198
 20
101.842829142468
 30
0.0
 11
115.8402901455198
 21
101.191283864853
 31
0.0
  0
LINE
  5
1CA
330
70
100
AcDbEntity
  8
Text
 62
     7
370
     9
100
AcDbLine
 10
115.8682301455129
 20
101.842829142468
 30
0.0
 11
115.8682301455129
 21
100.9790174760174
 31
0.0
  0
LINE
  5
1CB
330
70
100
AcDbEntity
  8
Text
 62
     7
370
     9
100
AcDbLine
 10
115.8961701455059
 20
101.842829142468
 30
0.0
 11
115.8961701455059
 21
100.7669451149598
 31
0.0
  0
LINE
  5
1CC
330
70
100
AcDbEntity
  8
Text
 62
     7
370
     9
100
AcDbLine
 10
115.924110145499
 20
101.842829142468
 30
0.0
 11
115.924110145499
 21
100.5546787261236
 31
0.0
  0
LINE
  5
1CD
330
70
100
AcDbEntity
  8
Text
 62
     7
370
     9
100
AcDbLine
 10
115.9518561177141
 20
101.842829142468
 30
0.0
 11
115.9518561177141
 21
100.3424123372874
 31
0.0
  0
LINE
  5
1CE
330
70
100
AcDbEntity
  8
Text
 62
     7
370
     9
100
AcDbLine
 10
115.9797961177078
 20
101.842829142468
 30
0.0
 11
115.9797961177078
 21
100.1301459484518
 31
0.0
  0
LINE
  5
1CF
330
70
100
AcDbEntity
  8
Text
 62
     7
370
     9
100
AcDbLine
 10
116.0077361177009
 20
101.842829142468
 30
0.0
 11
116.0077361177009
 21
99.91807358739427
 31
0.0
  0
LINE
  5
1D1
330
70
100
AcDbEntity
  8
Bemaßung
 62
     7
370
     9
100
AcDbLine
 10
77.79300134866852
 20
160.7083711777656
 30
0.0
 11
77.79300134866852
 21
155.1149032649114
 31
0.0
  0
LINE
  5
1D2
330
70
100
AcDbEntity
  8
Bemaßung
 62
     7
370
     9
100
AcDbLine
 10
77.79300134866852
 20
156.2151112923982
 30
0.0
 11
93.46783483765909
 21
156.2151112923982
 31
0.0
  0
LWPOLYLINE
  5
1D3
330
70
100
AcDbEntity
  8
Bemaßung
 62
     7
370
     9
100
AcDbPolyline
 90
        4
 70
     0
 43
0.0
 10
77.79300134866852
 20
156.2151112923982
 10
79.16812909136386
 20
156.0340657414615
 10
79.16812909136386
 20
156.3962979544425
 10
77.79300134866852
 20
156.2151112923982
  0
LINE
  5
1D4
330
70
100
AcDbEntity
  8
Bemaßung
 62
     7
370
     9
100
AcDbLine
 10
79.16812909136386
 20
156.0476476855595
 30
0.0
 11
79.06649381617902
 21
156.0476476855595
 31
0.0
  0
LINE
  5
1D5
330
70
100
AcDbEntity
  8
Bemaßung
 62
     7
370
     9
100
AcDbLine
 10
79.16812909136386
 20
156.0476476855595
 30
0.0
 11
79.06649381617902
 21
156.0476476855595
 31
0.0
  0
LINE
  5
1D6
330
70
100
AcDbEntity
  8
Bemaßung
 62
     7
370
     9
100
AcDbLine
 10
79.16812909136386
 20
156.0755524070698
 30
0.0
 11
78.85390993271361
 21
156.0755524070698
 31
0.0
  0
LINE
  5
1D7
330
70
100
AcDbEntity
  8
Bemaßung
 62
     7
370
     9
100
AcDbLine
 10
79.16812909136386
 20
156.1034610720851
 30
0.0
 11
78.64206688256262
 21
156.1034610720851
 31
0.0
  0
LINE
  5
1D8
330
70
100
AcDbEntity
  8
Bemaßung
 62
     7
370
     9
100
AcDbLine
 10
79.16812909136386
 20
156.1315382389748
 30
0.0
 11
78.42965938798158
 21
156.1315382389748
 31
0.0
  0
LINE
  5
1D9
330
70
100
AcDbEntity
  8
Bemaßung
 62
     7
370
     9
100
AcDbLine
 10
79.16812909136386
 20
156.1594429604851
 30
0.0
 11
78.21760467116932
 21
156.1594429604851
 31
0.0
  0
LINE
  5
1DA
330
70
100
AcDbEntity
  8
Bemaßung
 62
     7
370
     9
100
AcDbLine
 10
79.16812909136386
 20
156.1872065708879
 30
0.0
 11
78.00505606548078
 21
156.1872065708879
 31
0.0
  0
LINE
  5
1DB
330
70
100
AcDbEntity
  8
Bemaßung
 62
     7
370
     9
100
AcDbLine
 10
79.16812909136386
 20
156.2151112923982
 30
0.0
 11
77.79300134866852
 21
156.2151112923982
 31
0.0
  0
LINE
  5
1DC
330
70
100
AcDbEntity
  8
Bemaßung
 62
     7
370
     9
100
AcDbLine
 10
79.16812909136386
 20
156.3827160103445
 30
0.0
 11
79.06649381617902
 21
156.3827160103445
 31
0.0
  0
LINE
  5
1DD
330
70
100
AcDbEntity
  8
Bemaßung
 62
     7
370
     9
100
AcDbLine
 10
79.16812909136386
 20
156.3827160103445
 30
0.0
 11
79.06649381617902
 21
156.3827160103445
 31
0.0
  0
LINE
  5
1DE
330
70
100
AcDbEntity
  8
Bemaßung
 62
     7
370
     9
100
AcDbLine
 10
79.16812909136386
 20
156.3547760110573
 30
0.0
 11
78.85390993271361
 21
156.3547760110573
 31
0.0
  0
LINE
  5
1DF
330
70
100
AcDbEntity
  8
Bemaßung
 62
     7
370
     9
100
AcDbLine
 10
79.16812909136386
 20
156.326871289547
 30
0.0
 11
78.64206688256262
 21
156.326871289547
 31
0.0
  0
LINE
  5
1E0
330
70
100
AcDbEntity
  8
Bemaßung
 62
     7
370
     9
100
AcDbLine
 10
79.16812909136386
 20
156.2988254569292
 30
0.0
 11
78.42965938798158
 21
156.2988254569292
 31
0.0
  0
LINE
  5
1E1
330
70
100
AcDbEntity
  8
Bemaßung
 62
     7
370
     9
100
AcDbLine
 10
79.16812909136386
 20
156.2709207354189
 30
0.0
 11
78.21760467116932
 21
156.2709207354189
 31
0.0
  0
LINE
  5
1E2
330
70
100
AcDbEntity
  8
Bemaßung
 62
     7
370
     9
100
AcDbLine
 10
79.16812909136386
 20
156.2430160139085
 30
0.0
 11
78.00505606548078
 21
156.2430160139085
 31
0.0
  0
LINE
  5
1E3
330
70
100
AcDbEntity
  8
Bemaßung
 62
     7
370
     9
100
AcDbLine
 10
79.16812909136386
 20
156.2151112923982
 30
0.0
 11
77.79300134866852
 21
156.2151112923982
 31
0.0
  0
LWPOLYLINE
  5
1E4
330
70
100
AcDbEntity
  8
Bemaßung
 62
     7
370
     9
100
AcDbPolyline
 90
        4
 70
     0
 43
0.0
 10
93.46783483765909
 20
156.2151112923982
 10
92.09291876162501
 20
156.3962979544425
 10
92.09291876162501
 20
156.0340657414615
 10
93.46783483765909
 20
156.2151112923982
  0
LINE
  5
1E5
330
70
100
AcDbEntity
  8
Bemaßung
 62
     7
370
     9
100
AcDbLine
 10
92.09291876162501
 20
156.3827160103445
 30
0.0
 11
92.19455403680987
 21
156.3827160103445
 31
0.0
  0
LINE
  5
1E6
330
70
100
AcDbEntity
  8
Bemaßung
 62
     7
370
     9
100
AcDbLine
 10
92.09291876162501
 20
156.3827160103445
 30
0.0
 11
92.19455403680987
 21
156.3827160103445
 31
0.0
  0
LINE
  5
1E7
330
70
100
AcDbEntity
  8
Bemaßung
 62
     7
370
     9
100
AcDbLine
 10
92.09291876162501
 20
156.3547760110573
 30
0.0
 11
92.40710264249839
 21
156.3547760110573
 31
0.0
  0
LINE
  5
1E8
330
70
100
AcDbEntity
  8
Bemaßung
 62
     7
370
     9
100
AcDbLine
 10
92.09291876162501
 20
156.326871289547
 30
0.0
 11
92.61880458154188
 21
156.326871289547
 31
0.0
  0
LINE
  5
1E9
330
70
100
AcDbEntity
  8
Bemaßung
 62
     7
370
     9
100
AcDbLine
 10
92.09291876162501
 20
156.2988254569292
 30
0.0
 11
92.8313555323478
 21
156.2988254569292
 31
0.0
  0
LINE
  5
1EA
330
70
100
AcDbEntity
  8
Bemaßung
 62
     7
370
     9
100
AcDbLine
 10
92.09291876162501
 20
156.2709207354189
 30
0.0
 11
93.04340790404268
 21
156.2709207354189
 31
0.0
  0
LINE
  5
1EB
330
70
100
AcDbEntity
  8
Bemaßung
 62
     7
370
     9
100
AcDbLine
 10
92.09291876162501
 20
156.2430160139085
 30
0.0
 11
93.25599178750811
 21
156.2430160139085
 31
0.0
  0
LINE
  5
1EC
330
70
100
AcDbEntity
  8
Bemaßung
 62
     7
370
     9
100
AcDbLine
 10
92.09291876162501
 20
156.2151112923982
 30
0.0
 11
93.46783483765909
 21
156.2151112923982
 31
0.0
  0
LINE
  5
1ED
330
70
100
AcDbEntity
  8
Bemaßung
 62
     7
370
     9
100
AcDbLine
 10
92.09291876162501
 20
156.0476476855595
 30
0.0
 11
92.19455403680987
 21
156.0476476855595
 31
0.0
  0
LINE
  5
1EE
330
70
100
AcDbEntity
  8
Bemaßung
 62
     7
370
     9
100
AcDbLine
 10
92.09291876162501
 20
156.0476476855595
 30
0.0
 11
92.19455403680987
 21
156.0476476855595
 31
0.0
  0
LINE
  5
1EF
330
70
100
AcDbEntity
  8
Bemaßung
 62
     7
370
     9
100
AcDbLine
 10
92.09291876162501
 20
156.0755524070698
 30
0.0
 11
92.40710264249839
 21
156.0755524070698
 31
0.0
  0
LINE
  5
1F0
330
70
100
AcDbEntity
  8
Bemaßung
 62
     7
370
     9
100
AcDbLine
 10
92.09291876162501
 20
156.1034610720851
 30
0.0
 11
92.61880458154188
 21
156.1034610720851
 31
0.0
  0
LINE
  5
1F1
330
70
100
AcDbEntity
  8
Bemaßung
 62
     7
370
     9
100
AcDbLine
 10
92.09291876162501
 20
156.1315382389748
 30
0.0
 11
92.8313555323478
 21
156.1315382389748
 31
0.0
  0
LINE
  5
1F2
330
70
100
AcDbEntity
  8
Bemaßung
 62
     7
370
     9
100
AcDbLine
 10
92.09291876162501
 20
156.1594429604851
 30
0.0
 11
93.04340790404268
 21
156.1594429604851
 31
0.0
  0
LINE
  5
1F3
330
70
100
AcDbEntity
  8
Bemaßung
 62
     7
370
     9
100
AcDbLine
 10
92.09291876162501
 20
156.1872065708879
 30
0.0
 11
93.25599178750811
 21
156.1872065708879
 31
0.0
  0
LINE
  5
1F4
330
70
100
AcDbEntity
  8
Bemaßung
 62
     7
370
     9
100
AcDbLine
 10
92.09291876162501
 20
156.2151112923982
 30
0.0
 11
93.46783483765909
 21
156.2151112923982
 31
0.0
  0
LINE
  5
1F5
330
70
100
AcDbEntity
  8
Bemaßung
 62
     7
370
     9
100
AcDbLine
 10
115.8692231550409
 20
146.409653209223
 30
0.0
 11
115.9133203761381
 21
157.3828057070523
 31
0.0
  0
LINE
  5
1F6
330
70
100
AcDbEntity
  8
Bemaßung
 62
     7
370
     9
100
AcDbLine
 10
143.3249291212542
 20
146.2997666300916
 30
0.0
 11
143.3683207868138
 21
157.2725666273485
 31
0.0
  0
LINE
  5
1F7
330
70
100
AcDbEntity
  8
Bemaßung
 62
     7
370
     9
100
AcDbLine
 10
115.9088400984747
 20
156.2827740684498
 30
0.0
 11
143.3641932869192
 21
156.1727074045912
 31
0.0
  0
LWPOLYLINE
  5
1F8
330
70
100
AcDbEntity
  8
Bemaßung
 62
     7
370
     9
100
AcDbPolyline
 90
        4
 70
     0
 43
0.0
 10
115.9088400984747
 20
156.2827740684498
 10
117.2831211745249
 20
156.0960840732126
 10
117.2844999706786
 20
156.4581398973092
 10
115.9088400984747
 20
156.2827740684498
  0
LINE
  5
1F9
330
70
100
AcDbEntity
  8
Bemaßung
 62
     7
370
     9
100
AcDbLine
 10
117.2831211745249
 20
156.1093132395418
 30
0.0
 11
117.1814888595934
 21
156.109842406195
 31
0.0
  0
LINE
  5
1FA
330
70
100
AcDbEntity
  8
Bemaßung
 62
     7
370
     9
100
AcDbLine
 10
117.2831211745249
 20
156.1093132395418
 30
0.0
 11
117.1814888595934
 21
156.109842406195
 31
0.0
  0
LINE
  5
1FB
330
70
100
AcDbEntity
  8
Bemaßung
 62
     7
370
     9
100
AcDbLine
 10
117.2831211745249
 20
156.137253238829
 30
0.0
 11
116.9689020158747
 21
156.1386290721272
 31
0.0
  0
LINE
  5
1FC
330
70
100
AcDbEntity
  8
Bemaßung
 62
     7
370
     9
100
AcDbLine
 10
117.2831211745249
 20
156.1652990714468
 30
0.0
 11
116.7573764657156
 21
156.1673804602826
 31
0.0
  0
LINE
  5
1FD
330
70
100
AcDbEntity
  8
Bemaßung
 62
     7
370
     9
100
AcDbLine
 10
117.2834416373459
 20
156.1933801818415
 30
0.0
 11
116.5451806377958
 21
156.1963082373224
 31
0.0
  0
LINE
  5
1FE
330
70
100
AcDbEntity
  8
Bemaßung
 62
     7
370
     9
100
AcDbLine
 10
117.2834416373459
 20
156.2212888498337
 30
0.0
 11
116.3329495320992
 21
156.2249185143703
 31
0.0
  0
LINE
  5
1FF
330
70
100
AcDbEntity
  8
Bemaßung
 62
     7
370
     9
100
AcDbLine
 10
117.2834416373459
 20
156.2491896248622
 30
0.0
 11
116.1207184264025
 21
156.25384629141
 31
0.0
  0
LINE
  5
200
330
70
100
AcDbEntity
  8
Bemaßung
 62
     7
370
     9
100
AcDbLine
 10
117.2837944151237
 20
156.2770943463725
 30
0.0
 11
115.9088400984747
 21
156.2827740684498
 31
0.0
  0
LINE
  5
201
330
70
100
AcDbEntity
  8
Bemaßung
 62
     7
370
     9
100
AcDbLine
 10
117.2844999706786
 20
156.4448754532032
 30
0.0
 11
117.1828617326383
 21
156.4452282309719
 31
0.0
  0
LINE
  5
202
330
70
100
AcDbEntity
  8
Bemaßung
 62
     7
370
     9
100
AcDbLine
 10
117.2844999706786
 20
156.4448754532032
 30
0.0
 11
117.1828617326383
 21
156.4452282309719
 31
0.0
  0
LINE
  5
203
330
70
100
AcDbEntity
  8
Bemaßung
 62
     7
370
     9
100
AcDbLine
 10
117.2841471929014
 20
156.4169707316928
 30
0.0
 11
116.9702778491729
 21
156.4179937872223
 31
0.0
  0
LINE
  5
204
330
70
100
AcDbEntity
  8
Bemaßung
 62
     7
370
     9
100
AcDbLine
 10
117.2841471929014
 20
156.3888896212981
 30
0.0
 11
116.7584347990219
 21
156.3911473990183
 31
0.0
  0
LINE
  5
205
330
70
100
AcDbEntity
  8
Bemaßung
 62
     7
370
     9
100
AcDbLine
 10
117.2841471929014
 20
156.3609888497986
 30
0.0
 11
116.5454981377877
 21
156.3640893441531
 31
0.0
  0
LINE
  5
206
330
70
100
AcDbEntity
  8
Bemaßung
 62
     7
370
     9
100
AcDbLine
 10
117.2841471929014
 20
156.3330801782775
 30
0.0
 11
116.3336198098599
 21
156.3368901781803
 31
0.0
  0
LINE
  5
207
330
70
100
AcDbEntity
  8
Bemaßung
 62
     7
370
     9
100
AcDbLine
 10
117.2837944151237
 20
156.3051754567672
 30
0.0
 11
116.1207184264025
 21
156.3098360720335
 31
0.0
  0
LINE
  5
208
330
70
100
AcDbEntity
  8
Bemaßung
 62
     7
370
     9
100
AcDbLine
 10
117.2837944151237
 20
156.2770943463725
 30
0.0
 11
115.9088400984747
 21
156.2827740684498
 31
0.0
  0
LWPOLYLINE
  5
209
330
70
100
AcDbEntity
  8
Bemaßung
 62
     7
370
     9
100
AcDbPolyline
 90
        4
 70
     0
 43
0.0
 10
143.3641932869192
 20
156.1727074045912
 10
141.989594710877
 20
156.3592562887208
 10
141.9882188775787
 20
155.9972004646243
 10
143.3641932869192
 20
156.1727074045912
  0
LINE
  5
20A
330
70
100
AcDbEntity
  8
Bemaßung
 62
     7
370
     9
100
AcDbLine
 10
141.989594710877
 20
156.3456743446228
 30
0.0
 11
142.0912299860618
 21
156.3453215668541
 31
0.0
  0
LINE
  5
20B
330
70
100
AcDbEntity
  8
Bemaßung
 62
     7
370
     9
100
AcDbLine
 10
141.989594710877
 20
156.3456743446228
 30
0.0
 11
142.0912299860618
 21
156.3453215668541
 31
0.0
  0
LINE
  5
20C
330
70
100
AcDbEntity
  8
Bemaßung
 62
     7
370
     9
100
AcDbLine
 10
141.989594710877
 20
156.3177696231125
 30
0.0
 11
142.3038138695272
 21
156.3165701786987
 31
0.0
  0
LINE
  5
20D
330
70
100
AcDbEntity
  8
Bemaßung
 62
     7
370
     9
100
AcDbLine
 10
141.989594710877
 20
156.2900412904866
 30
0.0
 11
142.5156569196782
 21
156.2876110720393
 31
0.0
  0
LINE
  5
20E
330
70
100
AcDbEntity
  8
Bemaßung
 62
     7
370
     9
100
AcDbLine
 10
141.9892772108851
 20
156.2619601800919
 30
0.0
 11
142.7275388532071
 21
156.2588557357267
 31
0.0
  0
LINE
  5
20F
330
70
100
AcDbEntity
  8
Bemaßung
 62
     7
370
     9
100
AcDbLine
 10
141.9892772108851
 20
156.2340554585816
 30
0.0
 11
142.9397663533027
 21
156.2304218475632
 31
0.0
  0
LINE
  5
210
330
70
100
AcDbEntity
  8
Bemaßung
 62
     7
370
     9
100
AcDbLine
 10
141.9892772108851
 20
156.2061507370713
 30
0.0
 11
143.1519974589994
 21
156.2014940705234
 31
0.0
  0
LINE
  5
211
330
70
100
AcDbEntity
  8
Bemaßung
 62
     7
370
     9
100
AcDbLine
 10
141.9892772108851
 20
156.1782499609554
 30
0.0
 11
143.3641932869192
 21
156.1727074045912
 31
0.0
  0
LINE
  5
212
330
70
100
AcDbEntity
  8
Bemaßung
 62
     7
370
     9
100
AcDbLine
 10
141.9882188775787
 20
156.0106412976147
 30
0.0
 11
142.0902069305323
 21
156.0102885198459
 31
0.0
  0
LINE
  5
213
330
70
100
AcDbEntity
  8
Bemaßung
 62
     7
370
     9
100
AcDbLine
 10
141.9882188775787
 20
156.0106412976147
 30
0.0
 11
142.0902069305323
 21
156.0102885198459
 31
0.0
  0
LINE
  5
214
330
70
100
AcDbEntity
  8
Bemaßung
 62
     7
370
     9
100
AcDbLine
 10
141.9882188775787
 20
156.0385499609905
 30
0.0
 11
142.3024416310912
 21
156.0373112969343
 31
0.0
  0
LINE
  5
215
330
70
100
AcDbEntity
  8
Bemaßung
 62
     7
370
     9
100
AcDbLine
 10
141.9889244331163
 20
156.0664507406353
 30
0.0
 11
142.5146338641487
 21
156.0643693517995
 31
0.0
  0
LINE
  5
216
330
70
100
AcDbEntity
  8
Bemaßung
 62
     7
370
     9
100
AcDbLine
 10
141.9892772108851
 20
156.0943554621456
 30
0.0
 11
142.7272177476142
 21
156.0914274066648
 31
0.0
  0
LINE
  5
217
330
70
100
AcDbEntity
  8
Bemaßung
 62
     7
370
     9
100
AcDbLine
 10
141.9892772108851
 20
156.1224365725404
 30
0.0
 11
142.9394135755339
 21
156.1186305165259
 31
0.0
  0
LINE
  5
218
330
70
100
AcDbEntity
  8
Bemaßung
 62
     7
370
     9
100
AcDbLine
 10
141.9892772108851
 20
156.1501649051663
 30
0.0
 11
143.1519974589994
 21
156.1456846275028
 31
0.0
  0
LINE
  5
219
330
70
100
AcDbEntity
  8
Bemaßung
 62
     7
370
     9
100
AcDbLine
 10
141.9892772108851
 20
156.1782499609554
 30
0.0
 11
143.3641932869192
 21
156.1727074045912
 31
0.0
  0
LINE
  5
21A
330
70
100
AcDbEntity
  8
Bemaßung
 62
     7
370
     9
100
AcDbLine
 10
135.0746212761815
 20
193.1048356290407
 30
0.0
 11
152.0285130534704
 21
193.1048356290407
 31
0.0
  0
LINE
  5
21B
330
70
100
AcDbEntity
  8
Bemaßung
 62
     7
370
     9
100
AcDbLine
 10
139.4746772750378
 20
179.4095440339923
 30
0.0
 11
152.0285130534704
 21
179.4095440339923
 31
0.0
  0
LINE
  5
21C
330
70
100
AcDbEntity
  8
Bemaßung
 62
     7
370
     9
100
AcDbLine
 10
150.9281286370992
 20
193.1048356290407
 30
0.0
 11
150.9281286370992
 21
179.4095440339923
 31
0.0
  0
LWPOLYLINE
  5
21D
330
70
100
AcDbEntity
  8
Bemaßung
 62
     7
370
     9
100
AcDbPolyline
 90
        4
 70
     0
 43
0.0
 10
150.9281286370992
 20
193.1048356290407
 10
150.7472594750468
 20
191.7297078863454
 10
151.1093505769203
 20
191.7297078863454
 10
150.9281286370992
 20
193.1048356290407
  0
LINE
  5
21E
330
70
100
AcDbEntity
  8
Bemaßung
 62
     7
370
     9
100
AcDbLine
 10
150.7607003080373
 20
191.7297078863454
 30
0.0
 11
150.7607003080373
 21
191.8311667726458
 31
0.0
  0
LINE
  5
21F
330
70
100
AcDbEntity
  8
Bemaßung
 62
     7
370
     9
100
AcDbLine
 10
150.7607003080373
 20
191.7297078863454
 30
0.0
 11
150.7607003080373
 21
191.8311667726458
 31
0.0
  0
LINE
  5
220
330
70
100
AcDbEntity
  8
Bemaßung
 62
     7
370
     9
100
AcDbLine
 10
150.7886050295476
 20
191.7297078863454
 30
0.0
 11
150.7886050295476
 21
192.0437555075447
 31
0.0
  0
LINE
  5
221
330
70
100
AcDbEntity
  8
Bemaßung
 62
     7
370
     9
100
AcDbLine
 10
150.8168625288267
 20
191.7297078863454
 30
0.0
 11
150.8168625288267
 21
192.255946484031
 31
0.0
  0
LINE
  5
222
330
70
100
AcDbEntity
  8
Bemaßung
 62
     7
370
     9
100
AcDbLine
 10
150.8444144725682
 20
191.7297078863454
 30
0.0
 11
150.8444144725682
 21
192.4678248119589
 31
0.0
  0
LINE
  5
223
330
70
100
AcDbEntity
  8
Bemaßung
 62
     7
370
     9
100
AcDbLine
 10
150.8726719718473
 20
191.7297078863454
 30
0.0
 11
150.8726719718473
 21
192.6800559176555
 31
0.0
  0
LINE
  5
224
330
70
100
AcDbEntity
  8
Bemaßung
 62
     7
370
     9
100
AcDbLine
 10
150.90022774028
 20
191.7297078863454
 30
0.0
 11
150.90022774028
 21
192.8926045233441
 31
0.0
  0
LINE
  5
225
330
70
100
AcDbEntity
  8
Bemaßung
 62
     7
370
     9
100
AcDbLine
 10
150.9281286370992
 20
191.7297078863454
 30
0.0
 11
150.9281286370992
 21
193.1048356290407
 31
0.0
  0
LINE
  5
226
330
70
100
AcDbEntity
  8
Bemaßung
 62
     7
370
     9
100
AcDbLine
 10
151.0959097439298
 20
191.7297078863454
 30
0.0
 11
151.0959097439298
 21
191.8311667726458
 31
0.0
  0
LINE
  5
227
330
70
100
AcDbEntity
  8
Bemaßung
 62
     7
370
     9
100
AcDbLine
 10
151.0959097439298
 20
191.7297078863454
 30
0.0
 11
151.0959097439298
 21
191.8311667726458
 31
0.0
  0
LINE
  5
228
330
70
100
AcDbEntity
  8
Bemaßung
 62
     7
370
     9
100
AcDbLine
 10
151.0680050224195
 20
191.7297078863454
 30
0.0
 11
151.0680050224195
 21
192.0437555075447
 31
0.0
  0
LINE
  5
229
330
70
100
AcDbEntity
  8
Bemaßung
 62
     7
370
     9
100
AcDbLine
 10
151.0401003009092
 20
191.7297078863454
 30
0.0
 11
151.0401003009092
 21
192.255946484031
 31
0.0
  0
LINE
  5
22A
330
70
100
AcDbEntity
  8
Bemaßung
 62
     7
370
     9
100
AcDbLine
 10
151.0118428016301
 20
191.7297078863454
 30
0.0
 11
151.0118428016301
 21
192.4678248119589
 31
0.0
  0
LINE
  5
22B
330
70
100
AcDbEntity
  8
Bemaßung
 62
     7
370
     9
100
AcDbLine
 10
150.9842908578886
 20
191.7297078863454
 30
0.0
 11
150.9842908578886
 21
192.6800559176555
 31
0.0
  0
LINE
  5
22C
330
70
100
AcDbEntity
  8
Bemaßung
 62
     7
370
     9
100
AcDbLine
 10
150.9563861363783
 20
191.7297078863454
 30
0.0
 11
150.9563861363783
 21
192.8926045233441
 31
0.0
  0
LINE
  5
22D
330
70
100
AcDbEntity
  8
Bemaßung
 62
     7
370
     9
100
AcDbLine
 10
150.9281286370992
 20
191.7297078863454
 30
0.0
 11
150.9281286370992
 21
193.1048356290407
 31
0.0
  0
LWPOLYLINE
  5
22E
330
70
100
AcDbEntity
  8
Bemaßung
 62
     7
370
     9
100
AcDbPolyline
 90
        4
 70
     0
 43
0.0
 10
150.9281286370992
 20
179.4095440339923
 10
151.1093505769203
 20
180.7846364989108
 10
150.7472594750468
 20
180.7846364989108
 10
150.9281286370992
 20
179.4095440339923
  0
LINE
  5
22F
330
70
100
AcDbEntity
  8
Bemaßung
 62
     7
370
     9
100
AcDbLine
 10
151.0959097439298
 20
180.7846364989108
 30
0.0
 11
151.0959097439298
 21
180.6830365015028
 31
0.0
  0
LINE
  5
230
330
70
100
AcDbEntity
  8
Bemaßung
 62
     7
370
     9
100
AcDbLine
 10
151.0959097439298
 20
180.7846364989108
 30
0.0
 11
151.0959097439298
 21
180.6830365015028
 31
0.0
  0
LINE
  5
231
330
70
100
AcDbEntity
  8
Bemaßung
 62
     7
370
     9
100
AcDbLine
 10
151.0680050224195
 20
180.7846364989108
 30
0.0
 11
151.0680050224195
 21
180.4708053958061
 31
0.0
  0
LINE
  5
232
330
70
100
AcDbEntity
  8
Bemaßung
 62
     7
370
     9
100
AcDbLine
 10
151.0401003009092
 20
180.7846364989108
 30
0.0
 11
151.0401003009092
 21
180.258433179002
 31
0.0
  0
LINE
  5
233
330
70
100
AcDbEntity
  8
Bemaßung
 62
     7
370
     9
100
AcDbLine
 10
151.0118428016301
 20
180.7846364989108
 30
0.0
 11
151.0118428016301
 21
180.0465548510741
 31
0.0
  0
LINE
  5
234
330
70
100
AcDbEntity
  8
Bemaßung
 62
     7
370
     9
100
AcDbLine
 10
150.9842908578886
 20
180.7846364989108
 30
0.0
 11
150.9842908578886
 21
179.8341473564931
 31
0.0
  0
LINE
  5
235
330
70
100
AcDbEntity
  8
Bemaßung
 62
     7
370
     9
100
AcDbLine
 10
150.9563861363783
 20
180.7846364989108
 30
0.0
 11
150.9563861363783
 21
179.6219515285733
 31
0.0
  0
LINE
  5
236
330
70
100
AcDbEntity
  8
Bemaßung
 62
     7
370
     9
100
AcDbLine
 10
150.9281286370992
 20
180.7846364989108
 30
0.0
 11
150.9281286370992
 21
179.4095440339923
 31
0.0
  0
LINE
  5
237
330
70
100
AcDbEntity
  8
Bemaßung
 62
     7
370
     9
100
AcDbLine
 10
150.7607003080373
 20
180.7846364989108
 30
0.0
 11
150.7607003080373
 21
180.6830365015028
 31
0.0
  0
LINE
  5
238
330
70
100
AcDbEntity
  8
Bemaßung
 62
     7
370
     9
100
AcDbLine
 10
150.7607003080373
 20
180.7846364989108
 30
0.0
 11
150.7607003080373
 21
180.6830365015028
 31
0.0
  0
LINE
  5
239
330
70
100
AcDbEntity
  8
Bemaßung
 62
     7
370
     9
100
AcDbLine
 10
150.7886050295476
 20
180.7846364989108
 30
0.0
 11
150.7886050295476
 21
180.4708053958061
 31
0.0
  0
LINE
  5
23A
330
70
100
AcDbEntity
  8
Bemaßung
 62
     7
370
     9
100
AcDbLine
 10
150.8168625288267
 20
180.7846364989108
 30
0.0
 11
150.8168625288267
 21
180.258433179002
 31
0.0
  0
LINE
  5
23B
330
70
100
AcDbEntity
  8
Bemaßung
 62
     7
370
     9
100
AcDbLine
 10
150.8444144725682
 20
180.7846364989108
 30
0.0
 11
150.8444144725682
 21
180.0465548510741
 31
0.0
  0
LINE
  5
23C
330
70
100
AcDbEntity
  8
Bemaßung
 62
     7
370
     9
100
AcDbLine
 10
150.8726719718473
 20
180.7846364989108
 30
0.0
 11
150.8726719718473
 21
179.8341473564931
 31
0.0
  0
LINE
  5
23D
330
70
100
AcDbEntity
  8
Bemaßung
 62
     7
370
     9
100
AcDbLine
 10
150.90022774028
 20
180.7846364989108
 30
0.0
 11
150.90022774028
 21
179.6219515285733
 31
0.0
  0
LINE
  5
23E
330
70
100
AcDbEntity
  8
Bemaßung
 62
     7
370
     9
100
AcDbLine
 10
150.9281286370992
 20
180.7846364989108
 30
0.0
 11
150.9281286370992
 21
179.4095440339923
 31
0.0
  0
LINE
  5
23F
330
70
100
AcDbEntity
  8
Bemaßung
 62
     7
370
     9
100
AcDbLine
 10
136.7520442889424
 20
96.90949947207714
 30
0.0
 11
152.0285130534704
 21
96.90949947207714
 31
0.0
  0
LINE
  5
240
330
70
100
AcDbEntity
  8
Bemaßung
 62
     7
370
     9
100
AcDbLine
 10
150.9281286370992
 20
179.4095440339923
 30
0.0
 11
150.9281286370992
 21
96.90949947207714
 31
0.0
  0
LWPOLYLINE
  5
241
330
70
100
AcDbEntity
  8
Bemaßung
 62
     7
370
     9
100
AcDbPolyline
 90
        4
 70
     0
 43
0.0
 10
150.9281286370992
 20
179.4095440339923
 10
150.7472594750468
 20
178.0345971777135
 10
151.1093505769203
 20
178.0345971777135
 10
150.9281286370992
 20
179.4095440339923
  0
LINE
  5
242
330
70
100
AcDbEntity
  8
Bemaßung
 62
     7
370
     9
100
AcDbLine
 10
150.7607003080373
 20
178.0345971777135
 30
0.0
 11
150.7607003080373
 21
178.1362279553662
 31
0.0
  0
LINE
  5
243
330
70
100
AcDbEntity
  8
Bemaßung
 62
     7
370
     9
100
AcDbLine
 10
150.7607003080373
 20
178.0345971777135
 30
0.0
 11
150.7607003080373
 21
178.1362279553662
 31
0.0
  0
LINE
  5
244
330
70
100
AcDbEntity
  8
Bemaßung
 62
     7
370
     9
100
AcDbLine
 10
150.7886050295476
 20
178.0345971777135
 30
0.0
 11
150.7886050295476
 21
178.3486354499472
 31
0.0
  0
LINE
  5
245
330
70
100
AcDbEntity
  8
Bemaßung
 62
     7
370
     9
100
AcDbLine
 10
150.8168625288267
 20
178.0345971777135
 30
0.0
 11
150.8168625288267
 21
178.5606901667595
 31
0.0
  0
LINE
  5
246
330
70
100
AcDbEntity
  8
Bemaßung
 62
     7
370
     9
100
AcDbLine
 10
150.8444144725682
 20
178.0345971777135
 30
0.0
 11
150.8444144725682
 21
178.7730623835636
 31
0.0
  0
LINE
  5
247
330
70
100
AcDbEntity
  8
Bemaßung
 62
     7
370
     9
100
AcDbLine
 10
150.8726719718473
 20
178.0345971777135
 30
0.0
 11
150.8726719718473
 21
178.9852934892603
 31
0.0
  0
LINE
  5
248
330
70
100
AcDbEntity
  8
Bemaßung
 62
     7
370
     9
100
AcDbLine
 10
150.90022774028
 20
178.0345971777135
 30
0.0
 11
150.90022774028
 21
179.19748931718
 31
0.0
  0
LINE
  5
249
330
70
100
AcDbEntity
  8
Bemaßung
 62
     7
370
     9
100
AcDbLine
 10
150.9281286370992
 20
178.0345971777135
 30
0.0
 11
150.9281286370992
 21
179.4095440339923
 31
0.0
  0
LINE
  5
24A
330
70
100
AcDbEntity
  8
Bemaßung
 62
     7
370
     9
100
AcDbLine
 10
151.0959097439298
 20
178.0345971777135
 30
0.0
 11
151.0959097439298
 21
178.1362279553662
 31
0.0
  0
LINE
  5
24B
330
70
100
AcDbEntity
  8
Bemaßung
 62
     7
370
     9
100
AcDbLine
 10
151.0959097439298
 20
178.0345971777135
 30
0.0
 11
151.0959097439298
 21
178.1362279553662
 31
0.0
  0
LINE
  5
24C
330
70
100
AcDbEntity
  8
Bemaßung
 62
     7
370
     9
100
AcDbLine
 10
151.0680050224195
 20
178.0345971777135
 30
0.0
 11
151.0680050224195
 21
178.3486354499472
 31
0.0
  0
LINE
  5
24D
330
70
100
AcDbEntity
  8
Bemaßung
 62
     7
370
     9
100
AcDbLine
 10
151.0401003009092
 20
178.0345971777135
 30
0.0
 11
151.0401003009092
 21
178.5606901667595
 31
0.0
  0
LINE
  5
24E
330
70
100
AcDbEntity
  8
Bemaßung
 62
     7
370
     9
100
AcDbLine
 10
151.0118428016301
 20
178.0345971777135
 30
0.0
 11
151.0118428016301
 21
178.7730623835636
 31
0.0
  0
LINE
  5
24F
330
70
100
AcDbEntity
  8
Bemaßung
 62
     7
370
     9
100
AcDbLine
 10
150.9842908578886
 20
178.0345971777135
 30
0.0
 11
150.9842908578886
 21
178.9852934892603
 31
0.0
  0
LINE
  5
250
330
70
100
AcDbEntity
  8
Bemaßung
 62
     7
370
     9
100
AcDbLine
 10
150.9563861363783
 20
178.0345971777135
 30
0.0
 11
150.9563861363783
 21
179.19748931718
 31
0.0
  0
LINE
  5
251
330
70
100
AcDbEntity
  8
Bemaßung
 62
     7
370
     9
100
AcDbLine
 10
150.9281286370992
 20
178.0345971777135
 30
0.0
 11
150.9281286370992
 21
179.4095440339923
 31
0.0
  0
LWPOLYLINE
  5
252
330
70
100
AcDbEntity
  8
Bemaßung
 62
     7
370
     9
100
AcDbPolyline
 90
        4
 70
     0
 43
0.0
 10
150.9281286370992
 20
96.90949947207714
 10
151.1093505769203
 20
98.28476832588
 10
150.7472594750468
 20
98.28476832588
 10
150.9281286370992
 20
96.90949947207714
  0
LINE
  5
253
330
70
100
AcDbEntity
  8
Bemaßung
 62
     7
370
     9
100
AcDbLine
 10
151.0959097439298
 20
98.28476832588
 30
0.0
 11
151.0959097439298
 21
98.18316832847202
 31
0.0
  0
LINE
  5
254
330
70
100
AcDbEntity
  8
Bemaßung
 62
     7
370
     9
100
AcDbLine
 10
151.0959097439298
 20
98.28476832588
 30
0.0
 11
151.0959097439298
 21
98.18316832847202
 31
0.0
  0
LINE
  5
255
330
70
100
AcDbEntity
  8
Bemaßung
 62
     7
370
     9
100
AcDbLine
 10
151.0680050224195
 20
98.28476832588
 30
0.0
 11
151.0680050224195
 21
97.97093722277537
 31
0.0
  0
LINE
  5
256
330
70
100
AcDbEntity
  8
Bemaßung
 62
     7
370
     9
100
AcDbLine
 10
151.0401003009092
 20
98.28476832588
 30
0.0
 11
151.0401003009092
 21
97.75838861708685
 31
0.0
  0
LINE
  5
257
330
70
100
AcDbEntity
  8
Bemaßung
 62
     7
370
     9
100
AcDbLine
 10
151.0118428016301
 20
98.28476832588
 30
0.0
 11
151.0118428016301
 21
97.54651028915898
 31
0.0
  0
LINE
  5
258
330
70
100
AcDbEntity
  8
Bemaßung
 62
     7
370
     9
100
AcDbLine
 10
150.9842908578886
 20
98.28476832588
 30
0.0
 11
150.9842908578886
 21
97.33392640569356
 31
0.0
  0
LINE
  5
259
330
70
100
AcDbEntity
  8
Bemaßung
 62
     7
370
     9
100
AcDbLine
 10
150.9563861363783
 20
98.28476832588
 30
0.0
 11
150.9563861363783
 21
97.12204807776569
 31
0.0
  0
LINE
  5
25A
330
70
100
AcDbEntity
  8
Bemaßung
 62
     7
370
     9
100
AcDbLine
 10
150.9281286370992
 20
98.28476832588
 30
0.0
 11
150.9281286370992
 21
96.90949947207714
 31
0.0
  0
LINE
  5
25B
330
70
100
AcDbEntity
  8
Bemaßung
 62
     7
370
     9
100
AcDbLine
 10
150.7607003080373
 20
98.28476832588
 30
0.0
 11
150.7607003080373
 21
98.18316832847202
 31
0.0
  0
LINE
  5
25C
330
70
100
AcDbEntity
  8
Bemaßung
 62
     7
370
     9
100
AcDbLine
 10
150.7607003080373
 20
98.28476832588
 30
0.0
 11
150.7607003080373
 21
98.18316832847202
 31
0.0
  0
LINE
  5
25D
330
70
100
AcDbEntity
  8
Bemaßung
 62
     7
370
     9
100
AcDbLine
 10
150.7886050295476
 20
98.28476832588
 30
0.0
 11
150.7886050295476
 21
97.97093722277537
 31
0.0
  0
LINE
  5
25E
330
70
100
AcDbEntity
  8
Bemaßung
 62
     7
370
     9
100
AcDbLine
 10
150.8168625288267
 20
98.28476832588
 30
0.0
 11
150.8168625288267
 21
97.75838861708685
 31
0.0
  0
LINE
  5
25F
330
70
100
AcDbEntity
  8
Bemaßung
 62
     7
370
     9
100
AcDbLine
 10
150.8444144725682
 20
98.28476832588
 30
0.0
 11
150.8444144725682
 21
97.54651028915898
 31
0.0
  0
LINE
  5
260
330
70
100
AcDbEntity
  8
Bemaßung
 62
     7
370
     9
100
AcDbLine
 10
150.8726719718473
 20
98.28476832588
 30
0.0
 11
150.8726719718473
 21
97.33392640569356
 31
0.0
  0
LINE
  5
261
330
70
100
AcDbEntity
  8
Bemaßung
 62
     7
370
     9
100
AcDbLine
 10
150.90022774028
 20
98.28476832588
 30
0.0
 11
150.90022774028
 21
97.12204807776569
 31
0.0
  0
LINE
  5
262
330
70
100
AcDbEntity
  8
Bemaßung
 62
     7
370
     9
100
AcDbLine
 10
150.9281286370992
 20
98.28476832588
 30
0.0
 11
150.9281286370992
 21
96.90949947207714
 31
0.0
  0
LINE
  5
263
330
70
100
AcDbEntity
  8
Bemaßung
 62
     7
370
     9
100
AcDbLine
 10
78.45290744294402
 20
96.90949947207714
 30
0.0
 11
69.93974488235513
 21
96.90949947207714
 31
0.0
  0
LINE
  5
264
330
70
100
AcDbEntity
  8
Bemaßung
 62
     7
370
     9
100
AcDbLine
 10
82.8805527570576
 20
116.7098573002612
 30
0.0
 11
69.93974488235513
 21
116.7098573002612
 31
0.0
  0
LINE
  5
265
330
70
100
AcDbEntity
  8
Bemaßung
 62
     7
370
     9
100
AcDbLine
 10
71.03977652095764
 20
96.90949947207714
 30
0.0
 11
71.03977652095764
 21
116.7098573002612
 31
0.0
  0
LWPOLYLINE
  5
266
330
70
100
AcDbEntity
  8
Bemaßung
 62
     7
370
     9
100
AcDbPolyline
 90
        4
 70
     0
 43
0.0
 10
71.03977652095764
 20
96.90949947207714
 10
71.22078679411746
 20
98.28476832588
 10
70.85873097002094
 20
98.28476832588
 10
71.03977652095764
 20
96.90949947207714
  0
LINE
  5
267
330
70
100
AcDbEntity
  8
Bemaßung
 62
     7
370
     9
100
AcDbLine
 10
71.20720485001952
 20
98.28476832588
 30
0.0
 11
71.20720485001952
 21
98.18316832847202
 31
0.0
  0
LINE
  5
268
330
70
100
AcDbEntity
  8
Bemaßung
 62
     7
370
     9
100
AcDbLine
 10
71.20720485001952
 20
98.28476832588
 30
0.0
 11
71.20720485001952
 21
98.18316832847202
 31
0.0
  0
LINE
  5
269
330
70
100
AcDbEntity
  8
Bemaßung
 62
     7
370
     9
100
AcDbLine
 10
71.1794765173936
 20
98.28476832588
 30
0.0
 11
71.1794765173936
 21
97.97093722277537
 31
0.0
  0
LINE
  5
26A
330
70
100
AcDbEntity
  8
Bemaßung
 62
     7
370
     9
100
AcDbLine
 10
71.15157179588329
 20
98.28476832588
 30
0.0
 11
71.15157179588329
 21
97.75838861708685
 31
0.0
  0
LINE
  5
26B
330
70
100
AcDbEntity
  8
Bemaßung
 62
     7
370
     9
100
AcDbLine
 10
71.12366707437297
 20
98.28476832588
 30
0.0
 11
71.12366707437297
 21
97.54651028915898
 31
0.0
  0
LINE
  5
26C
330
70
100
AcDbEntity
  8
Bemaßung
 62
     7
370
     9
100
AcDbLine
 10
71.09558596397826
 20
98.28476832588
 30
0.0
 11
71.09558596397826
 21
97.33392640569356
 31
0.0
  0
LINE
  5
26D
330
70
100
AcDbEntity
  8
Bemaßung
 62
     7
370
     9
100
AcDbLine
 10
71.06768124246795
 20
98.28476832588
 30
0.0
 11
71.06768124246795
 21
97.12204807776569
 31
0.0
  0
LINE
  5
26E
330
70
100
AcDbEntity
  8
Bemaßung
 62
     7
370
     9
100
AcDbLine
 10
71.03977652095764
 20
98.28476832588
 30
0.0
 11
71.03977652095764
 21
96.90949947207714
 31
0.0
  0
LINE
  5
26F
330
70
100
AcDbEntity
  8
Bemaßung
 62
     7
370
     9
100
AcDbLine
 10
70.8718190252426
 20
98.28476832588
 30
0.0
 11
70.8718190252426
 21
98.18316832847202
 31
0.0
  0
LINE
  5
270
330
70
100
AcDbEntity
  8
Bemaßung
 62
     7
370
     9
100
AcDbLine
 10
70.8718190252426
 20
98.28476832588
 30
0.0
 11
70.8718190252426
 21
98.18316832847202
 31
0.0
  0
LINE
  5
271
330
70
100
AcDbEntity
  8
Bemaßung
 62
     7
370
     9
100
AcDbLine
 10
70.90007652452169
 20
98.28476832588
 30
0.0
 11
70.90007652452169
 21
97.97093722277537
 31
0.0
  0
LINE
  5
272
330
70
100
AcDbEntity
  8
Bemaßung
 62
     7
370
     9
100
AcDbLine
 10
70.927981246032
 20
98.28476832588
 30
0.0
 11
70.927981246032
 21
97.75838861708685
 31
0.0
  0
LINE
  5
273
330
70
100
AcDbEntity
  8
Bemaßung
 62
     7
370
     9
100
AcDbLine
 10
70.95588596754232
 20
98.28476832588
 30
0.0
 11
70.95588596754232
 21
97.54651028915898
 31
0.0
  0
LINE
  5
274
330
70
100
AcDbEntity
  8
Bemaßung
 62
     7
370
     9
100
AcDbLine
 10
70.98396707793702
 20
98.28476832588
 30
0.0
 11
70.98396707793702
 21
97.33392640569356
 31
0.0
  0
LINE
  5
275
330
70
100
AcDbEntity
  8
Bemaßung
 62
     7
370
     9
100
AcDbLine
 10
71.01187179944734
 20
98.28476832588
 30
0.0
 11
71.01187179944734
 21
97.12204807776569
 31
0.0
  0
LINE
  5
276
330
70
100
AcDbEntity
  8
Bemaßung
 62
     7
370
     9
100
AcDbLine
 10
71.03977652095764
 20
98.28476832588
 30
0.0
 11
71.03977652095764
 21
96.90949947207714
 31
0.0
  0
LWPOLYLINE
  5
277
330
70
100
AcDbEntity
  8
Bemaßung
 62
     7
370
     9
100
AcDbPolyline
 90
        4
 70
     0
 43
0.0
 10
71.03977652095764
 20
116.7098573002612
 10
70.85873097002094
 20
115.3345531686815
 10
71.22078679411746
 20
115.3345531686815
 10
71.03977652095764
 20
116.7098573002612
  0
LINE
  5
278
330
70
100
AcDbEntity
  8
Bemaßung
 62
     7
370
     9
100
AcDbLine
 10
70.8718190252426
 20
115.3345531686815
 30
0.0
 11
70.8718190252426
 21
115.4361884438664
 31
0.0
  0
LINE
  5
279
330
70
100
AcDbEntity
  8
Bemaßung
 62
     7
370
     9
100
AcDbLine
 10
70.8718190252426
 20
115.3345531686815
 30
0.0
 11
70.8718190252426
 21
115.4361884438664
 31
0.0
  0
LINE
  5
27A
330
70
100
AcDbEntity
  8
Bemaßung
 62
     7
370
     9
100
AcDbLine
 10
70.90007652452169
 20
115.3345531686815
 30
0.0
 11
70.90007652452169
 21
115.6487370495549
 31
0.0
  0
LINE
  5
27B
330
70
100
AcDbEntity
  8
Bemaßung
 62
     7
370
     9
100
AcDbLine
 10
70.927981246032
 20
115.3345531686815
 30
0.0
 11
70.927981246032
 21
115.8606153774828
 31
0.0
  0
LINE
  5
27C
330
70
100
AcDbEntity
  8
Bemaßung
 62
     7
370
     9
100
AcDbLine
 10
70.95588596754232
 20
115.3345531686815
 30
0.0
 11
70.95588596754232
 21
116.0728464831794
 31
0.0
  0
LINE
  5
27D
330
70
100
AcDbEntity
  8
Bemaßung
 62
     7
370
     9
100
AcDbLine
 10
70.98396707793702
 20
115.3345531686815
 30
0.0
 11
70.98396707793702
 21
116.2850805264844
 31
0.0
  0
LINE
  5
27E
330
70
100
AcDbEntity
  8
Bemaßung
 62
     7
370
     9
100
AcDbLine
 10
71.01187179944734
 20
115.3345531686815
 30
0.0
 11
71.01187179944734
 21
116.4976261945646
 31
0.0
  0
LINE
  5
27F
330
70
100
AcDbEntity
  8
Bemaßung
 62
     7
370
     9
100
AcDbLine
 10
71.03977652095764
 20
115.3345531686815
 30
0.0
 11
71.03977652095764
 21
116.7098573002612
 31
0.0
  0
LINE
  5
280
330
70
100
AcDbEntity
  8
Bemaßung
 62
     7
370
     9
100
AcDbLine
 10
71.20720485001952
 20
115.3345531686815
 30
0.0
 11
71.20720485001952
 21
115.4361884438664
 31
0.0
  0
LINE
  5
281
330
70
100
AcDbEntity
  8
Bemaßung
 62
     7
370
     9
100
AcDbLine
 10
71.20720485001952
 20
115.3345531686815
 30
0.0
 11
71.20720485001952
 21
115.4361884438664
 31
0.0
  0
LINE
  5
282
330
70
100
AcDbEntity
  8
Bemaßung
 62
     7
370
     9
100
AcDbLine
 10
71.1794765173936
 20
115.3345531686815
 30
0.0
 11
71.1794765173936
 21
115.6487370495549
 31
0.0
  0
LINE
  5
283
330
70
100
AcDbEntity
  8
Bemaßung
 62
     7
370
     9
100
AcDbLine
 10
71.15157179588329
 20
115.3345531686815
 30
0.0
 11
71.15157179588329
 21
115.8606153774828
 31
0.0
  0
LINE
  5
284
330
70
100
AcDbEntity
  8
Bemaßung
 62
     7
370
     9
100
AcDbLine
 10
71.12366707437297
 20
115.3345531686815
 30
0.0
 11
71.12366707437297
 21
116.0728464831794
 31
0.0
  0
LINE
  5
285
330
70
100
AcDbEntity
  8
Bemaßung
 62
     7
370
     9
100
AcDbLine
 10
71.09558596397826
 20
115.3345531686815
 30
0.0
 11
71.09558596397826
 21
116.2850805264844
 31
0.0
  0
LINE
  5
286
330
70
100
AcDbEntity
  8
Bemaßung
 62
     7
370
     9
100
AcDbLine
 10
71.06768124246795
 20
115.3345531686815
 30
0.0
 11
71.06768124246795
 21
116.4976261945646
 31
0.0
  0
LINE
  5
287
330
70
100
AcDbEntity
  8
Bemaßung
 62
     7
370
     9
100
AcDbLine
 10
71.03977652095764
 20
115.3345531686815
 30
0.0
 11
71.03977652095764
 21
116.7098573002612
 31
0.0
  0
LINE
  5
288
330
70
100
AcDbEntity
  8
Bemaßung
 62
     7
370
     9
100
AcDbLine
 10
82.8805527570576
 20
98.67338831596548
 30
0.0
 11
82.8805527570576
 21
89.39815521926304
 31
0.0
  0
LINE
  5
289
330
70
100
AcDbEntity
  8
Bemaßung
 62
     7
370
     9
100
AcDbLine
 10
88.38032080078573
 20
98.67338831596548
 30
0.0
 11
88.38032080078573
 21
89.39815521926304
 31
0.0
  0
LINE
  5
28A
330
70
100
AcDbEntity
  8
Bemaßung
 62
     7
370
     9
100
AcDbLine
 10
93.19291512245065
 20
90.49885713562625
 30
0.0
 11
70.37934126002898
 21
90.49885713562625
 31
0.0
  0
LWPOLYLINE
  5
28B
330
70
100
AcDbEntity
  8
Bemaßung
 62
     7
370
     9
100
AcDbPolyline
 90
        4
 70
     0
 43
0.0
 10
82.8805527570576
 20
90.49885713562625
 10
81.50439986509397
 20
90.68007907544734
 10
81.50439986509397
 20
90.31798797357394
 10
82.8805527570576
 20
90.49885713562625
  0
LINE
  5
28C
330
70
100
AcDbEntity
  8
Bemaßung
 62
     7
370
     9
100
AcDbLine
 10
81.50439986509397
 20
90.66663824245692
 30
0.0
 11
81.60705819580828
 21
90.66663824245692
 31
0.0
  0
LINE
  5
28D
330
70
100
AcDbEntity
  8
Bemaßung
 62
     7
370
     9
100
AcDbLine
 10
81.50439986509397
 20
90.66663824245692
 30
0.0
 11
81.60705819580828
 21
90.66663824245692
 31
0.0
  0
LINE
  5
28E
330
70
100
AcDbEntity
  8
Bemaßung
 62
     7
370
     9
100
AcDbLine
 10
81.50439986509397
 20
90.63873352094658
 30
0.0
 11
81.81946569038931
 21
90.63873352094658
 31
0.0
  0
LINE
  5
28F
330
70
100
AcDbEntity
  8
Bemaßung
 62
     7
370
     9
100
AcDbLine
 10
81.50439986509397
 20
90.61082879943628
 30
0.0
 11
82.03134401831716
 21
90.61082879943628
 31
0.0
  0
LINE
  5
290
330
70
100
AcDbEntity
  8
Bemaßung
 62
     7
370
     9
100
AcDbLine
 10
81.50439986509397
 20
90.58292407792597
 30
0.0
 11
82.24389262400572
 21
90.58292407792597
 31
0.0
  0
LINE
  5
291
330
70
100
AcDbEntity
  8
Bemaßung
 62
     7
370
     9
100
AcDbLine
 10
81.50439986509397
 20
90.55466657864688
 30
0.0
 11
82.45594734081796
 21
90.55466657864688
 31
0.0
  0
LINE
  5
292
330
70
100
AcDbEntity
  8
Bemaßung
 62
     7
370
     9
100
AcDbLine
 10
81.50439986509397
 20
90.52676185713655
 30
0.0
 11
82.66831955762212
 21
90.52676185713655
 31
0.0
  0
LINE
  5
293
330
70
100
AcDbEntity
  8
Bemaßung
 62
     7
370
     9
100
AcDbLine
 10
81.50439986509397
 20
90.49885713562625
 30
0.0
 11
82.8805527570576
 21
90.49885713562625
 31
0.0
  0
LINE
  5
294
330
70
100
AcDbEntity
  8
Bemaßung
 62
     7
370
     9
100
AcDbLine
 10
81.50439986509397
 20
90.33107602879558
 30
0.0
 11
81.60705819580828
 21
90.33107602879558
 31
0.0
  0
LINE
  5
295
330
70
100
AcDbEntity
  8
Bemaßung
 62
     7
370
     9
100
AcDbLine
 10
81.50439986509397
 20
90.33107602879558
 30
0.0
 11
81.60705819580828
 21
90.33107602879558
 31
0.0
  0
LINE
  5
296
330
70
100
AcDbEntity
  8
Bemaßung
 62
     7
370
     9
100
AcDbLine
 10
81.50439986509397
 20
90.35898075030591
 30
0.0
 11
81.81946569038931
 21
90.35898075030591
 31
0.0
  0
LINE
  5
297
330
70
100
AcDbEntity
  8
Bemaßung
 62
     7
370
     9
100
AcDbLine
 10
81.50439986509397
 20
90.38688547181621
 30
0.0
 11
82.03134401831716
 21
90.38688547181621
 31
0.0
  0
LINE
  5
298
330
70
100
AcDbEntity
  8
Bemaßung
 62
     7
370
     9
100
AcDbLine
 10
81.50439986509397
 20
90.41514297109531
 30
0.0
 11
82.24389262400572
 21
90.41514297109531
 31
0.0
  0
LINE
  5
299
330
70
100
AcDbEntity
  8
Bemaßung
 62
     7
370
     9
100
AcDbLine
 10
81.50439986509397
 20
90.44304997738917
 30
0.0
 11
82.45594734081796
 21
90.44304997738917
 31
0.0
  0
LINE
  5
29A
330
70
100
AcDbEntity
  8
Bemaßung
 62
     7
370
     9
100
AcDbLine
 10
81.50439986509397
 20
90.47095241411595
 30
0.0
 11
82.66831955762212
 21
90.47095241411595
 31
0.0
  0
LINE
  5
29B
330
70
100
AcDbEntity
  8
Bemaßung
 62
     7
370
     9
100
AcDbLine
 10
81.50439986509397
 20
90.49885713562625
 30
0.0
 11
82.8805527570576
 21
90.49885713562625
 31
0.0
  0
LWPOLYLINE
  5
29C
330
70
100
AcDbEntity
  8
Bemaßung
 62
     7
370
     9
100
AcDbPolyline
 90
        4
 70
     0
 43
0.0
 10
88.38032080078573
 20
90.49885713562625
 10
89.75661271011803
 20
90.31798797357394
 10
89.75661271011803
 20
90.68007907544734
 10
88.38032080078573
 20
90.49885713562625
  0
LINE
  5
29D
330
70
100
AcDbEntity
  8
Bemaßung
 62
     7
370
     9
100
AcDbLine
 10
89.75661271011803
 20
90.33107602879558
 30
0.0
 11
89.65395437940374
 21
90.33107602879558
 31
0.0
  0
LINE
  5
29E
330
70
100
AcDbEntity
  8
Bemaßung
 62
     7
370
     9
100
AcDbLine
 10
89.75661271011803
 20
90.33107602879558
 30
0.0
 11
89.65395437940374
 21
90.33107602879558
 31
0.0
  0
LINE
  5
29F
330
70
100
AcDbEntity
  8
Bemaßung
 62
     7
370
     9
100
AcDbLine
 10
89.75661271011803
 20
90.35898075030591
 30
0.0
 11
89.44140577371518
 21
90.35898075030591
 31
0.0
  0
LINE
  5
2A0
330
70
100
AcDbEntity
  8
Bemaßung
 62
     7
370
     9
100
AcDbLine
 10
89.75661271011803
 20
90.38688547181621
 30
0.0
 11
89.22917466801854
 21
90.38688547181621
 31
0.0
  0
LINE
  5
2A1
330
70
100
AcDbEntity
  8
Bemaßung
 62
     7
370
     9
100
AcDbLine
 10
89.75661271011803
 20
90.41514297109531
 30
0.0
 11
89.01712219996806
 21
90.41514297109531
 31
0.0
  0
LINE
  5
2A2
330
70
100
AcDbEntity
  8
Bemaßung
 62
     7
370
     9
100
AcDbLine
 10
89.75661271011803
 20
90.44304997738917
 30
0.0
 11
88.80510275557643
 21
90.44304997738917
 31
0.0
  0
LINE
  5
2A3
330
70
100
AcDbEntity
  8
Bemaßung
 62
     7
370
     9
100
AcDbLine
 10
89.75661271011803
 20
90.47095241411595
 30
0.0
 11
88.59251662870549
 21
90.47095241411595
 31
0.0
  0
LINE
  5
2A4
330
70
100
AcDbEntity
  8
Bemaßung
 62
     7
370
     9
100
AcDbLine
 10
89.75661271011803
 20
90.49885713562625
 30
0.0
 11
88.38032080078573
 21
90.49885713562625
 31
0.0
  0
LINE
  5
2A5
330
70
100
AcDbEntity
  8
Bemaßung
 62
     7
370
     9
100
AcDbLine
 10
89.75661271011803
 20
90.66663824245692
 30
0.0
 11
89.65395437940374
 21
90.66663824245692
 31
0.0
  0
LINE
  5
2A6
330
70
100
AcDbEntity
  8
Bemaßung
 62
     7
370
     9
100
AcDbLine
 10
89.75661271011803
 20
90.66663824245692
 30
0.0
 11
89.65395437940374
 21
90.66663824245692
 31
0.0
  0
LINE
  5
2A7
330
70
100
AcDbEntity
  8
Bemaßung
 62
     7
370
     9
100
AcDbLine
 10
89.75661271011803
 20
90.63873352094658
 30
0.0
 11
89.44140577371518
 21
90.63873352094658
 31
0.0
  0
LINE
  5
2A8
330
70
100
AcDbEntity
  8
Bemaßung
 62
     7
370
     9
100
AcDbLine
 10
89.75661271011803
 20
90.61082879943628
 30
0.0
 11
89.22917466801854
 21
90.61082879943628
 31
0.0
  0
LINE
  5
2A9
330
70
100
AcDbEntity
  8
Bemaßung
 62
     7
370
     9
100
AcDbLine
 10
89.75661271011803
 20
90.58292407792597
 30
0.0
 11
89.01712219996806
 21
90.58292407792597
 31
0.0
  0
LINE
  5
2AA
330
70
100
AcDbEntity
  8
Bemaßung
 62
     7
370
     9
100
AcDbLine
 10
89.75661271011803
 20
90.55466657864688
 30
0.0
 11
88.80510275557643
 21
90.55466657864688
 31
0.0
  0
LINE
  5
2AB
330
70
100
AcDbEntity
  8
Bemaßung
 62
     7
370
     9
100
AcDbLine
 10
89.75661271011803
 20
90.52676185713655
 30
0.0
 11
88.59251662870549
 21
90.52676185713655
 31
0.0
  0
LINE
  5
2AC
330
70
100
AcDbEntity
  8
Bemaßung
 62
     7
370
     9
100
AcDbLine
 10
89.75661271011803
 20
90.49885713562625
 30
0.0
 11
88.38032080078573
 21
90.49885713562625
 31
0.0
  0
ENDSEC
  0
SECTION
  2
OBJECTS
  0
DICTIONARY
  5
C
330
0
100
AcDbDictionary
281
     1
  3
ACAD_COLOR
350
63
  3
ACAD_DETAILVIEWSTYLE
350
6A
  3
ACAD_GROUP
350
D
  3
ACAD_LAYOUT
350
62
  3
ACAD_MATERIAL
350
10
  3
ACAD_MLEADERSTYLE
350
66
  3
ACAD_MLINESTYLE
350
5F
  3
ACAD_PLOTSETTINGS
350
61
  3
ACAD_PLOTSTYLENAME
350
E
  3
ACAD_SCALELIST
350
42
  3
ACAD_SECTIONVIEWSTYLE
350
68
  3
ACAD_TABLESTYLE
350
64
  3
ACAD_VISUALSTYLE
350
29
  3
ACDB_RECOMPOSE_DATA
350
2B5
  3
AcDbVariableDictionary
350
2AD
  0
DICTIONARY
  5
63
102
{ACAD_REACTORS
330
C
102
}
330
C
100
AcDbDictionary
281
     1
  0
DICTIONARY
  5
6A
102
{ACAD_REACTORS
330
C
102
}
330
C
100
AcDbDictionary
281
     1
  3
Imperial24
350
6B
  0
DICTIONARY
  5
D
102
{ACAD_REACTORS
330
C
102
}
330
C
100
AcDbDictionary
281
     1
  0
DICTIONARY
  5
62
102
{ACAD_REACTORS
330
C
102
}
330
C
100
AcDbDictionary
281
     1
  3
Layout1
350
6F
  3
Layout2
350
77
  3
Model
350
73
  0
DICTIONARY
  5
10
102
{ACAD_REACTORS
330
C
102
}
330
C
100
AcDbDictionary
281
     1
  3
ByBlock
350
19
  3
ByLayer
350
11
  3
Global
350
21
  0
DICTIONARY
  5
66
102
{ACAD_REACTORS
330
C
102
}
330
C
100
AcDbDictionary
281
     1
  3
Standard
350
67
  0
DICTIONARY
  5
5F
102
{ACAD_REACTORS
330
C
102
}
330
C
100
AcDbDictionary
281
     1
  3
Standard
350
60
  0
DICTIONARY
  5
61
102
{ACAD_REACTORS
330
C
102
}
330
C
100
AcDbDictionary
281
     1
  0
ACDBDICTIONARYWDFLT
  5
E
102
{ACAD_REACTORS
330
C
102
}
330
C
100
AcDbDictionary
281
     1
  3
Normal
350
F
100
AcDbDictionaryWithDefault
340
F
  0
DICTIONARY
  5
42
102
{ACAD_REACTORS
330
C
102
}
330
C
100
AcDbDictionary
281
     1
  3
A0
350
43
  3
A1
350
44
  3
A2
350
45
  3
A3
350
46
  3
A4
350
47
  3
A5
350
48
  3
A6
350
49
  3
A7
350
4A
  3
A8
350
4B
  3
A9
350
4C
  3
B0
350
4D
  3
B1
350
4E
  3
B2
350
4F
  3
B3
350
50
  3
B4
350
51
  3
B5
350
52
  3
B6
350
53
  0
DICTIONARY
  5
68
102
{ACAD_REACTORS
330
C
102
}
330
C
100
AcDbDictionary
281
     1
  3
Imperial24
350
69
  0
DICTIONARY
  5
64
102
{ACAD_REACTORS
330
C
102
}
330
C
100
AcDbDictionary
281
     1
  3
Standard
350
65
  0
DICTIONARY
  5
29
102
{ACAD_REACTORS
330
C
102
}
330
C
100
AcDbDictionary
281
     1
  3
2dWireframe
350
2F
  3
Basic
350
2E
  3
Brighten
350
35
  3
ColorChange
350
39
  3
Conceptual
350
32
  3
Dim
350
34
  3
EdgeColorOff
350
41
  3
Facepattern
350
38
  3
Flat
350
2A
  3
FlatWithEdges
350
2B
  3
Gouraud
350
2C
  3
GouraudWithEdges
350
2D
  3
Hidden
350
31
  3
JitterOff
350
3F
  3
Linepattern
350
37
  3
OverhangOff
350
40
  3
Realistic
350
33
  3
Shaded
350
3E
  3
Shaded with edges
350
3D
  3
Shades of Gray
350
3A
  3
Sketchy
350
3B
  3
Thicken
350
36
  3
Wireframe
350
30
  3
X-Ray
350
3C
  0
XRECORD
  5
2B5
102
{ACAD_REACTORS
330
C
102
}
330
C
100
AcDbXrecord
280
     1
 90
        1
330
65
  0
DICTIONARY
  5
2AD
102
{ACAD_REACTORS
330
C
102
}
330
C
100
AcDbDictionary
281
     1
  3
CANNOSCALE
350
2B2
  3
CMLEADERSTYLE
350
2AF
  3
CTABLESTYLE
350
2AE
  3
CVIEWDETAILSTYLE
350
2B0
  3
CVIEWSECTIONSTYLE
350
2B1
  0
ACDBDETAILVIEWSTYLE
  5
6B
102
{ACAD_REACTORS
330
6A
102
}
330
6A
100
AcDbModelDocViewStyle
 70
     0
  3
Imperial24
290
     1
300
Imperial24
 90
        0
100
AcDbDetailViewStyle
 70
     0
 71
     0
 90
        3
 71
     1
340
55
 62
   256
 40
0.24
340
0
 62
   256
 40
0.24
300

 40
0.36
280
     3
 71
     2
340
5D
 90
       25
 62
   256
 71
     3
340
55
 62
   256
 40
0.24
 90
        1
 40
0.75
 90
        1
300
%<\AcVar ViewType \f "%tc1">% %<\AcVar ViewDetailId>%\PSCALE %<\AcVar ViewScale \f "%sn">%
 71
     4
340
5D
 90
       25
 62
   256
340
5D
 90
       25
 62
   256
280
     0
  0
LAYOUT
  5
6F
102
{ACAD_REACTORS
330
62
102
}
330
62
100
AcDbPlotSettings
  1

  2

  4

  6

 40
0.0
 41
0.0
 42
0.0
 43
0.0
 44
0.0
 45
0.0
 46
0.0
 47
0.0
 48
0.0
 49
0.0
140
0.0
141
0.0
142
1.0
143
1.0
 70
   688
 72
     0
 73
     0
 74
     5
  7

 75
    16
147
1.0
 76
     0
 77
     2
 78
   300
148
0.0
149
0.0
100
AcDbLayout
  1
Layout1
 70
     1
 71
     1
 10
0.0
 20
0.0
 11
12.0
 21
9.0
 12
0.0
 22
0.0
 32
0.0
 14
0.0
 24
0.0
 34
0.0
 15
0.0
 25
0.0
 35
0.0
146
0.0
 13
0.0
 23
0.0
 33
0.0
 16
1.0
 26
0.0
 36
0.0
 17
0.0
 27
1.0
 37
0.0
 76
     0
330
6C
  0
LAYOUT
  5
77
102
{ACAD_REACTORS
330
62
102
}
330
62
100
AcDbPlotSettings
  1

  2

  4

  6

 40
0.0
 41
0.0
 42
0.0
 43
0.0
 44
0.0
 45
0.0
 46
0.0
 47
0.0
 48
0.0
 49
0.0
140
0.0
141
0.0
142
1.0
143
1.0
 70
   688
 72
     0
 73
     0
 74
     5
  7

 75
    16
147
1.0
 76
     0
 77
     2
 78
   300
148
0.0
149
0.0
100
AcDbLayout
  1
Layout2
 70
     1
 71
     2
 10
0.0
 20
0.0
 11
12.0
 21
9.0
 12
0.0
 22
0.0
 32
0.0
 14
0.0
 24
0.0
 34
0.0
 15
0.0
 25
0.0
 35
0.0
146
0.0
 13
0.0
 23
0.0
 33
0.0
 16
1.0
 26
0.0
 36
0.0
 17
0.0
 27
1.0
 37
0.0
 76
     0
330
74
  0
LAYOUT
  5
73
102
{ACAD_REACTORS
330
62
102
}
330
62
100
AcDbPlotSettings
  1

  2

  4

  6

 40
0.0
 41
0.0
 42
0.0
 43
0.0
 44
0.0
 45
0.0
 46
0.0
 47
0.0
 48
0.0
 49
0.0
140
0.0
141
0.0
142
1.0
143
1.0
 70
  1712
 72
     0
 73
     0
 74
     0
  7

 75
     0
147
1.0
 76
     0
 77
     2
 78
   300
148
0.0
149
0.0
100
AcDbLayout
  1
Model
 70
     1
 71
     0
 10
0.0
 20
0.0
 11
12.0
 21
9.0
 12
0.0
 22
0.0
 32
0.0
 14
0.0
 24
0.0
 34
0.0
 15
0.0
 25
0.0
 35
0.0
146
0.0
 13
0.0
 23
0.0
 33
0.0
 16
1.0
 26
0.0
 36
0.0
 17
0.0
 27
1.0
 37
0.0
 76
     0
330
70
  0
MATERIAL
  5
19
102
{ACAD_XDICTIONARY
360
1A
102
}
102
{ACAD_REACTORS
330
10
102
}
330
10
100
AcDbMaterial
  1
ByBlock
 72
     0
 43
0.0208333333333333
 43
0.0
 43
0.0
 43
0.0
 43
0.0
 43
0.0208333333333333
 43
0.0
 43
0.0
 43
0.0
 43
0.0
 43
1.0
 43
0.0
 43
0.0
 43
0.0
 43
0.0
 43
1.0
 77
     0
 47
0.0208333333333333
 47
0.0
 47
0.0
 47
0.0
 47
0.0
 47
0.0208333333333333
 47
0.0
 47
0.0
 47
0.0
 47
0.0
 47
1.0
 47
0.0
 47
0.0
 47
0.0
 47
0.0
 47
1.0
171
     0
 49
0.0208333333333333
 49
0.0
 49
0.0
 49
0.0
 49
0.0
 49
0.0208333333333333
 49
0.0
 49
0.0
 49
0.0
 49
0.0
 49
1.0
 49
0.0
 49
0.0
 49
0.0
 49
0.0
 49
1.0
175
     0
142
0.0208333333333333
142
0.0
142
0.0
142
0.0
142
0.0
142
0.0208333333333333
142
0.0
142
0.0
142
0.0
142
0.0
142
1.0
142
0.0
142
0.0
142
0.0
142
0.0
142
1.0
179
     0
144
0.0208333333333333
144
0.0
144
0.0
144
0.0
144
0.0
144
0.0208333333333333
144
0.0
144
0.0
144
0.0
144
0.0
144
1.0
144
0.0
144
0.0
144
0.0
144
0.0
144
1.0
147
0.0208333333333333
147
0.0
147
0.0
147
0.0
147
0.0
147
0.0208333333333333
147
0.0
147
0.0
147
0.0
147
0.0
147
1.0
147
0.0
147
0.0
147
0.0
147
0.0
147
1.0
  0
MATERIAL
  5
11
102
{ACAD_XDICTIONARY
360
12
102
}
102
{ACAD_REACTORS
330
10
102
}
330
10
100
AcDbMaterial
  1
ByLayer
 72
     0
 43
0.0208333333333333
 43
0.0
 43
0.0
 43
0.0
 43
0.0
 43
0.0208333333333333
 43
0.0
 43
0.0
 43
0.0
 43
0.0
 43
1.0
 43
0.0
 43
0.0
 43
0.0
 43
0.0
 43
1.0
 77
     0
 47
0.0208333333333333
 47
0.0
 47
0.0
 47
0.0
 47
0.0
 47
0.0208333333333333
 47
0.0
 47
0.0
 47
0.0
 47
0.0
 47
1.0
 47
0.0
 47
0.0
 47
0.0
 47
0.0
 47
1.0
171
     0
 49
0.0208333333333333
 49
0.0
 49
0.0
 49
0.0
 49
0.0
 49
0.0208333333333333
 49
0.0
 49
0.0
 49
0.0
 49
0.0
 49
1.0
 49
0.0
 49
0.0
 49
0.0
 49
0.0
 49
1.0
175
     0
142
0.0208333333333333
142
0.0
142
0.0
142
0.0
142
0.0
142
0.0208333333333333
142
0.0
142
0.0
142
0.0
142
0.0
142
1.0
142
0.0
142
0.0
142
0.0
142
0.0
142
1.0
179
     0
144
0.0208333333333333
144
0.0
144
0.0
144
0.0
144
0.0
144
0.0208333333333333
144
0.0
144
0.0
144
0.0
144
0.0
144
1.0
144
0.0
144
0.0
144
0.0
144
0.0
144
1.0
147
0.0208333333333333
147
0.0
147
0.0
147
0.0
147
0.0
147
0.0208333333333333
147
0.0
147
0.0
147
0.0
147
0.0
147
1.0
147
0.0
147
0.0
147
0.0
147
0.0
147
1.0
  0
MATERIAL
  5
21
102
{ACAD_XDICTIONARY
360
22
102
}
102
{ACAD_REACTORS
330
10
102
}
330
10
100
AcDbMaterial
  1
Global
 72
     0
 43
0.0208333333333333
 43
0.0
 43
0.0
 43
0.0
 43
0.0
 43
0.0208333333333333
 43
0.0
 43
0.0
 43
0.0
 43
0.0
 43
1.0
 43
0.0
 43
0.0
 43
0.0
 43
0.0
 43
1.0
 77
     0
 47
0.0208333333333333
 47
0.0
 47
0.0
 47
0.0
 47
0.0
 47
0.0208333333333333
 47
0.0
 47
0.0
 47
0.0
 47
0.0
 47
1.0
 47
0.0
 47
0.0
 47
0.0
 47
0.0
 47
1.0
171
     0
 49
0.0208333333333333
 49
0.0
 49
0.0
 49
0.0
 49
0.0
 49
0.0208333333333333
 49
0.0
 49
0.0
 49
0.0
 49
0.0
 49
1.0
 49
0.0
 49
0.0
 49
0.0
 49
0.0
 49
1.0
175
     0
142
0.0208333333333333
142
0.0
142
0.0
142
0.0
142
0.0
142
0.0208333333333333
142
0.0
142
0.0
142
0.0
142
0.0
142
1.0
142
0.0
142
0.0
142
0.0
142
0.0
142
1.0
179
     0
144
0.0208333333333333
144
0.0
144
0.0
144
0.0
144
0.0
144
0.0208333333333333
144
0.0
144
0.0
144
0.0
144
0.0
144
1.0
144
0.0
144
0.0
144
0.0
144
0.0
144
1.0
147
0.0208333333333333
147
0.0
147
0.0
147
0.0
147
0.0
147
0.0208333333333333
147
0.0
147
0.0
147
0.0
147
0.0
147
1.0
147
0.0
147
0.0
147
0.0
147
0.0
147
1.0
  0
MLEADERSTYLE
  5
67
102
{ACAD_REACTORS
330
66
102
}
330
66
100
AcDbMLeaderStyle
179
     2
170
     2
171
     1
172
     0
 90
        2
 40
0.0
 41
0.0
173
     1
 91
-1056964608
340
5B
 92
       -2
290
     1
 42
0.09
291
     1
 43
0.36
  3
Standard
 44
0.18
300

342
55
174
     1
178
     6
175
     1
176
     0
 93
-1056964608
 45
0.18
292
     0
297
     0
 46
0.18
 94
-1056964608
 47
1.0
 49
1.0
140
1.0
293
     1
141
0.0
294
     1
177
     0
142
1.0
295
     1
296
     0
143
0.125
271
     0
272
     9
273
     9
298
     1
  0
MLINESTYLE
  5
60
102
{ACAD_REACTORS
330
5F
102
}
330
5F
100
AcDbMlineStyle
  2
STANDARD
 70
     0
  3

 62
   256
 51
90.0
 52
90.0
 71
     2
 49
0.5
 62
   256
  6
BYLAYER
 49
-0.5
 62
   256
  6
BYLAYER
  0
ACDBPLACEHOLDER
  5
F
102
{ACAD_REACTORS
330
E
102
}
330
E
  0
SCALE
  5
43
102
{ACAD_REACTORS
330
42
102
}
330
42
100
AcDbScale
 70
     0
300
1:1
140
1.0
141
1.0
290
     1
  0
SCALE
  5
44
102
{ACAD_REACTORS
330
42
102
}
330
42
100
AcDbScale
 70
     0
300
1/128" = 1'-0"
140
0.0078125
141
12.0
290
     0
  0
SCALE
  5
45
102
{ACAD_REACTORS
330
42
102
}
330
42
100
AcDbScale
 70
     0
300
1/64" = 1'-0"
140
0.015625
141
12.0
290
     0
  0
SCALE
  5
46
102
{ACAD_REACTORS
330
42
102
}
330
42
100
AcDbScale
 70
     0
300
1/32" = 1'-0"
140
0.03125
141
12.0
290
     0
  0
SCALE
  5
47
102
{ACAD_REACTORS
330
42
102
}
330
42
100
AcDbScale
 70
     0
300
1/16" = 1'-0"
140
0.0625
141
12.0
290
     0
  0
SCALE
  5
48
102
{ACAD_REACTORS
330
42
102
}
330
42
100
AcDbScale
 70
     0
300
3/32" = 1'-0"
140
0.09375
141
12.0
290
     0
  0
SCALE
  5
49
102
{ACAD_REACTORS
330
42
102
}
330
42
100
AcDbScale
 70
     0
300
1/8" = 1'-0"
140
0.125
141
12.0
290
     0
  0
SCALE
  5
4A
102
{ACAD_REACTORS
330
42
102
}
330
42
100
AcDbScale
 70
     0
300
3/16" = 1'-0"
140
0.1875
141
12.0
290
     0
  0
SCALE
  5
4B
102
{ACAD_REACTORS
330
42
102
}
330
42
100
AcDbScale
 70
     0
300
1/4" = 1'-0"
140
0.25
141
12.0
290
     0
  0
SCALE
  5
4C
102
{ACAD_REACTORS
330
42
102
}
330
42
100
AcDbScale
 70
     0
300
3/8" = 1'-0"
140
0.375
141
12.0
290
     0
  0
SCALE
  5
4D
102
{ACAD_REACTORS
330
42
102
}
330
42
100
AcDbScale
 70
     0
300
1/2" = 1'-0"
140
0.5
141
12.0
290
     0
  0
SCALE
  5
4E
102
{ACAD_REACTORS
330
42
102
}
330
42
100
AcDbScale
 70
     0
300
3/4" = 1'-0"
140
0.75
141
12.0
290
     0
  0
SCALE
  5
4F
102
{ACAD_REACTORS
330
42
102
}
330
42
100
AcDbScale
 70
     0
300
1" = 1'-0"
140
1.0
141
12.0
290
     0
  0
SCALE
  5
50
102
{ACAD_REACTORS
330
42
102
}
330
42
100
AcDbScale
 70
     0
300
1-1/2" = 1'-0"
140
1.5
141
12.0
290
     0
  0
SCALE
  5
51
102
{ACAD_REACTORS
330
42
102
}
330
42
100
AcDbScale
 70
     0
300
3" = 1'-0"
140
3.0
141
12.0
290
     0
  0
SCALE
  5
52
102
{ACAD_REACTORS
330
42
102
}
330
42
100
AcDbScale
 70
     0
300
6" = 1'-0"
140
6.0
141
12.0
290
     0
  0
SCALE
  5
53
102
{ACAD_REACTORS
330
42
102
}
330
42
100
AcDbScale
 70
     0
300
1'-0" = 1'-0"
140
12.0
141
12.0
290
     0
  0
ACDBSECTIONVIEWSTYLE
  5
69
102
{ACAD_REACTORS
330
68
102
}
330
68
100
AcDbModelDocViewStyle
 70
     0
  3
Imperial24
290
     1
300
Imperial24
 90
        0
100
AcDbSectionViewStyle
 70
     0
 71
     0
 90
       78
 71
     1
340
55
 62
   256
 40
0.24
340
0
340
0
 62
   256
 40
0.24
300
I, O, Q, S, X, Z
 40
0.48
 90
        3
 40
0.18
 90
        1
 71
     2
340
5D
 90
       25
 62
   256
340
5D
 90
       50
 62
   256
 40
0.24
 40
0.0
 40
0.24
 71
     3
340
55
 62
   256
 40
0.24
 90
        1
 40
0.75
 90
        1
300
%<\AcVar ViewType \f "%tc1">% %<\AcVar ViewSectionStartId>%-%<\AcVar ViewSectionEndId>%\PSCALE %<\AcVar ViewScale \f "%sn">%
 71
     4
 62
   256
 62
   257
300
ANSI31
 40
1.0
 90
        0
290
     0
290
     0
 90
        6
 40
0.0
 40
1.570796326794896
 40
0.2617993877991494
 40
1.308996938995747
 40
-0.2617993877991494
 40
1.832595714594046
  0
TABLESTYLE
  5
65
102
{ACAD_XDICTIONARY
360
2B3
102
}
102
{ACAD_REACTORS
330
64
102
}
330
64
100
AcDbTableStyle
280
     0
  3
Standard
 70
     0
 71
     0
 40
0.06
 41
0.06
280
     0
281
     0
  7
Standard
140
0.18
170
     2
 62
     0
 63
     7
283
     0
 90
      512
 91
        0
  1

274
    -2
284
     1
 64
     0
275
    -2
285
     1
 65
     0
276
    -2
286
     1
 66
     0
277
    -2
287
     1
 67
     0
278
    -2
288
     1
 68
     0
279
    -2
289
     1
 69
     0
  7
Standard
140
0.25
170
     5
 62
     0
 63
     7
283
     0
 90
      512
 91
        0
  1

274
    -2
284
     1
 64
     0
275
    -2
285
     1
 65
     0
276
    -2
286
     1
 66
     0
277
    -2
287
     1
 67
     0
278
    -2
288
     1
 68
     0
279
    -2
289
     1
 69
     0
  7
Standard
140
0.18
170
     5
 62
     0
 63
     7
283
     0
 90
      512
 91
        0
  1

274
    -2
284
     1
 64
     0
275
    -2
285
     1
 65
     0
276
    -2
286
     1
 66
     0
277
    -2
287
     1
 67
     0
278
    -2
288
     1
 68
     0
279
    -2
289
     1
 69
     0
  0
VISUALSTYLE
  5
2F
102
{ACAD_REACTORS
330
29
102
}
330
29
100
AcDbVisualStyle
  2
2dWireframe
 70
     4
177
     3
291
     0
 70
    58
 90
        0
176
     1
 90
        2
176
     1
 90
        0
176
     1
 90
        0
176
     1
 40
0.6
176
     1
 40
30.0
176
     1
 62
     7
420
 16777215
176
     1
 90
        1
176
     1
 90
        4
176
     1
 62
     7
176
     1
 62
   257
176
     1
 90
        1
176
     1
 90
        1
176
     1
 40
1.0
176
     1
 90
        0
176
     1
 62
   257
176
     1
 40
1.0
176
     1
 90
        1
176
     1
 90
        6
176
     1
 90
        2
176
     1
 62
     7
176
     1
 90
        5
176
     1
 90
        0
176
     1
 90
        0
176
     1
290
     0
176
     1
 90
        1
176
     1
 40
0.0
176
     1
 90
        0
176
     1
290
     1
176
     1
290
     1
176
     1
290
     0
176
     1
290
     0
176
     1
290
     0
176
     1
290
     0
176
     1
290
     0
176
     1
290
     0
176
     1
290
     0
176
     1
 90
       50
176
     1
 40
0.0
176
     1
 40
1.0
176
     1
 90
        0
176
     1
 62
    18
420
        0
176
     1
 90
       50
176
     1
 90
        3
176
     1
 62
     5
420
      255
176
     1
290
     0
176
     1
 90
       50
176
     1
 90
       50
176
     1
 90
       50
176
     1
290
     0
176
     1
 90
       50
176
     1
 62
   256
176
     0
 40
1.0
176
     0
 90
        2
176
     1
  1
strokes_ogs.tif
176
     1
290
     0
176
     1
 40
1.0
176
     1
 40
1.0
176
     1
  0
VISUALSTYLE
  5
2E
102
{ACAD_REACTORS
330
29
102
}
330
29
100
AcDbVisualStyle
  2
Basic
 70
     7
177
     3
291
     1
 70
    58
 90
        1
176
     1
 90
        0
176
     1
 90
        1
176
     1
 90
        0
176
     1
 40
0.6
176
     1
 40
30.0
176
     1
 62
     7
420
 16777215
176
     1
 90
        0
176
     1
 90
        4
176
     1
 62
     7
176
     1
 62
   257
176
     1
 90
        1
176
     1
 90
        1
176
     1
 40
1.0
176
     1
 90
        8
176
     1
 62
     7
176
     1
 40
1.0
176
     1
 90
        1
176
     1
 90
        6
176
     1
 90
        2
176
     1
 62
     7
176
     1
 90
        5
176
     1
 90
        0
176
     1
 90
        0
176
     1
290
     0
176
     1
 90
        1
176
     1
 40
0.0
176
     1
 90
        0
176
     1
290
     0
176
     1
290
     1
176
     1
290
     1
176
     1
290
     0
176
     1
290
     0
176
     1
290
     0
176
     1
290
     0
176
     1
290
     0
176
     1
290
     0
176
     1
 90
       50
176
     1
 40
0.0
176
     1
 40
1.0
176
     1
 90
        0
176
     1
 62
    18
420
        0
176
     1
 90
       50
176
     1
 90
        3
176
     1
 62
     5
420
      255
176
     1
290
     0
176
     1
 90
       50
176
     1
 90
       50
176
     1
 90
       50
176
     1
290
     0
176
     1
 90
       50
176
     1
 62
   256
176
     0
 40
1.0
176
     0
 90
        2
176
     1
  1
strokes_ogs.tif
176
     1
290
     0
176
     1
 40
1.0
176
     1
 40
1.0
176
     1
  0
VISUALSTYLE
  5
35
102
{ACAD_REACTORS
330
29
102
}
330
29
100
AcDbVisualStyle
  2
Brighten
 70
    12
177
     3
291
     1
 70
    58
 90
        2
176
     1
 90
        2
176
     1
 90
        0
176
     1
 90
        0
176
     1
 40
0.6
176
     1
 40
30.0
176
     1
 62
     7
420
 16777215
176
     1
 90
        1
176
     1
 90
        4
176
     1
 62
     7
176
     1
 62
   257
176
     1
 90
        1
176
     1
 90
        1
176
     1
 40
1.0
176
     1
 90
        8
176
     1
 62
     7
176
     1
 40
1.0
176
     1
 90
        1
176
     1
 90
        6
176
     1
 90
        2
176
     1
 62
     7
176
     1
 90
        5
176
     1
 90
        0
176
     1
 90
        0
176
     1
290
     0
176
     1
 90
        1
176
     1
 40
50.0
176
     1
 90
        0
176
     1
290
     0
176
     1
290
     1
176
     1
290
     1
176
     1
290
     0
176
     1
290
     0
176
     1
290
     0
176
     1
290
     0
176
     1
290
     0
176
     1
290
     0
176
     1
 90
       50
176
     1
 40
0.0
176
     1
 40
1.0
176
     1
 90
        0
176
     1
 62
    18
420
        0
176
     1
 90
       50
176
     1
 90
        3
176
     1
 62
     5
420
      255
176
     1
290
     0
176
     1
 90
       50
176
     1
 90
       50
176
     1
 90
       50
176
     1
290
     0
176
     1
 90
       50
176
     1
 62
   256
176
     0
 40
1.0
176
     0
 90
        2
176
     1
  1
strokes_ogs.tif
176
     1
290
     0
176
     1
 40
1.0
176
     1
 40
1.0
176
     1
  0
VISUALSTYLE
  5
39
102
{ACAD_REACTORS
330
29
102
}
330
29
100
AcDbVisualStyle
  2
ColorChange
 70
    16
177
     3
291
     1
 70
    58
 90
        2
176
     1
 90
        2
176
     1
 90
        3
176
     1
 90
        0
176
     1
 40
0.6
176
     1
 40
30.0
176
     1
 62
     8
420
  8421504
176
     1
 90
        1
176
     1
 90
        4
176
     1
 62
     7
176
     1
 62
   257
176
     1
 90
        1
176
     1
 90
        1
176
     1
 40
1.0
176
     1
 90
        8
176
     1
 62
     8
420
  8421504
176
     1
 40
1.0
176
     1
 90
        1
176
     1
 90
        6
176
     1
 90
        2
176
     1
 62
     7
176
     1
 90
        5
176
     1
 90
        0
176
     1
 90
        0
176
     1
290
     0
176
     1
 90
        1
176
     1
 40
0.0
176
     1
 90
        0
176
     1
290
     0
176
     1
290
     1
176
     1
290
     1
176
     1
290
     0
176
     1
290
     0
176
     1
290
     0
176
     1
290
     0
176
     1
290
     0
176
     1
290
     0
176
     1
 90
       50
176
     1
 40
0.0
176
     1
 40
1.0
176
     1
 90
        0
176
     1
 62
    18
420
        0
176
     1
 90
       50
176
     1
 90
        3
176
     1
 62
     5
420
      255
176
     1
290
     0
176
     1
 90
       50
176
     1
 90
       50
176
     1
 90
       50
176
     1
290
     0
176
     1
 90
       50
176
     1
 62
   256
176
     0
 40
1.0
176
     0
 90
        2
176
     1
  1
strokes_ogs.tif
176
     1
290
     0
176
     1
 40
1.0
176
     1
 40
1.0
176
     1
  0
VISUALSTYLE
  5
32
102
{ACAD_REACTORS
330
29
102
}
330
29
100
AcDbVisualStyle
  2
Conceptual
 70
     9
177
     3
291
     0
 70
    58
 90
        3
176
     1
 90
        2
176
     1
 90
        0
176
     1
 90
        0
176
     1
 40
0.6
176
     1
 40
30.0
176
     1
 62
     7
420
 16777215
176
     1
 90
        2
176
     1
 90
        2
176
     1
 62
     7
176
     1
 62
   257
176
     1
 90
        1
176
     1
 90
        1
176
     1
 40
179.0
176
     1
 90
        8
176
     1
 62
     7
176
     1
 40
1.0
176
     1
 90
        1
176
     1
 90
        6
176
     1
 90
        2
176
     1
 62
     7
176
     1
 90
        3
176
     1
 90
        0
176
     1
 90
        0
176
     1
290
     0
176
     1
 90
        1
176
     1
 40
0.0
176
     1
 90
        0
176
     1
290
     0
176
     1
290
     1
176
     1
290
     1
176
     1
290
     0
176
     1
290
     0
176
     1
290
     0
176
     1
290
     0
176
     1
290
     0
176
     1
290
     0
176
     1
 90
       50
176
     1
 40
0.0
176
     1
 40
1.0
176
     1
 90
        0
176
     1
 62
    18
420
        0
176
     1
 90
       50
176
     1
 90
        3
176
     1
 62
     5
420
      255
176
     1
290
     0
176
     1
 90
       50
176
     1
 90
       50
176
     1
 90
       50
176
     1
290
     0
176
     1
 90
       50
176
     1
 62
   256
176
     0
 40
1.0
176
     0
 90
        2
176
     1
  1
strokes_ogs.tif
176
     1
290
     0
176
     1
 40
1.0
176
     1
 40
1.0
176
     1
  0
VISUALSTYLE
  5
34
102
{ACAD_REACTORS
330
29
102
}
330
29
100
AcDbVisualStyle
  2
Dim
 70
    11
177
     3
291
     1
 70
    58
 90
        2
176
     1
 90
        2
176
     1
 90
        0
176
     1
 90
        0
176
     1
 40
0.6
176
     1
 40
30.0
176
     1
 62
     7
420
 16777215
176
     1
 90
        1
176
     1
 90
        4
176
     1
 62
     7
176
     1
 62
   257
176
     1
 90
        1
176
     1
 90
        1
176
     1
 40
1.0
176
     1
 90
        8
176
     1
 62
     7
176
     1
 40
1.0
176
     1
 90
        1
176
     1
 90
        6
176
     1
 90
        2
176
     1
 62
     7
176
     1
 90
        5
176
     1
 90
        0
176
     1
 90
        0
176
     1
290
     0
176
     1
 90
        1
176
     1
 40
-50.0
176
     1
 90
        0
176
     1
290
     0
176
     1
290
     1
176
     1
290
     1
176
     1
290
     0
176
     1
290
     0
176
     1
290
     0
176
     1
290
     0
176
     1
290
     0
176
     1
290
     0
176
     1
 90
       50
176
     1
 40
0.0
176
     1
 40
1.0
176
     1
 90
        0
176
     1
 62
    18
420
        0
176
     1
 90
       50
176
     1
 90
        3
176
     1
 62
     5
420
      255
176
     1
290
     0
176
     1
 90
       50
176
     1
 90
       50
176
     1
 90
       50
176
     1
290
     0
176
     1
 90
       50
176
     1
 62
   256
176
     0
 40
1.0
176
     0
 90
        2
176
     1
  1
strokes_ogs.tif
176
     1
290
     0
176
     1
 40
1.0
176
     1
 40
1.0
176
     1
  0
VISUALSTYLE
  5
41
102
{ACAD_REACTORS
330
29
102
}
330
29
100
AcDbVisualStyle
  2
EdgeColorOff
 70
    22
177
     3
291
     1
 70
    58
 90
        2
176
     0
 90
        2
176
     0
 90
        0
176
     0
 90
        0
176
     0
 40
0.6
176
     0
 40
30.0
176
     0
 62
     7
420
 16777215
176
     0
 90
        1
176
     0
 90
        4
176
     0
 62
     7
176
     0
 62
   257
176
     0
 90
        1
176
     0
 90
        1
176
     0
 40
1.0
176
     0
 90
        8
176
     2
 62
     7
176
     0
 40
1.0
176
     0
 90
        1
176
     0
 90
        6
176
     0
 90
        2
176
     0
 62
     7
176
     0
 90
        5
176
     0
 90
        0
176
     0
 90
        0
176
     0
290
     0
176
     0
 90
        1
176
     0
 40
0.0
176
     0
 90
        0
176
     0
290
     0
176
     0
290
     1
176
     0
290
     1
176
     0
290
     0
176
     0
290
     0
176
     0
290
     0
176
     0
290
     0
176
     0
290
     0
176
     0
290
     0
176
     0
 90
       50
176
     0
 40
0.0
176
     0
 40
1.0
176
     0
 90
        0
176
     0
 62
    18
420
        0
176
     0
 90
       50
176
     0
 90
        3
176
     0
 62
     5
420
      255
176
     0
290
     0
176
     0
 90
       50
176
     0
 90
       50
176
     0
 90
       50
176
     0
290
     0
176
     0
 90
       50
176
     0
 62
   256
176
     0
 40
1.0
176
     0
 90
        2
176
     0
  1
strokes_ogs.tif
176
     0
290
     0
176
     0
 40
1.0
176
     0
 40
1.0
176
     0
  0
VISUALSTYLE
  5
38
102
{ACAD_REACTORS
330
29
102
}
330
29
100
AcDbVisualStyle
  2
Facepattern
 70
    15
177
     3
291
     1
 70
    58
 90
        2
176
     1
 90
        2
176
     1
 90
        0
176
     1
 90
        0
176
     1
 40
0.6
176
     1
 40
30.0
176
     1
 62
     7
420
 16777215
176
     1
 90
        1
176
     1
 90
        4
176
     1
 62
     7
176
     1
 62
   257
176
     1
 90
        1
176
     1
 90
        1
176
     1
 40
1.0
176
     1
 90
        8
176
     1
 62
     7
176
     1
 40
1.0
176
     1
 90
        1
176
     1
 90
        6
176
     1
 90
        2
176
     1
 62
     7
176
     1
 90
        5
176
     1
 90
        0
176
     1
 90
        0
176
     1
290
     0
176
     1
 90
        1
176
     1
 40
0.0
176
     1
 90
        0
176
     1
290
     0
176
     1
290
     1
176
     1
290
     1
176
     1
290
     0
176
     1
290
     0
176
     1
290
     0
176
     1
290
     0
176
     1
290
     0
176
     1
290
     0
176
     1
 90
       50
176
     1
 40
0.0
176
     1
 40
1.0
176
     1
 90
        0
176
     1
 62
    18
420
        0
176
     1
 90
       50
176
     1
 90
        3
176
     1
 62
     5
420
      255
176
     1
290
     0
176
     1
 90
       50
176
     1
 90
       50
176
     1
 90
       50
176
     1
290
     0
176
     1
 90
       50
176
     1
 62
   256
176
     0
 40
1.0
176
     0
 90
        2
176
     1
  1
strokes_ogs.tif
176
     1
290
     0
176
     1
 40
1.0
176
     1
 40
1.0
176
     1
  0
VISUALSTYLE
  5
2A
102
{ACAD_REACTORS
330
29
102
}
330
29
100
AcDbVisualStyle
  2
Flat
 70
     0
177
     3
291
     1
 70
    58
 90
        2
176
     1
 90
        1
176
     1
 90
        1
176
     1
 90
        2
176
     1
 40
0.6
176
     1
 40
30.0
176
     1
 62
     7
420
 16777215
176
     1
 90
        0
176
     1
 90
        0
176
     1
 62
     7
176
     1
 62
   257
176
     1
 90
        1
176
     1
 90
        1
176
     1
 40
1.0
176
     1
 90
        8
176
     1
 62
     7
176
     1
 40
1.0
176
     1
 90
        1
176
     1
 90
        6
176
     1
 90
        2
176
     1
 62
     7
176
     1
 90
        5
176
     1
 90
        0
176
     1
 90
        0
176
     1
290
     0
176
     1
 90
       13
176
     1
 40
0.0
176
     1
 90
        0
176
     1
290
     0
176
     1
290
     1
176
     1
290
     1
176
     1
290
     0
176
     1
290
     0
176
     1
290
     0
176
     1
290
     0
176
     1
290
     0
176
     1
290
     0
176
     1
 90
       50
176
     1
 40
0.0
176
     1
 40
1.0
176
     1
 90
        0
176
     1
 62
    18
420
        0
176
     1
 90
       50
176
     1
 90
        3
176
     1
 62
     5
420
      255
176
     1
290
     0
176
     1
 90
       50
176
     1
 90
       50
176
     1
 90
       50
176
     1
290
     0
176
     1
 90
       50
176
     1
 62
   256
176
     0
 40
1.0
176
     0
 90
        2
176
     1
  1
strokes_ogs.tif
176
     1
290
     0
176
     1
 40
1.0
176
     1
 40
1.0
176
     1
  0
VISUALSTYLE
  5
2B
102
{ACAD_REACTORS
330
29
102
}
330
29
100
AcDbVisualStyle
  2
FlatWithEdges
 70
     1
177
     3
291
     1
 70
    58
 90
        2
176
     1
 90
        1
176
     1
 90
        1
176
     1
 90
        2
176
     1
 40
0.6
176
     1
 40
30.0
176
     1
 62
     7
420
 16777215
176
     1
 90
        1
176
     1
 90
        0
176
     1
 62
     7
176
     1
 62
   257
176
     1
 90
        1
176
     1
 90
        1
176
     1
 40
1.0
176
     1
 90
        0
176
     1
 62
   257
176
     1
 40
1.0
176
     1
 90
        1
176
     1
 90
        6
176
     1
 90
        2
176
     1
 62
     7
176
     1
 90
        5
176
     1
 90
        0
176
     1
 90
        0
176
     1
290
     0
176
     1
 90
       13
176
     1
 40
0.0
176
     1
 90
        0
176
     1
290
     0
176
     1
290
     1
176
     1
290
     1
176
     1
290
     0
176
     1
290
     0
176
     1
290
     0
176
     1
290
     0
176
     1
290
     0
176
     1
290
     0
176
     1
 90
       50
176
     1
 40
0.0
176
     1
 40
1.0
176
     1
 90
        0
176
     1
 62
    18
420
        0
176
     1
 90
       50
176
     1
 90
        3
176
     1
 62
     5
420
      255
176
     1
290
     0
176
     1
 90
       50
176
     1
 90
       50
176
     1
 90
       50
176
     1
290
     0
176
     1
 90
       50
176
     1
 62
   256
176
     0
 40
1.0
176
     0
 90
        2
176
     1
  1
strokes_ogs.tif
176
     1
290
     0
176
     1
 40
1.0
176
     1
 40
1.0
176
     1
  0
VISUALSTYLE
  5
2C
102
{ACAD_REACTORS
330
29
102
}
330
29
100
AcDbVisualStyle
  2
Gouraud
 70
     2
177
     3
291
     1
 70
    58
 90
        2
176
     1
 90
        2
176
     1
 90
        1
176
     1
 90
        2
176
     1
 40
0.6
176
     1
 40
30.0
176
     1
 62
     7
420
 16777215
176
     1
 90
        0
176
     1
 90
        0
176
     1
 62
     7
176
     1
 62
   257
176
     1
 90
        1
176
     1
 90
        1
176
     1
 40
1.0
176
     1
 90
        0
176
     1
 62
     7
176
     1
 40
1.0
176
     1
 90
        1
176
     1
 90
        6
176
     1
 90
        2
176
     1
 62
     7
176
     1
 90
        5
176
     1
 90
        0
176
     1
 90
        0
176
     1
290
     0
176
     1
 90
       13
176
     1
 40
0.0
176
     1
 90
        0
176
     1
290
     0
176
     1
290
     1
176
     1
290
     1
176
     1
290
     0
176
     1
290
     0
176
     1
290
     0
176
     1
290
     0
176
     1
290
     0
176
     1
290
     0
176
     1
 90
       50
176
     1
 40
0.0
176
     1
 40
1.0
176
     1
 90
        0
176
     1
 62
    18
420
        0
176
     1
 90
       50
176
     1
 90
        3
176
     1
 62
     5
420
      255
176
     1
290
     0
176
     1
 90
       50
176
     1
 90
       50
176
     1
 90
       50
176
     1
290
     0
176
     1
 90
       50
176
     1
 62
   256
176
     0
 40
1.0
176
     0
 90
        2
176
     1
  1
strokes_ogs.tif
176
     1
290
     0
176
     1
 40
1.0
176
     1
 40
1.0
176
     1
  0
VISUALSTYLE
  5
2D
102
{ACAD_REACTORS
330
29
102
}
330
29
100
AcDbVisualStyle
  2
GouraudWithEdges
 70
     3
177
     3
291
     1
 70
    58
 90
        2
176
     1
 90
        2
176
     1
 90
        1
176
     1
 90
        2
176
     1
 40
0.6
176
     1
 40
30.0
176
     1
 62
     7
420
 16777215
176
     1
 90
        1
176
     1
 90
        0
176
     1
 62
     7
176
     1
 62
   257
176
     1
 90
        1
176
     1
 90
        1
176
     1
 40
1.0
176
     1
 90
        0
176
     1
 62
   257
176
     1
 40
1.0
176
     1
 90
        1
176
     1
 90
        6
176
     1
 90
        2
176
     1
 62
     7
176
     1
 90
        5
176
     1
 90
        0
176
     1
 90
        0
176
     1
290
     0
176
     1
 90
       13
176
     1
 40
0.0
176
     1
 90
        0
176
     1
290
     0
176
     1
290
     1
176
     1
290
     1
176
     1
290
     0
176
     1
290
     0
176
     1
290
     0
176
     1
290
     0
176
     1
290
     0
176
     1
290
     0
176
     1
 90
       50
176
     1
 40
0.0
176
     1
 40
1.0
176
     1
 90
        0
176
     1
 62
    18
420
        0
176
     1
 90
       50
176
     1
 90
        3
176
     1
 62
     5
420
      255
176
     1
290
     0
176
     1
 90
       50
176
     1
 90
       50
176
     1
 90
       50
176
     1
290
     0
176
     1
 90
       50
176
     1
 62
   256
176
     0
 40
1.0
176
     0
 90
        2
176
     1
  1
strokes_ogs.tif
176
     1
290
     0
176
     1
 40
1.0
176
     1
 40
1.0
176
     1
  0
VISUALSTYLE
  5
31
102
{ACAD_REACTORS
330
29
102
}
330
29
100
AcDbVisualStyle
  2
Hidden
 70
     6
177
     3
291
     0
 70
    58
 90
        1
176
     1
 90
        2
176
     1
 90
        2
176
     1
 90
        0
176
     1
 40
0.6
176
     1
 40
30.0
176
     1
 62
     7
420
 16777215
176
     1
 90
        2
176
     1
 90
        2
176
     1
 62
     7
176
     1
 62
   257
176
     1
 90
        2
176
     1
 90
        1
176
     1
 40
40.0
176
     1
 90
        0
176
     1
 62
   257
176
     1
 40
1.0
176
     1
 90
        1
176
     1
 90
        6
176
     1
 90
        2
176
     1
 62
     7
176
     1
 90
        3
176
     1
 90
        0
176
     1
 90
        0
176
     1
290
     0
176
     1
 90
        1
176
     1
 40
0.0
176
     1
 90
        0
176
     1
290
     0
176
     1
290
     1
176
     1
290
     1
176
     1
290
     0
176
     1
290
     0
176
     1
290
     0
176
     1
290
     0
176
     1
290
     0
176
     1
290
     0
176
     1
 90
       50
176
     1
 40
0.0
176
     1
 40
1.0
176
     1
 90
        0
176
     1
 62
    18
420
        0
176
     1
 90
       50
176
     1
 90
        3
176
     1
 62
     5
420
      255
176
     1
290
     0
176
     1
 90
       50
176
     1
 90
       50
176
     1
 90
       50
176
     1
290
     0
176
     1
 90
       50
176
     1
 62
   256
176
     0
 40
1.0
176
     0
 90
        2
176
     1
  1
strokes_ogs.tif
176
     1
290
     0
176
     1
 40
1.0
176
     1
 40
1.0
176
     1
  0
VISUALSTYLE
  5
3F
102
{ACAD_REACTORS
330
29
102
}
330
29
100
AcDbVisualStyle
  2
JitterOff
 70
    20
177
     3
291
     1
 70
    58
 90
        2
176
     0
 90
        2
176
     0
 90
        0
176
     0
 90
        0
176
     0
 40
0.6
176
     0
 40
30.0
176
     0
 62
     7
420
 16777215
176
     0
 90
        1
176
     0
 90
        4
176
     0
 62
     7
176
     0
 62
   257
176
     0
 90
        1
176
     0
 90
        1
176
     0
 40
1.0
176
     0
 90
       10
176
     2
 62
     7
176
     0
 40
1.0
176
     0
 90
        1
176
     0
 90
        6
176
     0
 90
        2
176
     0
 62
     7
176
     0
 90
        5
176
     0
 90
        0
176
     0
 90
        0
176
     0
290
     0
176
     0
 90
        1
176
     0
 40
0.0
176
     0
 90
        0
176
     0
290
     0
176
     0
290
     1
176
     0
290
     1
176
     0
290
     0
176
     0
290
     0
176
     0
290
     0
176
     0
290
     0
176
     0
290
     0
176
     0
290
     0
176
     0
 90
       50
176
     0
 40
0.0
176
     0
 40
1.0
176
     0
 90
        0
176
     0
 62
    18
420
        0
176
     0
 90
       50
176
     0
 90
        3
176
     0
 62
     5
420
      255
176
     0
290
     0
176
     0
 90
       50
176
     0
 90
       50
176
     0
 90
       50
176
     0
290
     0
176
     0
 90
       50
176
     0
 62
   256
176
     0
 40
1.0
176
     0
 90
        2
176
     0
  1
strokes_ogs.tif
176
     0
290
     0
176
     0
 40
1.0
176
     0
 40
1.0
176
     0
  0
VISUALSTYLE
  5
37
102
{ACAD_REACTORS
330
29
102
}
330
29
100
AcDbVisualStyle
  2
Linepattern
 70
    14
177
     3
291
     1
 70
    58
 90
        2
176
     1
 90
        2
176
     1
 90
        0
176
     1
 90
        0
176
     1
 40
0.6
176
     1
 40
30.0
176
     1
 62
     7
420
 16777215
176
     1
 90
        1
176
     1
 90
        4
176
     1
 62
     7
176
     1
 62
   257
176
     1
 90
        7
176
     1
 90
        7
176
     1
 40
1.0
176
     1
 90
        8
176
     1
 62
     7
176
     1
 40
1.0
176
     1
 90
        1
176
     1
 90
        6
176
     1
 90
        2
176
     1
 62
     7
176
     1
 90
        5
176
     1
 90
        0
176
     1
 90
        0
176
     1
290
     0
176
     1
 90
        1
176
     1
 40
0.0
176
     1
 90
        0
176
     1
290
     0
176
     1
290
     1
176
     1
290
     1
176
     1
290
     0
176
     1
290
     0
176
     1
290
     0
176
     1
290
     0
176
     1
290
     0
176
     1
290
     0
176
     1
 90
       50
176
     1
 40
0.0
176
     1
 40
1.0
176
     1
 90
        0
176
     1
 62
    18
420
        0
176
     1
 90
       50
176
     1
 90
        3
176
     1
 62
     5
420
      255
176
     1
290
     0
176
     1
 90
       50
176
     1
 90
       50
176
     1
 90
       50
176
     1
290
     0
176
     1
 90
       50
176
     1
 62
   256
176
     0
 40
1.0
176
     0
 90
        2
176
     1
  1
strokes_ogs.tif
176
     1
290
     0
176
     1
 40
1.0
176
     1
 40
1.0
176
     1
  0
VISUALSTYLE
  5
40
102
{ACAD_REACTORS
330
29
102
}
330
29
100
AcDbVisualStyle
  2
OverhangOff
 70
    21
177
     3
291
     1
 70
    58
 90
        2
176
     0
 90
        2
176
     0
 90
        0
176
     0
 90
        0
176
     0
 40
0.6
176
     0
 40
30.0
176
     0
 62
     7
420
 16777215
176
     0
 90
        1
176
     0
 90
        4
176
     0
 62
     7
176
     0
 62
   257
176
     0
 90
        1
176
     0
 90
        1
176
     0
 40
1.0
176
     0
 90
        9
176
     2
 62
     7
176
     0
 40
1.0
176
     0
 90
        1
176
     0
 90
        6
176
     0
 90
        2
176
     0
 62
     7
176
     0
 90
        5
176
     0
 90
        0
176
     0
 90
        0
176
     0
290
     0
176
     0
 90
        1
176
     0
 40
0.0
176
     0
 90
        0
176
     0
290
     0
176
     0
290
     1
176
     0
290
     1
176
     0
290
     0
176
     0
290
     0
176
     0
290
     0
176
     0
290
     0
176
     0
290
     0
176
     0
290
     0
176
     0
 90
       50
176
     0
 40
0.0
176
     0
 40
1.0
176
     0
 90
        0
176
     0
 62
    18
420
        0
176
     0
 90
       50
176
     0
 90
        3
176
     0
 62
     5
420
      255
176
     0
290
     0
176
     0
 90
       50
176
     0
 90
       50
176
     0
 90
       50
176
     0
290
     0
176
     0
 90
       50
176
     0
 62
   256
176
     0
 40
1.0
176
     0
 90
        2
176
     0
  1
strokes_ogs.tif
176
     0
290
     0
176
     0
 40
1.0
176
     0
 40
1.0
176
     0
  0
VISUALSTYLE
  5
33
102
{ACAD_REACTORS
330
29
102
}
330
29
100
AcDbVisualStyle
  2
Realistic
 70
     8
177
     3
291
     0
 70
    58
 90
        2
176
     1
 90
        3
176
     1
 90
        0
176
     1
 90
        2
176
     1
 40
0.6
176
     1
 40
30.0
176
     1
 62
     7
420
 16777215
176
     1
 90
        0
176
     1
 90
        0
176
     1
 62
     7
176
     1
 62
   257
176
     1
 90
        1
176
     1
 90
        1
176
     1
 40
1.0
176
     1
 90
        8
176
     1
 62
   257
176
     1
 40
1.0
176
     1
 90
        1
176
     1
 90
        6
176
     1
 90
        2
176
     1
 62
     7
176
     1
 90
        3
176
     1
 90
        0
176
     1
 90
        0
176
     1
290
     0
176
     1
 90
       13
176
     1
 40
0.0
176
     1
 90
        0
176
     1
290
     0
176
     1
290
     1
176
     1
290
     1
176
     1
290
     0
176
     1
290
     0
176
     1
290
     0
176
     1
290
     0
176
     1
290
     0
176
     1
290
     0
176
     1
 90
       50
176
     1
 40
0.0
176
     1
 40
1.0
176
     1
 90
        0
176
     1
 62
    18
420
        0
176
     1
 90
       50
176
     1
 90
        3
176
     1
 62
     5
420
      255
176
     1
290
     0
176
     1
 90
       50
176
     1
 90
       50
176
     1
 90
       50
176
     1
290
     0
176
     1
 90
       50
176
     1
 62
   256
176
     0
 40
1.0
176
     0
 90
        2
176
     1
  1
strokes_ogs.tif
176
     1
290
     0
176
     1
 40
1.0
176
     1
 40
1.0
176
     1
  0
VISUALSTYLE
  5
3E
102
{ACAD_REACTORS
330
29
102
}
330
29
100
AcDbVisualStyle
  2
Shaded
 70
    27
177
     3
291
     0
 70
    58
 90
        2
176
     1
 90
        2
176
     1
 90
        1
176
     1
 90
        2
176
     1
 40
0.6
176
     1
 40
30.0
176
     1
 62
     7
420
 16777215
176
     1
 90
        0
176
     1
 90
        4
176
     1
 62
     7
176
     1
 62
   257
176
     1
 90
        1
176
     1
 90
        1
176
     1
 40
1.0
176
     1
 90
        8
176
     1
 62
   257
176
     1
 40
1.0
176
     1
 90
        1
176
     1
 90
        6
176
     1
 90
        2
176
     1
 62
     8
420
  7895160
176
     1
 90
        3
176
     1
 90
        0
176
     1
 90
        0
176
     1
290
     0
176
     1
 90
        5
176
     1
 40
0.0
176
     1
 90
        0
176
     1
290
     0
176
     1
290
     1
176
     1
290
     1
176
     1
290
     0
176
     1
290
     0
176
     1
290
     0
176
     1
290
     0
176
     1
290
     0
176
     1
290
     0
176
     1
 90
       50
176
     1
 40
0.0
176
     1
 40
1.0
176
     1
 90
        0
176
     1
 62
    18
420
        0
176
     1
 90
       50
176
     1
 90
        3
176
     1
 62
     5
420
      255
176
     1
290
     0
176
     1
 90
       50
176
     1
 90
       50
176
     1
 90
       50
176
     1
290
     0
176
     1
 90
       50
176
     1
 62
   256
176
     0
 40
1.0
176
     0
 90
        2
176
     1
  1
strokes_ogs.tif
176
     1
290
     0
176
     1
 40
1.0
176
     1
 40
1.0
176
     1
  0
VISUALSTYLE
  5
3D
102
{ACAD_REACTORS
330
29
102
}
330
29
100
AcDbVisualStyle
  2
Shaded with edges
 70
    26
177
     3
291
     0
 70
    58
 90
        2
176
     1
 90
        2
176
     1
 90
        1
176
     1
 90
        2
176
     1
 40
0.6
176
     1
 40
30.0
176
     1
 62
     7
420
 16777215
176
     1
 90
        1
176
     1
 90
        2
176
     1
 62
     7
176
     1
 62
   257
176
     1
 90
        2
176
     1
 90
        1
176
     1
 40
1.0
176
     1
 90
        8
176
     1
 62
   257
176
     1
 40
1.0
176
     1
 90
        1
176
     1
 90
        6
176
     1
 90
        2
176
     1
 62
     7
176
     1
 90
        3
176
     1
 90
        0
176
     1
 90
        0
176
     1
290
     0
176
     1
 90
        5
176
     1
 40
0.0
176
     1
 90
        0
176
     1
290
     0
176
     1
290
     1
176
     1
290
     1
176
     1
290
     0
176
     1
290
     0
176
     1
290
     0
176
     1
290
     0
176
     1
290
     0
176
     1
290
     0
176
     1
 90
       50
176
     1
 40
0.0
176
     1
 40
1.0
176
     1
 90
        0
176
     1
 62
    18
420
        0
176
     1
 90
       50
176
     1
 90
        3
176
     1
 62
     5
420
      255
176
     1
290
     0
176
     1
 90
       50
176
     1
 90
       50
176
     1
 90
       50
176
     1
290
     0
176
     1
 90
       50
176
     1
 62
   256
176
     0
 40
1.0
176
     0
 90
        2
176
     1
  1
strokes_ogs.tif
176
     1
290
     0
176
     1
 40
1.0
176
     1
 40
1.0
176
     1
  0
VISUALSTYLE
  5
3A
102
{ACAD_REACTORS
330
29
102
}
330
29
100
AcDbVisualStyle
  2
Shades of Gray
 70
    23
177
     3
291
     0
 70
    58
 90
        2
176
     1
 90
        2
176
     1
 90
        3
176
     1
 90
        0
176
     1
 40
0.6
176
     1
 40
30.0
176
     1
 62
     7
420
 16777215
176
     1
 90
        2
176
     1
 90
        2
176
     1
 62
     7
176
     1
 62
     7
176
     1
 90
        1
176
     1
 90
        1
176
     1
 40
40.0
176
     1
 90
        8
176
     1
 62
     7
176
     1
 40
1.0
176
     1
 90
        1
176
     1
 90
        6
176
     1
 90
        2
176
     1
 62
     7
176
     1
 90
        3
176
     1
 90
        0
176
     1
 90
        0
176
     1
290
     0
176
     1
 90
        1
176
     1
 40
0.0
176
     1
 90
        0
176
     1
290
     0
176
     1
290
     1
176
     1
290
     1
176
     1
290
     0
176
     1
290
     0
176
     1
290
     0
176
     1
290
     0
176
     1
290
     0
176
     1
290
     0
176
     1
 90
       50
176
     1
 40
0.0
176
     1
 40
1.0
176
     1
 90
        0
176
     1
 62
    18
420
        0
176
     1
 90
       50
176
     1
 90
        3
176
     1
 62
     5
420
      255
176
     1
290
     0
176
     1
 90
       50
176
     1
 90
       50
176
     1
 90
       50
176
     1
290
     0
176
     1
 90
       50
176
     1
 62
   256
176
     0
 40
1.0
176
     0
 90
        2
176
     1
  1
strokes_ogs.tif
176
     1
290
     0
176
     1
 40
1.0
176
     1
 40
1.0
176
     1
  0
VISUALSTYLE
  5
3B
102
{ACAD_REACTORS
330
29
102
}
330
29
100
AcDbVisualStyle
  2
Sketchy
 70
    24
177
     3
291
     0
 70
    58
 90
        1
176
     1
 90
        2
176
     1
 90
        2
176
     1
 90
        0
176
     1
 40
0.6
176
     1
 40
30.0
176
     1
 62
     7
420
 16777215
176
     1
 90
        2
176
     1
 90
        2
176
     1
 62
     7
176
     1
 62
     7
176
     1
 90
        1
176
     1
 90
        1
176
     1
 40
40.0
176
     1
 90
       11
176
     1
 62
     7
176
     1
 40
1.0
176
     1
 90
        1
176
     1
 90
        6
176
     1
 90
        2
176
     1
 62
     7
176
     1
 90
        6
176
     1
 90
        0
176
     1
 90
        0
176
     1
290
     0
176
     1
 90
        1
176
     1
 40
0.0
176
     1
 90
        0
176
     1
290
     0
176
     1
290
     1
176
     1
290
     1
176
     1
290
     0
176
     1
290
     0
176
     1
290
     0
176
     1
290
     0
176
     1
290
     0
176
     1
290
     0
176
     1
 90
       50
176
     1
 40
0.0
176
     1
 40
1.0
176
     1
 90
        0
176
     1
 62
    18
420
        0
176
     1
 90
       50
176
     1
 90
        3
176
     1
 62
     5
420
      255
176
     1
290
     0
176
     1
 90
       50
176
     1
 90
       50
176
     1
 90
       50
176
     1
290
     0
176
     1
 90
       50
176
     1
 62
   256
176
     0
 40
1.0
176
     0
 90
        2
176
     1
  1
strokes_ogs.tif
176
     1
290
     0
176
     1
 40
1.0
176
     1
 40
1.0
176
     1
  0
VISUALSTYLE
  5
36
102
{ACAD_REACTORS
330
29
102
}
330
29
100
AcDbVisualStyle
  2
Thicken
 70
    13
177
     3
291
     1
 70
    58
 90
        2
176
     1
 90
        2
176
     1
 90
        0
176
     1
 90
        0
176
     1
 40
0.6
176
     1
 40
30.0
176
     1
 62
     7
420
 16777215
176
     1
 90
        1
176
     1
 90
        4
176
     1
 62
     7
176
     1
 62
   257
176
     1
 90
        1
176
     1
 90
        1
176
     1
 40
1.0
176
     1
 90
       12
176
     1
 62
     7
176
     1
 40
1.0
176
     1
 90
        1
176
     1
 90
        6
176
     1
 90
        2
176
     1
 62
     7
176
     1
 90
        5
176
     1
 90
        0
176
     1
 90
        0
176
     1
290
     0
176
     1
 90
        1
176
     1
 40
0.0
176
     1
 90
        0
176
     1
290
     0
176
     1
290
     1
176
     1
290
     1
176
     1
290
     0
176
     1
290
     0
176
     1
290
     0
176
     1
290
     0
176
     1
290
     0
176
     1
290
     0
176
     1
 90
       50
176
     1
 40
0.0
176
     1
 40
1.0
176
     1
 90
        0
176
     1
 62
    18
420
        0
176
     1
 90
       50
176
     1
 90
        3
176
     1
 62
     5
420
      255
176
     1
290
     0
176
     1
 90
       50
176
     1
 90
       50
176
     1
 90
       50
176
     1
290
     0
176
     1
 90
       50
176
     1
 62
   256
176
     0
 40
1.0
176
     0
 90
        2
176
     1
  1
strokes_ogs.tif
176
     1
290
     0
176
     1
 40
1.0
176
     1
 40
1.0
176
     1
  0
VISUALSTYLE
  5
30
102
{ACAD_REACTORS
330
29
102
}
330
29
100
AcDbVisualStyle
  2
Wireframe
 70
     5
177
     3
291
     0
 70
    58
 90
        0
176
     1
 90
        2
176
     1
 90
        0
176
     1
 90
        0
176
     1
 40
0.6
176
     1
 40
30.0
176
     1
 62
     7
420
 16777215
176
     1
 90
        1
176
     1
 90
        4
176
     1
 62
     7
176
     1
 62
   257
176
     1
 90
        1
176
     1
 90
        1
176
     1
 40
1.0
176
     1
 90
        0
176
     1
 62
   257
176
     1
 40
1.0
176
     1
 90
        1
176
     1
 90
        6
176
     1
 90
        2
176
     1
 62
     7
176
     1
 90
        3
176
     1
 90
        0
176
     1
 90
        0
176
     1
290
     0
176
     1
 90
        1
176
     1
 40
0.0
176
     1
 90
        0
176
     1
290
     0
176
     1
290
     1
176
     1
290
     1
176
     1
290
     0
176
     1
290
     0
176
     1
290
     0
176
     1
290
     0
176
     1
290
     0
176
     1
290
     0
176
     1
 90
       50
176
     1
 40
0.0
176
     1
 40
1.0
176
     1
 90
        0
176
     1
 62
    18
420
        0
176
     1
 90
       50
176
     1
 90
        3
176
     1
 62
     5
420
      255
176
     1
290
     0
176
     1
 90
       50
176
     1
 90
       50
176
     1
 90
       50
176
     1
290
     0
176
     1
 90
       50
176
     1
 62
   256
176
     0
 40
1.0
176
     0
 90
        2
176
     1
  1
strokes_ogs.tif
176
     1
290
     0
176
     1
 40
1.0
176
     1
 40
1.0
176
     1
  0
VISUALSTYLE
  5
3C
102
{ACAD_REACTORS
330
29
102
}
330
29
100
AcDbVisualStyle
  2
X-Ray
 70
    25
177
     3
291
     0
 70
    58
 90
        2
176
     1
 90
        2
176
     1
 90
        1
176
     1
 90
        1
176
     1
 40
0.5
176
     1
 40
30.0
176
     1
 62
     7
420
 16777215
176
     1
 90
        1
176
     1
 90
        0
176
     1
 62
     7
176
     1
 62
   257
176
     1
 90
        1
176
     1
 90
        1
176
     1
 40
1.0
176
     1
 90
        8
176
     1
 62
     7
176
     1
 40
1.0
176
     1
 90
        1
176
     1
 90
        6
176
     1
 90
        2
176
     1
 62
     7
176
     1
 90
        3
176
     1
 90
        0
176
     1
 90
        0
176
     1
290
     0
176
     1
 90
       13
176
     1
 40
0.0
176
     1
 90
        0
176
     1
290
     0
176
     1
290
     1
176
     1
290
     1
176
     1
290
     0
176
     1
290
     0
176
     1
290
     0
176
     1
290
     0
176
     1
290
     0
176
     1
290
     0
176
     1
 90
       50
176
     1
 40
0.0
176
     1
 40
1.0
176
     1
 90
        0
176
     1
 62
    18
420
        0
176
     1
 90
       50
176
     1
 90
        3
176
     1
 62
     5
420
      255
176
     1
290
     0
176
     1
 90
       50
176
     1
 90
       50
176
     1
 90
       50
176
     1
290
     0
176
     1
 90
       50
176
     1
 62
   256
176
     0
 40
1.0
176
     0
 90
        2
176
     1
  1
strokes_ogs.tif
176
     1
290
     0
176
     1
 40
1.0
176
     1
 40
1.0
176
     1
  0
DICTIONARYVAR
  5
2B2
102
{ACAD_REACTORS
330
2AD
102
}
330
2AD
100
DictionaryVariables
280
     0
  1
1:1
  0
DICTIONARYVAR
  5
2AF
102
{ACAD_REACTORS
330
2AD
102
}
330
2AD
100
DictionaryVariables
280
     0
  1
STANDARD
  0
DICTIONARYVAR
  5
2AE
102
{ACAD_REACTORS
330
2AD
102
}
330
2AD
100
DictionaryVariables
280
     0
  1
STANDARD
  0
DICTIONARYVAR
  5
2B0
102
{ACAD_REACTORS
330
2AD
102
}
330
2AD
100
DictionaryVariables
280
     0
  1
Imperial24
  0
DICTIONARYVAR
  5
2B1
102
{ACAD_REACTORS
330
2AD
102
}
330
2AD
100
DictionaryVariables
280
     0
  1
Imperial24
  0
DICTIONARY
  5
1A
330
19
100
AcDbDictionary
280
     1
281
     1
  3
BUMPTILE
360
1C
  3
DIFFUSETILE
360
1B
  3
OPACITYTILE
360
1F
  3
REFLECTIONTILE
360
1E
  3
REFRACTIONTILE
360
20
  3
SPECULARTILE
360
1D
  0
DICTIONARY
  5
12
330
11
100
AcDbDictionary
280
     1
281
     1
  3
BUMPTILE
360
14
  3
DIFFUSETILE
360
13
  3
OPACITYTILE
360
17
  3
REFLECTIONTILE
360
16
  3
REFRACTIONTILE
360
18
  3
SPECULARTILE
360
15
  0
DICTIONARY
  5
22
330
21
100
AcDbDictionary
280
     1
281
     1
  3
BUMPTILE
360
24
  3
DIFFUSETILE
360
23
  3
OPACITYTILE
360
27
  3
REFLECTIONTILE
360
26
  3
REFRACTIONTILE
360
28
  3
SPECULARTILE
360
25
  0
DICTIONARY
  5
2B3
330
65
100
AcDbDictionary
280
     1
281
     1
  3
ACAD_ROUNDTRIP_2008_TABLESTYLE_CELLSTYLEMAP
360
2B4
  0
XRECORD
  5
1C
102
{ACAD_REACTORS
330
1A
102
}
330
1A
100
AcDbXrecord
280
     1
270
     1
271
     1
  0
XRECORD
  5
1B
102
{ACAD_REACTORS
330
1A
102
}
330
1A
100
AcDbXrecord
280
     1
270
     1
271
     1
  0
XRECORD
  5
1F
102
{ACAD_REACTORS
330
1A
102
}
330
1A
100
AcDbXrecord
280
     1
270
     1
271
     1
  0
XRECORD
  5
1E
102
{ACAD_REACTORS
330
1A
102
}
330
1A
100
AcDbXrecord
280
     1
270
     1
271
     1
  0
XRECORD
  5
20
102
{ACAD_REACTORS
330
1A
102
}
330
1A
100
AcDbXrecord
280
     1
270
     1
271
     1
  0
XRECORD
  5
1D
102
{ACAD_REACTORS
330
1A
102
}
330
1A
100
AcDbXrecord
280
     1
270
     1
271
     1
  0
XRECORD
  5
14
102
{ACAD_REACTORS
330
12
102
}
330
12
100
AcDbXrecord
280
     1
270
     1
271
     1
  0
XRECORD
  5
13
102
{ACAD_REACTORS
330
12
102
}
330
12
100
AcDbXrecord
280
     1
270
     1
271
     1
  0
XRECORD
  5
17
102
{ACAD_REACTORS
330
12
102
}
330
12
100
AcDbXrecord
280
     1
270
     1
271
     1
  0
XRECORD
  5
16
102
{ACAD_REACTORS
330
12
102
}
330
12
100
AcDbXrecord
280
     1
270
     1
271
     1
  0
XRECORD
  5
18
102
{ACAD_REACTORS
330
12
102
}
330
12
100
AcDbXrecord
280
     1
270
     1
271
     1
  0
XRECORD
  5
15
102
{ACAD_REACTORS
330
12
102
}
330
12
100
AcDbXrecord
280
     1
270
     1
271
     1
  0
XRECORD
  5
24
102
{ACAD_REACTORS
330
22
102
}
330
22
100
AcDbXrecord
280
     1
270
     1
271
     1
  0
XRECORD
  5
23
102
{ACAD_REACTORS
330
22
102
}
330
22
100
AcDbXrecord
280
     1
270
     1
271
     1
  0
XRECORD
  5
27
102
{ACAD_REACTORS
330
22
102
}
330
22
100
AcDbXrecord
280
     1
270
     1
271
     1
  0
XRECORD
  5
26
102
{ACAD_REACTORS
330
22
102
}
330
22
100
AcDbXrecord
280
     1
270
     1
271
     1
  0
XRECORD
  5
28
102
{ACAD_REACTORS
330
22
102
}
330
22
100
AcDbXrecord
280
     1
270
     1
271
     1
  0
XRECORD
  5
25
102
{ACAD_REACTORS
330
22
102
}
330
22
100
AcDbXrecord
280
     1
270
     1
271
     1
  0
CELLSTYLEMAP
  5
2B4
102
{ACAD_REACTORS
330
2B3
102
}
330
2B3
100
AcDbCellStyleMap
 90
        3
300
CELLSTYLE
  1
TABLEFORMAT_BEGIN
 90
        5
170
     1
 91
        0
 92
    32768
 62
   257
 93
        1
300
CONTENTFORMAT
  1
CONTENTFORMAT_BEGIN
 90
        0
 91
        0
 92
      512
 93
        0
300

 40
0.0
140
1.0
 94
        5
 62
     0
340
55
144
0.25
309
CONTENTFORMAT_END
171
     0
 94
        0
309
TABLEFORMAT_END
  1
CELLSTYLE_BEGIN
 90
        1
 91
        1
300
_TITLE
309
CELLSTYLE_END
300
CELLSTYLE
  1
TABLEFORMAT_BEGIN
 90
        5
170
     1
 91
        0
 92
        0
 62
   257
 93
        1
300
CONTENTFORMAT
  1
CONTENTFORMAT_BEGIN
 90
        0
 91
        0
 92
      512
 93
        0
300

 40
0.0
140
1.0
 94
        5
 62
     0
340
55
144
0.18
309
CONTENTFORMAT_END
171
     0
 94
        0
309
TABLEFORMAT_END
  1
CELLSTYLE_BEGIN
 90
        2
 91
        1
300
_HEADER
309
CELLSTYLE_END
300
CELLSTYLE
  1
TABLEFORMAT_BEGIN
 90
        5
170
     1
 91
        0
 92
        0
 62
   257
 93
        1
300
CONTENTFORMAT
  1
CONTENTFORMAT_BEGIN
 90
        0
 91
        0
 92
      512
 93
        0
300

 40
0.0
140
1.0
 94
        2
 62
     0
340
55
144
0.18
309
CONTENTFORMAT_END
171
     0
 94
        0
309
TABLEFORMAT_END
  1
CELLSTYLE_BEGIN
 90
        3
 91
        2
300
_DATA
309
CELLSTYLE_END
  0
ENDSEC
  0
EOF
