  0
SECTION
  2
HEADER
  9
$ACADVER
  1
AC1014
  9
$ACADMAINTVER
 70
     9
  9
$DWGCODEPAGE
  3
ANSI_1252
  9
$INSBASE
 10
0.0
 20
0.0
 30
0.0
  9
$EXTMIN
 10
1.000000000000000E+20
 20
1.000000000000000E+20
 30
1.000000000000000E+20
  9
$EXTMAX
 10
-1.000000000000000E+20
 20
-1.000000000000000E+20
 30
-1.000000000000000E+20
  9
$LIMMIN
 10
0.0
 20
0.0
  9
$LIMMAX
 10
12.0
 20
9.0
  9
$ORTHOMODE
 70
     0
  9
$REGENMODE
 70
     1
  9
$FILLMODE
 70
     1
  9
$QTEXTMODE
 70
     0
  9
$MIRRTEXT
 70
     1
  9
$DRAGMODE
 70
     2
  9
$LTSCALE
 40
1.0
  9
$OSMODE
 70
    37
  9
$ATTMODE
 70
     1
  9
$TEXTSIZE
 40
0.2
  9
$TRACEWID
 40
0.05
  9
$TEXTSTYLE
  7
STANDARD
  9
$CLAYER
  8
0
  9
$CELTYPE
  6
BYLAYER
  9
$CECOLOR
 62
   256
  9
$CELTSCALE
 40
1.0
  9
$DELOBJ
 70
     1
  9
$DISPSILH
 70
     0
  9
$DIMSCALE
 40
1.0
  9
$DIMASZ
 40
0.18
  9
$DIMEXO
 40
0.0625
  9
$DIMDLI
 40
0.38
  9
$DIMRND
 40
0.0
  9
$DIMDLE
 40
0.0
  9
$DIMEXE
 40
0.18
  9
$DIMTP
 40
0.0
  9
$DIMTM
 40
0.0
  9
$DIMTXT
 40
0.18
  9
$DIMCEN
 40
0.09
  9
$DIMTSZ
 40
0.0
  9
$DIMTOL
 70
     0
  9
$DIMLIM
 70
     0
  9
$DIMTIH
 70
     1
  9
$DIMTOH
 70
     1
  9
$DIMSE1
 70
     0
  9
$DIMSE2
 70
     0
  9
$DIMTAD
 70
     0
  9
$DIMZIN
 70
     0
  9
$DIMBLK
  1

  9
$DIMASO
 70
     1
  9
$DIMSHO
 70
     1
  9
$DIMPOST
  1

  9
$DIMAPOST
  1

  9
$DIMALT
 70
     0
  9
$DIMALTD
 70
     2
  9
$DIMALTF
 40
25.4
  9
$DIMLFAC
 40
1.0
  9
$DIMTOFL
 70
     0
  9
$DIMTVP
 40
0.0
  9
$DIMTIX
 70
     0
  9
$DIMSOXD
 70
     0
  9
$DIMSAH
 70
     0
  9
$DIMBLK1
  1

  9
$DIMBLK2
  1

  9
$DIMSTYLE
  2
STANDARD
  9
$DIMCLRD
 70
     0
  9
$DIMCLRE
 70
     0
  9
$DIMCLRT
 70
     0
  9
$DIMTFAC
 40
1.0
  9
$DIMGAP
 40
0.09
  9
$DIMJUST
 70
     0
  9
$DIMSD1
 70
     0
  9
$DIMSD2
 70
     0
  9
$DIMTOLJ
 70
     1
  9
$DIMTZIN
 70
     0
  9
$DIMALTZ
 70
     0
  9
$DIMALTTZ
 70
     0
  9
$DIMFIT
 70
     3
  9
$DIMUPT
 70
     0
  9
$DIMUNIT
 70
     2
  9
$DIMDEC
 70
     4
  9
$DIMTDEC
 70
     4
  9
$DIMALTU
 70
     2
  9
$DIMALTTD
 70
     2
  9
$DIMTXSTY
  7
STANDARD
  9
$DIMAUNIT
 70
     0
  9
$LUNITS
 70
     2
  9
$LUPREC
 70
     4
  9
$SKETCHINC
 40
0.1
  9
$FILLETRAD
 40
0.5
  9
$AUNITS
 70
     0
  9
$AUPREC
 70
     0
  9
$MENU
  1
.
  9
$ELEVATION
 40
0.0
  9
$PELEVATION
 40
0.0
  9
$THICKNESS
 40
0.0
  9
$LIMCHECK
 70
     0
  9
$CHAMFERA
 40
0.5
  9
$CHAMFERB
 40
0.5
  9
$CHAMFERC
 40
1.0
  9
$CHAMFERD
 40
0.0
  9
$SKPOLY
 70
     0
  9
$TDCREATE
 40
2458333.544558866
  9
$TDUPDATE
 40
2458333.544558877
  9
$TDINDWG
 40
0.0000000116
  9
$TDUSRTIMER
 40
0.0000000116
  9
$USRTIMER
 70
     1
  9
$ANGBASE
 50
0.0
  9
$ANGDIR
 70
     0
  9
$PDMODE
 70
     0
  9
$PDSIZE
 40
0.0
  9
$PLINEWID
 40
0.0
  9
$COORDS
 70
     1
  9
$SPLFRAME
 70
     0
  9
$SPLINETYPE
 70
     6
  9
$SPLINESEGS
 70
     8
  9
$ATTDIA
 70
     0
  9
$ATTREQ
 70
     1
  9
$HANDLING
 70
     1
  9
$HANDSEED
  5
71C
  9
$SURFTAB1
 70
     6
  9
$SURFTAB2
 70
     6
  9
$SURFTYPE
 70
     6
  9
$SURFU
 70
     6
  9
$SURFV
 70
     6
  9
$UCSNAME
  2

  9
$UCSORG
 10
0.0
 20
0.0
 30
0.0
  9
$UCSXDIR
 10
1.0
 20
0.0
 30
0.0
  9
$UCSYDIR
 10
0.0
 20
1.0
 30
0.0
  9
$PUCSNAME
  2

  9
$PUCSORG
 10
0.0
 20
0.0
 30
0.0
  9
$PUCSXDIR
 10
1.0
 20
0.0
 30
0.0
  9
$PUCSYDIR
 10
0.0
 20
1.0
 30
0.0
  9
$USERI1
 70
     0
  9
$USERI2
 70
     0
  9
$USERI3
 70
     0
  9
$USERI4
 70
     0
  9
$USERI5
 70
     0
  9
$USERR1
 40
0.0
  9
$USERR2
 40
0.0
  9
$USERR3
 40
0.0
  9
$USERR4
 40
0.0
  9
$USERR5
 40
0.0
  9
$WORLDVIEW
 70
     1
  9
$SHADEDGE
 70
     3
  9
$SHADEDIF
 70
    70
  9
$TILEMODE
 70
     1
  9
$MAXACTVP
 70
    64
  9
$PINSBASE
 10
0.0
 20
0.0
 30
0.0
  9
$PLIMCHECK
 70
     0
  9
$PEXTMIN
 10
1.000000000000000E+20
 20
1.000000000000000E+20
 30
1.000000000000000E+20
  9
$PEXTMAX
 10
-1.000000000000000E+20
 20
-1.000000000000000E+20
 30
-1.000000000000000E+20
  9
$PLIMMIN
 10
0.0
 20
0.0
  9
$PLIMMAX
 10
12.0
 20
9.0
  9
$UNITMODE
 70
     0
  9
$VISRETAIN
 70
     1
  9
$PLINEGEN
 70
     0
  9
$PSLTSCALE
 70
     1
  9
$TREEDEPTH
 70
  3020
  9
$PICKSTYLE
 70
     1
  9
$CMLSTYLE
  2
STANDARD
  9
$CMLJUST
 70
     0
  9
$CMLSCALE
 40
1.0
  9
$PROXYGRAPHICS
 70
     1
  9
$MEASUREMENT
 70
     0
  0
ENDSEC
  0
SECTION
  2
CLASSES
  0
CLASS
  1
ACDBDICTIONARYWDFLT
  2
AcDbDictionaryWithDefault
  3
ObjectDBX Classes
 90
        0
280
     0
281
     0
  0
CLASS
  1
VISUALSTYLE
  2
AcDbVisualStyle
  3
ObjectDBX Classes
 90
     4095
280
     0
281
     0
  0
CLASS
  1
XRECORD
  2
AcDbXrecord
  3
AutoCAD 2000
 90
        0
280
     0
281
     0
  0
CLASS
  1
LWPOLYLINE
  2
AcDbPolyline
  3
AutoCAD 2000
 90
        0
280
     0
281
     1
  0
CLASS
  1
HATCH
  2
AcDbHatch
  3
AutoCAD 2000
 90
        0
280
     0
281
     1
  0
CLASS
  1
ACDBPLACEHOLDER
  2
AcDbPlaceHolder
  3
ObjectDBX Classes
 90
        0
280
     0
281
     0
  0
CLASS
  1
LAYOUT
  2
AcDbLayout
  3
ObjectDBX Classes
 90
        0
280
     0
281
     0
  0
ENDSEC
  0
SECTION
  2
TABLES
  0
TABLE
  2
VPORT
  5
8
330
0
100
AcDbSymbolTable
 70
     1
  0
VPORT
  5
29
330
8
100
AcDbSymbolTableRecord
100
AcDbViewportTableRecord
  2
*ACTIVE
 70
     0
 10
0.0
 20
0.0
 11
1.0
 21
1.0
 12
0.0
 22
0.0
 13
0.0
 23
0.0
 14
0.5
 24
0.5
 15
0.5
 25
0.5
 16
0.0
 26
0.0
 36
1.0
 17
-27.73267414671267
 27
-62.51039630598698
 37
0.0
 40
296.9999592356459
 41
0.7070705664688927
 42
50.0
 43
0.0
 44
0.0
 50
0.0
 51
0.0
 71
     0
 72
   100
 73
     1
 74
     3
 75
     0
 76
     0
 77
     0
 78
     0
  0
ENDTAB
  0
TABLE
  2
LTYPE
  5
5
330
0
100
AcDbSymbolTable
 70
     2
  0
LTYPE
  5
14
330
5
100
AcDbSymbolTableRecord
100
AcDbLinetypeTableRecord
  2
BYBLOCK
 70
     0
  3

 72
    65
 73
     0
 40
0.0
  0
LTYPE
  5
15
330
5
100
AcDbSymbolTableRecord
100
AcDbLinetypeTableRecord
  2
BYLAYER
 70
     0
  3

 72
    65
 73
     0
 40
0.0
  0
LTYPE
  5
16
330
5
100
AcDbSymbolTableRecord
100
AcDbLinetypeTableRecord
  2
CONTINUOUS
 70
     0
  3
Solid line
 72
    65
 73
     0
 40
0.0
  0
LTYPE
  5
2CD
330
5
100
AcDbSymbolTableRecord
100
AcDbLinetypeTableRecord
  2
AI-LINETYPE-1
 70
     0
  3
Adobe Illustrator Linetype No. 1
 72
    65
 73
     4
 40
8.819444442239584
 49
7.055555553791667
 74
     0
 49
-0.7055555553791667
 74
     0
 49
0.3527777776895833
 74
     0
 49
-0.7055555553791667
 74
     0
  0
ENDTAB
  0
TABLE
  2
LAYER
  5
2
330
0
100
AcDbSymbolTable
 70
     6
  0
LAYER
  5
10
330
2
100
AcDbSymbolTableRecord
100
AcDbLayerTableRecord
  2
0
 70
     0
 62
     7
  6
CONTINUOUS
  0
LAYER
  5
3B
330
2
100
AcDbSymbolTableRecord
100
AcDbLayerTableRecord
  2
EBENE_5
 70
     5
 62
     7
  6
CONTINUOUS
  0
LAYER
  5
12F
330
2
100
AcDbSymbolTableRecord
100
AcDbLayerTableRecord
  2
GRAU_10_
 70
     1
 62
     7
  6
CONTINUOUS
  0
LAYER
  5
142
330
2
100
AcDbSymbolTableRecord
100
AcDbLayerTableRecord
  2
STANDARDEBENE
 70
     0
 62
     7
  6
CONTINUOUS
  0
LAYER
  5
2CE
330
2
100
AcDbSymbolTableRecord
100
AcDbLayerTableRecord
  2
BEMAßUNG
 70
     1
 62
     7
  6
CONTINUOUS
  0
LAYER
  5
6F3
330
2
100
AcDbSymbolTableRecord
100
AcDbLayerTableRecord
  2
TEXT
 70
     1
 62
     7
  6
CONTINUOUS
  0
ENDTAB
  0
TABLE
  2
STYLE
  5
3
330
0
100
AcDbSymbolTable
 70
     1
  0
STYLE
  5
11
330
3
100
AcDbSymbolTableRecord
100
AcDbTextStyleTableRecord
  2
STANDARD
 70
     0
 40
0.0
 41
1.0
 50
0.0
 71
     0
 42
0.2
  3
txt
  4

  0
ENDTAB
  0
TABLE
  2
VIEW
  5
6
330
0
100
AcDbSymbolTable
 70
     0
  0
ENDTAB
  0
TABLE
  2
UCS
  5
7
330
0
100
AcDbSymbolTable
 70
     0
  0
ENDTAB
  0
TABLE
  2
APPID
  5
9
330
0
100
AcDbSymbolTable
 70
     1
  0
APPID
  5
12
330
9
100
AcDbSymbolTableRecord
100
AcDbRegAppTableRecord
  2
ACAD
 70
     0
  0
ENDTAB
  0
TABLE
  2
DIMSTYLE
  5
A
330
0
100
AcDbSymbolTable
 70
     1
  0
DIMSTYLE
105
27
330
A
100
AcDbSymbolTableRecord
100
AcDbDimStyleTableRecord
  2
STANDARD
 70
     0
  3

  4

  5

  6

  7

 40
1.0
 41
0.18
 42
0.0625
 43
0.38
 44
0.18
 45
0.0
 46
0.0
 47
0.0
 48
0.0
140
0.18
141
0.09
142
0.0
143
25.4
144
1.0
145
0.0
146
1.0
147
0.09
 71
     0
 72
     0
 73
     1
 74
     1
 75
     0
 76
     0
 77
     0
 78
     0
170
     0
171
     2
172
     0
173
     0
174
     0
175
     0
176
     0
177
     0
178
     0
270
     2
271
     4
272
     4
273
     2
274
     2
340
11
275
     0
280
     0
281
     0
282
     0
283
     1
284
     0
285
     0
286
     0
287
     3
288
     0
  0
ENDTAB
  0
TABLE
  2
BLOCK_RECORD
  5
1
330
0
100
AcDbSymbolTable
 70
     1
  0
BLOCK_RECORD
  5
1F
330
1
100
AcDbSymbolTableRecord
100
AcDbBlockTableRecord
  2
*MODEL_SPACE
  0
BLOCK_RECORD
  5
1B
330
1
100
AcDbSymbolTableRecord
100
AcDbBlockTableRecord
  2
*PAPER_SPACE
  0
ENDTAB
  0
ENDSEC
  0
SECTION
  2
BLOCKS
  0
BLOCK
  5
20
330
1F
100
AcDbEntity
  8
0
100
AcDbBlockBegin
  2
*MODEL_SPACE
 70
     0
 71
     0
 10
0.0
 20
0.0
 30
0.0
  3
*MODEL_SPACE
  1

  0
ENDBLK
  5
21
330
1F
100
AcDbEntity
  8
0
100
AcDbBlockEnd
  0
BLOCK
  5
1C
330
1B
100
AcDbEntity
 67
     1
  8
0
100
AcDbBlockBegin
  2
*PAPER_SPACE
 70
     0
 71
     0
 10
0.0
 20
0.0
 30
0.0
  3
*PAPER_SPACE
  1

  0
ENDBLK
  5
1D
330
1B
100
AcDbEntity
 67
     1
  8
0
100
AcDbBlockEnd
  0
ENDSEC
  0
SECTION
  2
ENTITIES
  0
POLYLINE
  5
3C
330
1F
100
AcDbEntity
  8
EBENE_5
 62
     7
100
AcDb2dPolyline
 66
     1
 10
0.0
 20
0.0
 30
0.0
  0
VERTEX
  5
3D
330
3C
100
AcDbEntity
  8
EBENE_5
 62
     7
100
AcDbVertex
100
AcDb2dVertex
 10
-57.19513073656928
 20
-51.36826848759196
 30
0.0
  0
VERTEX
  5
3E
330
3C
100
AcDbEntity
  8
EBENE_5
 62
     7
100
AcDbVertex
100
AcDb2dVertex
 10
-7.195426430492811
 20
-51.36826848759196
 30
0.0
  0
SEQEND
  5
3F
330
3C
100
AcDbEntity
  8
EBENE_5
  0
POLYLINE
  5
40
330
1F
100
AcDbEntity
  8
EBENE_5
 62
     7
100
AcDb2dPolyline
 66
     1
 10
0.0
 20
0.0
 30
0.0
  0
VERTEX
  5
41
330
40
100
AcDbEntity
  8
EBENE_5
 62
     7
100
AcDbVertex
100
AcDb2dVertex
 10
-7.195426430492811
 20
-51.36826848759196
 30
0.0
  0
VERTEX
  5
42
330
40
100
AcDbEntity
  8
EBENE_5
 62
     7
100
AcDbVertex
100
AcDb2dVertex
 10
17.80459797731968
 20
-51.36826848759196
 30
0.0
  0
SEQEND
  5
43
330
40
100
AcDbEntity
  8
EBENE_5
  0
SPLINE
  5
44
330
1F
100
AcDbEntity
  8
EBENE_5
 62
     7
100
AcDbSpline
210
0.0
220
0.0
230
1.0
 70
    11
 71
     3
 72
    17
 73
    13
 74
     0
 42
0.0000000001
 43
0.0000000001
 40
0.0
 40
0.0
 40
0.0
 40
0.0
 40
1.0
 40
1.0
 40
1.0
 40
2.0
 40
2.0
 40
2.0
 40
3.0
 40
3.0
 40
3.0
 40
4.0
 40
4.0
 40
4.0
 40
4.0
 10
3.691419812445201
 20
-46.99316947609893
 30
0.0
 10
3.691419812445201
 20
-46.02647568293783
 30
0.0
 10
2.908005099099388
 20
-45.24306096959202
 30
0.0
 10
1.941311305938283
 20
-45.24306096959202
 30
0.0
 10
0.974962022325704
 20
-45.24306096959202
 30
0.0
 10
0.1915473089798909
 20
-46.02647568293783
 30
0.0
 10
0.1915473089798909
 20
-46.99316947609893
 30
0.0
 10
0.1915473089798909
 20
-47.95934650493725
 30
0.0
 10
0.974962022325704
 20
-48.74293347305733
 30
0.0
 10
1.941311305938283
 20
-48.74293347305733
 30
0.0
 10
2.908005099099388
 20
-48.74293347305733
 30
0.0
 10
3.691419812445201
 20
-47.95934650493725
 30
0.0
 10
3.691419812445201
 20
-46.99316947609893
 30
0.0
  0
POLYLINE
  5
45
330
1F
100
AcDbEntity
  8
EBENE_5
 62
     7
100
AcDb2dPolyline
 66
     1
 10
0.0
 20
0.0
 30
0.0
  0
VERTEX
  5
46
330
45
100
AcDbEntity
  8
EBENE_5
 62
     7
100
AcDbVertex
100
AcDb2dVertex
 10
0.4254692924283549
 20
-49.66656357265281
 30
0.0
  0
VERTEX
  5
47
330
45
100
AcDbEntity
  8
EBENE_5
 62
     7
100
AcDbVertex
100
AcDb2dVertex
 10
3.402031791684214
 20
-44.37489690730906
 30
0.0
  0
SEQEND
  5
48
330
45
100
AcDbEntity
  8
EBENE_5
  0
POLYLINE
  5
49
330
1F
100
AcDbEntity
  8
EBENE_5
 62
     7
100
AcDb2dPolyline
 66
     1
 10
0.0
 20
0.0
 30
0.0
  0
VERTEX
  5
4A
330
49
100
AcDbEntity
  8
EBENE_5
 62
     7
100
AcDbVertex
100
AcDb2dVertex
 10
-57.19513073656928
 20
-60.11829425580376
 30
0.0
  0
VERTEX
  5
4B
330
49
100
AcDbEntity
  8
EBENE_5
 62
     7
100
AcDbVertex
100
AcDb2dVertex
 10
-7.195426430492811
 20
-60.11829425580376
 30
0.0
  0
SEQEND
  5
4C
330
49
100
AcDbEntity
  8
EBENE_5
  0
POLYLINE
  5
4D
330
1F
100
AcDbEntity
  8
EBENE_5
 62
     7
100
AcDb2dPolyline
 66
     1
 10
0.0
 20
0.0
 30
0.0
  0
VERTEX
  5
4E
330
4D
100
AcDbEntity
  8
EBENE_5
 62
     7
100
AcDbVertex
100
AcDb2dVertex
 10
-7.195426430492811
 20
-60.11829425580376
 30
0.0
  0
VERTEX
  5
4F
330
4D
100
AcDbEntity
  8
EBENE_5
 62
     7
100
AcDbVertex
100
AcDb2dVertex
 10
17.80459797731968
 20
-60.11829425580376
 30
0.0
  0
SEQEND
  5
50
330
4D
100
AcDbEntity
  8
EBENE_5
  0
SPLINE
  5
51
330
1F
100
AcDbEntity
  8
EBENE_5
 62
     7
100
AcDbSpline
210
0.0
220
0.0
230
1.0
 70
    11
 71
     3
 72
    17
 73
    13
 74
     0
 42
0.0000000001
 43
0.0000000001
 40
0.0
 40
0.0
 40
0.0
 40
0.0
 40
1.0
 40
1.0
 40
1.0
 40
2.0
 40
2.0
 40
2.0
 40
3.0
 40
3.0
 40
3.0
 40
4.0
 40
4.0
 40
4.0
 40
4.0
 10
3.527433267347309
 20
-55.74319524431073
 30
0.0
 10
3.527433267347309
 20
-54.77650145114963
 30
0.0
 10
2.743674044452971
 20
-53.99291448302955
 30
0.0
 10
1.777324760840391
 20
-53.99291448302955
 30
0.0
 10
0.8106309676792868
 20
-53.99291448302955
 30
0.0
 10
0.0272162543334737
 20
-54.77650145114963
 30
0.0
 10
0.0272162543334737
 20
-55.74319524431073
 30
0.0
 10
0.0272162543334737
 20
-56.70937227314905
 30
0.0
 10
0.8106309676792868
 20
-57.49295924126913
 30
0.0
 10
1.777324760840391
 20
-57.49295924126913
 30
0.0
 10
2.743674044452971
 20
-57.49295924126913
 30
0.0
 10
3.527433267347309
 20
-56.70937227314905
 30
0.0
 10
3.527433267347309
 20
-55.74319524431073
 30
0.0
  0
POLYLINE
  5
52
330
1F
100
AcDbEntity
  8
EBENE_5
 62
     7
100
AcDb2dPolyline
 66
     1
 10
0.0
 20
0.0
 30
0.0
  0
VERTEX
  5
53
330
52
100
AcDbEntity
  8
EBENE_5
 62
     7
100
AcDbVertex
100
AcDb2dVertex
 10
0.2614827473304627
 20
-58.41607257654181
 30
0.0
  0
VERTEX
  5
54
330
52
100
AcDbEntity
  8
EBENE_5
 62
     7
100
AcDbVertex
100
AcDb2dVertex
 10
3.237700737037797
 20
-53.12475042074659
 30
0.0
  0
SEQEND
  5
55
330
52
100
AcDbEntity
  8
EBENE_5
  0
POLYLINE
  5
56
330
1F
100
AcDbEntity
  8
EBENE_5
 62
     7
100
AcDb2dPolyline
 66
     1
 10
0.0
 20
0.0
 30
0.0
  0
VERTEX
  5
57
330
56
100
AcDbEntity
  8
EBENE_5
 62
     7
100
AcDbVertex
100
AcDb2dVertex
 10
-57.19513073656928
 20
-68.8681477692413
 30
0.0
  0
VERTEX
  5
58
330
56
100
AcDbEntity
  8
EBENE_5
 62
     7
100
AcDbVertex
100
AcDb2dVertex
 10
-7.195426430492811
 20
-68.8681477692413
 30
0.0
  0
SEQEND
  5
59
330
56
100
AcDbEntity
  8
EBENE_5
  0
POLYLINE
  5
5A
330
1F
100
AcDbEntity
  8
EBENE_5
 62
     7
100
AcDb2dPolyline
 66
     1
 10
0.0
 20
0.0
 30
0.0
  0
VERTEX
  5
5B
330
5A
100
AcDbEntity
  8
EBENE_5
 62
     7
100
AcDbVertex
100
AcDb2dVertex
 10
-7.195426430492811
 20
-68.8681477692413
 30
0.0
  0
VERTEX
  5
5C
330
5A
100
AcDbEntity
  8
EBENE_5
 62
     7
100
AcDbVertex
100
AcDb2dVertex
 10
17.80459797731968
 20
-68.8681477692413
 30
0.0
  0
SEQEND
  5
5D
330
5A
100
AcDbEntity
  8
EBENE_5
  0
SPLINE
  5
5E
330
1F
100
AcDbEntity
  8
EBENE_5
 62
     7
100
AcDbSpline
210
0.0
220
0.0
230
1.0
 70
    11
 71
     3
 72
    17
 73
    13
 74
     0
 42
0.0000000001
 43
0.0000000001
 40
0.0
 40
0.0
 40
0.0
 40
0.0
 40
1.0
 40
1.0
 40
1.0
 40
2.0
 40
2.0
 40
2.0
 40
3.0
 40
3.0
 40
3.0
 40
4.0
 40
4.0
 40
4.0
 40
4.0
 10
3.691419812445201
 20
-64.492876502974
 30
0.0
 10
3.691419812445201
 20
-63.52652721936143
 30
0.0
 10
2.908005099099388
 20
-62.74294025124135
 30
0.0
 10
1.941311305938283
 20
-62.74294025124135
 30
0.0
 10
0.974962022325704
 20
-62.74294025124135
 30
0.0
 10
0.1915473089798909
 20
-63.52652721936143
 30
0.0
 10
0.1915473089798909
 20
-64.492876502974
 30
0.0
 10
0.1915473089798909
 20
-65.45957029613511
 30
0.0
 10
0.974962022325704
 20
-66.24298500948092
 30
0.0
 10
1.941311305938283
 20
-66.24298500948092
 30
0.0
 10
2.908005099099388
 20
-66.24298500948092
 30
0.0
 10
3.691419812445201
 20
-65.45957029613511
 30
0.0
 10
3.691419812445201
 20
-64.492876502974
 30
0.0
  0
POLYLINE
  5
5F
330
1F
100
AcDbEntity
  8
EBENE_5
 62
     7
100
AcDb2dPolyline
 66
     1
 10
0.0
 20
0.0
 30
0.0
  0
VERTEX
  5
60
330
5F
100
AcDbEntity
  8
EBENE_5
 62
     7
100
AcDbVertex
100
AcDb2dVertex
 10
0.4254692924283549
 20
-67.16627059952788
 30
0.0
  0
VERTEX
  5
61
330
5F
100
AcDbEntity
  8
EBENE_5
 62
     7
100
AcDbVertex
100
AcDb2dVertex
 10
3.402031791684214
 20
-61.87477618895839
 30
0.0
  0
SEQEND
  5
62
330
5F
100
AcDbEntity
  8
EBENE_5
  0
POLYLINE
  5
63
330
1F
100
AcDbEntity
  8
EBENE_5
 62
     7
100
AcDb2dPolyline
 66
     1
 10
0.0
 20
0.0
 30
0.0
  0
VERTEX
  5
64
330
63
100
AcDbEntity
  8
EBENE_5
 62
     7
100
AcDbVertex
100
AcDb2dVertex
 10
-57.19513073656928
 20
-77.61800128267883
 30
0.0
  0
VERTEX
  5
65
330
63
100
AcDbEntity
  8
EBENE_5
 62
     7
100
AcDbVertex
100
AcDb2dVertex
 10
-7.195426430492811
 20
-77.61800128267883
 30
0.0
  0
SEQEND
  5
66
330
63
100
AcDbEntity
  8
EBENE_5
  0
POLYLINE
  5
67
330
1F
100
AcDbEntity
  8
EBENE_5
 62
     7
100
AcDb2dPolyline
 66
     1
 10
0.0
 20
0.0
 30
0.0
  0
VERTEX
  5
68
330
67
100
AcDbEntity
  8
EBENE_5
 62
     7
100
AcDbVertex
100
AcDb2dVertex
 10
-7.195426430492811
 20
-77.61800128267883
 30
0.0
  0
VERTEX
  5
69
330
67
100
AcDbEntity
  8
EBENE_5
 62
     7
100
AcDbVertex
100
AcDb2dVertex
 10
17.80459797731968
 20
-77.61800128267883
 30
0.0
  0
SEQEND
  5
6A
330
67
100
AcDbEntity
  8
EBENE_5
  0
SPLINE
  5
6B
330
1F
100
AcDbEntity
  8
EBENE_5
 62
     7
100
AcDbSpline
210
0.0
220
0.0
230
1.0
 70
    11
 71
     3
 72
    17
 73
    13
 74
     0
 42
0.0000000001
 43
0.0000000001
 40
0.0
 40
0.0
 40
0.0
 40
0.0
 40
1.0
 40
1.0
 40
1.0
 40
2.0
 40
2.0
 40
2.0
 40
3.0
 40
3.0
 40
3.0
 40
4.0
 40
4.0
 40
4.0
 40
4.0
 10
3.691419812445201
 20
-73.24307452596007
 30
0.0
 10
3.691419812445201
 20
-72.27638073279897
 30
0.0
 10
2.908005099099388
 20
-71.49296601945315
 30
0.0
 10
1.941311305938283
 20
-71.49296601945315
 30
0.0
 10
0.974962022325704
 20
-71.49296601945315
 30
0.0
 10
0.1915473089798909
 20
-72.27638073279897
 30
0.0
 10
0.1915473089798909
 20
-73.24307452596007
 30
0.0
 10
0.1915473089798909
 20
-74.20942380957264
 30
0.0
 10
0.974962022325704
 20
-74.99283852291846
 30
0.0
 10
1.941311305938283
 20
-74.99283852291846
 30
0.0
 10
2.908005099099388
 20
-74.99283852291846
 30
0.0
 10
3.691419812445201
 20
-74.20942380957264
 30
0.0
 10
3.691419812445201
 20
-73.24307452596007
 30
0.0
  0
POLYLINE
  5
6C
330
1F
100
AcDbEntity
  8
EBENE_5
 62
     7
100
AcDb2dPolyline
 66
     1
 10
0.0
 20
0.0
 30
0.0
  0
VERTEX
  5
6D
330
6C
100
AcDbEntity
  8
EBENE_5
 62
     7
100
AcDbVertex
100
AcDb2dVertex
 10
0.4254692924283549
 20
-75.9157796034169
 30
0.0
  0
VERTEX
  5
6E
330
6C
100
AcDbEntity
  8
EBENE_5
 62
     7
100
AcDbVertex
100
AcDb2dVertex
 10
3.402031791684214
 20
-70.62514646671872
 30
0.0
  0
SEQEND
  5
6F
330
6C
100
AcDbEntity
  8
EBENE_5
  0
POLYLINE
  5
70
330
1F
100
AcDbEntity
  8
EBENE_5
 62
     7
100
AcDb2dPolyline
 66
     1
 10
0.0
 20
0.0
 30
0.0
  0
VERTEX
  5
71
330
70
100
AcDbEntity
  8
EBENE_5
 62
     7
100
AcDbVertex
100
AcDb2dVertex
 10
-57.19513073656928
 20
-86.3681993056649
 30
0.0
  0
VERTEX
  5
72
330
70
100
AcDbEntity
  8
EBENE_5
 62
     7
100
AcDbVertex
100
AcDb2dVertex
 10
-7.195426430492811
 20
-86.3681993056649
 30
0.0
  0
SEQEND
  5
73
330
70
100
AcDbEntity
  8
EBENE_5
  0
POLYLINE
  5
74
330
1F
100
AcDbEntity
  8
EBENE_5
 62
     7
100
AcDb2dPolyline
 66
     1
 10
0.0
 20
0.0
 30
0.0
  0
VERTEX
  5
75
330
74
100
AcDbEntity
  8
EBENE_5
 62
     7
100
AcDbVertex
100
AcDb2dVertex
 10
-7.195426430492811
 20
-86.3681993056649
 30
0.0
  0
VERTEX
  5
76
330
74
100
AcDbEntity
  8
EBENE_5
 62
     7
100
AcDbVertex
100
AcDb2dVertex
 10
17.80459797731968
 20
-86.3681993056649
 30
0.0
  0
SEQEND
  5
77
330
74
100
AcDbEntity
  8
EBENE_5
  0
SPLINE
  5
78
330
1F
100
AcDbEntity
  8
EBENE_5
 62
     7
100
AcDbSpline
210
0.0
220
0.0
230
1.0
 70
    11
 71
     3
 72
    17
 73
    13
 74
     0
 42
0.0000000001
 43
0.0000000001
 40
0.0
 40
0.0
 40
0.0
 40
0.0
 40
1.0
 40
1.0
 40
1.0
 40
2.0
 40
2.0
 40
2.0
 40
3.0
 40
3.0
 40
3.0
 40
4.0
 40
4.0
 40
4.0
 40
4.0
 10
3.691419812445201
 20
-81.99292803939761
 30
0.0
 10
3.691419812445201
 20
-81.02657875578502
 30
0.0
 10
2.908005099099388
 20
-80.24281953289069
 30
0.0
 10
1.941311305938283
 20
-80.24281953289069
 30
0.0
 10
0.974962022325704
 20
-80.24281953289069
 30
0.0
 10
0.1915473089798909
 20
-81.02657875578502
 30
0.0
 10
0.1915473089798909
 20
-81.99292803939761
 30
0.0
 10
0.1915473089798909
 20
-82.95962183255871
 30
0.0
 10
0.974962022325704
 20
-83.742692036356
 30
0.0
 10
1.941311305938283
 20
-83.742692036356
 30
0.0
 10
2.908005099099388
 20
-83.742692036356
 30
0.0
 10
3.691419812445201
 20
-82.95962183255871
 30
0.0
 10
3.691419812445201
 20
-81.99292803939761
 30
0.0
  0
POLYLINE
  5
79
330
1F
100
AcDbEntity
  8
EBENE_5
 62
     7
100
AcDb2dPolyline
 66
     1
 10
0.0
 20
0.0
 30
0.0
  0
VERTEX
  5
7A
330
79
100
AcDbEntity
  8
EBENE_5
 62
     7
100
AcDbVertex
100
AcDb2dVertex
 10
0.4254692924283549
 20
-84.66597762640295
 30
0.0
  0
VERTEX
  5
7B
330
79
100
AcDbEntity
  8
EBENE_5
 62
     7
100
AcDbVertex
100
AcDb2dVertex
 10
3.402031791684214
 20
-79.37499998015625
 30
0.0
  0
SEQEND
  5
7C
330
79
100
AcDbEntity
  8
EBENE_5
  0
POLYLINE
  5
7D
330
1F
100
AcDbEntity
  8
EBENE_5
 62
     7
100
AcDb2dPolyline
 66
     1
 10
0.0
 20
0.0
 30
0.0
  0
VERTEX
  5
7E
330
7D
100
AcDbEntity
  8
EBENE_5
 62
     7
100
AcDbVertex
100
AcDb2dVertex
 10
-57.19513073656928
 20
-95.1177083095539
 30
0.0
  0
VERTEX
  5
7F
330
7D
100
AcDbEntity
  8
EBENE_5
 62
     7
100
AcDbVertex
100
AcDb2dVertex
 10
-7.195426430492811
 20
-95.1177083095539
 30
0.0
  0
SEQEND
  5
80
330
7D
100
AcDbEntity
  8
EBENE_5
  0
POLYLINE
  5
81
330
1F
100
AcDbEntity
  8
EBENE_5
 62
     7
100
AcDb2dPolyline
 66
     1
 10
0.0
 20
0.0
 30
0.0
  0
VERTEX
  5
82
330
81
100
AcDbEntity
  8
EBENE_5
 62
     7
100
AcDbVertex
100
AcDb2dVertex
 10
-7.195426430492811
 20
-95.1177083095539
 30
0.0
  0
VERTEX
  5
83
330
81
100
AcDbEntity
  8
EBENE_5
 62
     7
100
AcDbVertex
100
AcDb2dVertex
 10
17.80459797731968
 20
-95.1177083095539
 30
0.0
  0
SEQEND
  5
84
330
81
100
AcDbEntity
  8
EBENE_5
  0
SPLINE
  5
85
330
1F
100
AcDbEntity
  8
EBENE_5
 62
     7
100
AcDbSpline
210
0.0
220
0.0
230
1.0
 70
    11
 71
     3
 72
    17
 73
    13
 74
     0
 42
0.0000000001
 43
0.0000000001
 40
0.0
 40
0.0
 40
0.0
 40
0.0
 40
1.0
 40
1.0
 40
1.0
 40
2.0
 40
2.0
 40
2.0
 40
3.0
 40
3.0
 40
3.0
 40
4.0
 40
4.0
 40
4.0
 40
4.0
 10
2.925575086074162
 20
-90.74278155283514
 30
0.0
 10
2.925575086074162
 20
-89.77643226922257
 30
0.0
 10
2.142160372728349
 20
-88.99301755587675
 30
0.0
 10
1.175466579567245
 20
-88.99301755587675
 30
0.0
 10
0.2087727864061401
 20
-88.99301755587675
 30
0.0
 10
-0.5746419269396729
 20
-89.77643226922257
 30
0.0
 10
-0.5746419269396729
 20
-90.74278155283514
 30
0.0
 10
-0.5746419269396729
 20
-91.70947534599625
 30
0.0
 10
0.2087727864061401
 20
-92.49323456889059
 30
0.0
 10
1.175466579567245
 20
-92.49323456889059
 30
0.0
 10
2.142160372728349
 20
-92.49323456889059
 30
0.0
 10
2.925575086074162
 20
-91.70947534599625
 30
0.0
 10
2.925575086074162
 20
-90.74278155283514
 30
0.0
  0
POLYLINE
  5
86
330
1F
100
AcDbEntity
  8
EBENE_5
 62
     7
100
AcDb2dPolyline
 66
     1
 10
0.0
 20
0.0
 30
0.0
  0
VERTEX
  5
87
330
86
100
AcDbEntity
  8
EBENE_5
 62
     7
100
AcDbVertex
100
AcDb2dVertex
 10
-0.3403754339426839
 20
-93.41652015893754
 30
0.0
  0
VERTEX
  5
88
330
86
100
AcDbEntity
  8
EBENE_5
 62
     7
100
AcDbVertex
100
AcDb2dVertex
 10
2.636187065313175
 20
-88.12485349359379
 30
0.0
  0
SEQEND
  5
89
330
86
100
AcDbEntity
  8
EBENE_5
  0
POLYLINE
  5
8A
330
1F
100
AcDbEntity
  8
EBENE_5
 62
     7
100
AcDb2dPolyline
 66
     1
 10
0.0
 20
0.0
 30
0.0
  0
VERTEX
  5
8B
330
8A
100
AcDbEntity
  8
EBENE_5
 62
     7
100
AcDbVertex
100
AcDb2dVertex
 10
-57.19513073656928
 20
-103.8682508420885
 30
0.0
  0
VERTEX
  5
8C
330
8A
100
AcDbEntity
  8
EBENE_5
 62
     7
100
AcDbVertex
100
AcDb2dVertex
 10
-7.195426430492811
 20
-103.8682508420885
 30
0.0
  0
SEQEND
  5
8D
330
8A
100
AcDbEntity
  8
EBENE_5
  0
POLYLINE
  5
8E
330
1F
100
AcDbEntity
  8
EBENE_5
 62
     7
100
AcDb2dPolyline
 66
     1
 10
0.0
 20
0.0
 30
0.0
  0
VERTEX
  5
8F
330
8E
100
AcDbEntity
  8
EBENE_5
 62
     7
100
AcDbVertex
100
AcDb2dVertex
 10
-7.195426430492811
 20
-103.8682508420885
 30
0.0
  0
VERTEX
  5
90
330
8E
100
AcDbEntity
  8
EBENE_5
 62
     7
100
AcDbVertex
100
AcDb2dVertex
 10
17.80459797731968
 20
-103.8682508420885
 30
0.0
  0
SEQEND
  5
91
330
8E
100
AcDbEntity
  8
EBENE_5
  0
SPLINE
  5
92
330
1F
100
AcDbEntity
  8
EBENE_5
 62
     7
100
AcDbSpline
210
0.0
220
0.0
230
1.0
 70
    11
 71
     3
 72
    17
 73
    13
 74
     0
 42
0.0000000001
 43
0.0000000001
 40
0.0
 40
0.0
 40
0.0
 40
0.0
 40
1.0
 40
1.0
 40
1.0
 40
2.0
 40
2.0
 40
2.0
 40
3.0
 40
3.0
 40
3.0
 40
4.0
 40
4.0
 40
4.0
 40
4.0
 10
2.925575086074162
 20
-99.49297957582121
 30
0.0
 10
2.925575086074162
 20
-98.5262857826601
 30
0.0
 10
2.142160372728349
 20
-97.74252655976576
 30
0.0
 10
1.175466579567245
 20
-97.74252655976576
 30
0.0
 10
0.2087727864061401
 20
-97.74252655976576
 30
0.0
 10
-0.5746419269396729
 20
-98.5262857826601
 30
0.0
 10
-0.5746419269396729
 20
-99.49297957582121
 30
0.0
 10
-0.5746419269396729
 20
-100.4596733689823
 30
0.0
 10
0.2087727864061401
 20
-101.2430880823281
 30
0.0
 10
1.175466579567245
 20
-101.2430880823281
 30
0.0
 10
2.142160372728349
 20
-101.2430880823281
 30
0.0
 10
2.925575086074162
 20
-100.4596733689823
 30
0.0
 10
2.925575086074162
 20
-99.49297957582121
 30
0.0
  0
POLYLINE
  5
93
330
1F
100
AcDbEntity
  8
EBENE_5
 62
     7
100
AcDb2dPolyline
 66
     1
 10
0.0
 20
0.0
 30
0.0
  0
VERTEX
  5
94
330
93
100
AcDbEntity
  8
EBENE_5
 62
     7
100
AcDbVertex
100
AcDb2dVertex
 10
-0.3403754339426839
 20
-102.1667181819236
 30
0.0
  0
VERTEX
  5
95
330
93
100
AcDbEntity
  8
EBENE_5
 62
     7
100
AcDbVertex
100
AcDb2dVertex
 10
2.636187065313175
 20
-96.87505151657986
 30
0.0
  0
SEQEND
  5
96
330
93
100
AcDbEntity
  8
EBENE_5
  0
POLYLINE
  5
97
330
1F
100
AcDbEntity
  8
EBENE_5
 62
     7
100
AcDb2dPolyline
 66
     1
 10
0.0
 20
0.0
 30
0.0
  0
VERTEX
  5
98
330
97
100
AcDbEntity
  8
EBENE_5
 62
     7
100
AcDbVertex
100
AcDb2dVertex
 10
-57.19513073656928
 20
-112.6177598459775
 30
0.0
  0
VERTEX
  5
99
330
97
100
AcDbEntity
  8
EBENE_5
 62
     7
100
AcDbVertex
100
AcDb2dVertex
 10
-7.195426430492811
 20
-112.6177598459775
 30
0.0
  0
SEQEND
  5
9A
330
97
100
AcDbEntity
  8
EBENE_5
  0
POLYLINE
  5
9B
330
1F
100
AcDbEntity
  8
EBENE_5
 62
     7
100
AcDb2dPolyline
 66
     1
 10
0.0
 20
0.0
 30
0.0
  0
VERTEX
  5
9C
330
9B
100
AcDbEntity
  8
EBENE_5
 62
     7
100
AcDbVertex
100
AcDb2dVertex
 10
-7.195426430492811
 20
-112.6177598459775
 30
0.0
  0
VERTEX
  5
9D
330
9B
100
AcDbEntity
  8
EBENE_5
 62
     7
100
AcDbVertex
100
AcDb2dVertex
 10
17.80459797731968
 20
-112.6177598459775
 30
0.0
  0
SEQEND
  5
9E
330
9B
100
AcDbEntity
  8
EBENE_5
  0
SPLINE
  5
9F
330
1F
100
AcDbEntity
  8
EBENE_5
 62
     7
100
AcDbSpline
210
0.0
220
0.0
230
1.0
 70
    11
 71
     3
 72
    17
 73
    13
 74
     0
 42
0.0000000001
 43
0.0000000001
 40
0.0
 40
0.0
 40
0.0
 40
0.0
 40
1.0
 40
1.0
 40
1.0
 40
2.0
 40
2.0
 40
2.0
 40
3.0
 40
3.0
 40
3.0
 40
4.0
 40
4.0
 40
4.0
 40
4.0
 10
2.76158854097627
 20
-108.2428330892587
 30
0.0
 10
2.76158854097627
 20
-107.2768283151947
 30
0.0
 10
1.977829318081932
 20
-106.4934136018489
 30
0.0
 10
1.011824544017877
 20
-106.4934136018489
 30
0.0
 10
0.0451307508567729
 20
-106.4934136018489
 30
0.0
 10
-0.7382839624890402
 20
-107.2768283151947
 30
0.0
 10
-0.7382839624890402
 20
-108.2428330892587
 30
0.0
 10
-0.7382839624890402
 20
-109.2091823728713
 30
0.0
 10
0.0451307508567729
 20
-109.9929415957657
 30
0.0
 10
1.011824544017877
 20
-109.9929415957657
 30
0.0
 10
1.977829318081932
 20
-109.9929415957657
 30
0.0
 10
2.76158854097627
 20
-109.2091823728713
 30
0.0
 10
2.76158854097627
 20
-108.2428330892587
 30
0.0
  0
POLYLINE
  5
A0
330
1F
100
AcDbEntity
  8
EBENE_5
 62
     7
100
AcDb2dPolyline
 66
     1
 10
0.0
 20
0.0
 30
0.0
  0
VERTEX
  5
A1
330
A0
100
AcDbEntity
  8
EBENE_5
 62
     7
100
AcDbVertex
100
AcDb2dVertex
 10
-0.5040174694920512
 20
-110.9165716953611
 30
0.0
  0
VERTEX
  5
A2
330
A0
100
AcDbEntity
  8
EBENE_5
 62
     7
100
AcDbVertex
100
AcDb2dVertex
 10
2.472200520215283
 20
-105.6249050300174
 30
0.0
  0
SEQEND
  5
A3
330
A0
100
AcDbEntity
  8
EBENE_5
  0
SPLINE
  5
A4
330
1F
100
AcDbEntity
  8
EBENE_5
 62
     7
100
AcDbSpline
210
0.0
220
0.0
230
1.0
 70
    11
 71
     3
 72
    17
 73
    13
 74
     0
 42
0.0000000001
 43
0.0000000001
 40
0.0
 40
0.0
 40
0.0
 40
0.0
 40
1.0
 40
1.0
 40
1.0
 40
2.0
 40
2.0
 40
2.0
 40
3.0
 40
3.0
 40
3.0
 40
4.0
 40
4.0
 40
4.0
 40
4.0
 10
2.925575086074162
 20
-116.9930311122448
 30
0.0
 10
2.925575086074162
 20
-116.0266818286322
 30
0.0
 10
2.142160372728349
 20
-115.2432671152864
 30
0.0
 10
1.175466579567245
 20
-115.2432671152864
 30
0.0
 10
0.2087727864061401
 20
-115.2432671152864
 30
0.0
 10
-0.5746419269396729
 20
-116.0266818286322
 30
0.0
 10
-0.5746419269396729
 20
-116.9930311122448
 30
0.0
 10
-0.5746419269396729
 20
-117.9593803958574
 30
0.0
 10
0.2087727864061401
 20
-118.7427951092032
 30
0.0
 10
1.175466579567245
 20
-118.7427951092032
 30
0.0
 10
2.142160372728349
 20
-118.7427951092032
 30
0.0
 10
2.925575086074162
 20
-117.9593803958574
 30
0.0
 10
2.925575086074162
 20
-116.9930311122448
 30
0.0
  0
POLYLINE
  5
A5
330
1F
100
AcDbEntity
  8
EBENE_5
 62
     7
100
AcDb2dPolyline
 66
     1
 10
0.0
 20
0.0
 30
0.0
  0
VERTEX
  5
A6
330
A5
100
AcDbEntity
  8
EBENE_5
 62
     7
100
AcDbVertex
100
AcDb2dVertex
 10
-0.3403754339426839
 20
-119.6664252087987
 30
0.0
  0
VERTEX
  5
A7
330
A5
100
AcDbEntity
  8
EBENE_5
 62
     7
100
AcDbVertex
100
AcDb2dVertex
 10
2.636187065313175
 20
-114.3747585434549
 30
0.0
  0
SEQEND
  5
A8
330
A5
100
AcDbEntity
  8
EBENE_5
  0
POLYLINE
  5
A9
330
1F
100
AcDbEntity
  8
EBENE_5
 62
   112
100
AcDb2dPolyline
 66
     1
 10
0.0
 20
0.0
 30
0.0
  0
VERTEX
  5
AA
330
A9
100
AcDbEntity
  8
EBENE_5
 62
   112
100
AcDbVertex
100
AcDb2dVertex
 10
-57.19513073656928
 20
-35.61780869335249
 30
0.0
  0
VERTEX
  5
AB
330
A9
100
AcDbEntity
  8
EBENE_5
 62
   112
100
AcDbVertex
100
AcDb2dVertex
 10
-57.19513073656928
 20
-42.61841497415443
 30
0.0
  0
VERTEX
  5
AC
330
A9
100
AcDbEntity
  8
EBENE_5
 62
   112
100
AcDbVertex
100
AcDb2dVertex
 10
-57.19513073656928
 20
-51.36826848759196
 30
0.0
  0
VERTEX
  5
AD
330
A9
100
AcDbEntity
  8
EBENE_5
 62
   112
100
AcDbVertex
100
AcDb2dVertex
 10
-57.19513073656928
 20
-60.11829425580376
 30
0.0
  0
VERTEX
  5
AE
330
A9
100
AcDbEntity
  8
EBENE_5
 62
   112
100
AcDbVertex
100
AcDb2dVertex
 10
-57.19513073656928
 20
-68.8681477692413
 30
0.0
  0
VERTEX
  5
AF
330
A9
100
AcDbEntity
  8
EBENE_5
 62
   112
100
AcDbVertex
100
AcDb2dVertex
 10
-57.19513073656928
 20
-77.61800128267883
 30
0.0
  0
VERTEX
  5
B0
330
A9
100
AcDbEntity
  8
EBENE_5
 62
   112
100
AcDbVertex
100
AcDb2dVertex
 10
-57.19513073656928
 20
-86.3681993056649
 30
0.0
  0
VERTEX
  5
B1
330
A9
100
AcDbEntity
  8
EBENE_5
 62
   112
100
AcDbVertex
100
AcDb2dVertex
 10
-57.19513073656928
 20
-95.1177083095539
 30
0.0
  0
VERTEX
  5
B2
330
A9
100
AcDbEntity
  8
EBENE_5
 62
   112
100
AcDbVertex
100
AcDb2dVertex
 10
-57.19513073656928
 20
-103.8682508420885
 30
0.0
  0
VERTEX
  5
B3
330
A9
100
AcDbEntity
  8
EBENE_5
 62
   112
100
AcDbVertex
100
AcDb2dVertex
 10
-57.19513073656928
 20
-112.6177598459775
 30
0.0
  0
VERTEX
  5
B4
330
A9
100
AcDbEntity
  8
EBENE_5
 62
   112
100
AcDbVertex
100
AcDb2dVertex
 10
-57.19513073656928
 20
-121.3679578689636
 30
0.0
  0
SEQEND
  5
B5
330
A9
100
AcDbEntity
  8
EBENE_5
  0
POLYLINE
  5
B6
330
1F
100
AcDbEntity
  8
EBENE_5
 62
   112
100
AcDb2dPolyline
 66
     1
 10
0.0
 20
0.0
 30
0.0
  0
VERTEX
  5
B7
330
B6
100
AcDbEntity
  8
EBENE_5
 62
   112
100
AcDbVertex
100
AcDb2dVertex
 10
-57.19513073656928
 20
-35.61780869335249
 30
0.0
  0
VERTEX
  5
B8
330
B6
100
AcDbEntity
  8
EBENE_5
 62
   112
100
AcDbVertex
100
AcDb2dVertex
 10
-7.195426430492811
 20
-35.61780869335249
 30
0.0
  0
VERTEX
  5
B9
330
B6
100
AcDbEntity
  8
EBENE_5
 62
   112
100
AcDbVertex
100
AcDb2dVertex
 10
17.80459797731968
 20
-35.61780869335249
 30
0.0
  0
SEQEND
  5
BA
330
B6
100
AcDbEntity
  8
EBENE_5
  0
POLYLINE
  5
BB
330
1F
100
AcDbEntity
  8
EBENE_5
 62
   112
100
AcDb2dPolyline
 66
     1
 10
0.0
 20
0.0
 30
0.0
  0
VERTEX
  5
BC
330
BB
100
AcDbEntity
  8
EBENE_5
 62
   112
100
AcDbVertex
100
AcDb2dVertex
 10
-57.19513073656928
 20
-42.61841497415443
 30
0.0
  0
VERTEX
  5
BD
330
BB
100
AcDbEntity
  8
EBENE_5
 62
   112
100
AcDbVertex
100
AcDb2dVertex
 10
-7.195426430492811
 20
-42.61841497415443
 30
0.0
  0
SEQEND
  5
BE
330
BB
100
AcDbEntity
  8
EBENE_5
  0
POLYLINE
  5
BF
330
1F
100
AcDbEntity
  8
EBENE_5
 62
   112
100
AcDb2dPolyline
 66
     1
 10
0.0
 20
0.0
 30
0.0
  0
VERTEX
  5
C0
330
BF
100
AcDbEntity
  8
EBENE_5
 62
   112
100
AcDbVertex
100
AcDb2dVertex
 10
-7.195426430492811
 20
-35.61780869335249
 30
0.0
  0
VERTEX
  5
C1
330
BF
100
AcDbEntity
  8
EBENE_5
 62
   112
100
AcDbVertex
100
AcDb2dVertex
 10
-7.195426430492811
 20
-42.61841497415443
 30
0.0
  0
SEQEND
  5
C2
330
BF
100
AcDbEntity
  8
EBENE_5
  0
MTEXT
  5
C3
330
1F
100
AcDbEntity
  8
EBENE_5
 62
   112
100
AcDbMText
 10
-45.12868379948172
 20
-41.03263752229392
 30
0.0
 40
3.311186440487749
 41
0.0
 71
     7
 72
     1
  1
\fArial|b0|i0|c0|p34;\W0.8;Artikelnummer
  0
POLYLINE
  5
C4
330
1F
100
AcDbEntity
  8
EBENE_5
 62
   112
100
AcDb2dPolyline
 66
     1
 10
0.0
 20
0.0
 30
0.0
  0
VERTEX
  5
C5
330
C4
100
AcDbEntity
  8
EBENE_5
 62
   112
100
AcDbVertex
100
AcDb2dVertex
 10
-7.195426430492811
 20
-42.61841497415443
 30
0.0
  0
VERTEX
  5
C6
330
C4
100
AcDbEntity
  8
EBENE_5
 62
   112
100
AcDbVertex
100
AcDb2dVertex
 10
17.80459797731968
 20
-42.61841497415443
 30
0.0
  0
SEQEND
  5
C7
330
C4
100
AcDbEntity
  8
EBENE_5
  0
POLYLINE
  5
C8
330
1F
100
AcDbEntity
  8
EBENE_5
 62
   112
100
AcDb2dPolyline
 66
     1
 10
0.0
 20
0.0
 30
0.0
  0
VERTEX
  5
C9
330
C8
100
AcDbEntity
  8
EBENE_5
 62
   112
100
AcDbVertex
100
AcDb2dVertex
 10
17.80459797731968
 20
-35.61780869335249
 30
0.0
  0
VERTEX
  5
CA
330
C8
100
AcDbEntity
  8
EBENE_5
 62
   112
100
AcDbVertex
100
AcDb2dVertex
 10
17.80459797731968
 20
-42.61841497415443
 30
0.0
  0
SEQEND
  5
CB
330
C8
100
AcDbEntity
  8
EBENE_5
  0
MTEXT
  5
CC
330
1F
100
AcDbEntity
  8
EBENE_5
 62
   112
100
AcDbMText
 10
4.566129556150134
 20
-41.03263752229392
 30
0.0
 40
3.311186440487749
 41
0.0
 71
     7
 72
     1
  1
\fArial|b0|i0|c0|p34;\W0.8;D
  0
POLYLINE
  5
CD
330
1F
100
AcDbEntity
  8
EBENE_5
 62
   112
100
AcDb2dPolyline
 66
     1
 10
0.0
 20
0.0
 30
0.0
  0
VERTEX
  5
CE
330
CD
100
AcDbEntity
  8
EBENE_5
 62
   112
100
AcDbVertex
100
AcDb2dVertex
 10
-7.195426430492811
 20
-42.61841497415443
 30
0.0
  0
VERTEX
  5
CF
330
CD
100
AcDbEntity
  8
EBENE_5
 62
   112
100
AcDbVertex
100
AcDb2dVertex
 10
-7.195426430492811
 20
-51.36826848759196
 30
0.0
  0
SEQEND
  5
D0
330
CD
100
AcDbEntity
  8
EBENE_5
  0
MTEXT
  5
D1
330
1F
100
AcDbEntity
  8
EBENE_5
 62
   112
100
AcDbMText
 10
-43.51551783851348
 20
-48.90726452770374
 30
0.0
 40
3.311186440487749
 41
0.0
 71
     7
 72
     1
  1
\fArial|b0|i0|c0|p34;\W0.8;W68511.0403
  0
POLYLINE
  5
D2
330
1F
100
AcDbEntity
  8
EBENE_5
 62
   112
100
AcDb2dPolyline
 66
     1
 10
0.0
 20
0.0
 30
0.0
  0
VERTEX
  5
D3
330
D2
100
AcDbEntity
  8
EBENE_5
 62
   112
100
AcDbVertex
100
AcDb2dVertex
 10
17.80459797731968
 20
-42.61841497415443
 30
0.0
  0
VERTEX
  5
D4
330
D2
100
AcDbEntity
  8
EBENE_5
 62
   112
100
AcDbVertex
100
AcDb2dVertex
 10
17.80459797731968
 20
-51.36826848759196
 30
0.0
  0
SEQEND
  5
D5
330
D2
100
AcDbEntity
  8
EBENE_5
  0
MTEXT
  5
D6
330
1F
100
AcDbEntity
  8
EBENE_5
 62
   112
100
AcDbMText
 10
6.385828991459099
 20
-48.90726452770374
 30
0.0
 40
3.311186440487749
 41
0.0
 71
     7
 72
     1
  1
\fArial|b0|i0|c0|p34;\W0.8;3H7
  0
POLYLINE
  5
D7
330
1F
100
AcDbEntity
  8
EBENE_5
 62
   112
100
AcDb2dPolyline
 66
     1
 10
0.0
 20
0.0
 30
0.0
  0
VERTEX
  5
D8
330
D7
100
AcDbEntity
  8
EBENE_5
 62
   112
100
AcDbVertex
100
AcDb2dVertex
 10
-7.195426430492811
 20
-51.36826848759196
 30
0.0
  0
VERTEX
  5
D9
330
D7
100
AcDbEntity
  8
EBENE_5
 62
   112
100
AcDbVertex
100
AcDb2dVertex
 10
-7.195426430492811
 20
-60.11829425580376
 30
0.0
  0
SEQEND
  5
DA
330
D7
100
AcDbEntity
  8
EBENE_5
  0
MTEXT
  5
DB
330
1F
100
AcDbEntity
  8
EBENE_5
 62
   112
100
AcDbMText
 10
-43.67950438361137
 20
-56.78275280698487
 30
0.0
 40
3.311186440487749
 41
0.0
 71
     7
 72
     1
  1
\fArial|b0|i0|c0|p34;\W0.8;W68511.0404
  0
POLYLINE
  5
DC
330
1F
100
AcDbEntity
  8
EBENE_5
 62
   112
100
AcDb2dPolyline
 66
     1
 10
0.0
 20
0.0
 30
0.0
  0
VERTEX
  5
DD
330
DC
100
AcDbEntity
  8
EBENE_5
 62
   112
100
AcDbVertex
100
AcDb2dVertex
 10
17.80459797731968
 20
-51.36826848759196
 30
0.0
  0
VERTEX
  5
DE
330
DC
100
AcDbEntity
  8
EBENE_5
 62
   112
100
AcDbVertex
100
AcDb2dVertex
 10
17.80459797731968
 20
-60.11829425580376
 30
0.0
  0
SEQEND
  5
DF
330
DC
100
AcDbEntity
  8
EBENE_5
  0
MTEXT
  5
E0
330
1F
100
AcDbEntity
  8
EBENE_5
 62
   112
100
AcDbMText
 10
6.222531465458256
 20
-57.65729029591554
 30
0.0
 40
3.311186440487749
 41
0.0
 71
     7
 72
     1
  1
\fArial|b0|i0|c0|p34;\W0.8;4H7
  0
POLYLINE
  5
E1
330
1F
100
AcDbEntity
  8
EBENE_5
 62
   112
100
AcDb2dPolyline
 66
     1
 10
0.0
 20
0.0
 30
0.0
  0
VERTEX
  5
E2
330
E1
100
AcDbEntity
  8
EBENE_5
 62
   112
100
AcDbVertex
100
AcDb2dVertex
 10
-7.195426430492811
 20
-60.11829425580376
 30
0.0
  0
VERTEX
  5
E3
330
E1
100
AcDbEntity
  8
EBENE_5
 62
   112
100
AcDbVertex
100
AcDb2dVertex
 10
-7.195426430492811
 20
-68.8681477692413
 30
0.0
  0
SEQEND
  5
E4
330
E1
100
AcDbEntity
  8
EBENE_5
  0
MTEXT
  5
E5
330
1F
100
AcDbEntity
  8
EBENE_5
 62
   112
100
AcDbMText
 10
-43.84400769303205
 20
-65.5326063204224
 30
0.0
 40
3.311186440487749
 41
0.0
 71
     7
 72
     1
  1
\fArial|b0|i0|c0|p34;\W0.8;W68510.0405
  0
POLYLINE
  5
E6
330
1F
100
AcDbEntity
  8
EBENE_5
 62
   112
100
AcDb2dPolyline
 66
     1
 10
0.0
 20
0.0
 30
0.0
  0
VERTEX
  5
E7
330
E6
100
AcDbEntity
  8
EBENE_5
 62
   112
100
AcDbVertex
100
AcDb2dVertex
 10
17.80459797731968
 20
-60.11829425580376
 30
0.0
  0
VERTEX
  5
E8
330
E6
100
AcDbEntity
  8
EBENE_5
 62
   112
100
AcDbVertex
100
AcDb2dVertex
 10
17.80459797731968
 20
-68.8681477692413
 30
0.0
  0
SEQEND
  5
E9
330
E6
100
AcDbEntity
  8
EBENE_5
  0
MTEXT
  5
EA
330
1F
100
AcDbEntity
  8
EBENE_5
 62
   112
100
AcDbMText
 10
6.385828991459099
 20
-66.40731606412734
 30
0.0
 40
3.311186440487749
 41
0.0
 71
     7
 72
     1
  1
\fArial|b0|i0|c0|p34;\W0.8;5H7
  0
POLYLINE
  5
EB
330
1F
100
AcDbEntity
  8
EBENE_5
 62
   112
100
AcDb2dPolyline
 66
     1
 10
0.0
 20
0.0
 30
0.0
  0
VERTEX
  5
EC
330
EB
100
AcDbEntity
  8
EBENE_5
 62
   112
100
AcDbVertex
100
AcDb2dVertex
 10
-7.195426430492811
 20
-68.8681477692413
 30
0.0
  0
VERTEX
  5
ED
330
EB
100
AcDbEntity
  8
EBENE_5
 62
   112
100
AcDbVertex
100
AcDb2dVertex
 10
-7.195426430492811
 20
-77.61800128267883
 30
0.0
  0
SEQEND
  5
EE
330
EB
100
AcDbEntity
  8
EBENE_5
  0
MTEXT
  5
EF
330
1F
100
AcDbEntity
  8
EBENE_5
 62
   112
100
AcDbMText
 10
-43.84400769303205
 20
-74.28245983385995
 30
0.0
 40
3.311186440487749
 41
0.0
 71
     7
 72
     1
  1
\fArial|b0|i0|c0|p34;\W0.8;W68510.0406
  0
POLYLINE
  5
F0
330
1F
100
AcDbEntity
  8
EBENE_5
 62
   112
100
AcDb2dPolyline
 66
     1
 10
0.0
 20
0.0
 30
0.0
  0
VERTEX
  5
F1
330
F0
100
AcDbEntity
  8
EBENE_5
 62
   112
100
AcDbVertex
100
AcDb2dVertex
 10
17.80459797731968
 20
-68.8681477692413
 30
0.0
  0
VERTEX
  5
F2
330
F0
100
AcDbEntity
  8
EBENE_5
 62
   112
100
AcDbVertex
100
AcDb2dVertex
 10
17.80459797731968
 20
-77.61800128267883
 30
0.0
  0
SEQEND
  5
F3
330
F0
100
AcDbEntity
  8
EBENE_5
  0
MTEXT
  5
F4
330
1F
100
AcDbEntity
  8
EBENE_5
 62
   112
100
AcDbMText
 10
6.385828991459099
 20
-75.15716957756487
 30
0.0
 40
3.311186440487749
 41
0.0
 71
     7
 72
     1
  1
\fArial|b0|i0|c0|p34;\W0.8;6H7
  0
POLYLINE
  5
F5
330
1F
100
AcDbEntity
  8
EBENE_5
 62
   112
100
AcDb2dPolyline
 66
     1
 10
0.0
 20
0.0
 30
0.0
  0
VERTEX
  5
F6
330
F5
100
AcDbEntity
  8
EBENE_5
 62
   112
100
AcDbVertex
100
AcDb2dVertex
 10
-7.195426430492811
 20
-77.61800128267883
 30
0.0
  0
VERTEX
  5
F7
330
F5
100
AcDbEntity
  8
EBENE_5
 62
   112
100
AcDbVertex
100
AcDb2dVertex
 10
-7.195426430492811
 20
-86.3681993056649
 30
0.0
  0
SEQEND
  5
F8
330
F5
100
AcDbEntity
  8
EBENE_5
  0
MTEXT
  5
F9
330
1F
100
AcDbEntity
  8
EBENE_5
 62
   112
100
AcDbMText
 10
-43.84400769303205
 20
-83.032657856846
 30
0.0
 40
3.311186440487749
 41
0.0
 71
     7
 72
     1
  1
\fArial|b0|i0|c0|p34;\W0.8;W68510.0408
  0
POLYLINE
  5
FA
330
1F
100
AcDbEntity
  8
EBENE_5
 62
   112
100
AcDb2dPolyline
 66
     1
 10
0.0
 20
0.0
 30
0.0
  0
VERTEX
  5
FB
330
FA
100
AcDbEntity
  8
EBENE_5
 62
   112
100
AcDbVertex
100
AcDb2dVertex
 10
17.80459797731968
 20
-77.61800128267883
 30
0.0
  0
VERTEX
  5
FC
330
FA
100
AcDbEntity
  8
EBENE_5
 62
   112
100
AcDbVertex
100
AcDb2dVertex
 10
17.80459797731968
 20
-86.3681993056649
 30
0.0
  0
SEQEND
  5
FD
330
FA
100
AcDbEntity
  8
EBENE_5
  0
MTEXT
  5
FE
330
1F
100
AcDbEntity
  8
EBENE_5
 62
   112
100
AcDbMText
 10
6.385828991459099
 20
-83.908056619648
 30
0.0
 40
3.311186440487749
 41
0.0
 71
     7
 72
     1
  1
\fArial|b0|i0|c0|p34;\W0.8;8H7
  0
POLYLINE
  5
FF
330
1F
100
AcDbEntity
  8
EBENE_5
 62
   112
100
AcDb2dPolyline
 66
     1
 10
0.0
 20
0.0
 30
0.0
  0
VERTEX
  5
100
330
FF
100
AcDbEntity
  8
EBENE_5
 62
   112
100
AcDbVertex
100
AcDb2dVertex
 10
-7.195426430492811
 20
-86.3681993056649
 30
0.0
  0
VERTEX
  5
101
330
FF
100
AcDbEntity
  8
EBENE_5
 62
   112
100
AcDbVertex
100
AcDb2dVertex
 10
-7.195426430492811
 20
-95.1177083095539
 30
0.0
  0
SEQEND
  5
102
330
FF
100
AcDbEntity
  8
EBENE_5
  0
MTEXT
  5
103
330
1F
100
AcDbEntity
  8
EBENE_5
 62
   112
100
AcDbMText
 10
-43.51551783851348
 20
-91.78251137028354
 30
0.0
 40
3.311186440487749
 41
0.0
 71
     7
 72
     1
  1
\fArial|b0|i0|c0|p34;\W0.8;W68510.0410
  0
POLYLINE
  5
104
330
1F
100
AcDbEntity
  8
EBENE_5
 62
   112
100
AcDb2dPolyline
 66
     1
 10
0.0
 20
0.0
 30
0.0
  0
VERTEX
  5
105
330
104
100
AcDbEntity
  8
EBENE_5
 62
   112
100
AcDbVertex
100
AcDb2dVertex
 10
17.80459797731968
 20
-86.3681993056649
 30
0.0
  0
VERTEX
  5
106
330
104
100
AcDbEntity
  8
EBENE_5
 62
   112
100
AcDbVertex
100
AcDb2dVertex
 10
17.80459797731968
 20
-95.1177083095539
 30
0.0
  0
SEQEND
  5
107
330
104
100
AcDbEntity
  8
EBENE_5
  0
MTEXT
  5
108
330
1F
100
AcDbEntity
  8
EBENE_5
 62
   112
100
AcDbMText
 10
5.620328774636585
 20
-92.65791013308552
 30
0.0
 40
3.311186440487749
 41
0.0
 71
     7
 72
     1
  1
\fArial|b0|i0|c0|p34;\W0.8;10H7
  0
POLYLINE
  5
109
330
1F
100
AcDbEntity
  8
EBENE_5
 62
   112
100
AcDb2dPolyline
 66
     1
 10
0.0
 20
0.0
 30
0.0
  0
VERTEX
  5
10A
330
109
100
AcDbEntity
  8
EBENE_5
 62
   112
100
AcDbVertex
100
AcDb2dVertex
 10
-7.195426430492811
 20
-95.1177083095539
 30
0.0
  0
VERTEX
  5
10B
330
109
100
AcDbEntity
  8
EBENE_5
 62
   112
100
AcDbVertex
100
AcDb2dVertex
 10
-7.195426430492811
 20
-103.8682508420885
 30
0.0
  0
SEQEND
  5
10C
330
109
100
AcDbEntity
  8
EBENE_5
  0
MTEXT
  5
10D
330
1F
100
AcDbEntity
  8
EBENE_5
 62
   112
100
AcDbMText
 10
-43.51551783851348
 20
-100.5327093932696
 30
0.0
 40
3.311186440487749
 41
0.0
 71
     7
 72
     1
  1
\fArial|b0|i0|c0|p34;\W0.8;W68510.0412
  0
POLYLINE
  5
10E
330
1F
100
AcDbEntity
  8
EBENE_5
 62
   112
100
AcDb2dPolyline
 66
     1
 10
0.0
 20
0.0
 30
0.0
  0
VERTEX
  5
10F
330
10E
100
AcDbEntity
  8
EBENE_5
 62
   112
100
AcDbVertex
100
AcDb2dVertex
 10
17.80459797731968
 20
-95.1177083095539
 30
0.0
  0
VERTEX
  5
110
330
10E
100
AcDbEntity
  8
EBENE_5
 62
   112
100
AcDbVertex
100
AcDb2dVertex
 10
17.80459797731968
 20
-103.8682508420885
 30
0.0
  0
SEQEND
  5
111
330
10E
100
AcDbEntity
  8
EBENE_5
  0
MTEXT
  5
112
330
1F
100
AcDbEntity
  8
EBENE_5
 62
   112
100
AcDbMText
 10
5.620328774636585
 20
-101.4077636465231
 30
0.0
 40
3.311186440487749
 41
0.0
 71
     7
 72
     1
  1
\fArial|b0|i0|c0|p34;\W0.8;12H7
  0
POLYLINE
  5
113
330
1F
100
AcDbEntity
  8
EBENE_5
 62
   112
100
AcDb2dPolyline
 66
     1
 10
0.0
 20
0.0
 30
0.0
  0
VERTEX
  5
114
330
113
100
AcDbEntity
  8
EBENE_5
 62
   112
100
AcDbVertex
100
AcDb2dVertex
 10
-7.195426430492811
 20
-103.8682508420885
 30
0.0
  0
VERTEX
  5
115
330
113
100
AcDbEntity
  8
EBENE_5
 62
   112
100
AcDbVertex
100
AcDb2dVertex
 10
-7.195426430492811
 20
-112.6177598459775
 30
0.0
  0
SEQEND
  5
116
330
113
100
AcDbEntity
  8
EBENE_5
  0
MTEXT
  5
117
330
1F
100
AcDbEntity
  8
EBENE_5
 62
   112
100
AcDbMText
 10
-43.67950438361137
 20
-109.2825629067071
 30
0.0
 40
3.311186440487749
 41
0.0
 71
     7
 72
     1
  1
\fArial|b0|i0|c0|p34;\W0.8;W68510.0414
  0
POLYLINE
  5
118
330
1F
100
AcDbEntity
  8
EBENE_5
 62
   112
100
AcDb2dPolyline
 66
     1
 10
0.0
 20
0.0
 30
0.0
  0
VERTEX
  5
119
330
118
100
AcDbEntity
  8
EBENE_5
 62
   112
100
AcDbVertex
100
AcDb2dVertex
 10
17.80459797731968
 20
-103.8682508420885
 30
0.0
  0
VERTEX
  5
11A
330
118
100
AcDbEntity
  8
EBENE_5
 62
   112
100
AcDbVertex
100
AcDb2dVertex
 10
17.80459797731968
 20
-112.6177598459775
 30
0.0
  0
SEQEND
  5
11B
330
118
100
AcDbEntity
  8
EBENE_5
  0
MTEXT
  5
11C
330
1F
100
AcDbEntity
  8
EBENE_5
 62
   112
100
AcDbMText
 10
5.456342229538692
 20
-110.1576171599606
 30
0.0
 40
3.311186440487749
 41
0.0
 71
     7
 72
     1
  1
\fArial|b0|i0|c0|p34;\W0.8;14H7
  0
POLYLINE
  5
11D
330
1F
100
AcDbEntity
  8
EBENE_5
 62
   112
100
AcDb2dPolyline
 66
     1
 10
0.0
 20
0.0
 30
0.0
  0
VERTEX
  5
11E
330
11D
100
AcDbEntity
  8
EBENE_5
 62
   112
100
AcDbVertex
100
AcDb2dVertex
 10
-57.19513073656928
 20
-121.3679578689636
 30
0.0
  0
VERTEX
  5
11F
330
11D
100
AcDbEntity
  8
EBENE_5
 62
   112
100
AcDbVertex
100
AcDb2dVertex
 10
-7.195426430492811
 20
-121.3679578689636
 30
0.0
  0
SEQEND
  5
120
330
11D
100
AcDbEntity
  8
EBENE_5
  0
POLYLINE
  5
121
330
1F
100
AcDbEntity
  8
EBENE_5
 62
   112
100
AcDb2dPolyline
 66
     1
 10
0.0
 20
0.0
 30
0.0
  0
VERTEX
  5
122
330
121
100
AcDbEntity
  8
EBENE_5
 62
   112
100
AcDbVertex
100
AcDb2dVertex
 10
-7.195426430492811
 20
-112.6177598459775
 30
0.0
  0
VERTEX
  5
123
330
121
100
AcDbEntity
  8
EBENE_5
 62
   112
100
AcDbVertex
100
AcDb2dVertex
 10
-7.195426430492811
 20
-121.3679578689636
 30
0.0
  0
SEQEND
  5
124
330
121
100
AcDbEntity
  8
EBENE_5
  0
MTEXT
  5
125
330
1F
100
AcDbEntity
  8
EBENE_5
 62
   112
100
AcDbMText
 10
-43.51551783851348
 20
-118.0327609296932
 30
0.0
 40
3.311186440487749
 41
0.0
 71
     7
 72
     1
  1
\fArial|b0|i0|c0|p34;\W0.8;W68510.0416
  0
POLYLINE
  5
126
330
1F
100
AcDbEntity
  8
EBENE_5
 62
   112
100
AcDb2dPolyline
 66
     1
 10
0.0
 20
0.0
 30
0.0
  0
VERTEX
  5
127
330
126
100
AcDbEntity
  8
EBENE_5
 62
   112
100
AcDbVertex
100
AcDb2dVertex
 10
-7.195426430492811
 20
-121.3679578689636
 30
0.0
  0
VERTEX
  5
128
330
126
100
AcDbEntity
  8
EBENE_5
 62
   112
100
AcDbVertex
100
AcDb2dVertex
 10
17.80459797731968
 20
-121.3679578689636
 30
0.0
  0
SEQEND
  5
129
330
126
100
AcDbEntity
  8
EBENE_5
  0
POLYLINE
  5
12A
330
1F
100
AcDbEntity
  8
EBENE_5
 62
   112
100
AcDb2dPolyline
 66
     1
 10
0.0
 20
0.0
 30
0.0
  0
VERTEX
  5
12B
330
12A
100
AcDbEntity
  8
EBENE_5
 62
   112
100
AcDbVertex
100
AcDb2dVertex
 10
17.80459797731968
 20
-112.6177598459775
 30
0.0
  0
VERTEX
  5
12C
330
12A
100
AcDbEntity
  8
EBENE_5
 62
   112
100
AcDbVertex
100
AcDb2dVertex
 10
17.80459797731968
 20
-121.3679578689636
 30
0.0
  0
SEQEND
  5
12D
330
12A
100
AcDbEntity
  8
EBENE_5
  0
MTEXT
  5
12E
330
1F
100
AcDbEntity
  8
EBENE_5
 62
   112
100
AcDbMText
 10
5.620328774636585
 20
-118.9074706733981
 30
0.0
 40
3.311186440487749
 41
0.0
 71
     7
 72
     1
  1
\fArial|b0|i0|c0|p34;\W0.8;16H7
  0
POLYLINE
  5
130
330
1F
100
AcDbEntity
  8
GRAU_10_
100
AcDb2dPolyline
 66
     1
 10
0.0
 20
0.0
 30
0.0
  0
VERTEX
  5
131
330
130
100
AcDbEntity
  8
GRAU_10_
100
AcDbVertex
100
AcDb2dVertex
 10
-24.54354925601689
 20
16.25292697076316
 30
0.0
  0
VERTEX
  5
132
330
130
100
AcDbEntity
  8
GRAU_10_
100
AcDbVertex
100
AcDb2dVertex
 10
-23.42251518511659
 20
16.25292697076316
 30
0.0
  0
VERTEX
  5
133
330
130
100
AcDbEntity
  8
GRAU_10_
100
AcDbVertex
100
AcDb2dVertex
 10
-23.43698458615464
 20
15.0738430409364
 30
0.0
  0
VERTEX
  5
134
330
130
100
AcDbEntity
  8
GRAU_10_
100
AcDbVertex
100
AcDb2dVertex
 10
-23.20444064090028
 20
14.98650987038532
 30
0.0
  0
VERTEX
  5
135
330
130
100
AcDbEntity
  8
GRAU_10_
100
AcDbVertex
100
AcDb2dVertex
 10
-22.60740559330648
 20
15.17564561252553
 30
0.0
  0
VERTEX
  5
136
330
130
100
AcDbEntity
  8
GRAU_10_
100
AcDbVertex
100
AcDb2dVertex
 10
-5.022260198397213
 20
15.14653455567517
 30
0.0
  0
VERTEX
  5
137
330
130
100
AcDbEntity
  8
GRAU_10_
100
AcDbVertex
100
AcDb2dVertex
 10
-4.716680228855552
 20
14.97186821457301
 30
0.0
  0
VERTEX
  5
138
330
130
100
AcDbEntity
  8
GRAU_10_
100
AcDbVertex
100
AcDb2dVertex
 10
-4.716680228855552
 20
4.461570908172802
 30
0.0
  0
VERTEX
  5
139
330
130
100
AcDbEntity
  8
GRAU_10_
100
AcDbVertex
100
AcDb2dVertex
 10
-5.022260198397213
 20
4.18492974070724
 30
0.0
  0
VERTEX
  5
13A
330
130
100
AcDbEntity
  8
GRAU_10_
100
AcDbVertex
100
AcDb2dVertex
 10
-22.63668890493111
 20
4.155990938631142
 30
0.0
  0
VERTEX
  5
13B
330
130
100
AcDbEntity
  8
GRAU_10_
100
AcDbVertex
100
AcDb2dVertex
 10
-23.20444064090028
 20
4.374237737621718
 30
0.0
  0
VERTEX
  5
13C
330
130
100
AcDbEntity
  8
GRAU_10_
100
AcDbVertex
100
AcDb2dVertex
 10
-23.40804578407855
 20
4.359768336583669
 30
0.0
  0
VERTEX
  5
13D
330
130
100
AcDbEntity
  8
GRAU_10_
100
AcDbVertex
100
AcDb2dVertex
 10
-23.43732909570317
 20
3.035129122505107
 30
0.0
  0
VERTEX
  5
13E
330
130
100
AcDbEntity
  8
GRAU_10_
100
AcDbVertex
100
AcDb2dVertex
 10
-24.52907985497884
 20
3.035129122505107
 30
0.0
  0
VERTEX
  5
13F
330
130
100
AcDbEntity
  8
GRAU_10_
100
AcDbVertex
100
AcDb2dVertex
 10
-24.54354925601689
 20
16.25292697076316
 30
0.0
  0
SEQEND
  5
140
330
130
100
AcDbEntity
  8
GRAU_10_
  0
HATCH
  5
141
330
1F
100
AcDbEntity
  8
GRAU_10_
 62
   255
100
AcDbHatch
 10
0.0
 20
0.0
 30
0.0
210
0.0
220
0.0
230
1.0
  2
SOLID
 70
     1
 71
     0
 91
        1
 92
        1
 93
       14
 72
     1
 10
-24.54354925601689
 20
16.25292697076316
 11
-23.42251518511659
 21
16.25292697076316
 72
     1
 10
-23.42251518511659
 20
16.25292697076316
 11
-23.43698458615464
 21
15.0738430409364
 72
     1
 10
-23.43698458615464
 20
15.0738430409364
 11
-23.20444064090028
 21
14.98650987038532
 72
     1
 10
-23.20444064090028
 20
14.98650987038532
 11
-22.60740559330648
 21
15.17564561252553
 72
     1
 10
-22.60740559330648
 20
15.17564561252553
 11
-5.022260198397213
 21
15.14653455567517
 72
     1
 10
-5.022260198397213
 20
15.14653455567517
 11
-4.716680228855552
 21
14.97186821457301
 72
     1
 10
-4.716680228855552
 20
14.97186821457301
 11
-4.716680228855552
 21
4.461570908172801
 72
     1
 10
-4.716680228855552
 20
4.461570908172802
 11
-5.022260198397213
 21
4.18492974070724
 72
     1
 10
-5.022260198397213
 20
4.18492974070724
 11
-22.63668890493111
 21
4.155990938631142
 72
     1
 10
-22.63668890493111
 20
4.155990938631142
 11
-23.20444064090028
 21
4.374237737621718
 72
     1
 10
-23.20444064090028
 20
4.374237737621718
 11
-23.40804578407855
 21
4.359768336583669
 72
     1
 10
-23.40804578407855
 20
4.359768336583669
 11
-23.43732909570317
 21
3.035129122505107
 72
     1
 10
-23.43732909570317
 20
3.035129122505107
 11
-24.52907985497884
 21
3.035129122505107
 72
     1
 10
-24.52907985497884
 20
3.035129122505107
 11
-24.54354925601689
 21
16.25292697076316
 97
        0
 75
     0
 76
     1
 98
        0
  0
POLYLINE
  5
143
330
1F
100
AcDbEntity
  8
STANDARDEBENE
 62
     7
100
AcDb2dPolyline
 66
     1
 10
0.0
 20
0.0
 30
0.0
  0
VERTEX
  5
144
330
143
100
AcDbEntity
  8
STANDARDEBENE
 62
     7
100
AcDbVertex
100
AcDb2dVertex
 10
-24.54423827511394
 20
12.97767469293614
 30
0.0
  0
VERTEX
  5
145
330
143
100
AcDbEntity
  8
STANDARDEBENE
 62
     7
100
AcDbVertex
100
AcDb2dVertex
 10
-24.269319655391
 20
12.97767469293614
 30
0.0
  0
SEQEND
  5
146
330
143
100
AcDbEntity
  8
STANDARDEBENE
  0
POLYLINE
  5
147
330
1F
100
AcDbEntity
  8
STANDARDEBENE
 62
     7
100
AcDb2dPolyline
 66
     1
 10
0.0
 20
0.0
 30
0.0
  0
VERTEX
  5
148
330
147
100
AcDbEntity
  8
STANDARDEBENE
 62
     7
100
AcDbVertex
100
AcDb2dVertex
 10
-23.7191379063966
 20
12.97767469293614
 30
0.0
  0
VERTEX
  5
149
330
147
100
AcDbEntity
  8
STANDARDEBENE
 62
     7
100
AcDbVertex
100
AcDb2dVertex
 10
-23.16930066695073
 20
12.97767469293614
 30
0.0
  0
SEQEND
  5
14A
330
147
100
AcDbEntity
  8
STANDARDEBENE
  0
POLYLINE
  5
14B
330
1F
100
AcDbEntity
  8
STANDARDEBENE
 62
     7
100
AcDb2dPolyline
 66
     1
 10
0.0
 20
0.0
 30
0.0
  0
VERTEX
  5
14C
330
14B
100
AcDbEntity
  8
STANDARDEBENE
 62
     7
100
AcDbVertex
100
AcDb2dVertex
 10
-22.61946342750486
 20
12.97767469293614
 30
0.0
  0
VERTEX
  5
14D
330
14B
100
AcDbEntity
  8
STANDARDEBENE
 62
     7
100
AcDbVertex
100
AcDb2dVertex
 10
-22.06893716896193
 20
12.97767469293614
 30
0.0
  0
SEQEND
  5
14E
330
14B
100
AcDbEntity
  8
STANDARDEBENE
  0
POLYLINE
  5
14F
330
1F
100
AcDbEntity
  8
STANDARDEBENE
 62
     7
100
AcDb2dPolyline
 66
     1
 10
0.0
 20
0.0
 30
0.0
  0
VERTEX
  5
150
330
14F
100
AcDbEntity
  8
STANDARDEBENE
 62
     7
100
AcDbVertex
100
AcDb2dVertex
 10
-21.51944443906459
 20
12.97767469293614
 30
0.0
  0
VERTEX
  5
151
330
14F
100
AcDbEntity
  8
STANDARDEBENE
 62
     7
100
AcDbVertex
100
AcDb2dVertex
 10
-20.96891818052166
 20
12.97767469293614
 30
0.0
  0
SEQEND
  5
152
330
14F
100
AcDbEntity
  8
STANDARDEBENE
  0
POLYLINE
  5
153
330
1F
100
AcDbEntity
  8
STANDARDEBENE
 62
     7
100
AcDb2dPolyline
 66
     1
 10
0.0
 20
0.0
 30
0.0
  0
VERTEX
  5
154
330
153
100
AcDbEntity
  8
STANDARDEBENE
 62
     7
100
AcDbVertex
100
AcDb2dVertex
 10
-20.41908094107579
 20
12.97767469293614
 30
0.0
  0
VERTEX
  5
155
330
153
100
AcDbEntity
  8
STANDARDEBENE
 62
     7
100
AcDbVertex
100
AcDb2dVertex
 10
-19.86958821117844
 20
12.97767469293614
 30
0.0
  0
SEQEND
  5
156
330
153
100
AcDbEntity
  8
STANDARDEBENE
  0
POLYLINE
  5
157
330
1F
100
AcDbEntity
  8
STANDARDEBENE
 62
     7
100
AcDb2dPolyline
 66
     1
 10
0.0
 20
0.0
 30
0.0
  0
VERTEX
  5
158
330
157
100
AcDbEntity
  8
STANDARDEBENE
 62
     7
100
AcDbVertex
100
AcDb2dVertex
 10
-19.31940646218404
 20
12.97767469293614
 30
0.0
  0
VERTEX
  5
159
330
157
100
AcDbEntity
  8
STANDARDEBENE
 62
     7
100
AcDbVertex
100
AcDb2dVertex
 10
-18.76922471318964
 20
12.97767469293614
 30
0.0
  0
SEQEND
  5
15A
330
157
100
AcDbEntity
  8
STANDARDEBENE
  0
POLYLINE
  5
15B
330
1F
100
AcDbEntity
  8
STANDARDEBENE
 62
     7
100
AcDb2dPolyline
 66
     1
 10
0.0
 20
0.0
 30
0.0
  0
VERTEX
  5
15C
330
15B
100
AcDbEntity
  8
STANDARDEBENE
 62
     7
100
AcDbVertex
100
AcDb2dVertex
 10
-18.21904296419524
 20
12.97767469293614
 30
0.0
  0
VERTEX
  5
15D
330
15B
100
AcDbEntity
  8
STANDARDEBENE
 62
     7
100
AcDbVertex
100
AcDb2dVertex
 10
-17.66920572474936
 20
12.97767469293614
 30
0.0
  0
SEQEND
  5
15E
330
15B
100
AcDbEntity
  8
STANDARDEBENE
  0
POLYLINE
  5
15F
330
1F
100
AcDbEntity
  8
STANDARDEBENE
 62
     7
100
AcDb2dPolyline
 66
     1
 10
0.0
 20
0.0
 30
0.0
  0
VERTEX
  5
160
330
15F
100
AcDbEntity
  8
STANDARDEBENE
 62
     7
100
AcDbVertex
100
AcDb2dVertex
 10
-17.11936848530349
 20
12.97767469293614
 30
0.0
  0
VERTEX
  5
161
330
15F
100
AcDbEntity
  8
STANDARDEBENE
 62
     7
100
AcDbVertex
100
AcDb2dVertex
 10
-16.56918673630909
 20
12.97767469293614
 30
0.0
  0
SEQEND
  5
162
330
15F
100
AcDbEntity
  8
STANDARDEBENE
  0
POLYLINE
  5
163
330
1F
100
AcDbEntity
  8
STANDARDEBENE
 62
     7
100
AcDb2dPolyline
 66
     1
 10
0.0
 20
0.0
 30
0.0
  0
VERTEX
  5
164
330
163
100
AcDbEntity
  8
STANDARDEBENE
 62
     7
100
AcDbVertex
100
AcDb2dVertex
 10
-16.01934949686322
 20
12.97767469293614
 30
0.0
  0
VERTEX
  5
165
330
163
100
AcDbEntity
  8
STANDARDEBENE
 62
     7
100
AcDbVertex
100
AcDb2dVertex
 10
-15.46916774786882
 20
12.97767469293614
 30
0.0
  0
SEQEND
  5
166
330
163
100
AcDbEntity
  8
STANDARDEBENE
  0
POLYLINE
  5
167
330
1F
100
AcDbEntity
  8
STANDARDEBENE
 62
     7
100
AcDb2dPolyline
 66
     1
 10
0.0
 20
0.0
 30
0.0
  0
VERTEX
  5
168
330
167
100
AcDbEntity
  8
STANDARDEBENE
 62
     7
100
AcDbVertex
100
AcDb2dVertex
 10
-14.91933050842295
 20
12.97767469293614
 30
0.0
  0
VERTEX
  5
169
330
167
100
AcDbEntity
  8
STANDARDEBENE
 62
     7
100
AcDbVertex
100
AcDb2dVertex
 10
-14.36914875942855
 20
12.97767469293614
 30
0.0
  0
SEQEND
  5
16A
330
167
100
AcDbEntity
  8
STANDARDEBENE
  0
POLYLINE
  5
16B
330
1F
100
AcDbEntity
  8
STANDARDEBENE
 62
     7
100
AcDb2dPolyline
 66
     1
 10
0.0
 20
0.0
 30
0.0
  0
VERTEX
  5
16C
330
16B
100
AcDbEntity
  8
STANDARDEBENE
 62
     7
100
AcDbVertex
100
AcDb2dVertex
 10
-13.81931151998267
 20
12.97767469293614
 30
0.0
  0
VERTEX
  5
16D
330
16B
100
AcDbEntity
  8
STANDARDEBENE
 62
     7
100
AcDbVertex
100
AcDb2dVertex
 10
-13.2694742805368
 20
12.97767469293614
 30
0.0
  0
SEQEND
  5
16E
330
16B
100
AcDbEntity
  8
STANDARDEBENE
  0
POLYLINE
  5
16F
330
1F
100
AcDbEntity
  8
STANDARDEBENE
 62
     7
100
AcDb2dPolyline
 66
     1
 10
0.0
 20
0.0
 30
0.0
  0
VERTEX
  5
170
330
16F
100
AcDbEntity
  8
STANDARDEBENE
 62
     7
100
AcDbVertex
100
AcDb2dVertex
 10
-12.71963704109092
 20
12.97767469293614
 30
0.0
  0
VERTEX
  5
171
330
16F
100
AcDbEntity
  8
STANDARDEBENE
 62
     7
100
AcDbVertex
100
AcDb2dVertex
 10
-12.169110782548
 20
12.97767469293614
 30
0.0
  0
SEQEND
  5
172
330
16F
100
AcDbEntity
  8
STANDARDEBENE
  0
POLYLINE
  5
173
330
1F
100
AcDbEntity
  8
STANDARDEBENE
 62
     7
100
AcDb2dPolyline
 66
     1
 10
0.0
 20
0.0
 30
0.0
  0
VERTEX
  5
174
330
173
100
AcDbEntity
  8
STANDARDEBENE
 62
     7
100
AcDbVertex
100
AcDb2dVertex
 10
-11.61927354310213
 20
12.97767469293614
 30
0.0
  0
VERTEX
  5
175
330
173
100
AcDbEntity
  8
STANDARDEBENE
 62
     7
100
AcDbVertex
100
AcDb2dVertex
 10
-11.06909179410773
 20
12.97767469293614
 30
0.0
  0
SEQEND
  5
176
330
173
100
AcDbEntity
  8
STANDARDEBENE
  0
POLYLINE
  5
177
330
1F
100
AcDbEntity
  8
STANDARDEBENE
 62
     7
100
AcDb2dPolyline
 66
     1
 10
0.0
 20
0.0
 30
0.0
  0
VERTEX
  5
178
330
177
100
AcDbEntity
  8
STANDARDEBENE
 62
     7
100
AcDbVertex
100
AcDb2dVertex
 10
-10.51925455466185
 20
12.97767469293614
 30
0.0
  0
VERTEX
  5
179
330
177
100
AcDbEntity
  8
STANDARDEBENE
 62
     7
100
AcDbVertex
100
AcDb2dVertex
 10
-9.96941731521598
 20
12.97767469293614
 30
0.0
  0
SEQEND
  5
17A
330
177
100
AcDbEntity
  8
STANDARDEBENE
  0
POLYLINE
  5
17B
330
1F
100
AcDbEntity
  8
STANDARDEBENE
 62
     7
100
AcDb2dPolyline
 66
     1
 10
0.0
 20
0.0
 30
0.0
  0
VERTEX
  5
17C
330
17B
100
AcDbEntity
  8
STANDARDEBENE
 62
     7
100
AcDbVertex
100
AcDb2dVertex
 10
-9.418891056673056
 20
12.97767469293614
 30
0.0
  0
VERTEX
  5
17D
330
17B
100
AcDbEntity
  8
STANDARDEBENE
 62
     7
100
AcDbVertex
100
AcDb2dVertex
 10
-8.869398326775705
 20
12.97767469293614
 30
0.0
  0
SEQEND
  5
17E
330
17B
100
AcDbEntity
  8
STANDARDEBENE
  0
POLYLINE
  5
17F
330
1F
100
AcDbEntity
  8
STANDARDEBENE
 62
     7
100
AcDb2dPolyline
 66
     1
 10
0.0
 20
0.0
 30
0.0
  0
VERTEX
  5
180
330
17F
100
AcDbEntity
  8
STANDARDEBENE
 62
     7
100
AcDbVertex
100
AcDb2dVertex
 10
-8.319216577781308
 20
12.97767469293614
 30
0.0
  0
VERTEX
  5
181
330
17F
100
AcDbEntity
  8
STANDARDEBENE
 62
     7
100
AcDbVertex
100
AcDb2dVertex
 10
-7.769034828786908
 20
12.97767469293614
 30
0.0
  0
SEQEND
  5
182
330
17F
100
AcDbEntity
  8
STANDARDEBENE
  0
POLYLINE
  5
183
330
1F
100
AcDbEntity
  8
STANDARDEBENE
 62
     7
100
AcDb2dPolyline
 66
     1
 10
0.0
 20
0.0
 30
0.0
  0
VERTEX
  5
184
330
183
100
AcDbEntity
  8
STANDARDEBENE
 62
     7
100
AcDbVertex
100
AcDb2dVertex
 10
-7.219542098889559
 20
12.97767469293614
 30
0.0
  0
VERTEX
  5
185
330
183
100
AcDbEntity
  8
STANDARDEBENE
 62
     7
100
AcDbVertex
100
AcDb2dVertex
 10
-6.66936034989516
 20
12.97767469293614
 30
0.0
  0
SEQEND
  5
186
330
183
100
AcDbEntity
  8
STANDARDEBENE
  0
POLYLINE
  5
187
330
1F
100
AcDbEntity
  8
STANDARDEBENE
 62
     7
100
AcDb2dPolyline
 66
     1
 10
0.0
 20
0.0
 30
0.0
  0
VERTEX
  5
188
330
187
100
AcDbEntity
  8
STANDARDEBENE
 62
     7
100
AcDbVertex
100
AcDb2dVertex
 10
-6.119523110449286
 20
12.97767469293614
 30
0.0
  0
VERTEX
  5
189
330
187
100
AcDbEntity
  8
STANDARDEBENE
 62
     7
100
AcDbVertex
100
AcDb2dVertex
 10
-5.569341361454887
 20
12.97767469293614
 30
0.0
  0
SEQEND
  5
18A
330
187
100
AcDbEntity
  8
STANDARDEBENE
  0
POLYLINE
  5
18B
330
1F
100
AcDbEntity
  8
STANDARDEBENE
 62
     7
100
AcDb2dPolyline
 66
     1
 10
0.0
 20
0.0
 30
0.0
  0
VERTEX
  5
18C
330
18B
100
AcDbEntity
  8
STANDARDEBENE
 62
     7
100
AcDbVertex
100
AcDb2dVertex
 10
-5.019159612460488
 20
12.97767469293614
 30
0.0
  0
VERTEX
  5
18D
330
18B
100
AcDbEntity
  8
STANDARDEBENE
 62
     7
100
AcDbVertex
100
AcDb2dVertex
 10
-4.744240992737551
 20
12.97767469293614
 30
0.0
  0
SEQEND
  5
18E
330
18B
100
AcDbEntity
  8
STANDARDEBENE
  0
POLYLINE
  5
18F
330
1F
100
AcDbEntity
  8
STANDARDEBENE
 62
     7
100
AcDb2dPolyline
 66
     1
 10
0.0
 20
0.0
 30
0.0
  0
VERTEX
  5
190
330
18F
100
AcDbEntity
  8
STANDARDEBENE
 62
     7
100
AcDbVertex
100
AcDb2dVertex
 10
-4.744240992737551
 20
6.378077526617287
 30
0.0
  0
VERTEX
  5
191
330
18F
100
AcDbEntity
  8
STANDARDEBENE
 62
     7
100
AcDbVertex
100
AcDb2dVertex
 10
-5.019159612460488
 20
6.378077526617287
 30
0.0
  0
SEQEND
  5
192
330
18F
100
AcDbEntity
  8
STANDARDEBENE
  0
POLYLINE
  5
193
330
1F
100
AcDbEntity
  8
STANDARDEBENE
 62
     7
100
AcDb2dPolyline
 66
     1
 10
0.0
 20
0.0
 30
0.0
  0
VERTEX
  5
194
330
193
100
AcDbEntity
  8
STANDARDEBENE
 62
     7
100
AcDbVertex
100
AcDb2dVertex
 10
-5.569341361454887
 20
6.378077526617287
 30
0.0
  0
VERTEX
  5
195
330
193
100
AcDbEntity
  8
STANDARDEBENE
 62
     7
100
AcDbVertex
100
AcDb2dVertex
 10
-6.119523110449286
 20
6.378077526617287
 30
0.0
  0
SEQEND
  5
196
330
193
100
AcDbEntity
  8
STANDARDEBENE
  0
POLYLINE
  5
197
330
1F
100
AcDbEntity
  8
STANDARDEBENE
 62
     7
100
AcDb2dPolyline
 66
     1
 10
0.0
 20
0.0
 30
0.0
  0
VERTEX
  5
198
330
197
100
AcDbEntity
  8
STANDARDEBENE
 62
     7
100
AcDbVertex
100
AcDb2dVertex
 10
-6.66936034989516
 20
6.378077526617287
 30
0.0
  0
VERTEX
  5
199
330
197
100
AcDbEntity
  8
STANDARDEBENE
 62
     7
100
AcDbVertex
100
AcDb2dVertex
 10
-7.219542098889559
 20
6.378077526617287
 30
0.0
  0
SEQEND
  5
19A
330
197
100
AcDbEntity
  8
STANDARDEBENE
  0
POLYLINE
  5
19B
330
1F
100
AcDbEntity
  8
STANDARDEBENE
 62
     7
100
AcDb2dPolyline
 66
     1
 10
0.0
 20
0.0
 30
0.0
  0
VERTEX
  5
19C
330
19B
100
AcDbEntity
  8
STANDARDEBENE
 62
     7
100
AcDbVertex
100
AcDb2dVertex
 10
-7.769034828786908
 20
6.378077526617287
 30
0.0
  0
VERTEX
  5
19D
330
19B
100
AcDbEntity
  8
STANDARDEBENE
 62
     7
100
AcDbVertex
100
AcDb2dVertex
 10
-8.319216577781308
 20
6.378077526617287
 30
0.0
  0
SEQEND
  5
19E
330
19B
100
AcDbEntity
  8
STANDARDEBENE
  0
POLYLINE
  5
19F
330
1F
100
AcDbEntity
  8
STANDARDEBENE
 62
     7
100
AcDb2dPolyline
 66
     1
 10
0.0
 20
0.0
 30
0.0
  0
VERTEX
  5
1A0
330
19F
100
AcDbEntity
  8
STANDARDEBENE
 62
     7
100
AcDbVertex
100
AcDb2dVertex
 10
-8.869398326775705
 20
6.378077526617287
 30
0.0
  0
VERTEX
  5
1A1
330
19F
100
AcDbEntity
  8
STANDARDEBENE
 62
     7
100
AcDbVertex
100
AcDb2dVertex
 10
-9.418891056673056
 20
6.378077526617287
 30
0.0
  0
SEQEND
  5
1A2
330
19F
100
AcDbEntity
  8
STANDARDEBENE
  0
POLYLINE
  5
1A3
330
1F
100
AcDbEntity
  8
STANDARDEBENE
 62
     7
100
AcDb2dPolyline
 66
     1
 10
0.0
 20
0.0
 30
0.0
  0
VERTEX
  5
1A4
330
1A3
100
AcDbEntity
  8
STANDARDEBENE
 62
     7
100
AcDbVertex
100
AcDb2dVertex
 10
-9.96941731521598
 20
6.378077526617287
 30
0.0
  0
VERTEX
  5
1A5
330
1A3
100
AcDbEntity
  8
STANDARDEBENE
 62
     7
100
AcDbVertex
100
AcDb2dVertex
 10
-10.51925455466185
 20
6.378077526617287
 30
0.0
  0
SEQEND
  5
1A6
330
1A3
100
AcDbEntity
  8
STANDARDEBENE
  0
POLYLINE
  5
1A7
330
1F
100
AcDbEntity
  8
STANDARDEBENE
 62
     7
100
AcDb2dPolyline
 66
     1
 10
0.0
 20
0.0
 30
0.0
  0
VERTEX
  5
1A8
330
1A7
100
AcDbEntity
  8
STANDARDEBENE
 62
     7
100
AcDbVertex
100
AcDb2dVertex
 10
-11.06909179410773
 20
6.378077526617287
 30
0.0
  0
VERTEX
  5
1A9
330
1A7
100
AcDbEntity
  8
STANDARDEBENE
 62
     7
100
AcDbVertex
100
AcDb2dVertex
 10
-11.61927354310213
 20
6.378077526617287
 30
0.0
  0
SEQEND
  5
1AA
330
1A7
100
AcDbEntity
  8
STANDARDEBENE
  0
POLYLINE
  5
1AB
330
1F
100
AcDbEntity
  8
STANDARDEBENE
 62
     7
100
AcDb2dPolyline
 66
     1
 10
0.0
 20
0.0
 30
0.0
  0
VERTEX
  5
1AC
330
1AB
100
AcDbEntity
  8
STANDARDEBENE
 62
     7
100
AcDbVertex
100
AcDb2dVertex
 10
-12.169110782548
 20
6.378077526617287
 30
0.0
  0
VERTEX
  5
1AD
330
1AB
100
AcDbEntity
  8
STANDARDEBENE
 62
     7
100
AcDbVertex
100
AcDb2dVertex
 10
-12.71963704109092
 20
6.378077526617287
 30
0.0
  0
SEQEND
  5
1AE
330
1AB
100
AcDbEntity
  8
STANDARDEBENE
  0
POLYLINE
  5
1AF
330
1F
100
AcDbEntity
  8
STANDARDEBENE
 62
     7
100
AcDb2dPolyline
 66
     1
 10
0.0
 20
0.0
 30
0.0
  0
VERTEX
  5
1B0
330
1AF
100
AcDbEntity
  8
STANDARDEBENE
 62
     7
100
AcDbVertex
100
AcDb2dVertex
 10
-13.2694742805368
 20
6.378077526617287
 30
0.0
  0
VERTEX
  5
1B1
330
1AF
100
AcDbEntity
  8
STANDARDEBENE
 62
     7
100
AcDbVertex
100
AcDb2dVertex
 10
-13.81931151998267
 20
6.378077526617287
 30
0.0
  0
SEQEND
  5
1B2
330
1AF
100
AcDbEntity
  8
STANDARDEBENE
  0
POLYLINE
  5
1B3
330
1F
100
AcDbEntity
  8
STANDARDEBENE
 62
     7
100
AcDb2dPolyline
 66
     1
 10
0.0
 20
0.0
 30
0.0
  0
VERTEX
  5
1B4
330
1B3
100
AcDbEntity
  8
STANDARDEBENE
 62
     7
100
AcDbVertex
100
AcDb2dVertex
 10
-14.36914875942855
 20
6.378077526617287
 30
0.0
  0
VERTEX
  5
1B5
330
1B3
100
AcDbEntity
  8
STANDARDEBENE
 62
     7
100
AcDbVertex
100
AcDb2dVertex
 10
-14.91933050842295
 20
6.378077526617287
 30
0.0
  0
SEQEND
  5
1B6
330
1B3
100
AcDbEntity
  8
STANDARDEBENE
  0
POLYLINE
  5
1B7
330
1F
100
AcDbEntity
  8
STANDARDEBENE
 62
     7
100
AcDb2dPolyline
 66
     1
 10
0.0
 20
0.0
 30
0.0
  0
VERTEX
  5
1B8
330
1B7
100
AcDbEntity
  8
STANDARDEBENE
 62
     7
100
AcDbVertex
100
AcDb2dVertex
 10
-15.46916774786882
 20
6.378077526617287
 30
0.0
  0
VERTEX
  5
1B9
330
1B7
100
AcDbEntity
  8
STANDARDEBENE
 62
     7
100
AcDbVertex
100
AcDb2dVertex
 10
-16.01934949686322
 20
6.378077526617287
 30
0.0
  0
SEQEND
  5
1BA
330
1B7
100
AcDbEntity
  8
STANDARDEBENE
  0
POLYLINE
  5
1BB
330
1F
100
AcDbEntity
  8
STANDARDEBENE
 62
     7
100
AcDb2dPolyline
 66
     1
 10
0.0
 20
0.0
 30
0.0
  0
VERTEX
  5
1BC
330
1BB
100
AcDbEntity
  8
STANDARDEBENE
 62
     7
100
AcDbVertex
100
AcDb2dVertex
 10
-16.56918673630909
 20
6.378077526617287
 30
0.0
  0
VERTEX
  5
1BD
330
1BB
100
AcDbEntity
  8
STANDARDEBENE
 62
     7
100
AcDbVertex
100
AcDb2dVertex
 10
-17.11936848530349
 20
6.378077526617287
 30
0.0
  0
SEQEND
  5
1BE
330
1BB
100
AcDbEntity
  8
STANDARDEBENE
  0
POLYLINE
  5
1BF
330
1F
100
AcDbEntity
  8
STANDARDEBENE
 62
     7
100
AcDb2dPolyline
 66
     1
 10
0.0
 20
0.0
 30
0.0
  0
VERTEX
  5
1C0
330
1BF
100
AcDbEntity
  8
STANDARDEBENE
 62
     7
100
AcDbVertex
100
AcDb2dVertex
 10
-17.66920572474936
 20
6.378077526617287
 30
0.0
  0
VERTEX
  5
1C1
330
1BF
100
AcDbEntity
  8
STANDARDEBENE
 62
     7
100
AcDbVertex
100
AcDb2dVertex
 10
-18.21904296419524
 20
6.378077526617287
 30
0.0
  0
SEQEND
  5
1C2
330
1BF
100
AcDbEntity
  8
STANDARDEBENE
  0
POLYLINE
  5
1C3
330
1F
100
AcDbEntity
  8
STANDARDEBENE
 62
     7
100
AcDb2dPolyline
 66
     1
 10
0.0
 20
0.0
 30
0.0
  0
VERTEX
  5
1C4
330
1C3
100
AcDbEntity
  8
STANDARDEBENE
 62
     7
100
AcDbVertex
100
AcDb2dVertex
 10
-18.76922471318964
 20
6.378077526617287
 30
0.0
  0
VERTEX
  5
1C5
330
1C3
100
AcDbEntity
  8
STANDARDEBENE
 62
     7
100
AcDbVertex
100
AcDb2dVertex
 10
-19.31940646218404
 20
6.378077526617287
 30
0.0
  0
SEQEND
  5
1C6
330
1C3
100
AcDbEntity
  8
STANDARDEBENE
  0
POLYLINE
  5
1C7
330
1F
100
AcDbEntity
  8
STANDARDEBENE
 62
     7
100
AcDb2dPolyline
 66
     1
 10
0.0
 20
0.0
 30
0.0
  0
VERTEX
  5
1C8
330
1C7
100
AcDbEntity
  8
STANDARDEBENE
 62
     7
100
AcDbVertex
100
AcDb2dVertex
 10
-19.86958821117844
 20
6.378077526617287
 30
0.0
  0
VERTEX
  5
1C9
330
1C7
100
AcDbEntity
  8
STANDARDEBENE
 62
     7
100
AcDbVertex
100
AcDb2dVertex
 10
-20.41908094107579
 20
6.378077526617287
 30
0.0
  0
SEQEND
  5
1CA
330
1C7
100
AcDbEntity
  8
STANDARDEBENE
  0
POLYLINE
  5
1CB
330
1F
100
AcDbEntity
  8
STANDARDEBENE
 62
     7
100
AcDb2dPolyline
 66
     1
 10
0.0
 20
0.0
 30
0.0
  0
VERTEX
  5
1CC
330
1CB
100
AcDbEntity
  8
STANDARDEBENE
 62
     7
100
AcDbVertex
100
AcDb2dVertex
 10
-20.96891818052166
 20
6.378077526617287
 30
0.0
  0
VERTEX
  5
1CD
330
1CB
100
AcDbEntity
  8
STANDARDEBENE
 62
     7
100
AcDbVertex
100
AcDb2dVertex
 10
-21.51944443906459
 20
6.378077526617287
 30
0.0
  0
SEQEND
  5
1CE
330
1CB
100
AcDbEntity
  8
STANDARDEBENE
  0
POLYLINE
  5
1CF
330
1F
100
AcDbEntity
  8
STANDARDEBENE
 62
     7
100
AcDb2dPolyline
 66
     1
 10
0.0
 20
0.0
 30
0.0
  0
VERTEX
  5
1D0
330
1CF
100
AcDbEntity
  8
STANDARDEBENE
 62
     7
100
AcDbVertex
100
AcDb2dVertex
 10
-22.06893716896193
 20
6.378077526617287
 30
0.0
  0
VERTEX
  5
1D1
330
1CF
100
AcDbEntity
  8
STANDARDEBENE
 62
     7
100
AcDbVertex
100
AcDb2dVertex
 10
-22.61946342750486
 20
6.378077526617287
 30
0.0
  0
SEQEND
  5
1D2
330
1CF
100
AcDbEntity
  8
STANDARDEBENE
  0
POLYLINE
  5
1D3
330
1F
100
AcDbEntity
  8
STANDARDEBENE
 62
     7
100
AcDb2dPolyline
 66
     1
 10
0.0
 20
0.0
 30
0.0
  0
VERTEX
  5
1D4
330
1D3
100
AcDbEntity
  8
STANDARDEBENE
 62
     7
100
AcDbVertex
100
AcDb2dVertex
 10
-23.16930066695073
 20
6.378077526617287
 30
0.0
  0
VERTEX
  5
1D5
330
1D3
100
AcDbEntity
  8
STANDARDEBENE
 62
     7
100
AcDbVertex
100
AcDb2dVertex
 10
-23.7191379063966
 20
6.378077526617287
 30
0.0
  0
SEQEND
  5
1D6
330
1D3
100
AcDbEntity
  8
STANDARDEBENE
  0
POLYLINE
  5
1D7
330
1F
100
AcDbEntity
  8
STANDARDEBENE
 62
     7
100
AcDb2dPolyline
 66
     1
 10
0.0
 20
0.0
 30
0.0
  0
VERTEX
  5
1D8
330
1D7
100
AcDbEntity
  8
STANDARDEBENE
 62
     7
100
AcDbVertex
100
AcDb2dVertex
 10
-24.269319655391
 20
6.378077526617287
 30
0.0
  0
VERTEX
  5
1D9
330
1D7
100
AcDbEntity
  8
STANDARDEBENE
 62
     7
100
AcDbVertex
100
AcDb2dVertex
 10
-24.54423827511394
 20
6.378077526617287
 30
0.0
  0
SEQEND
  5
1DA
330
1D7
100
AcDbEntity
  8
STANDARDEBENE
  0
POLYLINE
  5
1DB
330
1F
100
AcDbEntity
  8
STANDARDEBENE
 62
     7
100
AcDb2dPolyline
 66
     1
 10
0.0
 20
0.0
 30
0.0
  0
VERTEX
  5
1DC
330
1DB
100
AcDbEntity
  8
STANDARDEBENE
 62
     7
100
AcDbVertex
100
AcDb2dVertex
 10
-23.235101990719
 20
13.36473117070396
 30
0.0
  0
VERTEX
  5
1DD
330
1DB
100
AcDbEntity
  8
STANDARDEBENE
 62
     7
100
AcDbVertex
100
AcDb2dVertex
 10
-23.235101990719
 20
5.991021048849468
 30
0.0
  0
SEQEND
  5
1DE
330
1DB
100
AcDbEntity
  8
STANDARDEBENE
  0
POLYLINE
  5
1DF
330
1F
100
AcDbEntity
  8
STANDARDEBENE
 62
     7
100
AcDb2dPolyline
 66
     1
 10
0.0
 20
0.0
 30
0.0
  0
VERTEX
  5
1E0
330
1DF
100
AcDbEntity
  8
STANDARDEBENE
 62
     7
100
AcDbVertex
100
AcDb2dVertex
 10
-23.44421928667367
 20
16.27790391303122
 30
0.0
  0
VERTEX
  5
1E1
330
1DF
100
AcDbEntity
  8
STANDARDEBENE
 62
     7
100
AcDbVertex
100
AcDb2dVertex
 10
-24.54423827511394
 20
16.27790391303122
 30
0.0
  0
SEQEND
  5
1E2
330
1DF
100
AcDbEntity
  8
STANDARDEBENE
  0
POLYLINE
  5
1E3
330
1F
100
AcDbEntity
  8
STANDARDEBENE
 62
     7
100
AcDb2dPolyline
 66
     1
 10
0.0
 20
0.0
 30
0.0
  0
VERTEX
  5
1E4
330
1E3
100
AcDbEntity
  8
STANDARDEBENE
 62
     7
100
AcDbVertex
100
AcDb2dVertex
 10
-24.54423827511394
 20
3.077848306522205
 30
0.0
  0
VERTEX
  5
1E5
330
1E3
100
AcDbEntity
  8
STANDARDEBENE
 62
     7
100
AcDbVertex
100
AcDb2dVertex
 10
-23.44421928667367
 20
3.077848306522205
 30
0.0
  0
SEQEND
  5
1E6
330
1E3
100
AcDbEntity
  8
STANDARDEBENE
  0
POLYLINE
  5
1E7
330
1F
100
AcDbEntity
  8
STANDARDEBENE
 62
     7
100
AcDb2dPolyline
 66
     1
 10
0.0
 20
0.0
 30
0.0
  0
VERTEX
  5
1E8
330
1E7
100
AcDbEntity
  8
STANDARDEBENE
 62
     7
100
AcDbVertex
100
AcDb2dVertex
 10
-5.019159612460488
 20
15.17788492459095
 30
0.0
  0
VERTEX
  5
1E9
330
1E7
100
AcDbEntity
  8
STANDARDEBENE
 62
     7
100
AcDbVertex
100
AcDb2dVertex
 10
-22.61946342750486
 20
15.17788492459095
 30
0.0
  0
SEQEND
  5
1EA
330
1E7
100
AcDbEntity
  8
STANDARDEBENE
  0
POLYLINE
  5
1EB
330
1F
100
AcDbEntity
  8
STANDARDEBENE
 62
     7
100
AcDb2dPolyline
 66
     1
 10
0.0
 20
0.0
 30
0.0
  0
VERTEX
  5
1EC
330
1EB
100
AcDbEntity
  8
STANDARDEBENE
 62
     7
100
AcDbVertex
100
AcDb2dVertex
 10
-22.61946342750486
 20
4.177695040188215
 30
0.0
  0
VERTEX
  5
1ED
330
1EB
100
AcDbEntity
  8
STANDARDEBENE
 62
     7
100
AcDbVertex
100
AcDb2dVertex
 10
-5.019159612460488
 20
4.177695040188215
 30
0.0
  0
SEQEND
  5
1EE
330
1EB
100
AcDbEntity
  8
STANDARDEBENE
  0
POLYLINE
  5
1EF
330
1F
100
AcDbEntity
  8
STANDARDEBENE
 62
     7
100
AcDb2dPolyline
 66
     1
 10
0.0
 20
0.0
 30
0.0
  0
VERTEX
  5
1F0
330
1EF
100
AcDbEntity
  8
STANDARDEBENE
 62
     7
100
AcDbVertex
100
AcDb2dVertex
 10
-22.61946342750486
 20
15.17788492459095
 30
0.0
  0
VERTEX
  5
1F1
330
1EF
100
AcDbEntity
  8
STANDARDEBENE
 62
     7
100
AcDbVertex
100
AcDb2dVertex
 10
-23.20719671728848
 20
15.02044406091503
 30
0.0
  0
SEQEND
  5
1F2
330
1EF
100
AcDbEntity
  8
STANDARDEBENE
  0
POLYLINE
  5
1F3
330
1F
100
AcDbEntity
  8
STANDARDEBENE
 62
     7
100
AcDb2dPolyline
 66
     1
 10
0.0
 20
0.0
 30
0.0
  0
VERTEX
  5
1F4
330
1F3
100
AcDbEntity
  8
STANDARDEBENE
 62
     7
100
AcDbVertex
100
AcDb2dVertex
 10
-23.20719671728848
 20
4.335308158638395
 30
0.0
  0
VERTEX
  5
1F5
330
1F3
100
AcDbEntity
  8
STANDARDEBENE
 62
     7
100
AcDbVertex
100
AcDb2dVertex
 10
-22.61946342750486
 20
4.177695040188215
 30
0.0
  0
SEQEND
  5
1F6
330
1F3
100
AcDbEntity
  8
STANDARDEBENE
  0
POLYLINE
  5
1F7
330
1F
100
AcDbEntity
  8
STANDARDEBENE
 62
     7
100
AcDb2dPolyline
 66
     1
 10
0.0
 20
0.0
 30
0.0
  0
VERTEX
  5
1F8
330
1F7
100
AcDbEntity
  8
STANDARDEBENE
 62
     7
100
AcDbVertex
100
AcDb2dVertex
 10
-5.019159612460488
 20
4.177695040188215
 30
0.0
  0
VERTEX
  5
1F9
330
1F7
100
AcDbEntity
  8
STANDARDEBENE
 62
     7
100
AcDbVertex
100
AcDb2dVertex
 10
-4.744240992737551
 20
4.452613659911153
 30
0.0
  0
SEQEND
  5
1FA
330
1F7
100
AcDbEntity
  8
STANDARDEBENE
  0
POLYLINE
  5
1FB
330
1F
100
AcDbEntity
  8
STANDARDEBENE
 62
     7
100
AcDb2dPolyline
 66
     1
 10
0.0
 20
0.0
 30
0.0
  0
VERTEX
  5
1FC
330
1FB
100
AcDbEntity
  8
STANDARDEBENE
 62
     7
100
AcDbVertex
100
AcDb2dVertex
 10
-4.744240992737551
 20
14.90296630486801
 30
0.0
  0
VERTEX
  5
1FD
330
1FB
100
AcDbEntity
  8
STANDARDEBENE
 62
     7
100
AcDbVertex
100
AcDb2dVertex
 10
-5.019159612460488
 20
15.17788492459095
 30
0.0
  0
SEQEND
  5
1FE
330
1FB
100
AcDbEntity
  8
STANDARDEBENE
  0
POLYLINE
  5
1FF
330
1F
100
AcDbEntity
  8
STANDARDEBENE
 62
     7
100
AcDb2dPolyline
 66
     1
 10
0.0
 20
0.0
 30
0.0
  0
VERTEX
  5
200
330
1FF
100
AcDbEntity
  8
STANDARDEBENE
 62
     7
100
AcDbVertex
100
AcDb2dVertex
 10
-23.40666774588444
 20
4.342715113931683
 30
0.0
  0
VERTEX
  5
201
330
1FF
100
AcDbEntity
  8
STANDARDEBENE
 62
     7
100
AcDbVertex
100
AcDb2dVertex
 10
-23.2640407927951
 20
4.342715113931683
 30
0.0
  0
SEQEND
  5
202
330
1FF
100
AcDbEntity
  8
STANDARDEBENE
  0
POLYLINE
  5
203
330
1F
100
AcDbEntity
  8
STANDARDEBENE
 62
     7
100
AcDb2dPolyline
 66
     1
 10
0.0
 20
0.0
 30
0.0
  0
VERTEX
  5
204
330
203
100
AcDbEntity
  8
STANDARDEBENE
 62
     7
100
AcDbVertex
100
AcDb2dVertex
 10
-23.2640407927951
 20
15.01303710562174
 30
0.0
  0
VERTEX
  5
205
330
203
100
AcDbEntity
  8
STANDARDEBENE
 62
     7
100
AcDbVertex
100
AcDb2dVertex
 10
-23.40666774588444
 20
15.01303710562174
 30
0.0
  0
SEQEND
  5
206
330
203
100
AcDbEntity
  8
STANDARDEBENE
  0
SPLINE
  5
207
330
1F
100
AcDbEntity
  8
STANDARDEBENE
 62
     7
100
AcDbSpline
210
0.0
220
0.0
230
1.0
 70
     8
 71
     3
 72
     8
 73
     4
 74
     0
 42
0.0000000001
 43
0.0000000001
 40
0.0
 40
0.0
 40
0.0
 40
0.0
 40
1.0
 40
1.0
 40
1.0
 40
1.0
 10
-23.44421928667367
 20
15.0159654367842
 30
0.0
 10
-23.43112792382972
 20
15.01407063426732
 30
0.0
 10
-23.41803656098577
 20
15.01286485084748
 30
0.0
 10
-23.40666774588444
 20
15.01303710562174
 30
0.0
  0
SPLINE
  5
208
330
1F
100
AcDbEntity
  8
STANDARDEBENE
 62
     7
100
AcDbSpline
210
0.0
220
0.0
230
1.0
 70
     8
 71
     3
 72
     8
 73
     4
 74
     0
 42
0.0000000001
 43
0.0000000001
 40
0.0
 40
0.0
 40
0.0
 40
0.0
 40
1.0
 40
1.0
 40
1.0
 40
1.0
 10
-23.40666774588444
 20
4.342715113931683
 30
0.0
 10
-23.4197591087284
 20
4.342715113931683
 30
0.0
 10
-23.43285047157234
 20
4.341681585286108
 30
0.0
 10
-23.44421928667367
 20
4.33978678276922
 30
0.0
  0
SPLINE
  5
209
330
1F
100
AcDbEntity
  8
STANDARDEBENE
 62
     7
100
AcDbSpline
210
0.0
220
0.0
230
1.0
 70
     8
 71
     3
 72
     8
 73
     4
 74
     0
 42
0.0000000001
 43
0.0000000001
 40
0.0
 40
0.0
 40
0.0
 40
0.0
 40
1.0
 40
1.0
 40
1.0
 40
1.0
 10
-23.2640407927951
 20
15.01303710562174
 30
0.0
 10
-23.2433702198836
 20
15.01303710562174
 30
0.0
 10
-23.22373317561768
 20
15.01579318200994
 30
0.0
 10
-23.20719671728848
 20
15.02044406091503
 30
0.0
  0
SPLINE
  5
20A
330
1F
100
AcDbEntity
  8
STANDARDEBENE
 62
     7
100
AcDbSpline
210
0.0
220
0.0
230
1.0
 70
     8
 71
     3
 72
     8
 73
     4
 74
     0
 42
0.0000000001
 43
0.0000000001
 40
0.0
 40
0.0
 40
0.0
 40
0.0
 40
1.0
 40
1.0
 40
1.0
 40
1.0
 10
-23.20719671728848
 20
4.335308158638395
 30
0.0
 10
-23.2268337615544
 20
4.340820311414795
 30
0.0
 10
-23.2461262962718
 20
4.342887368705945
 30
0.0
 10
-23.2640407927951
 20
4.342715113931683
 30
0.0
  0
POLYLINE
  5
20B
330
1F
100
AcDbEntity
  8
STANDARDEBENE
 62
     7
100
AcDb2dPolyline
 66
     1
 10
0.0
 20
0.0
 30
0.0
  0
VERTEX
  5
20C
330
20B
100
AcDbEntity
  8
STANDARDEBENE
 62
     7
100
AcDbVertex
100
AcDb2dVertex
 10
-5.019159612460488
 20
4.177695040188215
 30
0.0
  0
VERTEX
  5
20D
330
20B
100
AcDbEntity
  8
STANDARDEBENE
 62
     7
100
AcDbVertex
100
AcDb2dVertex
 10
-5.019159612460488
 20
4.23402235137205
 30
0.0
  0
VERTEX
  5
20E
330
20B
100
AcDbEntity
  8
STANDARDEBENE
 62
     7
100
AcDbVertex
100
AcDb2dVertex
 10
-5.019159612460488
 20
4.400420463309617
 30
0.0
  0
VERTEX
  5
20F
330
20B
100
AcDbEntity
  8
STANDARDEBENE
 62
     7
100
AcDbVertex
100
AcDb2dVertex
 10
-5.019159612460488
 20
4.674822318709767
 30
0.0
  0
VERTEX
  5
210
330
20B
100
AcDbEntity
  8
STANDARDEBENE
 62
     7
100
AcDbVertex
100
AcDb2dVertex
 10
-5.019159612460488
 20
5.050854490924786
 30
0.0
  0
VERTEX
  5
211
330
20B
100
AcDbEntity
  8
STANDARDEBENE
 62
     7
100
AcDbVertex
100
AcDb2dVertex
 10
-5.019159612460488
 20
5.521454534209915
 30
0.0
  0
VERTEX
  5
212
330
20B
100
AcDbEntity
  8
STANDARDEBENE
 62
     7
100
AcDbVertex
100
AcDb2dVertex
 10
-5.019159612460488
 20
6.076114907335138
 30
0.0
  0
VERTEX
  5
213
330
20B
100
AcDbEntity
  8
STANDARDEBENE
 62
     7
100
AcDbVertex
100
AcDb2dVertex
 10
-5.019159612460488
 20
6.704328069070446
 30
0.0
  0
VERTEX
  5
214
330
20B
100
AcDbEntity
  8
STANDARDEBENE
 62
     7
100
AcDbVertex
100
AcDb2dVertex
 10
-5.019159612460488
 20
7.392830401797626
 30
0.0
  0
VERTEX
  5
215
330
20B
100
AcDbEntity
  8
STANDARDEBENE
 62
     7
100
AcDbVertex
100
AcDb2dVertex
 10
-5.019159612460488
 20
8.128013778349942
 30
0.0
  0
VERTEX
  5
216
330
20B
100
AcDbEntity
  8
STANDARDEBENE
 62
     7
100
AcDbVertex
100
AcDb2dVertex
 10
-5.019159612460488
 20
8.894892033366554
 30
0.0
  0
VERTEX
  5
217
330
20B
100
AcDbEntity
  8
STANDARDEBENE
 62
     7
100
AcDbVertex
100
AcDb2dVertex
 10
-5.019159612460488
 20
9.677617727615319
 30
0.0
  0
VERTEX
  5
218
330
20B
100
AcDbEntity
  8
STANDARDEBENE
 62
     7
100
AcDbVertex
100
AcDb2dVertex
 10
-5.019159612460488
 20
10.46086018618687
 30
0.0
  0
VERTEX
  5
219
330
20B
100
AcDbEntity
  8
STANDARDEBENE
 62
     7
100
AcDbVertex
100
AcDb2dVertex
 10
-5.019159612460488
 20
11.22756618642922
 30
0.0
  0
VERTEX
  5
21A
330
20B
100
AcDbEntity
  8
STANDARDEBENE
 62
     7
100
AcDbVertex
100
AcDb2dVertex
 10
-5.019159612460488
 20
11.96274956298154
 30
0.0
  0
VERTEX
  5
21B
330
20B
100
AcDbEntity
  8
STANDARDEBENE
 62
     7
100
AcDbVertex
100
AcDb2dVertex
 10
-5.019159612460488
 20
12.65125189570871
 30
0.0
  0
VERTEX
  5
21C
330
20B
100
AcDbEntity
  8
STANDARDEBENE
 62
     7
100
AcDbVertex
100
AcDb2dVertex
 10
-5.019159612460488
 20
13.27946505744402
 30
0.0
  0
VERTEX
  5
21D
330
20B
100
AcDbEntity
  8
STANDARDEBENE
 62
     7
100
AcDbVertex
100
AcDb2dVertex
 10
-5.019159612460488
 20
13.83429768534351
 30
0.0
  0
VERTEX
  5
21E
330
20B
100
AcDbEntity
  8
STANDARDEBENE
 62
     7
100
AcDbVertex
100
AcDb2dVertex
 10
-5.019159612460488
 20
14.30489772862864
 30
0.0
  0
VERTEX
  5
21F
330
20B
100
AcDbEntity
  8
STANDARDEBENE
 62
     7
100
AcDbVertex
100
AcDb2dVertex
 10
-5.019159612460488
 20
14.68092990084366
 30
0.0
  0
VERTEX
  5
220
330
20B
100
AcDbEntity
  8
STANDARDEBENE
 62
     7
100
AcDbVertex
100
AcDb2dVertex
 10
-5.019159612460488
 20
14.95515950146954
 30
0.0
  0
VERTEX
  5
221
330
20B
100
AcDbEntity
  8
STANDARDEBENE
 62
     7
100
AcDbVertex
100
AcDb2dVertex
 10
-5.019159612460488
 20
15.12172986818137
 30
0.0
  0
VERTEX
  5
222
330
20B
100
AcDbEntity
  8
STANDARDEBENE
 62
     7
100
AcDbVertex
100
AcDb2dVertex
 10
-5.019159612460488
 20
15.17788492459095
 30
0.0
  0
SEQEND
  5
223
330
20B
100
AcDbEntity
  8
STANDARDEBENE
  0
POLYLINE
  5
224
330
1F
100
AcDbEntity
  8
STANDARDEBENE
 62
     7
100
AcDb2dPolyline
 66
     1
 10
0.0
 20
0.0
 30
0.0
  0
VERTEX
  5
225
330
224
100
AcDbEntity
  8
STANDARDEBENE
 62
     7
100
AcDbVertex
100
AcDb2dVertex
 10
-22.61946342750486
 20
4.177695040188215
 30
0.0
  0
VERTEX
  5
226
330
224
100
AcDbEntity
  8
STANDARDEBENE
 62
     7
100
AcDbVertex
100
AcDb2dVertex
 10
-22.61946342750486
 20
4.23402235137205
 30
0.0
  0
VERTEX
  5
227
330
224
100
AcDbEntity
  8
STANDARDEBENE
 62
     7
100
AcDbVertex
100
AcDb2dVertex
 10
-22.61946342750486
 20
4.400420463309617
 30
0.0
  0
VERTEX
  5
228
330
224
100
AcDbEntity
  8
STANDARDEBENE
 62
     7
100
AcDbVertex
100
AcDb2dVertex
 10
-22.61946342750486
 20
4.674822318709767
 30
0.0
  0
VERTEX
  5
229
330
224
100
AcDbEntity
  8
STANDARDEBENE
 62
     7
100
AcDbVertex
100
AcDb2dVertex
 10
-22.61946342750486
 20
5.050854490924786
 30
0.0
  0
VERTEX
  5
22A
330
224
100
AcDbEntity
  8
STANDARDEBENE
 62
     7
100
AcDbVertex
100
AcDb2dVertex
 10
-22.61946342750486
 20
5.521454534209915
 30
0.0
  0
VERTEX
  5
22B
330
224
100
AcDbEntity
  8
STANDARDEBENE
 62
     7
100
AcDbVertex
100
AcDb2dVertex
 10
-22.61946342750486
 20
6.076114907335138
 30
0.0
  0
VERTEX
  5
22C
330
224
100
AcDbEntity
  8
STANDARDEBENE
 62
     7
100
AcDbVertex
100
AcDb2dVertex
 10
-22.61946342750486
 20
6.704328069070446
 30
0.0
  0
VERTEX
  5
22D
330
224
100
AcDbEntity
  8
STANDARDEBENE
 62
     7
100
AcDbVertex
100
AcDb2dVertex
 10
-22.61946342750486
 20
7.392830401797626
 30
0.0
  0
VERTEX
  5
22E
330
224
100
AcDbEntity
  8
STANDARDEBENE
 62
     7
100
AcDbVertex
100
AcDb2dVertex
 10
-22.61946342750486
 20
8.128013778349942
 30
0.0
  0
VERTEX
  5
22F
330
224
100
AcDbEntity
  8
STANDARDEBENE
 62
     7
100
AcDbVertex
100
AcDb2dVertex
 10
-22.61946342750486
 20
8.894892033366554
 30
0.0
  0
VERTEX
  5
230
330
224
100
AcDbEntity
  8
STANDARDEBENE
 62
     7
100
AcDbVertex
100
AcDb2dVertex
 10
-22.61946342750486
 20
9.677617727615319
 30
0.0
  0
VERTEX
  5
231
330
224
100
AcDbEntity
  8
STANDARDEBENE
 62
     7
100
AcDbVertex
100
AcDb2dVertex
 10
-22.61946342750486
 20
10.46086018618687
 30
0.0
  0
VERTEX
  5
232
330
224
100
AcDbEntity
  8
STANDARDEBENE
 62
     7
100
AcDbVertex
100
AcDb2dVertex
 10
-22.61946342750486
 20
11.22756618642922
 30
0.0
  0
VERTEX
  5
233
330
224
100
AcDbEntity
  8
STANDARDEBENE
 62
     7
100
AcDbVertex
100
AcDb2dVertex
 10
-22.61946342750486
 20
11.96274956298154
 30
0.0
  0
VERTEX
  5
234
330
224
100
AcDbEntity
  8
STANDARDEBENE
 62
     7
100
AcDbVertex
100
AcDb2dVertex
 10
-22.61946342750486
 20
12.65125189570871
 30
0.0
  0
VERTEX
  5
235
330
224
100
AcDbEntity
  8
STANDARDEBENE
 62
     7
100
AcDbVertex
100
AcDb2dVertex
 10
-22.61946342750486
 20
13.27946505744402
 30
0.0
  0
VERTEX
  5
236
330
224
100
AcDbEntity
  8
STANDARDEBENE
 62
     7
100
AcDbVertex
100
AcDb2dVertex
 10
-22.61946342750486
 20
13.83429768534351
 30
0.0
  0
VERTEX
  5
237
330
224
100
AcDbEntity
  8
STANDARDEBENE
 62
     7
100
AcDbVertex
100
AcDb2dVertex
 10
-22.61946342750486
 20
14.30489772862864
 30
0.0
  0
VERTEX
  5
238
330
224
100
AcDbEntity
  8
STANDARDEBENE
 62
     7
100
AcDbVertex
100
AcDb2dVertex
 10
-22.61946342750486
 20
14.68092990084366
 30
0.0
  0
VERTEX
  5
239
330
224
100
AcDbEntity
  8
STANDARDEBENE
 62
     7
100
AcDbVertex
100
AcDb2dVertex
 10
-22.61946342750486
 20
14.95515950146954
 30
0.0
  0
VERTEX
  5
23A
330
224
100
AcDbEntity
  8
STANDARDEBENE
 62
     7
100
AcDbVertex
100
AcDb2dVertex
 10
-22.61946342750486
 20
15.12172986818137
 30
0.0
  0
VERTEX
  5
23B
330
224
100
AcDbEntity
  8
STANDARDEBENE
 62
     7
100
AcDbVertex
100
AcDb2dVertex
 10
-22.61946342750486
 20
15.17788492459095
 30
0.0
  0
SEQEND
  5
23C
330
224
100
AcDbEntity
  8
STANDARDEBENE
  0
POLYLINE
  5
23D
330
1F
100
AcDbEntity
  8
STANDARDEBENE
 62
     7
100
AcDb2dPolyline
 66
     1
 10
0.0
 20
0.0
 30
0.0
  0
VERTEX
  5
23E
330
23D
100
AcDbEntity
  8
STANDARDEBENE
 62
     7
100
AcDbVertex
100
AcDb2dVertex
 10
-10.79417317438479
 20
6.102986652120087
 30
0.0
  0
VERTEX
  5
23F
330
23D
100
AcDbEntity
  8
STANDARDEBENE
 62
     7
100
AcDbVertex
100
AcDb2dVertex
 10
-18.4943060934667
 20
6.102986652120087
 30
0.0
  0
SEQEND
  5
240
330
23D
100
AcDbEntity
  8
STANDARDEBENE
  0
POLYLINE
  5
241
330
1F
100
AcDbEntity
  8
STANDARDEBENE
 62
     7
100
AcDb2dPolyline
 66
     1
 10
0.0
 20
0.0
 30
0.0
  0
VERTEX
  5
242
330
241
100
AcDbEntity
  8
STANDARDEBENE
 62
     7
100
AcDbVertex
100
AcDb2dVertex
 10
-18.4943060934667
 20
13.2529378222076
 30
0.0
  0
VERTEX
  5
243
330
241
100
AcDbEntity
  8
STANDARDEBENE
 62
     7
100
AcDbVertex
100
AcDb2dVertex
 10
-10.79417317438479
 20
13.2529378222076
 30
0.0
  0
SEQEND
  5
244
330
241
100
AcDbEntity
  8
STANDARDEBENE
  0
POLYLINE
  5
245
330
1F
100
AcDbEntity
  8
STANDARDEBENE
 62
     7
100
AcDb2dPolyline
 66
     1
 10
0.0
 20
0.0
 30
0.0
  0
VERTEX
  5
246
330
245
100
AcDbEntity
  8
STANDARDEBENE
 62
     7
100
AcDbVertex
100
AcDb2dVertex
 10
-18.4943060934667
 20
6.102986652120087
 30
0.0
  0
VERTEX
  5
247
330
245
100
AcDbEntity
  8
STANDARDEBENE
 62
     7
100
AcDbVertex
100
AcDb2dVertex
 10
-19.01864962632173
 20
6.142088485877673
 30
0.0
  0
VERTEX
  5
248
330
245
100
AcDbEntity
  8
STANDARDEBENE
 62
     7
100
AcDbVertex
100
AcDb2dVertex
 10
-19.52611219129903
 20
6.254743108245342
 30
0.0
  0
VERTEX
  5
249
330
245
100
AcDbEntity
  8
STANDARDEBENE
 62
     7
100
AcDbVertex
100
AcDb2dVertex
 10
-19.99774576322973
 20
6.434749347349646
 30
0.0
  0
VERTEX
  5
24A
330
245
100
AcDbEntity
  8
STANDARDEBENE
 62
     7
100
AcDbVertex
100
AcDb2dVertex
 10
-20.43286132301678
 20
6.674355738348773
 30
0.0
  0
VERTEX
  5
24B
330
245
100
AcDbEntity
  8
STANDARDEBENE
 62
     7
100
AcDbVertex
100
AcDb2dVertex
 10
-20.88141275519632
 20
7.016453720034082
 30
0.0
  0
VERTEX
  5
24C
330
245
100
AcDbEntity
  8
STANDARDEBENE
 62
     7
100
AcDbVertex
100
AcDb2dVertex
 10
-21.27036403548102
 20
7.425386554133237
 30
0.0
  0
VERTEX
  5
24D
330
245
100
AcDbEntity
  8
STANDARDEBENE
 62
     7
100
AcDbVertex
100
AcDb2dVertex
 10
-21.6314100423352
 20
7.964371742800574
 30
0.0
  0
VERTEX
  5
24E
330
245
100
AcDbEntity
  8
STANDARDEBENE
 62
     7
100
AcDbVertex
100
AcDb2dVertex
 10
-21.89358180876272
 20
8.57105305775307
 30
0.0
  0
VERTEX
  5
24F
330
245
100
AcDbEntity
  8
STANDARDEBENE
 62
     7
100
AcDbVertex
100
AcDb2dVertex
 10
-22.03035209952714
 20
9.15585801637423
 30
0.0
  0
VERTEX
  5
250
330
245
100
AcDbEntity
  8
STANDARDEBENE
 62
     7
100
AcDbVertex
100
AcDb2dVertex
 10
-22.06824814986488
 20
9.760989038358364
 30
0.0
  0
VERTEX
  5
251
330
245
100
AcDbEntity
  8
STANDARDEBENE
 62
     7
100
AcDbVertex
100
AcDb2dVertex
 10
-22.01863877487729
 20
10.27620306817748
 30
0.0
  0
VERTEX
  5
252
330
245
100
AcDbEntity
  8
STANDARDEBENE
 62
     7
100
AcDbVertex
100
AcDb2dVertex
 10
-21.89702690424797
 20
10.77453613011887
 30
0.0
  0
VERTEX
  5
253
330
245
100
AcDbEntity
  8
STANDARDEBENE
 62
     7
100
AcDbVertex
100
AcDb2dVertex
 10
-21.7085801812048
 20
11.24272460656432
 30
0.0
  0
VERTEX
  5
254
330
245
100
AcDbEntity
  8
STANDARDEBENE
 62
     7
100
AcDbVertex
100
AcDb2dVertex
 10
-21.46087781581534
 20
11.67353379699481
 30
0.0
  0
VERTEX
  5
255
330
245
100
AcDbEntity
  8
STANDARDEBENE
 62
     7
100
AcDbVertex
100
AcDb2dVertex
 10
-21.11740179593593
 20
12.1070990638135
 30
0.0
  0
VERTEX
  5
256
330
245
100
AcDbEntity
  8
STANDARDEBENE
 62
     7
100
AcDbVertex
100
AcDb2dVertex
 10
-20.71363660506465
 20
12.48054741441459
 30
0.0
  0
VERTEX
  5
257
330
245
100
AcDbEntity
  8
STANDARDEBENE
 62
     7
100
AcDbVertex
100
AcDb2dVertex
 10
-20.18515895762732
 20
12.82746852977924
 30
0.0
  0
VERTEX
  5
258
330
245
100
AcDbEntity
  8
STANDARDEBENE
 62
     7
100
AcDbVertex
100
AcDb2dVertex
 10
-19.5932915532614
 20
13.07982177407379
 30
0.0
  0
VERTEX
  5
259
330
245
100
AcDbEntity
  8
STANDARDEBENE
 62
     7
100
AcDbVertex
100
AcDb2dVertex
 10
-19.0541341098198
 20
13.20815158089935
 30
0.0
  0
VERTEX
  5
25A
330
245
100
AcDbEntity
  8
STANDARDEBENE
 62
     7
100
AcDbVertex
100
AcDb2dVertex
 10
-18.4943060934667
 20
13.2529378222076
 30
0.0
  0
SEQEND
  5
25B
330
245
100
AcDbEntity
  8
STANDARDEBENE
  0
POLYLINE
  5
25C
330
1F
100
AcDbEntity
  8
STANDARDEBENE
 62
     7
100
AcDb2dPolyline
 66
     1
 10
0.0
 20
0.0
 30
0.0
  0
VERTEX
  5
25D
330
25C
100
AcDbEntity
  8
STANDARDEBENE
 62
     7
100
AcDbVertex
100
AcDb2dVertex
 10
-10.79417317438479
 20
13.2529378222076
 30
0.0
  0
VERTEX
  5
25E
330
25C
100
AcDbEntity
  8
STANDARDEBENE
 62
     7
100
AcDbVertex
100
AcDb2dVertex
 10
-10.26982964152977
 20
13.21383598845001
 30
0.0
  0
VERTEX
  5
25F
330
25C
100
AcDbEntity
  8
STANDARDEBENE
 62
     7
100
AcDbVertex
100
AcDb2dVertex
 10
-9.762367076552465
 20
13.10083685653382
 30
0.0
  0
VERTEX
  5
260
330
25C
100
AcDbEntity
  8
STANDARDEBENE
 62
     7
100
AcDbVertex
100
AcDb2dVertex
 10
-9.29073350462176
 20
12.92100287220378
 30
0.0
  0
VERTEX
  5
261
330
25C
100
AcDbEntity
  8
STANDARDEBENE
 62
     7
100
AcDbVertex
100
AcDb2dVertex
 10
-8.855617944834707
 20
12.68139648120465
 30
0.0
  0
VERTEX
  5
262
330
25C
100
AcDbEntity
  8
STANDARDEBENE
 62
     7
100
AcDbVertex
100
AcDb2dVertex
 10
-8.407411022203704
 20
12.33929849951934
 30
0.0
  0
VERTEX
  5
263
330
25C
100
AcDbEntity
  8
STANDARDEBENE
 62
     7
100
AcDbVertex
100
AcDb2dVertex
 10
-8.018115232370471
 20
11.93036566542019
 30
0.0
  0
VERTEX
  5
264
330
25C
100
AcDbEntity
  8
STANDARDEBENE
 62
     7
100
AcDbVertex
100
AcDb2dVertex
 10
-7.657069225516288
 20
11.39138047675285
 30
0.0
  0
VERTEX
  5
265
330
25C
100
AcDbEntity
  8
STANDARDEBENE
 62
     7
100
AcDbVertex
100
AcDb2dVertex
 10
-7.394552949540251
 20
10.78452690702609
 30
0.0
  0
VERTEX
  5
266
330
25C
100
AcDbEntity
  8
STANDARDEBENE
 62
     7
100
AcDbVertex
100
AcDb2dVertex
 10
-7.258127168324357
 20
10.19972194840493
 30
0.0
  0
VERTEX
  5
267
330
25C
100
AcDbEntity
  8
STANDARDEBENE
 62
     7
100
AcDbVertex
100
AcDb2dVertex
 10
-7.220575627535134
 20
9.594590926420798
 30
0.0
  0
VERTEX
  5
268
330
25C
100
AcDbEntity
  8
STANDARDEBENE
 62
     7
100
AcDbVertex
100
AcDb2dVertex
 10
-7.269840492974207
 20
9.079549151375947
 30
0.0
  0
VERTEX
  5
269
330
25C
100
AcDbEntity
  8
STANDARDEBENE
 62
     7
100
AcDbVertex
100
AcDb2dVertex
 10
-7.391796873152051
 20
8.58138834420882
 30
0.0
  0
VERTEX
  5
26A
330
25C
100
AcDbEntity
  8
STANDARDEBENE
 62
     7
100
AcDbVertex
100
AcDb2dVertex
 10
-7.579899086646693
 20
8.113027612989105
 30
0.0
  0
VERTEX
  5
26B
330
25C
100
AcDbEntity
  8
STANDARDEBENE
 62
     7
100
AcDbVertex
100
AcDb2dVertex
 10
-7.827945961584681
 20
7.682218422558613
 30
0.0
  0
VERTEX
  5
26C
330
25C
100
AcDbEntity
  8
STANDARDEBENE
 62
     7
100
AcDbVertex
100
AcDb2dVertex
 10
-8.17142198146409
 20
7.248653155739921
 30
0.0
  0
VERTEX
  5
26D
330
25C
100
AcDbEntity
  8
STANDARDEBENE
 62
     7
100
AcDbVertex
100
AcDb2dVertex
 10
-8.574842662786846
 20
6.875032550364575
 30
0.0
  0
VERTEX
  5
26E
330
25C
100
AcDbEntity
  8
STANDARDEBENE
 62
     7
100
AcDbVertex
100
AcDb2dVertex
 10
-9.103664819772696
 20
6.528283689774179
 30
0.0
  0
VERTEX
  5
26F
330
25C
100
AcDbEntity
  8
STANDARDEBENE
 62
     7
100
AcDbVertex
100
AcDb2dVertex
 10
-9.695187714590093
 20
6.275930445479629
 30
0.0
  0
VERTEX
  5
270
330
25C
100
AcDbEntity
  8
STANDARDEBENE
 62
     7
100
AcDbVertex
100
AcDb2dVertex
 10
-10.23434515803169
 20
6.14742838387981
 30
0.0
  0
VERTEX
  5
271
330
25C
100
AcDbEntity
  8
STANDARDEBENE
 62
     7
100
AcDbVertex
100
AcDb2dVertex
 10
-10.79417317438479
 20
6.102986652120087
 30
0.0
  0
SEQEND
  5
272
330
25C
100
AcDbEntity
  8
STANDARDEBENE
  0
POLYLINE
  5
273
330
1F
100
AcDbEntity
  8
STANDARDEBENE
 62
     7
100
AcDb2dPolyline
 66
     1
 10
0.0
 20
0.0
 30
0.0
  0
VERTEX
  5
274
330
273
100
AcDbEntity
  8
STANDARDEBENE
 62
     7
100
AcDbVertex
100
AcDb2dVertex
 10
-23.44421928667367
 20
3.077848306522205
 30
0.0
  0
VERTEX
  5
275
330
273
100
AcDbEntity
  8
STANDARDEBENE
 62
     7
100
AcDbVertex
100
AcDb2dVertex
 10
-23.44421928667367
 20
3.134520127254564
 30
0.0
  0
VERTEX
  5
276
330
273
100
AcDbEntity
  8
STANDARDEBENE
 62
     7
100
AcDbVertex
100
AcDb2dVertex
 10
-23.44421928667367
 20
3.302640786934757
 30
0.0
  0
VERTEX
  5
277
330
273
100
AcDbEntity
  8
STANDARDEBENE
 62
     7
100
AcDbVertex
100
AcDb2dVertex
 10
-23.44421928667367
 20
3.580315483045894
 30
0.0
  0
VERTEX
  5
278
330
273
100
AcDbEntity
  8
STANDARDEBENE
 62
     7
100
AcDbVertex
100
AcDb2dVertex
 10
-23.44421928667367
 20
3.962032062811576
 30
0.0
  0
VERTEX
  5
279
330
273
100
AcDbEntity
  8
STANDARDEBENE
 62
     7
100
AcDbVertex
100
AcDb2dVertex
 10
-23.44421928667367
 20
4.441589354358353
 30
0.0
  0
VERTEX
  5
27A
330
273
100
AcDbEntity
  8
STANDARDEBENE
 62
     7
100
AcDbVertex
100
AcDb2dVertex
 10
-23.44421928667367
 20
5.011063638070151
 30
0.0
  0
VERTEX
  5
27B
330
273
100
AcDbEntity
  8
STANDARDEBENE
 62
     7
100
AcDbVertex
100
AcDb2dVertex
 10
-23.44421928667367
 20
5.659947372716958
 30
0.0
  0
VERTEX
  5
27C
330
273
100
AcDbEntity
  8
STANDARDEBENE
 62
     7
100
AcDbVertex
100
AcDb2dVertex
 10
-23.44421928667367
 20
6.378077526617287
 30
0.0
  0
VERTEX
  5
27D
330
273
100
AcDbEntity
  8
STANDARDEBENE
 62
     7
100
AcDbVertex
100
AcDb2dVertex
 10
-23.44421928667367
 20
7.152190482152925
 30
0.0
  0
VERTEX
  5
27E
330
273
100
AcDbEntity
  8
STANDARDEBENE
 62
     7
100
AcDbVertex
100
AcDb2dVertex
 10
-23.44421928667367
 20
7.969711640802712
 30
0.0
  0
VERTEX
  5
27F
330
273
100
AcDbEntity
  8
STANDARDEBENE
 62
     7
100
AcDbVertex
100
AcDb2dVertex
 10
-23.44421928667367
 20
8.81634385630286
 30
0.0
  0
VERTEX
  5
280
330
273
100
AcDbEntity
  8
STANDARDEBENE
 62
     7
100
AcDbVertex
100
AcDb2dVertex
 10
-23.44421928667367
 20
9.677617727615319
 30
0.0
  0
VERTEX
  5
281
330
273
100
AcDbEntity
  8
STANDARDEBENE
 62
     7
100
AcDbVertex
100
AcDb2dVertex
 10
-23.44421928667367
 20
10.53940836325057
 30
0.0
  0
VERTEX
  5
282
330
273
100
AcDbEntity
  8
STANDARDEBENE
 62
     7
100
AcDbVertex
100
AcDb2dVertex
 10
-23.44421928667367
 20
11.38604057875071
 30
0.0
  0
VERTEX
  5
283
330
273
100
AcDbEntity
  8
STANDARDEBENE
 62
     7
100
AcDbVertex
100
AcDb2dVertex
 10
-23.44421928667367
 20
12.2035617374005
 30
0.0
  0
VERTEX
  5
284
330
273
100
AcDbEntity
  8
STANDARDEBENE
 62
     7
100
AcDbVertex
100
AcDb2dVertex
 10
-23.44421928667367
 20
12.97767469293614
 30
0.0
  0
VERTEX
  5
285
330
273
100
AcDbEntity
  8
STANDARDEBENE
 62
     7
100
AcDbVertex
100
AcDb2dVertex
 10
-23.44421928667367
 20
13.69580484683647
 30
0.0
  0
VERTEX
  5
286
330
273
100
AcDbEntity
  8
STANDARDEBENE
 62
     7
100
AcDbVertex
100
AcDb2dVertex
 10
-23.44421928667367
 20
14.34468858148327
 30
0.0
  0
VERTEX
  5
287
330
273
100
AcDbEntity
  8
STANDARDEBENE
 62
     7
100
AcDbVertex
100
AcDb2dVertex
 10
-23.44421928667367
 20
14.91399061042081
 30
0.0
  0
VERTEX
  5
288
330
273
100
AcDbEntity
  8
STANDARDEBENE
 62
     7
100
AcDbVertex
100
AcDb2dVertex
 10
-23.44421928667367
 20
15.39372015674185
 30
0.0
  0
VERTEX
  5
289
330
273
100
AcDbEntity
  8
STANDARDEBENE
 62
     7
100
AcDbVertex
100
AcDb2dVertex
 10
-23.44421928667367
 20
15.77543673650753
 30
0.0
  0
VERTEX
  5
28A
330
273
100
AcDbEntity
  8
STANDARDEBENE
 62
     7
100
AcDbVertex
100
AcDb2dVertex
 10
-23.44421928667367
 20
16.0529391778444
 30
0.0
  0
VERTEX
  5
28B
330
273
100
AcDbEntity
  8
STANDARDEBENE
 62
     7
100
AcDbVertex
100
AcDb2dVertex
 10
-23.44421928667367
 20
16.22123209229886
 30
0.0
  0
VERTEX
  5
28C
330
273
100
AcDbEntity
  8
STANDARDEBENE
 62
     7
100
AcDbVertex
100
AcDb2dVertex
 10
-23.44421928667367
 20
16.27790391303122
 30
0.0
  0
SEQEND
  5
28D
330
273
100
AcDbEntity
  8
STANDARDEBENE
  0
POLYLINE
  5
28E
330
1F
100
AcDbEntity
  8
STANDARDEBENE
 62
     7
100
AcDb2dPolyline
 66
     1
 10
0.0
 20
0.0
 30
0.0
  0
VERTEX
  5
28F
330
28E
100
AcDbEntity
  8
STANDARDEBENE
 62
     7
100
AcDbVertex
100
AcDb2dVertex
 10
-24.54423827511394
 20
16.27790391303122
 30
0.0
  0
VERTEX
  5
290
330
28E
100
AcDbEntity
  8
STANDARDEBENE
 62
     7
100
AcDbVertex
100
AcDb2dVertex
 10
-24.54423827511394
 20
16.22123209229886
 30
0.0
  0
VERTEX
  5
291
330
28E
100
AcDbEntity
  8
STANDARDEBENE
 62
     7
100
AcDbVertex
100
AcDb2dVertex
 10
-24.54423827511394
 20
16.0529391778444
 30
0.0
  0
VERTEX
  5
292
330
28E
100
AcDbEntity
  8
STANDARDEBENE
 62
     7
100
AcDbVertex
100
AcDb2dVertex
 10
-24.54423827511394
 20
15.77543673650753
 30
0.0
  0
VERTEX
  5
293
330
28E
100
AcDbEntity
  8
STANDARDEBENE
 62
     7
100
AcDbVertex
100
AcDb2dVertex
 10
-24.54423827511394
 20
15.39372015674185
 30
0.0
  0
VERTEX
  5
294
330
28E
100
AcDbEntity
  8
STANDARDEBENE
 62
     7
100
AcDbVertex
100
AcDb2dVertex
 10
-24.54423827511394
 20
14.91399061042081
 30
0.0
  0
VERTEX
  5
295
330
28E
100
AcDbEntity
  8
STANDARDEBENE
 62
     7
100
AcDbVertex
100
AcDb2dVertex
 10
-24.54423827511394
 20
14.34468858148327
 30
0.0
  0
VERTEX
  5
296
330
28E
100
AcDbEntity
  8
STANDARDEBENE
 62
     7
100
AcDbVertex
100
AcDb2dVertex
 10
-24.54423827511394
 20
13.69580484683647
 30
0.0
  0
VERTEX
  5
297
330
28E
100
AcDbEntity
  8
STANDARDEBENE
 62
     7
100
AcDbVertex
100
AcDb2dVertex
 10
-24.54423827511394
 20
12.97767469293614
 30
0.0
  0
VERTEX
  5
298
330
28E
100
AcDbEntity
  8
STANDARDEBENE
 62
     7
100
AcDbVertex
100
AcDb2dVertex
 10
-24.54423827511394
 20
12.2035617374005
 30
0.0
  0
VERTEX
  5
299
330
28E
100
AcDbEntity
  8
STANDARDEBENE
 62
     7
100
AcDbVertex
100
AcDb2dVertex
 10
-24.54423827511394
 20
11.38604057875071
 30
0.0
  0
VERTEX
  5
29A
330
28E
100
AcDbEntity
  8
STANDARDEBENE
 62
     7
100
AcDbVertex
100
AcDb2dVertex
 10
-24.54423827511394
 20
10.53940836325057
 30
0.0
  0
VERTEX
  5
29B
330
28E
100
AcDbEntity
  8
STANDARDEBENE
 62
     7
100
AcDbVertex
100
AcDb2dVertex
 10
-24.54423827511394
 20
9.677617727615319
 30
0.0
  0
VERTEX
  5
29C
330
28E
100
AcDbEntity
  8
STANDARDEBENE
 62
     7
100
AcDbVertex
100
AcDb2dVertex
 10
-24.54423827511394
 20
8.81634385630286
 30
0.0
  0
VERTEX
  5
29D
330
28E
100
AcDbEntity
  8
STANDARDEBENE
 62
     7
100
AcDbVertex
100
AcDb2dVertex
 10
-24.54423827511394
 20
7.969711640802712
 30
0.0
  0
VERTEX
  5
29E
330
28E
100
AcDbEntity
  8
STANDARDEBENE
 62
     7
100
AcDbVertex
100
AcDb2dVertex
 10
-24.54423827511394
 20
7.152190482152925
 30
0.0
  0
VERTEX
  5
29F
330
28E
100
AcDbEntity
  8
STANDARDEBENE
 62
     7
100
AcDbVertex
100
AcDb2dVertex
 10
-24.54423827511394
 20
6.378077526617287
 30
0.0
  0
VERTEX
  5
2A0
330
28E
100
AcDbEntity
  8
STANDARDEBENE
 62
     7
100
AcDbVertex
100
AcDb2dVertex
 10
-24.54423827511394
 20
5.659947372716958
 30
0.0
  0
VERTEX
  5
2A1
330
28E
100
AcDbEntity
  8
STANDARDEBENE
 62
     7
100
AcDbVertex
100
AcDb2dVertex
 10
-24.54423827511394
 20
5.011063638070151
 30
0.0
  0
VERTEX
  5
2A2
330
28E
100
AcDbEntity
  8
STANDARDEBENE
 62
     7
100
AcDbVertex
100
AcDb2dVertex
 10
-24.54423827511394
 20
4.441589354358353
 30
0.0
  0
VERTEX
  5
2A3
330
28E
100
AcDbEntity
  8
STANDARDEBENE
 62
     7
100
AcDbVertex
100
AcDb2dVertex
 10
-24.54423827511394
 20
3.962032062811576
 30
0.0
  0
VERTEX
  5
2A4
330
28E
100
AcDbEntity
  8
STANDARDEBENE
 62
     7
100
AcDbVertex
100
AcDb2dVertex
 10
-24.54423827511394
 20
3.580315483045894
 30
0.0
  0
VERTEX
  5
2A5
330
28E
100
AcDbEntity
  8
STANDARDEBENE
 62
     7
100
AcDbVertex
100
AcDb2dVertex
 10
-24.54423827511394
 20
3.302640786934757
 30
0.0
  0
VERTEX
  5
2A6
330
28E
100
AcDbEntity
  8
STANDARDEBENE
 62
     7
100
AcDbVertex
100
AcDb2dVertex
 10
-24.54423827511394
 20
3.134520127254564
 30
0.0
  0
VERTEX
  5
2A7
330
28E
100
AcDbEntity
  8
STANDARDEBENE
 62
     7
100
AcDbVertex
100
AcDb2dVertex
 10
-24.54423827511394
 20
3.077848306522205
 30
0.0
  0
SEQEND
  5
2A8
330
28E
100
AcDbEntity
  8
STANDARDEBENE
  0
POLYLINE
  5
2A9
330
1F
100
AcDbEntity
  8
STANDARDEBENE
 62
     7
100
AcDb2dPolyline
 66
     1
 10
0.0
 20
0.0
 30
0.0
  0
VERTEX
  5
2AA
330
2A9
100
AcDbEntity
  8
STANDARDEBENE
 62
     7
100
AcDbVertex
100
AcDb2dVertex
 10
-4.744240992737551
 20
14.90296630486801
 30
0.0
  0
VERTEX
  5
2AB
330
2A9
100
AcDbEntity
  8
STANDARDEBENE
 62
     7
100
AcDbVertex
100
AcDb2dVertex
 10
-4.744240992737551
 20
14.84439968161876
 30
0.0
  0
VERTEX
  5
2AC
330
2A9
100
AcDbEntity
  8
STANDARDEBENE
 62
     7
100
AcDbVertex
100
AcDb2dVertex
 10
-4.744240992737551
 20
14.67076686916217
 30
0.0
  0
VERTEX
  5
2AD
330
2A9
100
AcDbEntity
  8
STANDARDEBENE
 62
     7
100
AcDbVertex
100
AcDb2dVertex
 10
-4.744240992737551
 20
14.38534070820922
 30
0.0
  0
VERTEX
  5
2AE
330
2A9
100
AcDbEntity
  8
STANDARDEBENE
 62
     7
100
AcDbVertex
100
AcDb2dVertex
 10
-4.744240992737551
 20
13.99483913495615
 30
0.0
  0
VERTEX
  5
2AF
330
2A9
100
AcDbEntity
  8
STANDARDEBENE
 62
     7
100
AcDbVertex
100
AcDb2dVertex
 10
-4.744240992737551
 20
13.50821939766461
 30
0.0
  0
VERTEX
  5
2B0
330
2A9
100
AcDbEntity
  8
STANDARDEBENE
 62
     7
100
AcDbVertex
100
AcDb2dVertex
 10
-4.744240992737551
 20
12.93581678279035
 30
0.0
  0
VERTEX
  5
2B1
330
2A9
100
AcDbEntity
  8
STANDARDEBENE
 62
     7
100
AcDbVertex
100
AcDb2dVertex
 10
-4.744240992737551
 20
12.29020588885453
 30
0.0
  0
VERTEX
  5
2B2
330
2A9
100
AcDbEntity
  8
STANDARDEBENE
 62
     7
100
AcDbVertex
100
AcDb2dVertex
 10
-4.744240992737551
 20
11.58688964554078
 30
0.0
  0
VERTEX
  5
2B3
330
2A9
100
AcDbEntity
  8
STANDARDEBENE
 62
     7
100
AcDbVertex
100
AcDb2dVertex
 10
-4.744240992737551
 20
10.84068196343566
 30
0.0
  0
VERTEX
  5
2B4
330
2A9
100
AcDbEntity
  8
STANDARDEBENE
 62
     7
100
AcDbVertex
100
AcDb2dVertex
 10
-4.744240992737551
 20
10.06811930086839
 30
0.0
  0
VERTEX
  5
2B5
330
2A9
100
AcDbEntity
  8
STANDARDEBENE
 62
     7
100
AcDbVertex
100
AcDb2dVertex
 10
-4.744240992737551
 20
9.287460663910775
 30
0.0
  0
VERTEX
  5
2B6
330
2A9
100
AcDbEntity
  8
STANDARDEBENE
 62
     7
100
AcDbVertex
100
AcDb2dVertex
 10
-4.744240992737551
 20
8.515070256117761
 30
0.0
  0
VERTEX
  5
2B7
330
2A9
100
AcDbEntity
  8
STANDARDEBENE
 62
     7
100
AcDbVertex
100
AcDb2dVertex
 10
-4.744240992737551
 20
7.768862574012646
 30
0.0
  0
VERTEX
  5
2B8
330
2A9
100
AcDbEntity
  8
STANDARDEBENE
 62
     7
100
AcDbVertex
100
AcDb2dVertex
 10
-4.744240992737551
 20
7.065546330698892
 30
0.0
  0
VERTEX
  5
2B9
330
2A9
100
AcDbEntity
  8
STANDARDEBENE
 62
     7
100
AcDbVertex
100
AcDb2dVertex
 10
-4.744240992737551
 20
6.420107691537335
 30
0.0
  0
VERTEX
  5
2BA
330
2A9
100
AcDbEntity
  8
STANDARDEBENE
 62
     7
100
AcDbVertex
100
AcDb2dVertex
 10
-4.744240992737551
 20
5.847532821888811
 30
0.0
  0
VERTEX
  5
2BB
330
2A9
100
AcDbEntity
  8
STANDARDEBENE
 62
     7
100
AcDbVertex
100
AcDb2dVertex
 10
-4.744240992737551
 20
5.360913084597272
 30
0.0
  0
VERTEX
  5
2BC
330
2A9
100
AcDbEntity
  8
STANDARDEBENE
 62
     7
100
AcDbVertex
100
AcDb2dVertex
 10
-4.744240992737551
 20
4.970239256569941
 30
0.0
  0
VERTEX
  5
2BD
330
2A9
100
AcDbEntity
  8
STANDARDEBENE
 62
     7
100
AcDbVertex
100
AcDb2dVertex
 10
-4.744240992737551
 20
4.684985350391254
 30
0.0
  0
VERTEX
  5
2BE
330
2A9
100
AcDbEntity
  8
STANDARDEBENE
 62
     7
100
AcDbVertex
100
AcDb2dVertex
 10
-4.744240992737551
 20
4.511352537934662
 30
0.0
  0
VERTEX
  5
2BF
330
2A9
100
AcDbEntity
  8
STANDARDEBENE
 62
     7
100
AcDbVertex
100
AcDb2dVertex
 10
-4.744240992737551
 20
4.452613659911153
 30
0.0
  0
SEQEND
  5
2C0
330
2A9
100
AcDbEntity
  8
STANDARDEBENE
  0
POLYLINE
  5
2C1
330
1F
100
AcDbEntity
  8
STANDARDEBENE
 62
     7
100
AcDb2dPolyline
 66
     1
 10
0.0
 20
0.0
 30
0.0
  0
VERTEX
  5
2C2
330
2C1
100
AcDbEntity
  8
STANDARDEBENE
 62
     7
100
AcDbVertex
100
AcDb2dVertex
 10
-9.313471134824411
 20
12.93168266820805
 30
0.0
  0
VERTEX
  5
2C3
330
2C1
100
AcDbEntity
  8
STANDARDEBENE
 62
     7
100
AcDbVertex
100
AcDb2dVertex
 10
-19.97535264257561
 20
12.93168266820805
 30
0.0
  0
SEQEND
  5
2C4
330
2C1
100
AcDbEntity
  8
STANDARDEBENE
  0
POLYLINE
  5
2C5
330
1F
100
AcDbEntity
  8
STANDARDEBENE
 62
     7
100
AcDb2dPolyline
 66
     1
 10
0.0
 20
0.0
 30
0.0
  0
VERTEX
  5
2C6
330
2C5
100
AcDbEntity
  8
STANDARDEBENE
 62
     7
100
AcDbVertex
100
AcDb2dVertex
 10
-19.97535264257561
 20
6.424069551345371
 30
0.0
  0
VERTEX
  5
2C7
330
2C5
100
AcDbEntity
  8
STANDARDEBENE
 62
     7
100
AcDbVertex
100
AcDb2dVertex
 10
-9.313471134824411
 20
6.424069551345371
 30
0.0
  0
SEQEND
  5
2C8
330
2C5
100
AcDbEntity
  8
STANDARDEBENE
  0
POLYLINE
  5
2C9
330
1F
100
AcDbEntity
  8
STANDARDEBENE
  6
AI-LINETYPE-1
 62
     7
100
AcDb2dPolyline
 66
     1
 10
0.0
 20
0.0
 30
0.0
  0
VERTEX
  5
2CA
330
2C9
100
AcDbEntity
  8
STANDARDEBENE
  6
AI-LINETYPE-1
 62
     7
100
AcDbVertex
100
AcDb2dVertex
 10
-4.411444768862417
 20
9.591145830935547
 30
0.0
  0
VERTEX
  5
2CB
330
2C9
100
AcDbEntity
  8
STANDARDEBENE
  6
AI-LINETYPE-1
 62
     7
100
AcDbVertex
100
AcDb2dVertex
 10
-25.11440157792279
 20
9.591145830935547
 30
0.0
  0
SEQEND
  5
2CC
330
2C9
100
AcDbEntity
  8
STANDARDEBENE
  6
AI-LINETYPE-1
  0
POLYLINE
  5
2CF
330
1F
100
AcDbEntity
  8
BEMAßUNG
 62
     7
100
AcDb2dPolyline
 66
     1
 10
0.0
 20
0.0
 30
0.0
  0
VERTEX
  5
2D0
330
2CF
100
AcDbEntity
  8
BEMAßUNG
 62
     7
100
AcDbVertex
100
AcDb2dVertex
 10
-5.019159612460488
 20
15.17788492459095
 30
0.0
  0
VERTEX
  5
2D1
330
2CF
100
AcDbEntity
  8
BEMAßUNG
 62
     7
100
AcDbVertex
100
AcDb2dVertex
 10
10.15648600006505
 20
15.17788492459095
 30
0.0
  0
SEQEND
  5
2D2
330
2CF
100
AcDbEntity
  8
BEMAßUNG
  0
POLYLINE
  5
2D3
330
1F
100
AcDbEntity
  8
BEMAßUNG
 62
     7
100
AcDb2dPolyline
 66
     1
 10
0.0
 20
0.0
 30
0.0
  0
VERTEX
  5
2D4
330
2D3
100
AcDbEntity
  8
BEMAßUNG
 62
     7
100
AcDbVertex
100
AcDb2dVertex
 10
-5.019159612460488
 20
4.177695040188215
 30
0.0
  0
VERTEX
  5
2D5
330
2D3
100
AcDbEntity
  8
BEMAßUNG
 62
     7
100
AcDbVertex
100
AcDb2dVertex
 10
10.15648600006505
 20
4.177695040188215
 30
0.0
  0
SEQEND
  5
2D6
330
2D3
100
AcDbEntity
  8
BEMAßUNG
  0
POLYLINE
  5
2D7
330
1F
100
AcDbEntity
  8
BEMAßUNG
 62
     7
100
AcDb2dPolyline
 66
     1
 10
0.0
 20
0.0
 30
0.0
  0
VERTEX
  5
2D8
330
2D7
100
AcDbEntity
  8
BEMAßUNG
 62
     7
100
AcDbVertex
100
AcDb2dVertex
 10
9.056811521173298
 20
15.17788492459095
 30
0.0
  0
VERTEX
  5
2D9
330
2D7
100
AcDbEntity
  8
BEMAßUNG
 62
     7
100
AcDbVertex
100
AcDb2dVertex
 10
9.056811521173298
 20
4.177695040188215
 30
0.0
  0
SEQEND
  5
2DA
330
2D7
100
AcDbEntity
  8
BEMAßUNG
  0
POLYLINE
  5
2DB
330
1F
100
AcDbEntity
  8
BEMAßUNG
 62
     7
100
AcDb2dPolyline
 66
     1
 10
0.0
 20
0.0
 30
0.0
  0
VERTEX
  5
2DC
330
2DB
100
AcDbEntity
  8
BEMAßUNG
 62
     7
100
AcDbVertex
100
AcDb2dVertex
 10
9.056811521173298
 20
15.17788492459095
 30
0.0
  0
VERTEX
  5
2DD
330
2DB
100
AcDbEntity
  8
BEMAßUNG
 62
     7
100
AcDbVertex
100
AcDb2dVertex
 10
8.875599498649157
 20
13.80277506165347
 30
0.0
  0
VERTEX
  5
2DE
330
2DB
100
AcDbEntity
  8
BEMAßUNG
 62
     7
100
AcDbVertex
100
AcDb2dVertex
 10
9.237679034148915
 20
13.80277506165347
 30
0.0
  0
VERTEX
  5
2DF
330
2DB
100
AcDbEntity
  8
BEMAßUNG
 62
     7
100
AcDbVertex
100
AcDb2dVertex
 10
9.056811521173298
 20
15.17788492459095
 30
0.0
  0
SEQEND
  5
2E0
330
2DB
100
AcDbEntity
  8
BEMAßUNG
  0
POLYLINE
  5
2E1
330
1F
100
AcDbEntity
  8
BEMAßUNG
 62
     7
100
AcDb2dPolyline
 66
     1
 10
0.0
 20
0.0
 30
0.0
  0
VERTEX
  5
2E2
330
2E1
100
AcDbEntity
  8
BEMAßUNG
 62
     7
100
AcDbVertex
100
AcDb2dVertex
 10
8.889035371041631
 20
13.80277506165347
 30
0.0
  0
VERTEX
  5
2E3
330
2E1
100
AcDbEntity
  8
BEMAßUNG
 62
     7
100
AcDbVertex
100
AcDb2dVertex
 10
8.889035371041631
 20
13.90440537846834
 30
0.0
  0
SEQEND
  5
2E4
330
2E1
100
AcDbEntity
  8
BEMAßUNG
  0
POLYLINE
  5
2E5
330
1F
100
AcDbEntity
  8
BEMAßUNG
 62
     7
100
AcDb2dPolyline
 66
     1
 10
0.0
 20
0.0
 30
0.0
  0
VERTEX
  5
2E6
330
2E5
100
AcDbEntity
  8
BEMAßUNG
 62
     7
100
AcDbVertex
100
AcDb2dVertex
 10
8.889035371041631
 20
13.80277506165347
 30
0.0
  0
VERTEX
  5
2E7
330
2E5
100
AcDbEntity
  8
BEMAßUNG
 62
     7
100
AcDbVertex
100
AcDb2dVertex
 10
8.889035371041631
 20
13.90440537846834
 30
0.0
  0
SEQEND
  5
2E8
330
2E5
100
AcDbEntity
  8
BEMAßUNG
  0
POLYLINE
  5
2E9
330
1F
100
AcDbEntity
  8
BEMAßUNG
 62
     7
100
AcDb2dPolyline
 66
     1
 10
0.0
 20
0.0
 30
0.0
  0
VERTEX
  5
2EA
330
2E9
100
AcDbEntity
  8
BEMAßUNG
 62
     7
100
AcDbVertex
100
AcDb2dVertex
 10
8.916940644472154
 20
13.80277506165347
 30
0.0
  0
VERTEX
  5
2EB
330
2E9
100
AcDbEntity
  8
BEMAßUNG
 62
     7
100
AcDbVertex
100
AcDb2dVertex
 10
8.916940644472154
 20
14.116795515134
 30
0.0
  0
SEQEND
  5
2EC
330
2E9
100
AcDbEntity
  8
BEMAßUNG
  0
POLYLINE
  5
2ED
330
1F
100
AcDbEntity
  8
BEMAßUNG
 62
     7
100
AcDb2dPolyline
 66
     1
 10
0.0
 20
0.0
 30
0.0
  0
VERTEX
  5
2EE
330
2ED
100
AcDbEntity
  8
BEMAßUNG
 62
     7
100
AcDbVertex
100
AcDb2dVertex
 10
8.944845917902677
 20
13.80277506165347
 30
0.0
  0
VERTEX
  5
2EF
330
2ED
100
AcDbEntity
  8
BEMAßUNG
 62
     7
100
AcDbVertex
100
AcDb2dVertex
 10
8.944845917902677
 20
14.32901339702539
 30
0.0
  0
SEQEND
  5
2F0
330
2ED
100
AcDbEntity
  8
BEMAßUNG
  0
POLYLINE
  5
2F1
330
1F
100
AcDbEntity
  8
BEMAßUNG
 62
     7
100
AcDb2dPolyline
 66
     1
 10
0.0
 20
0.0
 30
0.0
  0
VERTEX
  5
2F2
330
2F1
100
AcDbEntity
  8
BEMAßUNG
 62
     7
100
AcDbVertex
100
AcDb2dVertex
 10
8.972751191333202
 20
13.80277506165347
 30
0.0
  0
VERTEX
  5
2F3
330
2F1
100
AcDbEntity
  8
BEMAßUNG
 62
     7
100
AcDbVertex
100
AcDb2dVertex
 10
8.972751191333202
 20
14.54123127891678
 30
0.0
  0
SEQEND
  5
2F4
330
2F1
100
AcDbEntity
  8
BEMAßUNG
  0
POLYLINE
  5
2F5
330
1F
100
AcDbEntity
  8
BEMAßUNG
 62
     7
100
AcDb2dPolyline
 66
     1
 10
0.0
 20
0.0
 30
0.0
  0
VERTEX
  5
2F6
330
2F5
100
AcDbEntity
  8
BEMAßUNG
 62
     7
100
AcDbVertex
100
AcDb2dVertex
 10
9.000656464763725
 20
13.80277506165347
 30
0.0
  0
VERTEX
  5
2F7
330
2F5
100
AcDbEntity
  8
BEMAßUNG
 62
     7
100
AcDbVertex
100
AcDb2dVertex
 10
9.000656464763725
 20
14.7532769060339
 30
0.0
  0
SEQEND
  5
2F8
330
2F5
100
AcDbEntity
  8
BEMAßUNG
  0
POLYLINE
  5
2F9
330
1F
100
AcDbEntity
  8
BEMAßUNG
 62
     7
100
AcDb2dPolyline
 66
     1
 10
0.0
 20
0.0
 30
0.0
  0
VERTEX
  5
2FA
330
2F9
100
AcDbEntity
  8
BEMAßUNG
 62
     7
100
AcDbVertex
100
AcDb2dVertex
 10
9.028906247742773
 20
13.80277506165347
 30
0.0
  0
VERTEX
  5
2FB
330
2F9
100
AcDbEntity
  8
BEMAßUNG
 62
     7
100
AcDbVertex
100
AcDb2dVertex
 10
9.028906247742773
 20
14.96566704269956
 30
0.0
  0
SEQEND
  5
2FC
330
2F9
100
AcDbEntity
  8
BEMAßUNG
  0
POLYLINE
  5
2FD
330
1F
100
AcDbEntity
  8
BEMAßUNG
 62
     7
100
AcDb2dPolyline
 66
     1
 10
0.0
 20
0.0
 30
0.0
  0
VERTEX
  5
2FE
330
2FD
100
AcDbEntity
  8
BEMAßUNG
 62
     7
100
AcDbVertex
100
AcDb2dVertex
 10
9.056811521173298
 20
13.80277506165347
 30
0.0
  0
VERTEX
  5
2FF
330
2FD
100
AcDbEntity
  8
BEMAßUNG
 62
     7
100
AcDbVertex
100
AcDb2dVertex
 10
9.056811521173298
 20
15.17788492459095
 30
0.0
  0
SEQEND
  5
300
330
2FD
100
AcDbEntity
  8
BEMAßUNG
  0
POLYLINE
  5
301
330
1F
100
AcDbEntity
  8
BEMAßUNG
 62
     7
100
AcDb2dPolyline
 66
     1
 10
0.0
 20
0.0
 30
0.0
  0
VERTEX
  5
302
330
301
100
AcDbEntity
  8
BEMAßUNG
 62
     7
100
AcDbVertex
100
AcDb2dVertex
 10
9.224243161756439
 20
13.80277506165347
 30
0.0
  0
VERTEX
  5
303
330
301
100
AcDbEntity
  8
BEMAßUNG
 62
     7
100
AcDbVertex
100
AcDb2dVertex
 10
9.224243161756439
 20
13.90440537846834
 30
0.0
  0
SEQEND
  5
304
330
301
100
AcDbEntity
  8
BEMAßUNG
  0
POLYLINE
  5
305
330
1F
100
AcDbEntity
  8
BEMAßUNG
 62
     7
100
AcDb2dPolyline
 66
     1
 10
0.0
 20
0.0
 30
0.0
  0
VERTEX
  5
306
330
305
100
AcDbEntity
  8
BEMAßUNG
 62
     7
100
AcDbVertex
100
AcDb2dVertex
 10
9.224243161756439
 20
13.80277506165347
 30
0.0
  0
VERTEX
  5
307
330
305
100
AcDbEntity
  8
BEMAßUNG
 62
     7
100
AcDbVertex
100
AcDb2dVertex
 10
9.224243161756439
 20
13.90440537846834
 30
0.0
  0
SEQEND
  5
308
330
305
100
AcDbEntity
  8
BEMAßUNG
  0
POLYLINE
  5
309
330
1F
100
AcDbEntity
  8
BEMAßUNG
 62
     7
100
AcDb2dPolyline
 66
     1
 10
0.0
 20
0.0
 30
0.0
  0
VERTEX
  5
30A
330
309
100
AcDbEntity
  8
BEMAßUNG
 62
     7
100
AcDbVertex
100
AcDb2dVertex
 10
9.196337888325916
 20
13.80277506165347
 30
0.0
  0
VERTEX
  5
30B
330
309
100
AcDbEntity
  8
BEMAßUNG
 62
     7
100
AcDbVertex
100
AcDb2dVertex
 10
9.196337888325916
 20
14.116795515134
 30
0.0
  0
SEQEND
  5
30C
330
309
100
AcDbEntity
  8
BEMAßUNG
  0
POLYLINE
  5
30D
330
1F
100
AcDbEntity
  8
BEMAßUNG
 62
     7
100
AcDb2dPolyline
 66
     1
 10
0.0
 20
0.0
 30
0.0
  0
VERTEX
  5
30E
330
30D
100
AcDbEntity
  8
BEMAßUNG
 62
     7
100
AcDbVertex
100
AcDb2dVertex
 10
9.168432614895393
 20
13.80277506165347
 30
0.0
  0
VERTEX
  5
30F
330
30D
100
AcDbEntity
  8
BEMAßUNG
 62
     7
100
AcDbVertex
100
AcDb2dVertex
 10
9.168432614895393
 20
14.32901339702539
 30
0.0
  0
SEQEND
  5
310
330
30D
100
AcDbEntity
  8
BEMAßUNG
  0
POLYLINE
  5
311
330
1F
100
AcDbEntity
  8
BEMAßUNG
 62
     7
100
AcDb2dPolyline
 66
     1
 10
0.0
 20
0.0
 30
0.0
  0
VERTEX
  5
312
330
311
100
AcDbEntity
  8
BEMAßUNG
 62
     7
100
AcDbVertex
100
AcDb2dVertex
 10
9.14052734146487
 20
13.80277506165347
 30
0.0
  0
VERTEX
  5
313
330
311
100
AcDbEntity
  8
BEMAßUNG
 62
     7
100
AcDbVertex
100
AcDb2dVertex
 10
9.14052734146487
 20
14.54123127891678
 30
0.0
  0
SEQEND
  5
314
330
311
100
AcDbEntity
  8
BEMAßUNG
  0
POLYLINE
  5
315
330
1F
100
AcDbEntity
  8
BEMAßUNG
 62
     7
100
AcDb2dPolyline
 66
     1
 10
0.0
 20
0.0
 30
0.0
  0
VERTEX
  5
316
330
315
100
AcDbEntity
  8
BEMAßUNG
 62
     7
100
AcDbVertex
100
AcDb2dVertex
 10
9.112622068034344
 20
13.80277506165347
 30
0.0
  0
VERTEX
  5
317
330
315
100
AcDbEntity
  8
BEMAßUNG
 62
     7
100
AcDbVertex
100
AcDb2dVertex
 10
9.112622068034344
 20
14.7532769060339
 30
0.0
  0
SEQEND
  5
318
330
315
100
AcDbEntity
  8
BEMAßUNG
  0
POLYLINE
  5
319
330
1F
100
AcDbEntity
  8
BEMAßUNG
 62
     7
100
AcDb2dPolyline
 66
     1
 10
0.0
 20
0.0
 30
0.0
  0
VERTEX
  5
31A
330
319
100
AcDbEntity
  8
BEMAßUNG
 62
     7
100
AcDbVertex
100
AcDb2dVertex
 10
9.084716794603821
 20
13.80277506165347
 30
0.0
  0
VERTEX
  5
31B
330
319
100
AcDbEntity
  8
BEMAßUNG
 62
     7
100
AcDbVertex
100
AcDb2dVertex
 10
9.084716794603821
 20
14.96566704269956
 30
0.0
  0
SEQEND
  5
31C
330
319
100
AcDbEntity
  8
BEMAßUNG
  0
POLYLINE
  5
31D
330
1F
100
AcDbEntity
  8
BEMAßUNG
 62
     7
100
AcDb2dPolyline
 66
     1
 10
0.0
 20
0.0
 30
0.0
  0
VERTEX
  5
31E
330
31D
100
AcDbEntity
  8
BEMAßUNG
 62
     7
100
AcDbVertex
100
AcDb2dVertex
 10
9.056811521173298
 20
13.80277506165347
 30
0.0
  0
VERTEX
  5
31F
330
31D
100
AcDbEntity
  8
BEMAßUNG
 62
     7
100
AcDbVertex
100
AcDb2dVertex
 10
9.056811521173298
 20
15.17788492459095
 30
0.0
  0
SEQEND
  5
320
330
31D
100
AcDbEntity
  8
BEMAßUNG
  0
POLYLINE
  5
321
330
1F
100
AcDbEntity
  8
BEMAßUNG
 62
     7
100
AcDb2dPolyline
 66
     1
 10
0.0
 20
0.0
 30
0.0
  0
VERTEX
  5
322
330
321
100
AcDbEntity
  8
BEMAßUNG
 62
     7
100
AcDbVertex
100
AcDb2dVertex
 10
9.056811521173298
 20
4.177695040188215
 30
0.0
  0
VERTEX
  5
323
330
321
100
AcDbEntity
  8
BEMAßUNG
 62
     7
100
AcDbVertex
100
AcDb2dVertex
 10
9.237679034148915
 20
5.55297715789995
 30
0.0
  0
VERTEX
  5
324
330
321
100
AcDbEntity
  8
BEMAßUNG
 62
     7
100
AcDbVertex
100
AcDb2dVertex
 10
8.875599498649157
 20
5.55297715789995
 30
0.0
  0
VERTEX
  5
325
330
321
100
AcDbEntity
  8
BEMAßUNG
 62
     7
100
AcDbVertex
100
AcDb2dVertex
 10
9.056811521173298
 20
4.177695040188215
 30
0.0
  0
SEQEND
  5
326
330
321
100
AcDbEntity
  8
BEMAßUNG
  0
POLYLINE
  5
327
330
1F
100
AcDbEntity
  8
BEMAßUNG
 62
     7
100
AcDb2dPolyline
 66
     1
 10
0.0
 20
0.0
 30
0.0
  0
VERTEX
  5
328
330
327
100
AcDbEntity
  8
BEMAßUNG
 62
     7
100
AcDbVertex
100
AcDb2dVertex
 10
9.224243161756439
 20
5.55297715789995
 30
0.0
  0
VERTEX
  5
329
330
327
100
AcDbEntity
  8
BEMAßUNG
 62
     7
100
AcDbVertex
100
AcDb2dVertex
 10
9.224243161756439
 20
5.45134684108508
 30
0.0
  0
SEQEND
  5
32A
330
327
100
AcDbEntity
  8
BEMAßUNG
  0
POLYLINE
  5
32B
330
1F
100
AcDbEntity
  8
BEMAßUNG
 62
     7
100
AcDb2dPolyline
 66
     1
 10
0.0
 20
0.0
 30
0.0
  0
VERTEX
  5
32C
330
32B
100
AcDbEntity
  8
BEMAßUNG
 62
     7
100
AcDbVertex
100
AcDb2dVertex
 10
9.224243161756439
 20
5.55297715789995
 30
0.0
  0
VERTEX
  5
32D
330
32B
100
AcDbEntity
  8
BEMAßUNG
 62
     7
100
AcDbVertex
100
AcDb2dVertex
 10
9.224243161756439
 20
5.45134684108508
 30
0.0
  0
SEQEND
  5
32E
330
32B
100
AcDbEntity
  8
BEMAßUNG
  0
POLYLINE
  5
32F
330
1F
100
AcDbEntity
  8
BEMAßUNG
 62
     7
100
AcDb2dPolyline
 66
     1
 10
0.0
 20
0.0
 30
0.0
  0
VERTEX
  5
330
330
32F
100
AcDbEntity
  8
BEMAßUNG
 62
     7
100
AcDbVertex
100
AcDb2dVertex
 10
9.196337888325916
 20
5.55297715789995
 30
0.0
  0
VERTEX
  5
331
330
32F
100
AcDbEntity
  8
BEMAßUNG
 62
     7
100
AcDbVertex
100
AcDb2dVertex
 10
9.196337888325916
 20
5.23912895919369
 30
0.0
  0
SEQEND
  5
332
330
32F
100
AcDbEntity
  8
BEMAßUNG
  0
POLYLINE
  5
333
330
1F
100
AcDbEntity
  8
BEMAßUNG
 62
     7
100
AcDb2dPolyline
 66
     1
 10
0.0
 20
0.0
 30
0.0
  0
VERTEX
  5
334
330
333
100
AcDbEntity
  8
BEMAßUNG
 62
     7
100
AcDbVertex
100
AcDb2dVertex
 10
9.168432614895393
 20
5.55297715789995
 30
0.0
  0
VERTEX
  5
335
330
333
100
AcDbEntity
  8
BEMAßUNG
 62
     7
100
AcDbVertex
100
AcDb2dVertex
 10
9.168432614895393
 20
5.026566567753775
 30
0.0
  0
SEQEND
  5
336
330
333
100
AcDbEntity
  8
BEMAßUNG
  0
POLYLINE
  5
337
330
1F
100
AcDbEntity
  8
BEMAßUNG
 62
     7
100
AcDb2dPolyline
 66
     1
 10
0.0
 20
0.0
 30
0.0
  0
VERTEX
  5
338
330
337
100
AcDbEntity
  8
BEMAßUNG
 62
     7
100
AcDbVertex
100
AcDb2dVertex
 10
9.14052734146487
 20
5.55297715789995
 30
0.0
  0
VERTEX
  5
339
330
337
100
AcDbEntity
  8
BEMAßUNG
 62
     7
100
AcDbVertex
100
AcDb2dVertex
 10
9.14052734146487
 20
4.814520940636648
 30
0.0
  0
SEQEND
  5
33A
330
337
100
AcDbEntity
  8
BEMAßUNG
  0
POLYLINE
  5
33B
330
1F
100
AcDbEntity
  8
BEMAßUNG
 62
     7
100
AcDb2dPolyline
 66
     1
 10
0.0
 20
0.0
 30
0.0
  0
VERTEX
  5
33C
330
33B
100
AcDbEntity
  8
BEMAßUNG
 62
     7
100
AcDbVertex
100
AcDb2dVertex
 10
9.112622068034344
 20
5.55297715789995
 30
0.0
  0
VERTEX
  5
33D
330
33B
100
AcDbEntity
  8
BEMAßUNG
 62
     7
100
AcDbVertex
100
AcDb2dVertex
 10
9.112622068034344
 20
4.602475313519521
 30
0.0
  0
SEQEND
  5
33E
330
33B
100
AcDbEntity
  8
BEMAßUNG
  0
POLYLINE
  5
33F
330
1F
100
AcDbEntity
  8
BEMAßUNG
 62
     7
100
AcDb2dPolyline
 66
     1
 10
0.0
 20
0.0
 30
0.0
  0
VERTEX
  5
340
330
33F
100
AcDbEntity
  8
BEMAßUNG
 62
     7
100
AcDbVertex
100
AcDb2dVertex
 10
9.084716794603821
 20
5.55297715789995
 30
0.0
  0
VERTEX
  5
341
330
33F
100
AcDbEntity
  8
BEMAßUNG
 62
     7
100
AcDbVertex
100
AcDb2dVertex
 10
9.084716794603821
 20
4.390257431628131
 30
0.0
  0
SEQEND
  5
342
330
33F
100
AcDbEntity
  8
BEMAßUNG
  0
POLYLINE
  5
343
330
1F
100
AcDbEntity
  8
BEMAßUNG
 62
     7
100
AcDb2dPolyline
 66
     1
 10
0.0
 20
0.0
 30
0.0
  0
VERTEX
  5
344
330
343
100
AcDbEntity
  8
BEMAßUNG
 62
     7
100
AcDbVertex
100
AcDb2dVertex
 10
9.056811521173298
 20
5.55297715789995
 30
0.0
  0
VERTEX
  5
345
330
343
100
AcDbEntity
  8
BEMAßUNG
 62
     7
100
AcDbVertex
100
AcDb2dVertex
 10
9.056811521173298
 20
4.177695040188215
 30
0.0
  0
SEQEND
  5
346
330
343
100
AcDbEntity
  8
BEMAßUNG
  0
POLYLINE
  5
347
330
1F
100
AcDbEntity
  8
BEMAßUNG
 62
     7
100
AcDb2dPolyline
 66
     1
 10
0.0
 20
0.0
 30
0.0
  0
VERTEX
  5
348
330
347
100
AcDbEntity
  8
BEMAßUNG
 62
     7
100
AcDbVertex
100
AcDb2dVertex
 10
8.889035371041631
 20
5.55297715789995
 30
0.0
  0
VERTEX
  5
349
330
347
100
AcDbEntity
  8
BEMAßUNG
 62
     7
100
AcDbVertex
100
AcDb2dVertex
 10
8.889035371041631
 20
5.45134684108508
 30
0.0
  0
SEQEND
  5
34A
330
347
100
AcDbEntity
  8
BEMAßUNG
  0
POLYLINE
  5
34B
330
1F
100
AcDbEntity
  8
BEMAßUNG
 62
     7
100
AcDb2dPolyline
 66
     1
 10
0.0
 20
0.0
 30
0.0
  0
VERTEX
  5
34C
330
34B
100
AcDbEntity
  8
BEMAßUNG
 62
     7
100
AcDbVertex
100
AcDb2dVertex
 10
8.889035371041631
 20
5.55297715789995
 30
0.0
  0
VERTEX
  5
34D
330
34B
100
AcDbEntity
  8
BEMAßUNG
 62
     7
100
AcDbVertex
100
AcDb2dVertex
 10
8.889035371041631
 20
5.45134684108508
 30
0.0
  0
SEQEND
  5
34E
330
34B
100
AcDbEntity
  8
BEMAßUNG
  0
POLYLINE
  5
34F
330
1F
100
AcDbEntity
  8
BEMAßUNG
 62
     7
100
AcDb2dPolyline
 66
     1
 10
0.0
 20
0.0
 30
0.0
  0
VERTEX
  5
350
330
34F
100
AcDbEntity
  8
BEMAßUNG
 62
     7
100
AcDbVertex
100
AcDb2dVertex
 10
8.916940644472154
 20
5.55297715789995
 30
0.0
  0
VERTEX
  5
351
330
34F
100
AcDbEntity
  8
BEMAßUNG
 62
     7
100
AcDbVertex
100
AcDb2dVertex
 10
8.916940644472154
 20
5.23912895919369
 30
0.0
  0
SEQEND
  5
352
330
34F
100
AcDbEntity
  8
BEMAßUNG
  0
POLYLINE
  5
353
330
1F
100
AcDbEntity
  8
BEMAßUNG
 62
     7
100
AcDb2dPolyline
 66
     1
 10
0.0
 20
0.0
 30
0.0
  0
VERTEX
  5
354
330
353
100
AcDbEntity
  8
BEMAßUNG
 62
     7
100
AcDbVertex
100
AcDb2dVertex
 10
8.944845917902677
 20
5.55297715789995
 30
0.0
  0
VERTEX
  5
355
330
353
100
AcDbEntity
  8
BEMAßUNG
 62
     7
100
AcDbVertex
100
AcDb2dVertex
 10
8.944845917902677
 20
5.026566567753775
 30
0.0
  0
SEQEND
  5
356
330
353
100
AcDbEntity
  8
BEMAßUNG
  0
POLYLINE
  5
357
330
1F
100
AcDbEntity
  8
BEMAßUNG
 62
     7
100
AcDb2dPolyline
 66
     1
 10
0.0
 20
0.0
 30
0.0
  0
VERTEX
  5
358
330
357
100
AcDbEntity
  8
BEMAßUNG
 62
     7
100
AcDbVertex
100
AcDb2dVertex
 10
8.972751191333202
 20
5.55297715789995
 30
0.0
  0
VERTEX
  5
359
330
357
100
AcDbEntity
  8
BEMAßUNG
 62
     7
100
AcDbVertex
100
AcDb2dVertex
 10
8.972751191333202
 20
4.814520940636648
 30
0.0
  0
SEQEND
  5
35A
330
357
100
AcDbEntity
  8
BEMAßUNG
  0
POLYLINE
  5
35B
330
1F
100
AcDbEntity
  8
BEMAßUNG
 62
     7
100
AcDb2dPolyline
 66
     1
 10
0.0
 20
0.0
 30
0.0
  0
VERTEX
  5
35C
330
35B
100
AcDbEntity
  8
BEMAßUNG
 62
     7
100
AcDbVertex
100
AcDb2dVertex
 10
9.000656464763725
 20
5.55297715789995
 30
0.0
  0
VERTEX
  5
35D
330
35B
100
AcDbEntity
  8
BEMAßUNG
 62
     7
100
AcDbVertex
100
AcDb2dVertex
 10
9.000656464763725
 20
4.602475313519521
 30
0.0
  0
SEQEND
  5
35E
330
35B
100
AcDbEntity
  8
BEMAßUNG
  0
POLYLINE
  5
35F
330
1F
100
AcDbEntity
  8
BEMAßUNG
 62
     7
100
AcDb2dPolyline
 66
     1
 10
0.0
 20
0.0
 30
0.0
  0
VERTEX
  5
360
330
35F
100
AcDbEntity
  8
BEMAßUNG
 62
     7
100
AcDbVertex
100
AcDb2dVertex
 10
9.028906247742773
 20
5.55297715789995
 30
0.0
  0
VERTEX
  5
361
330
35F
100
AcDbEntity
  8
BEMAßUNG
 62
     7
100
AcDbVertex
100
AcDb2dVertex
 10
9.028906247742773
 20
4.390257431628131
 30
0.0
  0
SEQEND
  5
362
330
35F
100
AcDbEntity
  8
BEMAßUNG
  0
POLYLINE
  5
363
330
1F
100
AcDbEntity
  8
BEMAßUNG
 62
     7
100
AcDb2dPolyline
 66
     1
 10
0.0
 20
0.0
 30
0.0
  0
VERTEX
  5
364
330
363
100
AcDbEntity
  8
BEMAßUNG
 62
     7
100
AcDbVertex
100
AcDb2dVertex
 10
9.056811521173298
 20
5.55297715789995
 30
0.0
  0
VERTEX
  5
365
330
363
100
AcDbEntity
  8
BEMAßUNG
 62
     7
100
AcDbVertex
100
AcDb2dVertex
 10
9.056811521173298
 20
4.177695040188215
 30
0.0
  0
SEQEND
  5
366
330
363
100
AcDbEntity
  8
BEMAßUNG
  0
POLYLINE
  5
367
330
1F
100
AcDbEntity
  8
BEMAßUNG
 62
     7
100
AcDb2dPolyline
 66
     1
 10
0.0
 20
0.0
 30
0.0
  0
VERTEX
  5
368
330
367
100
AcDbEntity
  8
BEMAßUNG
 62
     7
100
AcDbVertex
100
AcDb2dVertex
 10
-24.54423827511394
 20
12.97767469293614
 30
0.0
  0
VERTEX
  5
369
330
367
100
AcDbEntity
  8
BEMAßUNG
 62
     7
100
AcDbVertex
100
AcDb2dVertex
 10
-31.23082410243535
 20
12.97767469293614
 30
0.0
  0
SEQEND
  5
36A
330
367
100
AcDbEntity
  8
BEMAßUNG
  0
POLYLINE
  5
36B
330
1F
100
AcDbEntity
  8
BEMAßUNG
 62
     7
100
AcDb2dPolyline
 66
     1
 10
0.0
 20
0.0
 30
0.0
  0
VERTEX
  5
36C
330
36B
100
AcDbEntity
  8
BEMAßUNG
 62
     7
100
AcDbVertex
100
AcDb2dVertex
 10
-24.54423827511394
 20
6.378077526617287
 30
0.0
  0
VERTEX
  5
36D
330
36B
100
AcDbEntity
  8
BEMAßUNG
 62
     7
100
AcDbVertex
100
AcDb2dVertex
 10
-31.23082410243535
 20
6.378077526617287
 30
0.0
  0
SEQEND
  5
36E
330
36B
100
AcDbEntity
  8
BEMAßUNG
  0
POLYLINE
  5
36F
330
1F
100
AcDbEntity
  8
BEMAßUNG
 62
     7
100
AcDb2dPolyline
 66
     1
 10
0.0
 20
0.0
 30
0.0
  0
VERTEX
  5
370
330
36F
100
AcDbEntity
  8
BEMAßUNG
 62
     7
100
AcDbVertex
100
AcDb2dVertex
 10
-30.13063285922081
 20
12.97767469293614
 30
0.0
  0
VERTEX
  5
371
330
36F
100
AcDbEntity
  8
BEMAßUNG
 62
     7
100
AcDbVertex
100
AcDb2dVertex
 10
-30.13063285922081
 20
6.378077526617287
 30
0.0
  0
SEQEND
  5
372
330
36F
100
AcDbEntity
  8
BEMAßUNG
  0
POLYLINE
  5
373
330
1F
100
AcDbEntity
  8
BEMAßUNG
 62
     7
100
AcDb2dPolyline
 66
     1
 10
0.0
 20
0.0
 30
0.0
  0
VERTEX
  5
374
330
373
100
AcDbEntity
  8
BEMAßUNG
 62
     7
100
AcDbVertex
100
AcDb2dVertex
 10
-30.13063285922081
 20
12.97767469293614
 30
0.0
  0
VERTEX
  5
375
330
373
100
AcDbEntity
  8
BEMAßUNG
 62
     7
100
AcDbVertex
100
AcDb2dVertex
 10
-30.31184488174496
 20
11.60273708477293
 30
0.0
  0
VERTEX
  5
376
330
373
100
AcDbEntity
  8
BEMAßUNG
 62
     7
100
AcDbVertex
100
AcDb2dVertex
 10
-29.94959309147094
 20
11.60273708477293
 30
0.0
  0
VERTEX
  5
377
330
373
100
AcDbEntity
  8
BEMAßUNG
 62
     7
100
AcDbVertex
100
AcDb2dVertex
 10
-30.13063285922081
 20
12.97767469293614
 30
0.0
  0
SEQEND
  5
378
330
373
100
AcDbEntity
  8
BEMAßUNG
  0
POLYLINE
  5
379
330
1F
100
AcDbEntity
  8
BEMAßUNG
 62
     7
100
AcDb2dPolyline
 66
     1
 10
0.0
 20
0.0
 30
0.0
  0
VERTEX
  5
37A
330
379
100
AcDbEntity
  8
BEMAßUNG
 62
     7
100
AcDbVertex
100
AcDb2dVertex
 10
-30.29840900935248
 20
11.60273708477293
 30
0.0
  0
VERTEX
  5
37B
330
379
100
AcDbEntity
  8
BEMAßUNG
 62
     7
100
AcDbVertex
100
AcDb2dVertex
 10
-30.29840900935248
 20
11.7043674015878
 30
0.0
  0
SEQEND
  5
37C
330
379
100
AcDbEntity
  8
BEMAßUNG
  0
POLYLINE
  5
37D
330
1F
100
AcDbEntity
  8
BEMAßUNG
 62
     7
100
AcDb2dPolyline
 66
     1
 10
0.0
 20
0.0
 30
0.0
  0
VERTEX
  5
37E
330
37D
100
AcDbEntity
  8
BEMAßUNG
 62
     7
100
AcDbVertex
100
AcDb2dVertex
 10
-30.29840900935248
 20
11.60273708477293
 30
0.0
  0
VERTEX
  5
37F
330
37D
100
AcDbEntity
  8
BEMAßUNG
 62
     7
100
AcDbVertex
100
AcDb2dVertex
 10
-30.29840900935248
 20
11.7043674015878
 30
0.0
  0
SEQEND
  5
380
330
37D
100
AcDbEntity
  8
BEMAßUNG
  0
POLYLINE
  5
381
330
1F
100
AcDbEntity
  8
BEMAßUNG
 62
     7
100
AcDb2dPolyline
 66
     1
 10
0.0
 20
0.0
 30
0.0
  0
VERTEX
  5
382
330
381
100
AcDbEntity
  8
BEMAßUNG
 62
     7
100
AcDbVertex
100
AcDb2dVertex
 10
-30.27050373592196
 20
11.60273708477293
 30
0.0
  0
VERTEX
  5
383
330
381
100
AcDbEntity
  8
BEMAßUNG
 62
     7
100
AcDbVertex
100
AcDb2dVertex
 10
-30.27050373592196
 20
11.91658528347919
 30
0.0
  0
SEQEND
  5
384
330
381
100
AcDbEntity
  8
BEMAßUNG
  0
POLYLINE
  5
385
330
1F
100
AcDbEntity
  8
BEMAßUNG
 62
     7
100
AcDb2dPolyline
 66
     1
 10
0.0
 20
0.0
 30
0.0
  0
VERTEX
  5
386
330
385
100
AcDbEntity
  8
BEMAßUNG
 62
     7
100
AcDbVertex
100
AcDb2dVertex
 10
-30.24225395294291
 20
11.60273708477293
 30
0.0
  0
VERTEX
  5
387
330
385
100
AcDbEntity
  8
BEMAßUNG
 62
     7
100
AcDbVertex
100
AcDb2dVertex
 10
-30.24225395294291
 20
12.12880316537058
 30
0.0
  0
SEQEND
  5
388
330
385
100
AcDbEntity
  8
BEMAßUNG
  0
POLYLINE
  5
389
330
1F
100
AcDbEntity
  8
BEMAßUNG
 62
     7
100
AcDb2dPolyline
 66
     1
 10
0.0
 20
0.0
 30
0.0
  0
VERTEX
  5
38A
330
389
100
AcDbEntity
  8
BEMAßUNG
 62
     7
100
AcDbVertex
100
AcDb2dVertex
 10
-30.21452093428665
 20
11.60273708477293
 30
0.0
  0
VERTEX
  5
38B
330
389
100
AcDbEntity
  8
BEMAßUNG
 62
     7
100
AcDbVertex
100
AcDb2dVertex
 10
-30.21452093428665
 20
12.34136555681049
 30
0.0
  0
SEQEND
  5
38C
330
389
100
AcDbEntity
  8
BEMAßUNG
  0
POLYLINE
  5
38D
330
1F
100
AcDbEntity
  8
BEMAßUNG
 62
     7
100
AcDb2dPolyline
 66
     1
 10
0.0
 20
0.0
 30
0.0
  0
VERTEX
  5
38E
330
38D
100
AcDbEntity
  8
BEMAßUNG
 62
     7
100
AcDbVertex
100
AcDb2dVertex
 10
-30.18661566085613
 20
11.60273708477293
 30
0.0
  0
VERTEX
  5
38F
330
38D
100
AcDbEntity
  8
BEMAßUNG
 62
     7
100
AcDbVertex
100
AcDb2dVertex
 10
-30.18661566085613
 20
12.55323892915336
 30
0.0
  0
SEQEND
  5
390
330
38D
100
AcDbEntity
  8
BEMAßUNG
  0
POLYLINE
  5
391
330
1F
100
AcDbEntity
  8
BEMAßUNG
 62
     7
100
AcDb2dPolyline
 66
     1
 10
0.0
 20
0.0
 30
0.0
  0
VERTEX
  5
392
330
391
100
AcDbEntity
  8
BEMAßUNG
 62
     7
100
AcDbVertex
100
AcDb2dVertex
 10
-30.15853813265134
 20
11.60273708477293
 30
0.0
  0
VERTEX
  5
393
330
391
100
AcDbEntity
  8
BEMAßUNG
 62
     7
100
AcDbVertex
100
AcDb2dVertex
 10
-30.15853813265134
 20
12.76580132059327
 30
0.0
  0
SEQEND
  5
394
330
391
100
AcDbEntity
  8
BEMAßUNG
  0
POLYLINE
  5
395
330
1F
100
AcDbEntity
  8
BEMAßUNG
 62
     7
100
AcDb2dPolyline
 66
     1
 10
0.0
 20
0.0
 30
0.0
  0
VERTEX
  5
396
330
395
100
AcDbEntity
  8
BEMAßUNG
 62
     7
100
AcDbVertex
100
AcDb2dVertex
 10
-30.13063285922081
 20
11.60273708477293
 30
0.0
  0
VERTEX
  5
397
330
395
100
AcDbEntity
  8
BEMAßUNG
 62
     7
100
AcDbVertex
100
AcDb2dVertex
 10
-30.13063285922081
 20
12.97767469293614
 30
0.0
  0
SEQEND
  5
398
330
395
100
AcDbEntity
  8
BEMAßUNG
  0
POLYLINE
  5
399
330
1F
100
AcDbEntity
  8
BEMAßUNG
 62
     7
100
AcDb2dPolyline
 66
     1
 10
0.0
 20
0.0
 30
0.0
  0
VERTEX
  5
39A
330
399
100
AcDbEntity
  8
BEMAßUNG
 62
     7
100
AcDbVertex
100
AcDb2dVertex
 10
-29.96302896386341
 20
11.60273708477293
 30
0.0
  0
VERTEX
  5
39B
330
399
100
AcDbEntity
  8
BEMAßUNG
 62
     7
100
AcDbVertex
100
AcDb2dVertex
 10
-29.96302896386341
 20
11.7043674015878
 30
0.0
  0
SEQEND
  5
39C
330
399
100
AcDbEntity
  8
BEMAßUNG
  0
POLYLINE
  5
39D
330
1F
100
AcDbEntity
  8
BEMAßUNG
 62
     7
100
AcDb2dPolyline
 66
     1
 10
0.0
 20
0.0
 30
0.0
  0
VERTEX
  5
39E
330
39D
100
AcDbEntity
  8
BEMAßUNG
 62
     7
100
AcDbVertex
100
AcDb2dVertex
 10
-29.96302896386341
 20
11.60273708477293
 30
0.0
  0
VERTEX
  5
39F
330
39D
100
AcDbEntity
  8
BEMAßUNG
 62
     7
100
AcDbVertex
100
AcDb2dVertex
 10
-29.96302896386341
 20
11.7043674015878
 30
0.0
  0
SEQEND
  5
3A0
330
39D
100
AcDbEntity
  8
BEMAßUNG
  0
POLYLINE
  5
3A1
330
1F
100
AcDbEntity
  8
BEMAßUNG
 62
     7
100
AcDb2dPolyline
 66
     1
 10
0.0
 20
0.0
 30
0.0
  0
VERTEX
  5
3A2
330
3A1
100
AcDbEntity
  8
BEMAßUNG
 62
     7
100
AcDbVertex
100
AcDb2dVertex
 10
-29.9911064920682
 20
11.60273708477293
 30
0.0
  0
VERTEX
  5
3A3
330
3A1
100
AcDbEntity
  8
BEMAßUNG
 62
     7
100
AcDbVertex
100
AcDb2dVertex
 10
-29.9911064920682
 20
11.91658528347919
 30
0.0
  0
SEQEND
  5
3A4
330
3A1
100
AcDbEntity
  8
BEMAßUNG
  0
POLYLINE
  5
3A5
330
1F
100
AcDbEntity
  8
BEMAßUNG
 62
     7
100
AcDb2dPolyline
 66
     1
 10
0.0
 20
0.0
 30
0.0
  0
VERTEX
  5
3A6
330
3A5
100
AcDbEntity
  8
BEMAßUNG
 62
     7
100
AcDbVertex
100
AcDb2dVertex
 10
-30.01901176549872
 20
11.60273708477293
 30
0.0
  0
VERTEX
  5
3A7
330
3A5
100
AcDbEntity
  8
BEMAßUNG
 62
     7
100
AcDbVertex
100
AcDb2dVertex
 10
-30.01901176549872
 20
12.12880316537058
 30
0.0
  0
SEQEND
  5
3A8
330
3A5
100
AcDbEntity
  8
BEMAßUNG
  0
POLYLINE
  5
3A9
330
1F
100
AcDbEntity
  8
BEMAßUNG
 62
     7
100
AcDb2dPolyline
 66
     1
 10
0.0
 20
0.0
 30
0.0
  0
VERTEX
  5
3AA
330
3A9
100
AcDbEntity
  8
BEMAßUNG
 62
     7
100
AcDbVertex
100
AcDb2dVertex
 10
-30.04691703892924
 20
11.60273708477293
 30
0.0
  0
VERTEX
  5
3AB
330
3A9
100
AcDbEntity
  8
BEMAßUNG
 62
     7
100
AcDbVertex
100
AcDb2dVertex
 10
-30.04691703892924
 20
12.34136555681049
 30
0.0
  0
SEQEND
  5
3AC
330
3A9
100
AcDbEntity
  8
BEMAßUNG
  0
POLYLINE
  5
3AD
330
1F
100
AcDbEntity
  8
BEMAßUNG
 62
     7
100
AcDb2dPolyline
 66
     1
 10
0.0
 20
0.0
 30
0.0
  0
VERTEX
  5
3AE
330
3AD
100
AcDbEntity
  8
BEMAßUNG
 62
     7
100
AcDbVertex
100
AcDb2dVertex
 10
-30.07499456713403
 20
11.60273708477293
 30
0.0
  0
VERTEX
  5
3AF
330
3AD
100
AcDbEntity
  8
BEMAßUNG
 62
     7
100
AcDbVertex
100
AcDb2dVertex
 10
-30.07499456713403
 20
12.55323892915336
 30
0.0
  0
SEQEND
  5
3B0
330
3AD
100
AcDbEntity
  8
BEMAßUNG
  0
POLYLINE
  5
3B1
330
1F
100
AcDbEntity
  8
BEMAßUNG
 62
     7
100
AcDb2dPolyline
 66
     1
 10
0.0
 20
0.0
 30
0.0
  0
VERTEX
  5
3B2
330
3B1
100
AcDbEntity
  8
BEMAßUNG
 62
     7
100
AcDbVertex
100
AcDb2dVertex
 10
-30.10289984056455
 20
11.60273708477293
 30
0.0
  0
VERTEX
  5
3B3
330
3B1
100
AcDbEntity
  8
BEMAßUNG
 62
     7
100
AcDbVertex
100
AcDb2dVertex
 10
-30.10289984056455
 20
12.76580132059327
 30
0.0
  0
SEQEND
  5
3B4
330
3B1
100
AcDbEntity
  8
BEMAßUNG
  0
POLYLINE
  5
3B5
330
1F
100
AcDbEntity
  8
BEMAßUNG
 62
     7
100
AcDb2dPolyline
 66
     1
 10
0.0
 20
0.0
 30
0.0
  0
VERTEX
  5
3B6
330
3B5
100
AcDbEntity
  8
BEMAßUNG
 62
     7
100
AcDbVertex
100
AcDb2dVertex
 10
-30.13063285922081
 20
11.60273708477293
 30
0.0
  0
VERTEX
  5
3B7
330
3B5
100
AcDbEntity
  8
BEMAßUNG
 62
     7
100
AcDbVertex
100
AcDb2dVertex
 10
-30.13063285922081
 20
12.97767469293614
 30
0.0
  0
SEQEND
  5
3B8
330
3B5
100
AcDbEntity
  8
BEMAßUNG
  0
POLYLINE
  5
3B9
330
1F
100
AcDbEntity
  8
BEMAßUNG
 62
     7
100
AcDb2dPolyline
 66
     1
 10
0.0
 20
0.0
 30
0.0
  0
VERTEX
  5
3BA
330
3B9
100
AcDbEntity
  8
BEMAßUNG
 62
     7
100
AcDbVertex
100
AcDb2dVertex
 10
-30.13063285922081
 20
6.378077526617287
 30
0.0
  0
VERTEX
  5
3BB
330
3B9
100
AcDbEntity
  8
BEMAßUNG
 62
     7
100
AcDbVertex
100
AcDb2dVertex
 10
-29.94959309147094
 20
7.752842880006234
 30
0.0
  0
VERTEX
  5
3BC
330
3B9
100
AcDbEntity
  8
BEMAßUNG
 62
     7
100
AcDbVertex
100
AcDb2dVertex
 10
-30.31184488174496
 20
7.752842880006234
 30
0.0
  0
VERTEX
  5
3BD
330
3B9
100
AcDbEntity
  8
BEMAßUNG
 62
     7
100
AcDbVertex
100
AcDb2dVertex
 10
-30.13063285922081
 20
6.378077526617287
 30
0.0
  0
SEQEND
  5
3BE
330
3B9
100
AcDbEntity
  8
BEMAßUNG
  0
POLYLINE
  5
3BF
330
1F
100
AcDbEntity
  8
BEMAßUNG
 62
     7
100
AcDb2dPolyline
 66
     1
 10
0.0
 20
0.0
 30
0.0
  0
VERTEX
  5
3C0
330
3BF
100
AcDbEntity
  8
BEMAßUNG
 62
     7
100
AcDbVertex
100
AcDb2dVertex
 10
-29.96302896386341
 20
7.752842880006234
 30
0.0
  0
VERTEX
  5
3C1
330
3BF
100
AcDbEntity
  8
BEMAßUNG
 62
     7
100
AcDbVertex
100
AcDb2dVertex
 10
-29.96302896386341
 20
7.651212563191364
 30
0.0
  0
SEQEND
  5
3C2
330
3BF
100
AcDbEntity
  8
BEMAßUNG
  0
POLYLINE
  5
3C3
330
1F
100
AcDbEntity
  8
BEMAßUNG
 62
     7
100
AcDb2dPolyline
 66
     1
 10
0.0
 20
0.0
 30
0.0
  0
VERTEX
  5
3C4
330
3C3
100
AcDbEntity
  8
BEMAßUNG
 62
     7
100
AcDbVertex
100
AcDb2dVertex
 10
-29.96302896386341
 20
7.752842880006234
 30
0.0
  0
VERTEX
  5
3C5
330
3C3
100
AcDbEntity
  8
BEMAßUNG
 62
     7
100
AcDbVertex
100
AcDb2dVertex
 10
-29.96302896386341
 20
7.651212563191364
 30
0.0
  0
SEQEND
  5
3C6
330
3C3
100
AcDbEntity
  8
BEMAßUNG
  0
POLYLINE
  5
3C7
330
1F
100
AcDbEntity
  8
BEMAßUNG
 62
     7
100
AcDb2dPolyline
 66
     1
 10
0.0
 20
0.0
 30
0.0
  0
VERTEX
  5
3C8
330
3C7
100
AcDbEntity
  8
BEMAßUNG
 62
     7
100
AcDbVertex
100
AcDb2dVertex
 10
-29.9911064920682
 20
7.752842880006234
 30
0.0
  0
VERTEX
  5
3C9
330
3C7
100
AcDbEntity
  8
BEMAßUNG
 62
     7
100
AcDbVertex
100
AcDb2dVertex
 10
-29.9911064920682
 20
7.438994681299974
 30
0.0
  0
SEQEND
  5
3CA
330
3C7
100
AcDbEntity
  8
BEMAßUNG
  0
POLYLINE
  5
3CB
330
1F
100
AcDbEntity
  8
BEMAßUNG
 62
     7
100
AcDb2dPolyline
 66
     1
 10
0.0
 20
0.0
 30
0.0
  0
VERTEX
  5
3CC
330
3CB
100
AcDbEntity
  8
BEMAßUNG
 62
     7
100
AcDbVertex
100
AcDb2dVertex
 10
-30.01901176549872
 20
7.752842880006234
 30
0.0
  0
VERTEX
  5
3CD
330
3CB
100
AcDbEntity
  8
BEMAßUNG
 62
     7
100
AcDbVertex
100
AcDb2dVertex
 10
-30.01901176549872
 20
7.226949054182846
 30
0.0
  0
SEQEND
  5
3CE
330
3CB
100
AcDbEntity
  8
BEMAßUNG
  0
POLYLINE
  5
3CF
330
1F
100
AcDbEntity
  8
BEMAßUNG
 62
     7
100
AcDb2dPolyline
 66
     1
 10
0.0
 20
0.0
 30
0.0
  0
VERTEX
  5
3D0
330
3CF
100
AcDbEntity
  8
BEMAßUNG
 62
     7
100
AcDbVertex
100
AcDb2dVertex
 10
-30.04691703892924
 20
7.752842880006234
 30
0.0
  0
VERTEX
  5
3D1
330
3CF
100
AcDbEntity
  8
BEMAßUNG
 62
     7
100
AcDbVertex
100
AcDb2dVertex
 10
-30.04691703892924
 20
7.014386662742932
 30
0.0
  0
SEQEND
  5
3D2
330
3CF
100
AcDbEntity
  8
BEMAßUNG
  0
POLYLINE
  5
3D3
330
1F
100
AcDbEntity
  8
BEMAßUNG
 62
     7
100
AcDb2dPolyline
 66
     1
 10
0.0
 20
0.0
 30
0.0
  0
VERTEX
  5
3D4
330
3D3
100
AcDbEntity
  8
BEMAßUNG
 62
     7
100
AcDbVertex
100
AcDb2dVertex
 10
-30.07499456713403
 20
7.752842880006234
 30
0.0
  0
VERTEX
  5
3D5
330
3D3
100
AcDbEntity
  8
BEMAßUNG
 62
     7
100
AcDbVertex
100
AcDb2dVertex
 10
-30.07499456713403
 20
6.802341035625804
 30
0.0
  0
SEQEND
  5
3D6
330
3D3
100
AcDbEntity
  8
BEMAßUNG
  0
POLYLINE
  5
3D7
330
1F
100
AcDbEntity
  8
BEMAßUNG
 62
     7
100
AcDb2dPolyline
 66
     1
 10
0.0
 20
0.0
 30
0.0
  0
VERTEX
  5
3D8
330
3D7
100
AcDbEntity
  8
BEMAßUNG
 62
     7
100
AcDbVertex
100
AcDb2dVertex
 10
-30.10289984056455
 20
7.752842880006234
 30
0.0
  0
VERTEX
  5
3D9
330
3D7
100
AcDbEntity
  8
BEMAßUNG
 62
     7
100
AcDbVertex
100
AcDb2dVertex
 10
-30.10289984056455
 20
6.589950898960152
 30
0.0
  0
SEQEND
  5
3DA
330
3D7
100
AcDbEntity
  8
BEMAßUNG
  0
POLYLINE
  5
3DB
330
1F
100
AcDbEntity
  8
BEMAßUNG
 62
     7
100
AcDb2dPolyline
 66
     1
 10
0.0
 20
0.0
 30
0.0
  0
VERTEX
  5
3DC
330
3DB
100
AcDbEntity
  8
BEMAßUNG
 62
     7
100
AcDbVertex
100
AcDb2dVertex
 10
-30.13063285922081
 20
7.752842880006234
 30
0.0
  0
VERTEX
  5
3DD
330
3DB
100
AcDbEntity
  8
BEMAßUNG
 62
     7
100
AcDbVertex
100
AcDb2dVertex
 10
-30.13063285922081
 20
6.378077526617287
 30
0.0
  0
SEQEND
  5
3DE
330
3DB
100
AcDbEntity
  8
BEMAßUNG
  0
POLYLINE
  5
3DF
330
1F
100
AcDbEntity
  8
BEMAßUNG
 62
     7
100
AcDb2dPolyline
 66
     1
 10
0.0
 20
0.0
 30
0.0
  0
VERTEX
  5
3E0
330
3DF
100
AcDbEntity
  8
BEMAßUNG
 62
     7
100
AcDbVertex
100
AcDb2dVertex
 10
-30.29840900935248
 20
7.752842880006234
 30
0.0
  0
VERTEX
  5
3E1
330
3DF
100
AcDbEntity
  8
BEMAßUNG
 62
     7
100
AcDbVertex
100
AcDb2dVertex
 10
-30.29840900935248
 20
7.651212563191364
 30
0.0
  0
SEQEND
  5
3E2
330
3DF
100
AcDbEntity
  8
BEMAßUNG
  0
POLYLINE
  5
3E3
330
1F
100
AcDbEntity
  8
BEMAßUNG
 62
     7
100
AcDb2dPolyline
 66
     1
 10
0.0
 20
0.0
 30
0.0
  0
VERTEX
  5
3E4
330
3E3
100
AcDbEntity
  8
BEMAßUNG
 62
     7
100
AcDbVertex
100
AcDb2dVertex
 10
-30.29840900935248
 20
7.752842880006234
 30
0.0
  0
VERTEX
  5
3E5
330
3E3
100
AcDbEntity
  8
BEMAßUNG
 62
     7
100
AcDbVertex
100
AcDb2dVertex
 10
-30.29840900935248
 20
7.651212563191364
 30
0.0
  0
SEQEND
  5
3E6
330
3E3
100
AcDbEntity
  8
BEMAßUNG
  0
POLYLINE
  5
3E7
330
1F
100
AcDbEntity
  8
BEMAßUNG
 62
     7
100
AcDb2dPolyline
 66
     1
 10
0.0
 20
0.0
 30
0.0
  0
VERTEX
  5
3E8
330
3E7
100
AcDbEntity
  8
BEMAßUNG
 62
     7
100
AcDbVertex
100
AcDb2dVertex
 10
-30.27050373592196
 20
7.752842880006234
 30
0.0
  0
VERTEX
  5
3E9
330
3E7
100
AcDbEntity
  8
BEMAßUNG
 62
     7
100
AcDbVertex
100
AcDb2dVertex
 10
-30.27050373592196
 20
7.438994681299974
 30
0.0
  0
SEQEND
  5
3EA
330
3E7
100
AcDbEntity
  8
BEMAßUNG
  0
POLYLINE
  5
3EB
330
1F
100
AcDbEntity
  8
BEMAßUNG
 62
     7
100
AcDb2dPolyline
 66
     1
 10
0.0
 20
0.0
 30
0.0
  0
VERTEX
  5
3EC
330
3EB
100
AcDbEntity
  8
BEMAßUNG
 62
     7
100
AcDbVertex
100
AcDb2dVertex
 10
-30.24225395294291
 20
7.752842880006234
 30
0.0
  0
VERTEX
  5
3ED
330
3EB
100
AcDbEntity
  8
BEMAßUNG
 62
     7
100
AcDbVertex
100
AcDb2dVertex
 10
-30.24225395294291
 20
7.226949054182846
 30
0.0
  0
SEQEND
  5
3EE
330
3EB
100
AcDbEntity
  8
BEMAßUNG
  0
POLYLINE
  5
3EF
330
1F
100
AcDbEntity
  8
BEMAßUNG
 62
     7
100
AcDb2dPolyline
 66
     1
 10
0.0
 20
0.0
 30
0.0
  0
VERTEX
  5
3F0
330
3EF
100
AcDbEntity
  8
BEMAßUNG
 62
     7
100
AcDbVertex
100
AcDb2dVertex
 10
-30.21452093428665
 20
7.752842880006234
 30
0.0
  0
VERTEX
  5
3F1
330
3EF
100
AcDbEntity
  8
BEMAßUNG
 62
     7
100
AcDbVertex
100
AcDb2dVertex
 10
-30.21452093428665
 20
7.014386662742932
 30
0.0
  0
SEQEND
  5
3F2
330
3EF
100
AcDbEntity
  8
BEMAßUNG
  0
POLYLINE
  5
3F3
330
1F
100
AcDbEntity
  8
BEMAßUNG
 62
     7
100
AcDb2dPolyline
 66
     1
 10
0.0
 20
0.0
 30
0.0
  0
VERTEX
  5
3F4
330
3F3
100
AcDbEntity
  8
BEMAßUNG
 62
     7
100
AcDbVertex
100
AcDb2dVertex
 10
-30.18661566085613
 20
7.752842880006234
 30
0.0
  0
VERTEX
  5
3F5
330
3F3
100
AcDbEntity
  8
BEMAßUNG
 62
     7
100
AcDbVertex
100
AcDb2dVertex
 10
-30.18661566085613
 20
6.802341035625804
 30
0.0
  0
SEQEND
  5
3F6
330
3F3
100
AcDbEntity
  8
BEMAßUNG
  0
POLYLINE
  5
3F7
330
1F
100
AcDbEntity
  8
BEMAßUNG
 62
     7
100
AcDb2dPolyline
 66
     1
 10
0.0
 20
0.0
 30
0.0
  0
VERTEX
  5
3F8
330
3F7
100
AcDbEntity
  8
BEMAßUNG
 62
     7
100
AcDbVertex
100
AcDb2dVertex
 10
-30.15853813265134
 20
7.752842880006234
 30
0.0
  0
VERTEX
  5
3F9
330
3F7
100
AcDbEntity
  8
BEMAßUNG
 62
     7
100
AcDbVertex
100
AcDb2dVertex
 10
-30.15853813265134
 20
6.589950898960152
 30
0.0
  0
SEQEND
  5
3FA
330
3F7
100
AcDbEntity
  8
BEMAßUNG
  0
POLYLINE
  5
3FB
330
1F
100
AcDbEntity
  8
BEMAßUNG
 62
     7
100
AcDb2dPolyline
 66
     1
 10
0.0
 20
0.0
 30
0.0
  0
VERTEX
  5
3FC
330
3FB
100
AcDbEntity
  8
BEMAßUNG
 62
     7
100
AcDbVertex
100
AcDb2dVertex
 10
-30.13063285922081
 20
7.752842880006234
 30
0.0
  0
VERTEX
  5
3FD
330
3FB
100
AcDbEntity
  8
BEMAßUNG
 62
     7
100
AcDbVertex
100
AcDb2dVertex
 10
-30.13063285922081
 20
6.378077526617287
 30
0.0
  0
SEQEND
  5
3FE
330
3FB
100
AcDbEntity
  8
BEMAßUNG
  0
POLYLINE
  5
3FF
330
1F
100
AcDbEntity
  8
BEMAßUNG
 62
     7
100
AcDb2dPolyline
 66
     1
 10
0.0
 20
0.0
 30
0.0
  0
VERTEX
  5
400
330
3FF
100
AcDbEntity
  8
BEMAßUNG
 62
     7
100
AcDbVertex
100
AcDb2dVertex
 10
-24.54423827511394
 20
3.077848306522205
 30
0.0
  0
VERTEX
  5
401
330
3FF
100
AcDbEntity
  8
BEMAßUNG
 62
     7
100
AcDbVertex
100
AcDb2dVertex
 10
-24.54423827511394
 20
-8.924519854539703
 30
0.0
  0
SEQEND
  5
402
330
3FF
100
AcDbEntity
  8
BEMAßUNG
  0
POLYLINE
  5
403
330
1F
100
AcDbEntity
  8
BEMAßUNG
 62
     7
100
AcDb2dPolyline
 66
     1
 10
0.0
 20
0.0
 30
0.0
  0
VERTEX
  5
404
330
403
100
AcDbEntity
  8
BEMAßUNG
 62
     7
100
AcDbVertex
100
AcDb2dVertex
 10
-4.744240992737551
 20
4.452613659911153
 30
0.0
  0
VERTEX
  5
405
330
403
100
AcDbEntity
  8
BEMAßUNG
 62
     7
100
AcDbVertex
100
AcDb2dVertex
 10
-4.744240992737551
 20
-8.924519854539703
 30
0.0
  0
SEQEND
  5
406
330
403
100
AcDbEntity
  8
BEMAßUNG
  0
POLYLINE
  5
407
330
1F
100
AcDbEntity
  8
BEMAßUNG
 62
     7
100
AcDb2dPolyline
 66
     1
 10
0.0
 20
0.0
 30
0.0
  0
VERTEX
  5
408
330
407
100
AcDbEntity
  8
BEMAßUNG
 62
     7
100
AcDbVertex
100
AcDb2dVertex
 10
-24.54423827511394
 20
-7.824500866099431
 30
0.0
  0
VERTEX
  5
409
330
407
100
AcDbEntity
  8
BEMAßUNG
 62
     7
100
AcDbVertex
100
AcDb2dVertex
 10
-4.744240992737551
 20
-7.824500866099431
 30
0.0
  0
SEQEND
  5
40A
330
407
100
AcDbEntity
  8
BEMAßUNG
  0
POLYLINE
  5
40B
330
1F
100
AcDbEntity
  8
BEMAßUNG
 62
     7
100
AcDb2dPolyline
 66
     1
 10
0.0
 20
0.0
 30
0.0
  0
VERTEX
  5
40C
330
40B
100
AcDbEntity
  8
BEMAßUNG
 62
     7
100
AcDbVertex
100
AcDb2dVertex
 10
-24.54423827511394
 20
-7.824500866099431
 30
0.0
  0
VERTEX
  5
40D
330
40B
100
AcDbEntity
  8
BEMAßUNG
 62
     7
100
AcDbVertex
100
AcDb2dVertex
 10
-23.16930066695073
 20
-8.005540633849309
 30
0.0
  0
VERTEX
  5
40E
330
40B
100
AcDbEntity
  8
BEMAßUNG
 62
     7
100
AcDbVertex
100
AcDb2dVertex
 10
-23.16930066695073
 20
-7.643461098349552
 30
0.0
  0
VERTEX
  5
40F
330
40B
100
AcDbEntity
  8
BEMAßUNG
 62
     7
100
AcDbVertex
100
AcDb2dVertex
 10
-24.54423827511394
 20
-7.824500866099431
 30
0.0
  0
SEQEND
  5
410
330
40B
100
AcDbEntity
  8
BEMAßUNG
  0
POLYLINE
  5
411
330
1F
100
AcDbEntity
  8
BEMAßUNG
 62
     7
100
AcDb2dPolyline
 66
     1
 10
0.0
 20
0.0
 30
0.0
  0
VERTEX
  5
412
330
411
100
AcDbEntity
  8
BEMAßUNG
 62
     7
100
AcDbVertex
100
AcDb2dVertex
 10
-23.16930066695073
 20
-7.991932506682573
 30
0.0
  0
VERTEX
  5
413
330
411
100
AcDbEntity
  8
BEMAßUNG
 62
     7
100
AcDbVertex
100
AcDb2dVertex
 10
-23.2709309837656
 20
-7.991932506682573
 30
0.0
  0
SEQEND
  5
414
330
411
100
AcDbEntity
  8
BEMAßUNG
  0
POLYLINE
  5
415
330
1F
100
AcDbEntity
  8
BEMAßUNG
 62
     7
100
AcDb2dPolyline
 66
     1
 10
0.0
 20
0.0
 30
0.0
  0
VERTEX
  5
416
330
415
100
AcDbEntity
  8
BEMAßUNG
 62
     7
100
AcDbVertex
100
AcDb2dVertex
 10
-23.16930066695073
 20
-7.991932506682573
 30
0.0
  0
VERTEX
  5
417
330
415
100
AcDbEntity
  8
BEMAßUNG
 62
     7
100
AcDbVertex
100
AcDb2dVertex
 10
-23.2709309837656
 20
-7.991932506682573
 30
0.0
  0
SEQEND
  5
418
330
415
100
AcDbEntity
  8
BEMAßUNG
  0
POLYLINE
  5
419
330
1F
100
AcDbEntity
  8
BEMAßUNG
 62
     7
100
AcDb2dPolyline
 66
     1
 10
0.0
 20
0.0
 30
0.0
  0
VERTEX
  5
41A
330
419
100
AcDbEntity
  8
BEMAßUNG
 62
     7
100
AcDbVertex
100
AcDb2dVertex
 10
-23.16930066695073
 20
-7.964027233252049
 30
0.0
  0
VERTEX
  5
41B
330
419
100
AcDbEntity
  8
BEMAßUNG
 62
     7
100
AcDbVertex
100
AcDb2dVertex
 10
-23.48314886565699
 20
-7.964027233252049
 30
0.0
  0
SEQEND
  5
41C
330
419
100
AcDbEntity
  8
BEMAßUNG
  0
POLYLINE
  5
41D
330
1F
100
AcDbEntity
  8
BEMAßUNG
 62
     7
100
AcDb2dPolyline
 66
     1
 10
0.0
 20
0.0
 30
0.0
  0
VERTEX
  5
41E
330
41D
100
AcDbEntity
  8
BEMAßUNG
 62
     7
100
AcDbVertex
100
AcDb2dVertex
 10
-23.16930066695073
 20
-7.936121959821525
 30
0.0
  0
VERTEX
  5
41F
330
41D
100
AcDbEntity
  8
BEMAßUNG
 62
     7
100
AcDbVertex
100
AcDb2dVertex
 10
-23.69536674754838
 20
-7.936121959821525
 30
0.0
  0
SEQEND
  5
420
330
41D
100
AcDbEntity
  8
BEMAßUNG
  0
POLYLINE
  5
421
330
1F
100
AcDbEntity
  8
BEMAßUNG
 62
     7
100
AcDb2dPolyline
 66
     1
 10
0.0
 20
0.0
 30
0.0
  0
VERTEX
  5
422
330
421
100
AcDbEntity
  8
BEMAßUNG
 62
     7
100
AcDbVertex
100
AcDb2dVertex
 10
-23.16930066695073
 20
-7.908044431616739
 30
0.0
  0
VERTEX
  5
423
330
421
100
AcDbEntity
  8
BEMAßUNG
 62
     7
100
AcDbVertex
100
AcDb2dVertex
 10
-23.90758462943977
 20
-7.908044431616739
 30
0.0
  0
SEQEND
  5
424
330
421
100
AcDbEntity
  8
BEMAßUNG
  0
POLYLINE
  5
425
330
1F
100
AcDbEntity
  8
BEMAßUNG
 62
     7
100
AcDb2dPolyline
 66
     1
 10
0.0
 20
0.0
 30
0.0
  0
VERTEX
  5
426
330
425
100
AcDbEntity
  8
BEMAßUNG
 62
     7
100
AcDbVertex
100
AcDb2dVertex
 10
-23.16930066695073
 20
-7.880311412960478
 30
0.0
  0
VERTEX
  5
427
330
425
100
AcDbEntity
  8
BEMAßUNG
 62
     7
100
AcDbVertex
100
AcDb2dVertex
 10
-24.12014702087968
 20
-7.880311412960478
 30
0.0
  0
SEQEND
  5
428
330
425
100
AcDbEntity
  8
BEMAßUNG
  0
POLYLINE
  5
429
330
1F
100
AcDbEntity
  8
BEMAßUNG
 62
     7
100
AcDb2dPolyline
 66
     1
 10
0.0
 20
0.0
 30
0.0
  0
VERTEX
  5
42A
330
429
100
AcDbEntity
  8
BEMAßUNG
 62
     7
100
AcDbVertex
100
AcDb2dVertex
 10
-23.16930066695073
 20
-7.852406139529954
 30
0.0
  0
VERTEX
  5
42B
330
429
100
AcDbEntity
  8
BEMAßUNG
 62
     7
100
AcDbVertex
100
AcDb2dVertex
 10
-24.33202039322255
 20
-7.852406139529954
 30
0.0
  0
SEQEND
  5
42C
330
429
100
AcDbEntity
  8
BEMAßUNG
  0
POLYLINE
  5
42D
330
1F
100
AcDbEntity
  8
BEMAßUNG
 62
     7
100
AcDb2dPolyline
 66
     1
 10
0.0
 20
0.0
 30
0.0
  0
VERTEX
  5
42E
330
42D
100
AcDbEntity
  8
BEMAßUNG
 62
     7
100
AcDbVertex
100
AcDb2dVertex
 10
-23.16930066695073
 20
-7.824500866099431
 30
0.0
  0
VERTEX
  5
42F
330
42D
100
AcDbEntity
  8
BEMAßUNG
 62
     7
100
AcDbVertex
100
AcDb2dVertex
 10
-24.54423827511394
 20
-7.824500866099431
 30
0.0
  0
SEQEND
  5
430
330
42D
100
AcDbEntity
  8
BEMAßUNG
  0
POLYLINE
  5
431
330
1F
100
AcDbEntity
  8
BEMAßUNG
 62
     7
100
AcDb2dPolyline
 66
     1
 10
0.0
 20
0.0
 30
0.0
  0
VERTEX
  5
432
330
431
100
AcDbEntity
  8
BEMAßUNG
 62
     7
100
AcDbVertex
100
AcDb2dVertex
 10
-23.16930066695073
 20
-7.656896970742026
 30
0.0
  0
VERTEX
  5
433
330
431
100
AcDbEntity
  8
BEMAßUNG
 62
     7
100
AcDbVertex
100
AcDb2dVertex
 10
-23.2709309837656
 20
-7.656896970742026
 30
0.0
  0
SEQEND
  5
434
330
431
100
AcDbEntity
  8
BEMAßUNG
  0
POLYLINE
  5
435
330
1F
100
AcDbEntity
  8
BEMAßUNG
 62
     7
100
AcDb2dPolyline
 66
     1
 10
0.0
 20
0.0
 30
0.0
  0
VERTEX
  5
436
330
435
100
AcDbEntity
  8
BEMAßUNG
 62
     7
100
AcDbVertex
100
AcDb2dVertex
 10
-23.16930066695073
 20
-7.656896970742026
 30
0.0
  0
VERTEX
  5
437
330
435
100
AcDbEntity
  8
BEMAßUNG
 62
     7
100
AcDbVertex
100
AcDb2dVertex
 10
-23.2709309837656
 20
-7.656896970742026
 30
0.0
  0
SEQEND
  5
438
330
435
100
AcDbEntity
  8
BEMAßUNG
  0
POLYLINE
  5
439
330
1F
100
AcDbEntity
  8
BEMAßUNG
 62
     7
100
AcDb2dPolyline
 66
     1
 10
0.0
 20
0.0
 30
0.0
  0
VERTEX
  5
43A
330
439
100
AcDbEntity
  8
BEMAßUNG
 62
     7
100
AcDbVertex
100
AcDb2dVertex
 10
-23.16930066695073
 20
-7.68480224417255
 30
0.0
  0
VERTEX
  5
43B
330
439
100
AcDbEntity
  8
BEMAßUNG
 62
     7
100
AcDbVertex
100
AcDb2dVertex
 10
-23.48314886565699
 20
-7.68480224417255
 30
0.0
  0
SEQEND
  5
43C
330
439
100
AcDbEntity
  8
BEMAßUNG
  0
POLYLINE
  5
43D
330
1F
100
AcDbEntity
  8
BEMAßUNG
 62
     7
100
AcDb2dPolyline
 66
     1
 10
0.0
 20
0.0
 30
0.0
  0
VERTEX
  5
43E
330
43D
100
AcDbEntity
  8
BEMAßUNG
 62
     7
100
AcDbVertex
100
AcDb2dVertex
 10
-23.16930066695073
 20
-7.712707517603073
 30
0.0
  0
VERTEX
  5
43F
330
43D
100
AcDbEntity
  8
BEMAßUNG
 62
     7
100
AcDbVertex
100
AcDb2dVertex
 10
-23.69536674754838
 20
-7.712707517603073
 30
0.0
  0
SEQEND
  5
440
330
43D
100
AcDbEntity
  8
BEMAßUNG
  0
POLYLINE
  5
441
330
1F
100
AcDbEntity
  8
BEMAßUNG
 62
     7
100
AcDb2dPolyline
 66
     1
 10
0.0
 20
0.0
 30
0.0
  0
VERTEX
  5
442
330
441
100
AcDbEntity
  8
BEMAßUNG
 62
     7
100
AcDbVertex
100
AcDb2dVertex
 10
-23.16930066695073
 20
-7.740612791033597
 30
0.0
  0
VERTEX
  5
443
330
441
100
AcDbEntity
  8
BEMAßUNG
 62
     7
100
AcDbVertex
100
AcDb2dVertex
 10
-23.90758462943977
 20
-7.740612791033597
 30
0.0
  0
SEQEND
  5
444
330
441
100
AcDbEntity
  8
BEMAßUNG
  0
POLYLINE
  5
445
330
1F
100
AcDbEntity
  8
BEMAßUNG
 62
     7
100
AcDb2dPolyline
 66
     1
 10
0.0
 20
0.0
 30
0.0
  0
VERTEX
  5
446
330
445
100
AcDbEntity
  8
BEMAßUNG
 62
     7
100
AcDbVertex
100
AcDb2dVertex
 10
-23.16930066695073
 20
-7.768518064464121
 30
0.0
  0
VERTEX
  5
447
330
445
100
AcDbEntity
  8
BEMAßUNG
 62
     7
100
AcDbVertex
100
AcDb2dVertex
 10
-24.12014702087968
 20
-7.768518064464121
 30
0.0
  0
SEQEND
  5
448
330
445
100
AcDbEntity
  8
BEMAßUNG
  0
POLYLINE
  5
449
330
1F
100
AcDbEntity
  8
BEMAßUNG
 62
     7
100
AcDb2dPolyline
 66
     1
 10
0.0
 20
0.0
 30
0.0
  0
VERTEX
  5
44A
330
449
100
AcDbEntity
  8
BEMAßUNG
 62
     7
100
AcDbVertex
100
AcDb2dVertex
 10
-23.16930066695073
 20
-7.796423337894645
 30
0.0
  0
VERTEX
  5
44B
330
449
100
AcDbEntity
  8
BEMAßUNG
 62
     7
100
AcDbVertex
100
AcDb2dVertex
 10
-24.33202039322255
 20
-7.796423337894645
 30
0.0
  0
SEQEND
  5
44C
330
449
100
AcDbEntity
  8
BEMAßUNG
  0
POLYLINE
  5
44D
330
1F
100
AcDbEntity
  8
BEMAßUNG
 62
     7
100
AcDb2dPolyline
 66
     1
 10
0.0
 20
0.0
 30
0.0
  0
VERTEX
  5
44E
330
44D
100
AcDbEntity
  8
BEMAßUNG
 62
     7
100
AcDbVertex
100
AcDb2dVertex
 10
-23.16930066695073
 20
-7.824500866099431
 30
0.0
  0
VERTEX
  5
44F
330
44D
100
AcDbEntity
  8
BEMAßUNG
 62
     7
100
AcDbVertex
100
AcDb2dVertex
 10
-24.54423827511394
 20
-7.824500866099431
 30
0.0
  0
SEQEND
  5
450
330
44D
100
AcDbEntity
  8
BEMAßUNG
  0
POLYLINE
  5
451
330
1F
100
AcDbEntity
  8
BEMAßUNG
 62
     7
100
AcDb2dPolyline
 66
     1
 10
0.0
 20
0.0
 30
0.0
  0
VERTEX
  5
452
330
451
100
AcDbEntity
  8
BEMAßUNG
 62
     7
100
AcDbVertex
100
AcDb2dVertex
 10
-4.744240992737551
 20
-7.824500866099431
 30
0.0
  0
VERTEX
  5
453
330
451
100
AcDbEntity
  8
BEMAßUNG
 62
     7
100
AcDbVertex
100
AcDb2dVertex
 10
-6.119523110449286
 20
-7.643461098349552
 30
0.0
  0
VERTEX
  5
454
330
451
100
AcDbEntity
  8
BEMAßUNG
 62
     7
100
AcDbVertex
100
AcDb2dVertex
 10
-6.119523110449286
 20
-8.005540633849309
 30
0.0
  0
VERTEX
  5
455
330
451
100
AcDbEntity
  8
BEMAßUNG
 62
     7
100
AcDbVertex
100
AcDb2dVertex
 10
-4.744240992737551
 20
-7.824500866099431
 30
0.0
  0
SEQEND
  5
456
330
451
100
AcDbEntity
  8
BEMAßUNG
  0
POLYLINE
  5
457
330
1F
100
AcDbEntity
  8
BEMAßUNG
 62
     7
100
AcDb2dPolyline
 66
     1
 10
0.0
 20
0.0
 30
0.0
  0
VERTEX
  5
458
330
457
100
AcDbEntity
  8
BEMAßUNG
 62
     7
100
AcDbVertex
100
AcDb2dVertex
 10
-6.119523110449286
 20
-7.656896970742026
 30
0.0
  0
VERTEX
  5
459
330
457
100
AcDbEntity
  8
BEMAßUNG
 62
     7
100
AcDbVertex
100
AcDb2dVertex
 10
-6.017892793634416
 20
-7.656896970742026
 30
0.0
  0
SEQEND
  5
45A
330
457
100
AcDbEntity
  8
BEMAßUNG
  0
POLYLINE
  5
45B
330
1F
100
AcDbEntity
  8
BEMAßUNG
 62
     7
100
AcDb2dPolyline
 66
     1
 10
0.0
 20
0.0
 30
0.0
  0
VERTEX
  5
45C
330
45B
100
AcDbEntity
  8
BEMAßUNG
 62
     7
100
AcDbVertex
100
AcDb2dVertex
 10
-6.119523110449286
 20
-7.656896970742026
 30
0.0
  0
VERTEX
  5
45D
330
45B
100
AcDbEntity
  8
BEMAßUNG
 62
     7
100
AcDbVertex
100
AcDb2dVertex
 10
-6.017892793634416
 20
-7.656896970742026
 30
0.0
  0
SEQEND
  5
45E
330
45B
100
AcDbEntity
  8
BEMAßUNG
  0
POLYLINE
  5
45F
330
1F
100
AcDbEntity
  8
BEMAßUNG
 62
     7
100
AcDb2dPolyline
 66
     1
 10
0.0
 20
0.0
 30
0.0
  0
VERTEX
  5
460
330
45F
100
AcDbEntity
  8
BEMAßUNG
 62
     7
100
AcDbVertex
100
AcDb2dVertex
 10
-6.119523110449286
 20
-7.68480224417255
 30
0.0
  0
VERTEX
  5
461
330
45F
100
AcDbEntity
  8
BEMAßUNG
 62
     7
100
AcDbVertex
100
AcDb2dVertex
 10
-5.805330402194501
 20
-7.68480224417255
 30
0.0
  0
SEQEND
  5
462
330
45F
100
AcDbEntity
  8
BEMAßUNG
  0
POLYLINE
  5
463
330
1F
100
AcDbEntity
  8
BEMAßUNG
 62
     7
100
AcDb2dPolyline
 66
     1
 10
0.0
 20
0.0
 30
0.0
  0
VERTEX
  5
464
330
463
100
AcDbEntity
  8
BEMAßUNG
 62
     7
100
AcDbVertex
100
AcDb2dVertex
 10
-6.119523110449286
 20
-7.712707517603073
 30
0.0
  0
VERTEX
  5
465
330
463
100
AcDbEntity
  8
BEMAßUNG
 62
     7
100
AcDbVertex
100
AcDb2dVertex
 10
-5.593457029851636
 20
-7.712707517603073
 30
0.0
  0
SEQEND
  5
466
330
463
100
AcDbEntity
  8
BEMAßUNG
  0
POLYLINE
  5
467
330
1F
100
AcDbEntity
  8
BEMAßUNG
 62
     7
100
AcDb2dPolyline
 66
     1
 10
0.0
 20
0.0
 30
0.0
  0
VERTEX
  5
468
330
467
100
AcDbEntity
  8
BEMAßUNG
 62
     7
100
AcDbVertex
100
AcDb2dVertex
 10
-6.119523110449286
 20
-7.740612791033597
 30
0.0
  0
VERTEX
  5
469
330
467
100
AcDbEntity
  8
BEMAßUNG
 62
     7
100
AcDbVertex
100
AcDb2dVertex
 10
-5.380894638411721
 20
-7.740612791033597
 30
0.0
  0
SEQEND
  5
46A
330
467
100
AcDbEntity
  8
BEMAßUNG
  0
POLYLINE
  5
46B
330
1F
100
AcDbEntity
  8
BEMAßUNG
 62
     7
100
AcDb2dPolyline
 66
     1
 10
0.0
 20
0.0
 30
0.0
  0
VERTEX
  5
46C
330
46B
100
AcDbEntity
  8
BEMAßUNG
 62
     7
100
AcDbVertex
100
AcDb2dVertex
 10
-6.119523110449286
 20
-7.768518064464121
 30
0.0
  0
VERTEX
  5
46D
330
46B
100
AcDbEntity
  8
BEMAßUNG
 62
     7
100
AcDbVertex
100
AcDb2dVertex
 10
-5.169021266068856
 20
-7.768518064464121
 30
0.0
  0
SEQEND
  5
46E
330
46B
100
AcDbEntity
  8
BEMAßUNG
  0
POLYLINE
  5
46F
330
1F
100
AcDbEntity
  8
BEMAßUNG
 62
     7
100
AcDb2dPolyline
 66
     1
 10
0.0
 20
0.0
 30
0.0
  0
VERTEX
  5
470
330
46F
100
AcDbEntity
  8
BEMAßUNG
 62
     7
100
AcDbVertex
100
AcDb2dVertex
 10
-6.119523110449286
 20
-7.796423337894645
 30
0.0
  0
VERTEX
  5
471
330
46F
100
AcDbEntity
  8
BEMAßUNG
 62
     7
100
AcDbVertex
100
AcDb2dVertex
 10
-4.956458874628941
 20
-7.796423337894645
 30
0.0
  0
SEQEND
  5
472
330
46F
100
AcDbEntity
  8
BEMAßUNG
  0
POLYLINE
  5
473
330
1F
100
AcDbEntity
  8
BEMAßUNG
 62
     7
100
AcDb2dPolyline
 66
     1
 10
0.0
 20
0.0
 30
0.0
  0
VERTEX
  5
474
330
473
100
AcDbEntity
  8
BEMAßUNG
 62
     7
100
AcDbVertex
100
AcDb2dVertex
 10
-6.119523110449286
 20
-7.824500866099431
 30
0.0
  0
VERTEX
  5
475
330
473
100
AcDbEntity
  8
BEMAßUNG
 62
     7
100
AcDbVertex
100
AcDb2dVertex
 10
-4.744240992737551
 20
-7.824500866099431
 30
0.0
  0
SEQEND
  5
476
330
473
100
AcDbEntity
  8
BEMAßUNG
  0
POLYLINE
  5
477
330
1F
100
AcDbEntity
  8
BEMAßUNG
 62
     7
100
AcDb2dPolyline
 66
     1
 10
0.0
 20
0.0
 30
0.0
  0
VERTEX
  5
478
330
477
100
AcDbEntity
  8
BEMAßUNG
 62
     7
100
AcDbVertex
100
AcDb2dVertex
 10
-6.119523110449286
 20
-7.991932506682573
 30
0.0
  0
VERTEX
  5
479
330
477
100
AcDbEntity
  8
BEMAßUNG
 62
     7
100
AcDbVertex
100
AcDb2dVertex
 10
-6.017892793634416
 20
-7.991932506682573
 30
0.0
  0
SEQEND
  5
47A
330
477
100
AcDbEntity
  8
BEMAßUNG
  0
POLYLINE
  5
47B
330
1F
100
AcDbEntity
  8
BEMAßUNG
 62
     7
100
AcDb2dPolyline
 66
     1
 10
0.0
 20
0.0
 30
0.0
  0
VERTEX
  5
47C
330
47B
100
AcDbEntity
  8
BEMAßUNG
 62
     7
100
AcDbVertex
100
AcDb2dVertex
 10
-6.119523110449286
 20
-7.991932506682573
 30
0.0
  0
VERTEX
  5
47D
330
47B
100
AcDbEntity
  8
BEMAßUNG
 62
     7
100
AcDbVertex
100
AcDb2dVertex
 10
-6.017892793634416
 20
-7.991932506682573
 30
0.0
  0
SEQEND
  5
47E
330
47B
100
AcDbEntity
  8
BEMAßUNG
  0
POLYLINE
  5
47F
330
1F
100
AcDbEntity
  8
BEMAßUNG
 62
     7
100
AcDb2dPolyline
 66
     1
 10
0.0
 20
0.0
 30
0.0
  0
VERTEX
  5
480
330
47F
100
AcDbEntity
  8
BEMAßUNG
 62
     7
100
AcDbVertex
100
AcDb2dVertex
 10
-6.119523110449286
 20
-7.964027233252049
 30
0.0
  0
VERTEX
  5
481
330
47F
100
AcDbEntity
  8
BEMAßUNG
 62
     7
100
AcDbVertex
100
AcDb2dVertex
 10
-5.805330402194501
 20
-7.964027233252049
 30
0.0
  0
SEQEND
  5
482
330
47F
100
AcDbEntity
  8
BEMAßUNG
  0
POLYLINE
  5
483
330
1F
100
AcDbEntity
  8
BEMAßUNG
 62
     7
100
AcDb2dPolyline
 66
     1
 10
0.0
 20
0.0
 30
0.0
  0
VERTEX
  5
484
330
483
100
AcDbEntity
  8
BEMAßUNG
 62
     7
100
AcDbVertex
100
AcDb2dVertex
 10
-6.119523110449286
 20
-7.936121959821525
 30
0.0
  0
VERTEX
  5
485
330
483
100
AcDbEntity
  8
BEMAßUNG
 62
     7
100
AcDbVertex
100
AcDb2dVertex
 10
-5.593457029851636
 20
-7.936121959821525
 30
0.0
  0
SEQEND
  5
486
330
483
100
AcDbEntity
  8
BEMAßUNG
  0
POLYLINE
  5
487
330
1F
100
AcDbEntity
  8
BEMAßUNG
 62
     7
100
AcDb2dPolyline
 66
     1
 10
0.0
 20
0.0
 30
0.0
  0
VERTEX
  5
488
330
487
100
AcDbEntity
  8
BEMAßUNG
 62
     7
100
AcDbVertex
100
AcDb2dVertex
 10
-6.119523110449286
 20
-7.908044431616739
 30
0.0
  0
VERTEX
  5
489
330
487
100
AcDbEntity
  8
BEMAßUNG
 62
     7
100
AcDbVertex
100
AcDb2dVertex
 10
-5.380894638411721
 20
-7.908044431616739
 30
0.0
  0
SEQEND
  5
48A
330
487
100
AcDbEntity
  8
BEMAßUNG
  0
POLYLINE
  5
48B
330
1F
100
AcDbEntity
  8
BEMAßUNG
 62
     7
100
AcDb2dPolyline
 66
     1
 10
0.0
 20
0.0
 30
0.0
  0
VERTEX
  5
48C
330
48B
100
AcDbEntity
  8
BEMAßUNG
 62
     7
100
AcDbVertex
100
AcDb2dVertex
 10
-6.119523110449286
 20
-7.880311412960478
 30
0.0
  0
VERTEX
  5
48D
330
48B
100
AcDbEntity
  8
BEMAßUNG
 62
     7
100
AcDbVertex
100
AcDb2dVertex
 10
-5.169021266068856
 20
-7.880311412960478
 30
0.0
  0
SEQEND
  5
48E
330
48B
100
AcDbEntity
  8
BEMAßUNG
  0
POLYLINE
  5
48F
330
1F
100
AcDbEntity
  8
BEMAßUNG
 62
     7
100
AcDb2dPolyline
 66
     1
 10
0.0
 20
0.0
 30
0.0
  0
VERTEX
  5
490
330
48F
100
AcDbEntity
  8
BEMAßUNG
 62
     7
100
AcDbVertex
100
AcDb2dVertex
 10
-6.119523110449286
 20
-7.852406139529954
 30
0.0
  0
VERTEX
  5
491
330
48F
100
AcDbEntity
  8
BEMAßUNG
 62
     7
100
AcDbVertex
100
AcDb2dVertex
 10
-4.956458874628941
 20
-7.852406139529954
 30
0.0
  0
SEQEND
  5
492
330
48F
100
AcDbEntity
  8
BEMAßUNG
  0
POLYLINE
  5
493
330
1F
100
AcDbEntity
  8
BEMAßUNG
 62
     7
100
AcDb2dPolyline
 66
     1
 10
0.0
 20
0.0
 30
0.0
  0
VERTEX
  5
494
330
493
100
AcDbEntity
  8
BEMAßUNG
 62
     7
100
AcDbVertex
100
AcDb2dVertex
 10
-6.119523110449286
 20
-7.824500866099431
 30
0.0
  0
VERTEX
  5
495
330
493
100
AcDbEntity
  8
BEMAßUNG
 62
     7
100
AcDbVertex
100
AcDb2dVertex
 10
-4.744240992737551
 20
-7.824500866099431
 30
0.0
  0
SEQEND
  5
496
330
493
100
AcDbEntity
  8
BEMAßUNG
  0
POLYLINE
  5
497
330
1F
100
AcDbEntity
  8
BEMAßUNG
 62
     7
100
AcDb2dPolyline
 66
     1
 10
0.0
 20
0.0
 30
0.0
  0
VERTEX
  5
498
330
497
100
AcDbEntity
  8
BEMAßUNG
 62
     7
100
AcDbVertex
100
AcDb2dVertex
 10
-23.44421928667367
 20
3.077848306522205
 30
0.0
  0
VERTEX
  5
499
330
497
100
AcDbEntity
  8
BEMAßUNG
 62
     7
100
AcDbVertex
100
AcDb2dVertex
 10
-23.44421928667367
 20
-3.480752223522173
 30
0.0
  0
SEQEND
  5
49A
330
497
100
AcDbEntity
  8
BEMAßUNG
  0
POLYLINE
  5
49B
330
1F
100
AcDbEntity
  8
BEMAßUNG
 62
     7
100
AcDb2dPolyline
 66
     1
 10
0.0
 20
0.0
 30
0.0
  0
VERTEX
  5
49C
330
49B
100
AcDbEntity
  8
BEMAßUNG
 62
     7
100
AcDbVertex
100
AcDb2dVertex
 10
-23.44421928667367
 20
-2.380388725533375
 30
0.0
  0
VERTEX
  5
49D
330
49B
100
AcDbEntity
  8
BEMAßUNG
 62
     7
100
AcDbVertex
100
AcDb2dVertex
 10
-4.744240992737551
 20
-2.380388725533375
 30
0.0
  0
SEQEND
  5
49E
330
49B
100
AcDbEntity
  8
BEMAßUNG
  0
POLYLINE
  5
49F
330
1F
100
AcDbEntity
  8
BEMAßUNG
 62
     7
100
AcDb2dPolyline
 66
     1
 10
0.0
 20
0.0
 30
0.0
  0
VERTEX
  5
4A0
330
49F
100
AcDbEntity
  8
BEMAßUNG
 62
     7
100
AcDbVertex
100
AcDb2dVertex
 10
-23.44421928667367
 20
-2.380388725533375
 30
0.0
  0
VERTEX
  5
4A1
330
49F
100
AcDbEntity
  8
BEMAßUNG
 62
     7
100
AcDbVertex
100
AcDb2dVertex
 10
-22.06893716896193
 20
-2.561256238508991
 30
0.0
  0
VERTEX
  5
4A2
330
49F
100
AcDbEntity
  8
BEMAßUNG
 62
     7
100
AcDbVertex
100
AcDb2dVertex
 10
-22.06893716896193
 20
-2.199348957783496
 30
0.0
  0
VERTEX
  5
4A3
330
49F
100
AcDbEntity
  8
BEMAßUNG
 62
     7
100
AcDbVertex
100
AcDb2dVertex
 10
-23.44421928667367
 20
-2.380388725533375
 30
0.0
  0
SEQEND
  5
4A4
330
49F
100
AcDbEntity
  8
BEMAßUNG
  0
POLYLINE
  5
4A5
330
1F
100
AcDbEntity
  8
BEMAßUNG
 62
     7
100
AcDb2dPolyline
 66
     1
 10
0.0
 20
0.0
 30
0.0
  0
VERTEX
  5
4A6
330
4A5
100
AcDbEntity
  8
BEMAßUNG
 62
     7
100
AcDbVertex
100
AcDb2dVertex
 10
-22.06893716896193
 20
-2.54799262089078
 30
0.0
  0
VERTEX
  5
4A7
330
4A5
100
AcDbEntity
  8
BEMAßUNG
 62
     7
100
AcDbVertex
100
AcDb2dVertex
 10
-22.17091199532533
 20
-2.54799262089078
 30
0.0
  0
SEQEND
  5
4A8
330
4A5
100
AcDbEntity
  8
BEMAßUNG
  0
POLYLINE
  5
4A9
330
1F
100
AcDbEntity
  8
BEMAßUNG
 62
     7
100
AcDb2dPolyline
 66
     1
 10
0.0
 20
0.0
 30
0.0
  0
VERTEX
  5
4AA
330
4A9
100
AcDbEntity
  8
BEMAßUNG
 62
     7
100
AcDbVertex
100
AcDb2dVertex
 10
-22.06893716896193
 20
-2.54799262089078
 30
0.0
  0
VERTEX
  5
4AB
330
4A9
100
AcDbEntity
  8
BEMAßUNG
 62
     7
100
AcDbVertex
100
AcDb2dVertex
 10
-22.17091199532533
 20
-2.54799262089078
 30
0.0
  0
SEQEND
  5
4AC
330
4A9
100
AcDbEntity
  8
BEMAßUNG
  0
POLYLINE
  5
4AD
330
1F
100
AcDbEntity
  8
BEMAßUNG
 62
     7
100
AcDb2dPolyline
 66
     1
 10
0.0
 20
0.0
 30
0.0
  0
VERTEX
  5
4AE
330
4AD
100
AcDbEntity
  8
BEMAßUNG
 62
     7
100
AcDbVertex
100
AcDb2dVertex
 10
-22.06893716896193
 20
-2.520087347460256
 30
0.0
  0
VERTEX
  5
4AF
330
4AD
100
AcDbEntity
  8
BEMAßUNG
 62
     7
100
AcDbVertex
100
AcDb2dVertex
 10
-22.38312987721672
 20
-2.520087347460256
 30
0.0
  0
SEQEND
  5
4B0
330
4AD
100
AcDbEntity
  8
BEMAßUNG
  0
POLYLINE
  5
4B1
330
1F
100
AcDbEntity
  8
BEMAßUNG
 62
     7
100
AcDb2dPolyline
 66
     1
 10
0.0
 20
0.0
 30
0.0
  0
VERTEX
  5
4B2
330
4B1
100
AcDbEntity
  8
BEMAßUNG
 62
     7
100
AcDbVertex
100
AcDb2dVertex
 10
-22.06893716896193
 20
-2.49200981925547
 30
0.0
  0
VERTEX
  5
4B3
330
4B1
100
AcDbEntity
  8
BEMAßUNG
 62
     7
100
AcDbVertex
100
AcDb2dVertex
 10
-22.59534775910811
 20
-2.49200981925547
 30
0.0
  0
SEQEND
  5
4B4
330
4B1
100
AcDbEntity
  8
BEMAßUNG
  0
POLYLINE
  5
4B5
330
1F
100
AcDbEntity
  8
BEMAßUNG
 62
     7
100
AcDb2dPolyline
 66
     1
 10
0.0
 20
0.0
 30
0.0
  0
VERTEX
  5
4B6
330
4B5
100
AcDbEntity
  8
BEMAßUNG
 62
     7
100
AcDbVertex
100
AcDb2dVertex
 10
-22.06893716896193
 20
-2.464104545824946
 30
0.0
  0
VERTEX
  5
4B7
330
4B5
100
AcDbEntity
  8
BEMAßUNG
 62
     7
100
AcDbVertex
100
AcDb2dVertex
 10
-22.8075656409995
 20
-2.464104545824946
 30
0.0
  0
SEQEND
  5
4B8
330
4B5
100
AcDbEntity
  8
BEMAßUNG
  0
POLYLINE
  5
4B9
330
1F
100
AcDbEntity
  8
BEMAßUNG
 62
     7
100
AcDb2dPolyline
 66
     1
 10
0.0
 20
0.0
 30
0.0
  0
VERTEX
  5
4BA
330
4B9
100
AcDbEntity
  8
BEMAßUNG
 62
     7
100
AcDbVertex
100
AcDb2dVertex
 10
-22.06893716896193
 20
-2.436199272394422
 30
0.0
  0
VERTEX
  5
4BB
330
4B9
100
AcDbEntity
  8
BEMAßUNG
 62
     7
100
AcDbVertex
100
AcDb2dVertex
 10
-23.01978352289089
 20
-2.436199272394422
 30
0.0
  0
SEQEND
  5
4BC
330
4B9
100
AcDbEntity
  8
BEMAßUNG
  0
POLYLINE
  5
4BD
330
1F
100
AcDbEntity
  8
BEMAßUNG
 62
     7
100
AcDb2dPolyline
 66
     1
 10
0.0
 20
0.0
 30
0.0
  0
VERTEX
  5
4BE
330
4BD
100
AcDbEntity
  8
BEMAßUNG
 62
     7
100
AcDbVertex
100
AcDb2dVertex
 10
-22.06893716896193
 20
-2.408293998963899
 30
0.0
  0
VERTEX
  5
4BF
330
4BD
100
AcDbEntity
  8
BEMAßUNG
 62
     7
100
AcDbVertex
100
AcDb2dVertex
 10
-23.2323459143308
 20
-2.408293998963899
 30
0.0
  0
SEQEND
  5
4C0
330
4BD
100
AcDbEntity
  8
BEMAßUNG
  0
POLYLINE
  5
4C1
330
1F
100
AcDbEntity
  8
BEMAßUNG
 62
     7
100
AcDb2dPolyline
 66
     1
 10
0.0
 20
0.0
 30
0.0
  0
VERTEX
  5
4C2
330
4C1
100
AcDbEntity
  8
BEMAßUNG
 62
     7
100
AcDbVertex
100
AcDb2dVertex
 10
-22.06893716896193
 20
-2.380388725533375
 30
0.0
  0
VERTEX
  5
4C3
330
4C1
100
AcDbEntity
  8
BEMAßUNG
 62
     7
100
AcDbVertex
100
AcDb2dVertex
 10
-23.44421928667367
 20
-2.380388725533375
 30
0.0
  0
SEQEND
  5
4C4
330
4C1
100
AcDbEntity
  8
BEMAßUNG
  0
POLYLINE
  5
4C5
330
1F
100
AcDbEntity
  8
BEMAßUNG
 62
     7
100
AcDb2dPolyline
 66
     1
 10
0.0
 20
0.0
 30
0.0
  0
VERTEX
  5
4C6
330
4C5
100
AcDbEntity
  8
BEMAßUNG
 62
     7
100
AcDbVertex
100
AcDb2dVertex
 10
-22.06893716896193
 20
-2.212957084950233
 30
0.0
  0
VERTEX
  5
4C7
330
4C5
100
AcDbEntity
  8
BEMAßUNG
 62
     7
100
AcDbVertex
100
AcDb2dVertex
 10
-22.17091199532533
 20
-2.212957084950233
 30
0.0
  0
SEQEND
  5
4C8
330
4C5
100
AcDbEntity
  8
BEMAßUNG
  0
POLYLINE
  5
4C9
330
1F
100
AcDbEntity
  8
BEMAßUNG
 62
     7
100
AcDb2dPolyline
 66
     1
 10
0.0
 20
0.0
 30
0.0
  0
VERTEX
  5
4CA
330
4C9
100
AcDbEntity
  8
BEMAßUNG
 62
     7
100
AcDbVertex
100
AcDb2dVertex
 10
-22.06893716896193
 20
-2.212957084950233
 30
0.0
  0
VERTEX
  5
4CB
330
4C9
100
AcDbEntity
  8
BEMAßUNG
 62
     7
100
AcDbVertex
100
AcDb2dVertex
 10
-22.17091199532533
 20
-2.212957084950233
 30
0.0
  0
SEQEND
  5
4CC
330
4C9
100
AcDbEntity
  8
BEMAßUNG
  0
POLYLINE
  5
4CD
330
1F
100
AcDbEntity
  8
BEMAßUNG
 62
     7
100
AcDb2dPolyline
 66
     1
 10
0.0
 20
0.0
 30
0.0
  0
VERTEX
  5
4CE
330
4CD
100
AcDbEntity
  8
BEMAßUNG
 62
     7
100
AcDbVertex
100
AcDb2dVertex
 10
-22.06893716896193
 20
-2.240862358380757
 30
0.0
  0
VERTEX
  5
4CF
330
4CD
100
AcDbEntity
  8
BEMAßUNG
 62
     7
100
AcDbVertex
100
AcDb2dVertex
 10
-22.38312987721672
 20
-2.240862358380757
 30
0.0
  0
SEQEND
  5
4D0
330
4CD
100
AcDbEntity
  8
BEMAßUNG
  0
POLYLINE
  5
4D1
330
1F
100
AcDbEntity
  8
BEMAßUNG
 62
     7
100
AcDb2dPolyline
 66
     1
 10
0.0
 20
0.0
 30
0.0
  0
VERTEX
  5
4D2
330
4D1
100
AcDbEntity
  8
BEMAßUNG
 62
     7
100
AcDbVertex
100
AcDb2dVertex
 10
-22.06893716896193
 20
-2.268767631811281
 30
0.0
  0
VERTEX
  5
4D3
330
4D1
100
AcDbEntity
  8
BEMAßUNG
 62
     7
100
AcDbVertex
100
AcDb2dVertex
 10
-22.59534775910811
 20
-2.268767631811281
 30
0.0
  0
SEQEND
  5
4D4
330
4D1
100
AcDbEntity
  8
BEMAßUNG
  0
POLYLINE
  5
4D5
330
1F
100
AcDbEntity
  8
BEMAßUNG
 62
     7
100
AcDb2dPolyline
 66
     1
 10
0.0
 20
0.0
 30
0.0
  0
VERTEX
  5
4D6
330
4D5
100
AcDbEntity
  8
BEMAßUNG
 62
     7
100
AcDbVertex
100
AcDb2dVertex
 10
-22.06893716896193
 20
-2.296672905241804
 30
0.0
  0
VERTEX
  5
4D7
330
4D5
100
AcDbEntity
  8
BEMAßUNG
 62
     7
100
AcDbVertex
100
AcDb2dVertex
 10
-22.8075656409995
 20
-2.296672905241804
 30
0.0
  0
SEQEND
  5
4D8
330
4D5
100
AcDbEntity
  8
BEMAßUNG
  0
POLYLINE
  5
4D9
330
1F
100
AcDbEntity
  8
BEMAßUNG
 62
     7
100
AcDb2dPolyline
 66
     1
 10
0.0
 20
0.0
 30
0.0
  0
VERTEX
  5
4DA
330
4D9
100
AcDbEntity
  8
BEMAßUNG
 62
     7
100
AcDbVertex
100
AcDb2dVertex
 10
-22.06893716896193
 20
-2.324405923898065
 30
0.0
  0
VERTEX
  5
4DB
330
4D9
100
AcDbEntity
  8
BEMAßUNG
 62
     7
100
AcDbVertex
100
AcDb2dVertex
 10
-23.01978352289089
 20
-2.324405923898065
 30
0.0
  0
SEQEND
  5
4DC
330
4D9
100
AcDbEntity
  8
BEMAßUNG
  0
POLYLINE
  5
4DD
330
1F
100
AcDbEntity
  8
BEMAßUNG
 62
     7
100
AcDb2dPolyline
 66
     1
 10
0.0
 20
0.0
 30
0.0
  0
VERTEX
  5
4DE
330
4DD
100
AcDbEntity
  8
BEMAßUNG
 62
     7
100
AcDbVertex
100
AcDb2dVertex
 10
-22.06893716896193
 20
-2.352483452102851
 30
0.0
  0
VERTEX
  5
4DF
330
4DD
100
AcDbEntity
  8
BEMAßUNG
 62
     7
100
AcDbVertex
100
AcDb2dVertex
 10
-23.2323459143308
 20
-2.352483452102851
 30
0.0
  0
SEQEND
  5
4E0
330
4DD
100
AcDbEntity
  8
BEMAßUNG
  0
POLYLINE
  5
4E1
330
1F
100
AcDbEntity
  8
BEMAßUNG
 62
     7
100
AcDb2dPolyline
 66
     1
 10
0.0
 20
0.0
 30
0.0
  0
VERTEX
  5
4E2
330
4E1
100
AcDbEntity
  8
BEMAßUNG
 62
     7
100
AcDbVertex
100
AcDb2dVertex
 10
-22.06893716896193
 20
-2.380388725533375
 30
0.0
  0
VERTEX
  5
4E3
330
4E1
100
AcDbEntity
  8
BEMAßUNG
 62
     7
100
AcDbVertex
100
AcDb2dVertex
 10
-23.44421928667367
 20
-2.380388725533375
 30
0.0
  0
SEQEND
  5
4E4
330
4E1
100
AcDbEntity
  8
BEMAßUNG
  0
POLYLINE
  5
4E5
330
1F
100
AcDbEntity
  8
BEMAßUNG
 62
     7
100
AcDb2dPolyline
 66
     1
 10
0.0
 20
0.0
 30
0.0
  0
VERTEX
  5
4E6
330
4E5
100
AcDbEntity
  8
BEMAßUNG
 62
     7
100
AcDbVertex
100
AcDb2dVertex
 10
-4.744240992737551
 20
-2.380388725533375
 30
0.0
  0
VERTEX
  5
4E7
330
4E5
100
AcDbEntity
  8
BEMAßUNG
 62
     7
100
AcDbVertex
100
AcDb2dVertex
 10
-6.119523110449286
 20
-2.199348957783496
 30
0.0
  0
VERTEX
  5
4E8
330
4E5
100
AcDbEntity
  8
BEMAßUNG
 62
     7
100
AcDbVertex
100
AcDb2dVertex
 10
-6.119523110449286
 20
-2.561256238508991
 30
0.0
  0
VERTEX
  5
4E9
330
4E5
100
AcDbEntity
  8
BEMAßUNG
 62
     7
100
AcDbVertex
100
AcDb2dVertex
 10
-4.744240992737551
 20
-2.380388725533375
 30
0.0
  0
SEQEND
  5
4EA
330
4E5
100
AcDbEntity
  8
BEMAßUNG
  0
POLYLINE
  5
4EB
330
1F
100
AcDbEntity
  8
BEMAßUNG
 62
     7
100
AcDb2dPolyline
 66
     1
 10
0.0
 20
0.0
 30
0.0
  0
VERTEX
  5
4EC
330
4EB
100
AcDbEntity
  8
BEMAßUNG
 62
     7
100
AcDbVertex
100
AcDb2dVertex
 10
-6.119523110449286
 20
-2.212957084950233
 30
0.0
  0
VERTEX
  5
4ED
330
4EB
100
AcDbEntity
  8
BEMAßUNG
 62
     7
100
AcDbVertex
100
AcDb2dVertex
 10
-6.017892793634416
 20
-2.212957084950233
 30
0.0
  0
SEQEND
  5
4EE
330
4EB
100
AcDbEntity
  8
BEMAßUNG
  0
POLYLINE
  5
4EF
330
1F
100
AcDbEntity
  8
BEMAßUNG
 62
     7
100
AcDb2dPolyline
 66
     1
 10
0.0
 20
0.0
 30
0.0
  0
VERTEX
  5
4F0
330
4EF
100
AcDbEntity
  8
BEMAßUNG
 62
     7
100
AcDbVertex
100
AcDb2dVertex
 10
-6.119523110449286
 20
-2.212957084950233
 30
0.0
  0
VERTEX
  5
4F1
330
4EF
100
AcDbEntity
  8
BEMAßUNG
 62
     7
100
AcDbVertex
100
AcDb2dVertex
 10
-6.017892793634416
 20
-2.212957084950233
 30
0.0
  0
SEQEND
  5
4F2
330
4EF
100
AcDbEntity
  8
BEMAßUNG
  0
POLYLINE
  5
4F3
330
1F
100
AcDbEntity
  8
BEMAßUNG
 62
     7
100
AcDb2dPolyline
 66
     1
 10
0.0
 20
0.0
 30
0.0
  0
VERTEX
  5
4F4
330
4F3
100
AcDbEntity
  8
BEMAßUNG
 62
     7
100
AcDbVertex
100
AcDb2dVertex
 10
-6.119523110449286
 20
-2.240862358380757
 30
0.0
  0
VERTEX
  5
4F5
330
4F3
100
AcDbEntity
  8
BEMAßUNG
 62
     7
100
AcDbVertex
100
AcDb2dVertex
 10
-5.805330402194501
 20
-2.240862358380757
 30
0.0
  0
SEQEND
  5
4F6
330
4F3
100
AcDbEntity
  8
BEMAßUNG
  0
POLYLINE
  5
4F7
330
1F
100
AcDbEntity
  8
BEMAßUNG
 62
     7
100
AcDb2dPolyline
 66
     1
 10
0.0
 20
0.0
 30
0.0
  0
VERTEX
  5
4F8
330
4F7
100
AcDbEntity
  8
BEMAßUNG
 62
     7
100
AcDbVertex
100
AcDb2dVertex
 10
-6.119523110449286
 20
-2.268767631811281
 30
0.0
  0
VERTEX
  5
4F9
330
4F7
100
AcDbEntity
  8
BEMAßUNG
 62
     7
100
AcDbVertex
100
AcDb2dVertex
 10
-5.593457029851636
 20
-2.268767631811281
 30
0.0
  0
SEQEND
  5
4FA
330
4F7
100
AcDbEntity
  8
BEMAßUNG
  0
POLYLINE
  5
4FB
330
1F
100
AcDbEntity
  8
BEMAßUNG
 62
     7
100
AcDb2dPolyline
 66
     1
 10
0.0
 20
0.0
 30
0.0
  0
VERTEX
  5
4FC
330
4FB
100
AcDbEntity
  8
BEMAßUNG
 62
     7
100
AcDbVertex
100
AcDb2dVertex
 10
-6.119523110449286
 20
-2.296672905241804
 30
0.0
  0
VERTEX
  5
4FD
330
4FB
100
AcDbEntity
  8
BEMAßUNG
 62
     7
100
AcDbVertex
100
AcDb2dVertex
 10
-5.380894638411721
 20
-2.296672905241804
 30
0.0
  0
SEQEND
  5
4FE
330
4FB
100
AcDbEntity
  8
BEMAßUNG
  0
POLYLINE
  5
4FF
330
1F
100
AcDbEntity
  8
BEMAßUNG
 62
     7
100
AcDb2dPolyline
 66
     1
 10
0.0
 20
0.0
 30
0.0
  0
VERTEX
  5
500
330
4FF
100
AcDbEntity
  8
BEMAßUNG
 62
     7
100
AcDbVertex
100
AcDb2dVertex
 10
-6.119523110449286
 20
-2.324405923898065
 30
0.0
  0
VERTEX
  5
501
330
4FF
100
AcDbEntity
  8
BEMAßUNG
 62
     7
100
AcDbVertex
100
AcDb2dVertex
 10
-5.169021266068856
 20
-2.324405923898065
 30
0.0
  0
SEQEND
  5
502
330
4FF
100
AcDbEntity
  8
BEMAßUNG
  0
POLYLINE
  5
503
330
1F
100
AcDbEntity
  8
BEMAßUNG
 62
     7
100
AcDb2dPolyline
 66
     1
 10
0.0
 20
0.0
 30
0.0
  0
VERTEX
  5
504
330
503
100
AcDbEntity
  8
BEMAßUNG
 62
     7
100
AcDbVertex
100
AcDb2dVertex
 10
-6.119523110449286
 20
-2.352483452102851
 30
0.0
  0
VERTEX
  5
505
330
503
100
AcDbEntity
  8
BEMAßUNG
 62
     7
100
AcDbVertex
100
AcDb2dVertex
 10
-4.956458874628941
 20
-2.352483452102851
 30
0.0
  0
SEQEND
  5
506
330
503
100
AcDbEntity
  8
BEMAßUNG
  0
POLYLINE
  5
507
330
1F
100
AcDbEntity
  8
BEMAßUNG
 62
     7
100
AcDb2dPolyline
 66
     1
 10
0.0
 20
0.0
 30
0.0
  0
VERTEX
  5
508
330
507
100
AcDbEntity
  8
BEMAßUNG
 62
     7
100
AcDbVertex
100
AcDb2dVertex
 10
-6.119523110449286
 20
-2.380388725533375
 30
0.0
  0
VERTEX
  5
509
330
507
100
AcDbEntity
  8
BEMAßUNG
 62
     7
100
AcDbVertex
100
AcDb2dVertex
 10
-4.744240992737551
 20
-2.380388725533375
 30
0.0
  0
SEQEND
  5
50A
330
507
100
AcDbEntity
  8
BEMAßUNG
  0
POLYLINE
  5
50B
330
1F
100
AcDbEntity
  8
BEMAßUNG
 62
     7
100
AcDb2dPolyline
 66
     1
 10
0.0
 20
0.0
 30
0.0
  0
VERTEX
  5
50C
330
50B
100
AcDbEntity
  8
BEMAßUNG
 62
     7
100
AcDbVertex
100
AcDb2dVertex
 10
-6.119523110449286
 20
-2.54799262089078
 30
0.0
  0
VERTEX
  5
50D
330
50B
100
AcDbEntity
  8
BEMAßUNG
 62
     7
100
AcDbVertex
100
AcDb2dVertex
 10
-6.017892793634416
 20
-2.54799262089078
 30
0.0
  0
SEQEND
  5
50E
330
50B
100
AcDbEntity
  8
BEMAßUNG
  0
POLYLINE
  5
50F
330
1F
100
AcDbEntity
  8
BEMAßUNG
 62
     7
100
AcDb2dPolyline
 66
     1
 10
0.0
 20
0.0
 30
0.0
  0
VERTEX
  5
510
330
50F
100
AcDbEntity
  8
BEMAßUNG
 62
     7
100
AcDbVertex
100
AcDb2dVertex
 10
-6.119523110449286
 20
-2.54799262089078
 30
0.0
  0
VERTEX
  5
511
330
50F
100
AcDbEntity
  8
BEMAßUNG
 62
     7
100
AcDbVertex
100
AcDb2dVertex
 10
-6.017892793634416
 20
-2.54799262089078
 30
0.0
  0
SEQEND
  5
512
330
50F
100
AcDbEntity
  8
BEMAßUNG
  0
POLYLINE
  5
513
330
1F
100
AcDbEntity
  8
BEMAßUNG
 62
     7
100
AcDb2dPolyline
 66
     1
 10
0.0
 20
0.0
 30
0.0
  0
VERTEX
  5
514
330
513
100
AcDbEntity
  8
BEMAßUNG
 62
     7
100
AcDbVertex
100
AcDb2dVertex
 10
-6.119523110449286
 20
-2.520087347460256
 30
0.0
  0
VERTEX
  5
515
330
513
100
AcDbEntity
  8
BEMAßUNG
 62
     7
100
AcDbVertex
100
AcDb2dVertex
 10
-5.805330402194501
 20
-2.520087347460256
 30
0.0
  0
SEQEND
  5
516
330
513
100
AcDbEntity
  8
BEMAßUNG
  0
POLYLINE
  5
517
330
1F
100
AcDbEntity
  8
BEMAßUNG
 62
     7
100
AcDb2dPolyline
 66
     1
 10
0.0
 20
0.0
 30
0.0
  0
VERTEX
  5
518
330
517
100
AcDbEntity
  8
BEMAßUNG
 62
     7
100
AcDbVertex
100
AcDb2dVertex
 10
-6.119523110449286
 20
-2.49200981925547
 30
0.0
  0
VERTEX
  5
519
330
517
100
AcDbEntity
  8
BEMAßUNG
 62
     7
100
AcDbVertex
100
AcDb2dVertex
 10
-5.593457029851636
 20
-2.49200981925547
 30
0.0
  0
SEQEND
  5
51A
330
517
100
AcDbEntity
  8
BEMAßUNG
  0
POLYLINE
  5
51B
330
1F
100
AcDbEntity
  8
BEMAßUNG
 62
     7
100
AcDb2dPolyline
 66
     1
 10
0.0
 20
0.0
 30
0.0
  0
VERTEX
  5
51C
330
51B
100
AcDbEntity
  8
BEMAßUNG
 62
     7
100
AcDbVertex
100
AcDb2dVertex
 10
-6.119523110449286
 20
-2.464104545824946
 30
0.0
  0
VERTEX
  5
51D
330
51B
100
AcDbEntity
  8
BEMAßUNG
 62
     7
100
AcDbVertex
100
AcDb2dVertex
 10
-5.380894638411721
 20
-2.464104545824946
 30
0.0
  0
SEQEND
  5
51E
330
51B
100
AcDbEntity
  8
BEMAßUNG
  0
POLYLINE
  5
51F
330
1F
100
AcDbEntity
  8
BEMAßUNG
 62
     7
100
AcDb2dPolyline
 66
     1
 10
0.0
 20
0.0
 30
0.0
  0
VERTEX
  5
520
330
51F
100
AcDbEntity
  8
BEMAßUNG
 62
     7
100
AcDbVertex
100
AcDb2dVertex
 10
-6.119523110449286
 20
-2.436199272394422
 30
0.0
  0
VERTEX
  5
521
330
51F
100
AcDbEntity
  8
BEMAßUNG
 62
     7
100
AcDbVertex
100
AcDb2dVertex
 10
-5.169021266068856
 20
-2.436199272394422
 30
0.0
  0
SEQEND
  5
522
330
51F
100
AcDbEntity
  8
BEMAßUNG
  0
POLYLINE
  5
523
330
1F
100
AcDbEntity
  8
BEMAßUNG
 62
     7
100
AcDb2dPolyline
 66
     1
 10
0.0
 20
0.0
 30
0.0
  0
VERTEX
  5
524
330
523
100
AcDbEntity
  8
BEMAßUNG
 62
     7
100
AcDbVertex
100
AcDb2dVertex
 10
-6.119523110449286
 20
-2.408293998963899
 30
0.0
  0
VERTEX
  5
525
330
523
100
AcDbEntity
  8
BEMAßUNG
 62
     7
100
AcDbVertex
100
AcDb2dVertex
 10
-4.956458874628941
 20
-2.408293998963899
 30
0.0
  0
SEQEND
  5
526
330
523
100
AcDbEntity
  8
BEMAßUNG
  0
POLYLINE
  5
527
330
1F
100
AcDbEntity
  8
BEMAßUNG
 62
     7
100
AcDb2dPolyline
 66
     1
 10
0.0
 20
0.0
 30
0.0
  0
VERTEX
  5
528
330
527
100
AcDbEntity
  8
BEMAßUNG
 62
     7
100
AcDbVertex
100
AcDb2dVertex
 10
-6.119523110449286
 20
-2.380388725533375
 30
0.0
  0
VERTEX
  5
529
330
527
100
AcDbEntity
  8
BEMAßUNG
 62
     7
100
AcDbVertex
100
AcDb2dVertex
 10
-4.744240992737551
 20
-2.380388725533375
 30
0.0
  0
SEQEND
  5
52A
330
527
100
AcDbEntity
  8
BEMAßUNG
  0
POLYLINE
  5
52B
330
1F
100
AcDbEntity
  8
BEMAßUNG
 62
     7
100
AcDb2dPolyline
 66
     1
 10
0.0
 20
0.0
 30
0.0
  0
VERTEX
  5
52C
330
52B
100
AcDbEntity
  8
BEMAßUNG
 62
     7
100
AcDbVertex
100
AcDb2dVertex
 10
-23.44421928667367
 20
16.27790391303122
 30
0.0
  0
VERTEX
  5
52D
330
52B
100
AcDbEntity
  8
BEMAßUNG
 62
     7
100
AcDbVertex
100
AcDb2dVertex
 10
-23.44421928667367
 20
22.94330240311834
 30
0.0
  0
SEQEND
  5
52E
330
52B
100
AcDbEntity
  8
BEMAßUNG
  0
POLYLINE
  5
52F
330
1F
100
AcDbEntity
  8
BEMAßUNG
 62
     7
100
AcDb2dPolyline
 66
     1
 10
0.0
 20
0.0
 30
0.0
  0
VERTEX
  5
530
330
52F
100
AcDbEntity
  8
BEMAßUNG
 62
     7
100
AcDbVertex
100
AcDb2dVertex
 10
-22.06893716896193
 20
9.677617727615319
 30
0.0
  0
VERTEX
  5
531
330
52F
100
AcDbEntity
  8
BEMAßUNG
 62
     7
100
AcDbVertex
100
AcDb2dVertex
 10
-22.06893716896193
 20
22.94330240311834
 30
0.0
  0
SEQEND
  5
532
330
52F
100
AcDbEntity
  8
BEMAßUNG
  0
POLYLINE
  5
533
330
1F
100
AcDbEntity
  8
BEMAßUNG
 62
     7
100
AcDb2dPolyline
 66
     1
 10
0.0
 20
0.0
 30
0.0
  0
VERTEX
  5
534
330
533
100
AcDbEntity
  8
BEMAßUNG
 62
     7
100
AcDbVertex
100
AcDb2dVertex
 10
-21.2204101509449
 20
21.84328341467807
 30
0.0
  0
VERTEX
  5
535
330
533
100
AcDbEntity
  8
BEMAßUNG
 62
     7
100
AcDbVertex
100
AcDb2dVertex
 10
-29.52877467794767
 20
21.84328341467807
 30
0.0
  0
SEQEND
  5
536
330
533
100
AcDbEntity
  8
BEMAßUNG
  0
POLYLINE
  5
537
330
1F
100
AcDbEntity
  8
BEMAßUNG
 62
     7
100
AcDb2dPolyline
 66
     1
 10
0.0
 20
0.0
 30
0.0
  0
VERTEX
  5
538
330
537
100
AcDbEntity
  8
BEMAßUNG
 62
     7
100
AcDbVertex
100
AcDb2dVertex
 10
-23.44421928667367
 20
21.84328341467807
 30
0.0
  0
VERTEX
  5
539
330
537
100
AcDbEntity
  8
BEMAßUNG
 62
     7
100
AcDbVertex
100
AcDb2dVertex
 10
-24.81915689483688
 20
22.02449543720221
 30
0.0
  0
VERTEX
  5
53A
330
537
100
AcDbEntity
  8
BEMAßUNG
 62
     7
100
AcDbVertex
100
AcDb2dVertex
 10
-24.81915689483688
 20
21.66241590170245
 30
0.0
  0
VERTEX
  5
53B
330
537
100
AcDbEntity
  8
BEMAßUNG
 62
     7
100
AcDbVertex
100
AcDb2dVertex
 10
-23.44421928667367
 20
21.84328341467807
 30
0.0
  0
SEQEND
  5
53C
330
537
100
AcDbEntity
  8
BEMAßUNG
  0
POLYLINE
  5
53D
330
1F
100
AcDbEntity
  8
BEMAßUNG
 62
     7
100
AcDb2dPolyline
 66
     1
 10
0.0
 20
0.0
 30
0.0
  0
VERTEX
  5
53E
330
53D
100
AcDbEntity
  8
BEMAßUNG
 62
     7
100
AcDbVertex
100
AcDb2dVertex
 10
-24.81915689483688
 20
22.011231819584
 30
0.0
  0
VERTEX
  5
53F
330
53D
100
AcDbEntity
  8
BEMAßUNG
 62
     7
100
AcDbVertex
100
AcDb2dVertex
 10
-24.71752657802201
 20
22.011231819584
 30
0.0
  0
SEQEND
  5
540
330
53D
100
AcDbEntity
  8
BEMAßUNG
  0
POLYLINE
  5
541
330
1F
100
AcDbEntity
  8
BEMAßUNG
 62
     7
100
AcDb2dPolyline
 66
     1
 10
0.0
 20
0.0
 30
0.0
  0
VERTEX
  5
542
330
541
100
AcDbEntity
  8
BEMAßUNG
 62
     7
100
AcDbVertex
100
AcDb2dVertex
 10
-24.81915689483688
 20
22.011231819584
 30
0.0
  0
VERTEX
  5
543
330
541
100
AcDbEntity
  8
BEMAßUNG
 62
     7
100
AcDbVertex
100
AcDb2dVertex
 10
-24.71752657802201
 20
22.011231819584
 30
0.0
  0
SEQEND
  5
544
330
541
100
AcDbEntity
  8
BEMAßUNG
  0
POLYLINE
  5
545
330
1F
100
AcDbEntity
  8
BEMAßUNG
 62
     7
100
AcDb2dPolyline
 66
     1
 10
0.0
 20
0.0
 30
0.0
  0
VERTEX
  5
546
330
545
100
AcDbEntity
  8
BEMAßUNG
 62
     7
100
AcDbVertex
100
AcDb2dVertex
 10
-24.81915689483688
 20
21.98315429137921
 30
0.0
  0
VERTEX
  5
547
330
545
100
AcDbEntity
  8
BEMAßUNG
 62
     7
100
AcDbVertex
100
AcDb2dVertex
 10
-24.50565320567914
 20
21.98315429137921
 30
0.0
  0
SEQEND
  5
548
330
545
100
AcDbEntity
  8
BEMAßUNG
  0
POLYLINE
  5
549
330
1F
100
AcDbEntity
  8
BEMAßUNG
 62
     7
100
AcDb2dPolyline
 66
     1
 10
0.0
 20
0.0
 30
0.0
  0
VERTEX
  5
54A
330
549
100
AcDbEntity
  8
BEMAßUNG
 62
     7
100
AcDbVertex
100
AcDb2dVertex
 10
-24.81915689483688
 20
21.95542127272295
 30
0.0
  0
VERTEX
  5
54B
330
549
100
AcDbEntity
  8
BEMAßUNG
 62
     7
100
AcDbVertex
100
AcDb2dVertex
 10
-24.29309081423923
 20
21.95542127272295
 30
0.0
  0
SEQEND
  5
54C
330
549
100
AcDbEntity
  8
BEMAßUNG
  0
POLYLINE
  5
54D
330
1F
100
AcDbEntity
  8
BEMAßUNG
 62
     7
100
AcDb2dPolyline
 66
     1
 10
0.0
 20
0.0
 30
0.0
  0
VERTEX
  5
54E
330
54D
100
AcDbEntity
  8
BEMAßUNG
 62
     7
100
AcDbVertex
100
AcDb2dVertex
 10
-24.81915689483688
 20
21.9271714897439
 30
0.0
  0
VERTEX
  5
54F
330
54D
100
AcDbEntity
  8
BEMAßUNG
 62
     7
100
AcDbVertex
100
AcDb2dVertex
 10
-24.08087293234784
 20
21.9271714897439
 30
0.0
  0
SEQEND
  5
550
330
54D
100
AcDbEntity
  8
BEMAßUNG
  0
POLYLINE
  5
551
330
1F
100
AcDbEntity
  8
BEMAßUNG
 62
     7
100
AcDb2dPolyline
 66
     1
 10
0.0
 20
0.0
 30
0.0
  0
VERTEX
  5
552
330
551
100
AcDbEntity
  8
BEMAßUNG
 62
     7
100
AcDbVertex
100
AcDb2dVertex
 10
-24.81915689483688
 20
21.89926621631338
 30
0.0
  0
VERTEX
  5
553
330
551
100
AcDbEntity
  8
BEMAßUNG
 62
     7
100
AcDbVertex
100
AcDb2dVertex
 10
-23.86865505045645
 20
21.89926621631338
 30
0.0
  0
SEQEND
  5
554
330
551
100
AcDbEntity
  8
BEMAßUNG
  0
POLYLINE
  5
555
330
1F
100
AcDbEntity
  8
BEMAßUNG
 62
     7
100
AcDb2dPolyline
 66
     1
 10
0.0
 20
0.0
 30
0.0
  0
VERTEX
  5
556
330
555
100
AcDbEntity
  8
BEMAßUNG
 62
     7
100
AcDbVertex
100
AcDb2dVertex
 10
-24.81915689483688
 20
21.87136094288286
 30
0.0
  0
VERTEX
  5
557
330
555
100
AcDbEntity
  8
BEMAßUNG
 62
     7
100
AcDbVertex
100
AcDb2dVertex
 10
-23.65643716856506
 20
21.87136094288286
 30
0.0
  0
SEQEND
  5
558
330
555
100
AcDbEntity
  8
BEMAßUNG
  0
POLYLINE
  5
559
330
1F
100
AcDbEntity
  8
BEMAßUNG
 62
     7
100
AcDb2dPolyline
 66
     1
 10
0.0
 20
0.0
 30
0.0
  0
VERTEX
  5
55A
330
559
100
AcDbEntity
  8
BEMAßUNG
 62
     7
100
AcDbVertex
100
AcDb2dVertex
 10
-24.81915689483688
 20
21.84328341467807
 30
0.0
  0
VERTEX
  5
55B
330
559
100
AcDbEntity
  8
BEMAßUNG
 62
     7
100
AcDbVertex
100
AcDb2dVertex
 10
-23.44421928667367
 20
21.84328341467807
 30
0.0
  0
SEQEND
  5
55C
330
559
100
AcDbEntity
  8
BEMAßUNG
  0
POLYLINE
  5
55D
330
1F
100
AcDbEntity
  8
BEMAßUNG
 62
     7
100
AcDb2dPolyline
 66
     1
 10
0.0
 20
0.0
 30
0.0
  0
VERTEX
  5
55E
330
55D
100
AcDbEntity
  8
BEMAßUNG
 62
     7
100
AcDbVertex
100
AcDb2dVertex
 10
-24.81915689483688
 20
21.67567951932066
 30
0.0
  0
VERTEX
  5
55F
330
55D
100
AcDbEntity
  8
BEMAßUNG
 62
     7
100
AcDbVertex
100
AcDb2dVertex
 10
-24.71752657802201
 20
21.67567951932066
 30
0.0
  0
SEQEND
  5
560
330
55D
100
AcDbEntity
  8
BEMAßUNG
  0
POLYLINE
  5
561
330
1F
100
AcDbEntity
  8
BEMAßUNG
 62
     7
100
AcDb2dPolyline
 66
     1
 10
0.0
 20
0.0
 30
0.0
  0
VERTEX
  5
562
330
561
100
AcDbEntity
  8
BEMAßUNG
 62
     7
100
AcDbVertex
100
AcDb2dVertex
 10
-24.81915689483688
 20
21.67567951932066
 30
0.0
  0
VERTEX
  5
563
330
561
100
AcDbEntity
  8
BEMAßUNG
 62
     7
100
AcDbVertex
100
AcDb2dVertex
 10
-24.71752657802201
 20
21.67567951932066
 30
0.0
  0
SEQEND
  5
564
330
561
100
AcDbEntity
  8
BEMAßUNG
  0
POLYLINE
  5
565
330
1F
100
AcDbEntity
  8
BEMAßUNG
 62
     7
100
AcDb2dPolyline
 66
     1
 10
0.0
 20
0.0
 30
0.0
  0
VERTEX
  5
566
330
565
100
AcDbEntity
  8
BEMAßUNG
 62
     7
100
AcDbVertex
100
AcDb2dVertex
 10
-24.81915689483688
 20
21.70358479275119
 30
0.0
  0
VERTEX
  5
567
330
565
100
AcDbEntity
  8
BEMAßUNG
 62
     7
100
AcDbVertex
100
AcDb2dVertex
 10
-24.50565320567914
 20
21.70358479275119
 30
0.0
  0
SEQEND
  5
568
330
565
100
AcDbEntity
  8
BEMAßUNG
  0
POLYLINE
  5
569
330
1F
100
AcDbEntity
  8
BEMAßUNG
 62
     7
100
AcDb2dPolyline
 66
     1
 10
0.0
 20
0.0
 30
0.0
  0
VERTEX
  5
56A
330
569
100
AcDbEntity
  8
BEMAßUNG
 62
     7
100
AcDbVertex
100
AcDb2dVertex
 10
-24.81915689483688
 20
21.73166232095597
 30
0.0
  0
VERTEX
  5
56B
330
569
100
AcDbEntity
  8
BEMAßUNG
 62
     7
100
AcDbVertex
100
AcDb2dVertex
 10
-24.29309081423923
 20
21.73166232095597
 30
0.0
  0
SEQEND
  5
56C
330
569
100
AcDbEntity
  8
BEMAßUNG
  0
POLYLINE
  5
56D
330
1F
100
AcDbEntity
  8
BEMAßUNG
 62
     7
100
AcDb2dPolyline
 66
     1
 10
0.0
 20
0.0
 30
0.0
  0
VERTEX
  5
56E
330
56D
100
AcDbEntity
  8
BEMAßUNG
 62
     7
100
AcDbVertex
100
AcDb2dVertex
 10
-24.81915689483688
 20
21.7595675943865
 30
0.0
  0
VERTEX
  5
56F
330
56D
100
AcDbEntity
  8
BEMAßUNG
 62
     7
100
AcDbVertex
100
AcDb2dVertex
 10
-24.08087293234784
 20
21.7595675943865
 30
0.0
  0
SEQEND
  5
570
330
56D
100
AcDbEntity
  8
BEMAßUNG
  0
POLYLINE
  5
571
330
1F
100
AcDbEntity
  8
BEMAßUNG
 62
     7
100
AcDb2dPolyline
 66
     1
 10
0.0
 20
0.0
 30
0.0
  0
VERTEX
  5
572
330
571
100
AcDbEntity
  8
BEMAßUNG
 62
     7
100
AcDbVertex
100
AcDb2dVertex
 10
-24.81915689483688
 20
21.78747286781702
 30
0.0
  0
VERTEX
  5
573
330
571
100
AcDbEntity
  8
BEMAßUNG
 62
     7
100
AcDbVertex
100
AcDb2dVertex
 10
-23.86865505045645
 20
21.78747286781702
 30
0.0
  0
SEQEND
  5
574
330
571
100
AcDbEntity
  8
BEMAßUNG
  0
POLYLINE
  5
575
330
1F
100
AcDbEntity
  8
BEMAßUNG
 62
     7
100
AcDb2dPolyline
 66
     1
 10
0.0
 20
0.0
 30
0.0
  0
VERTEX
  5
576
330
575
100
AcDbEntity
  8
BEMAßUNG
 62
     7
100
AcDbVertex
100
AcDb2dVertex
 10
-24.81915689483688
 20
21.81537814124755
 30
0.0
  0
VERTEX
  5
577
330
575
100
AcDbEntity
  8
BEMAßUNG
 62
     7
100
AcDbVertex
100
AcDb2dVertex
 10
-23.65643716856506
 20
21.81537814124755
 30
0.0
  0
SEQEND
  5
578
330
575
100
AcDbEntity
  8
BEMAßUNG
  0
POLYLINE
  5
579
330
1F
100
AcDbEntity
  8
BEMAßUNG
 62
     7
100
AcDb2dPolyline
 66
     1
 10
0.0
 20
0.0
 30
0.0
  0
VERTEX
  5
57A
330
579
100
AcDbEntity
  8
BEMAßUNG
 62
     7
100
AcDbVertex
100
AcDb2dVertex
 10
-24.81915689483688
 20
21.84328341467807
 30
0.0
  0
VERTEX
  5
57B
330
579
100
AcDbEntity
  8
BEMAßUNG
 62
     7
100
AcDbVertex
100
AcDb2dVertex
 10
-23.44421928667367
 20
21.84328341467807
 30
0.0
  0
SEQEND
  5
57C
330
579
100
AcDbEntity
  8
BEMAßUNG
  0
POLYLINE
  5
57D
330
1F
100
AcDbEntity
  8
BEMAßUNG
 62
     7
100
AcDb2dPolyline
 66
     1
 10
0.0
 20
0.0
 30
0.0
  0
VERTEX
  5
57E
330
57D
100
AcDbEntity
  8
BEMAßUNG
 62
     7
100
AcDbVertex
100
AcDb2dVertex
 10
-22.06893716896193
 20
21.84328341467807
 30
0.0
  0
VERTEX
  5
57F
330
57D
100
AcDbEntity
  8
BEMAßUNG
 62
     7
100
AcDbVertex
100
AcDb2dVertex
 10
-20.69399956079872
 20
21.66241590170245
 30
0.0
  0
VERTEX
  5
580
330
57D
100
AcDbEntity
  8
BEMAßUNG
 62
     7
100
AcDbVertex
100
AcDb2dVertex
 10
-20.69399956079872
 20
22.02449543720221
 30
0.0
  0
VERTEX
  5
581
330
57D
100
AcDbEntity
  8
BEMAßUNG
 62
     7
100
AcDbVertex
100
AcDb2dVertex
 10
-22.06893716896193
 20
21.84328341467807
 30
0.0
  0
SEQEND
  5
582
330
57D
100
AcDbEntity
  8
BEMAßUNG
  0
POLYLINE
  5
583
330
1F
100
AcDbEntity
  8
BEMAßUNG
 62
     7
100
AcDb2dPolyline
 66
     1
 10
0.0
 20
0.0
 30
0.0
  0
VERTEX
  5
584
330
583
100
AcDbEntity
  8
BEMAßUNG
 62
     7
100
AcDbVertex
100
AcDb2dVertex
 10
-20.69399956079872
 20
21.67567951932066
 30
0.0
  0
VERTEX
  5
585
330
583
100
AcDbEntity
  8
BEMAßUNG
 62
     7
100
AcDbVertex
100
AcDb2dVertex
 10
-20.79597438716212
 20
21.67567951932066
 30
0.0
  0
SEQEND
  5
586
330
583
100
AcDbEntity
  8
BEMAßUNG
  0
POLYLINE
  5
587
330
1F
100
AcDbEntity
  8
BEMAßUNG
 62
     7
100
AcDb2dPolyline
 66
     1
 10
0.0
 20
0.0
 30
0.0
  0
VERTEX
  5
588
330
587
100
AcDbEntity
  8
BEMAßUNG
 62
     7
100
AcDbVertex
100
AcDb2dVertex
 10
-20.69399956079872
 20
21.67567951932066
 30
0.0
  0
VERTEX
  5
589
330
587
100
AcDbEntity
  8
BEMAßUNG
 62
     7
100
AcDbVertex
100
AcDb2dVertex
 10
-20.79597438716212
 20
21.67567951932066
 30
0.0
  0
SEQEND
  5
58A
330
587
100
AcDbEntity
  8
BEMAßUNG
  0
POLYLINE
  5
58B
330
1F
100
AcDbEntity
  8
BEMAßUNG
 62
     7
100
AcDb2dPolyline
 66
     1
 10
0.0
 20
0.0
 30
0.0
  0
VERTEX
  5
58C
330
58B
100
AcDbEntity
  8
BEMAßUNG
 62
     7
100
AcDbVertex
100
AcDb2dVertex
 10
-20.69399956079872
 20
21.70358479275119
 30
0.0
  0
VERTEX
  5
58D
330
58B
100
AcDbEntity
  8
BEMAßUNG
 62
     7
100
AcDbVertex
100
AcDb2dVertex
 10
-21.00819226905351
 20
21.70358479275119
 30
0.0
  0
SEQEND
  5
58E
330
58B
100
AcDbEntity
  8
BEMAßUNG
  0
POLYLINE
  5
58F
330
1F
100
AcDbEntity
  8
BEMAßUNG
 62
     7
100
AcDb2dPolyline
 66
     1
 10
0.0
 20
0.0
 30
0.0
  0
VERTEX
  5
590
330
58F
100
AcDbEntity
  8
BEMAßUNG
 62
     7
100
AcDbVertex
100
AcDb2dVertex
 10
-20.69399956079872
 20
21.73166232095597
 30
0.0
  0
VERTEX
  5
591
330
58F
100
AcDbEntity
  8
BEMAßUNG
 62
     7
100
AcDbVertex
100
AcDb2dVertex
 10
-21.2204101509449
 20
21.73166232095597
 30
0.0
  0
SEQEND
  5
592
330
58F
100
AcDbEntity
  8
BEMAßUNG
  0
POLYLINE
  5
593
330
1F
100
AcDbEntity
  8
BEMAßUNG
 62
     7
100
AcDb2dPolyline
 66
     1
 10
0.0
 20
0.0
 30
0.0
  0
VERTEX
  5
594
330
593
100
AcDbEntity
  8
BEMAßUNG
 62
     7
100
AcDbVertex
100
AcDb2dVertex
 10
-20.69399956079872
 20
21.7595675943865
 30
0.0
  0
VERTEX
  5
595
330
593
100
AcDbEntity
  8
BEMAßUNG
 62
     7
100
AcDbVertex
100
AcDb2dVertex
 10
-21.43297254238481
 20
21.7595675943865
 30
0.0
  0
SEQEND
  5
596
330
593
100
AcDbEntity
  8
BEMAßUNG
  0
POLYLINE
  5
597
330
1F
100
AcDbEntity
  8
BEMAßUNG
 62
     7
100
AcDb2dPolyline
 66
     1
 10
0.0
 20
0.0
 30
0.0
  0
VERTEX
  5
598
330
597
100
AcDbEntity
  8
BEMAßUNG
 62
     7
100
AcDbVertex
100
AcDb2dVertex
 10
-20.69399956079872
 20
21.78747286781702
 30
0.0
  0
VERTEX
  5
599
330
597
100
AcDbEntity
  8
BEMAßUNG
 62
     7
100
AcDbVertex
100
AcDb2dVertex
 10
-21.64484591472768
 20
21.78747286781702
 30
0.0
  0
SEQEND
  5
59A
330
597
100
AcDbEntity
  8
BEMAßUNG
  0
POLYLINE
  5
59B
330
1F
100
AcDbEntity
  8
BEMAßUNG
 62
     7
100
AcDb2dPolyline
 66
     1
 10
0.0
 20
0.0
 30
0.0
  0
VERTEX
  5
59C
330
59B
100
AcDbEntity
  8
BEMAßUNG
 62
     7
100
AcDbVertex
100
AcDb2dVertex
 10
-20.69399956079872
 20
21.81537814124755
 30
0.0
  0
VERTEX
  5
59D
330
59B
100
AcDbEntity
  8
BEMAßUNG
 62
     7
100
AcDbVertex
100
AcDb2dVertex
 10
-21.85706379661907
 20
21.81537814124755
 30
0.0
  0
SEQEND
  5
59E
330
59B
100
AcDbEntity
  8
BEMAßUNG
  0
POLYLINE
  5
59F
330
1F
100
AcDbEntity
  8
BEMAßUNG
 62
     7
100
AcDb2dPolyline
 66
     1
 10
0.0
 20
0.0
 30
0.0
  0
VERTEX
  5
5A0
330
59F
100
AcDbEntity
  8
BEMAßUNG
 62
     7
100
AcDbVertex
100
AcDb2dVertex
 10
-20.69399956079872
 20
21.84328341467807
 30
0.0
  0
VERTEX
  5
5A1
330
59F
100
AcDbEntity
  8
BEMAßUNG
 62
     7
100
AcDbVertex
100
AcDb2dVertex
 10
-22.06893716896193
 20
21.84328341467807
 30
0.0
  0
SEQEND
  5
5A2
330
59F
100
AcDbEntity
  8
BEMAßUNG
  0
POLYLINE
  5
5A3
330
1F
100
AcDbEntity
  8
BEMAßUNG
 62
     7
100
AcDb2dPolyline
 66
     1
 10
0.0
 20
0.0
 30
0.0
  0
VERTEX
  5
5A4
330
5A3
100
AcDbEntity
  8
BEMAßUNG
 62
     7
100
AcDbVertex
100
AcDb2dVertex
 10
-20.69399956079872
 20
22.011231819584
 30
0.0
  0
VERTEX
  5
5A5
330
5A3
100
AcDbEntity
  8
BEMAßUNG
 62
     7
100
AcDbVertex
100
AcDb2dVertex
 10
-20.79597438716212
 20
22.011231819584
 30
0.0
  0
SEQEND
  5
5A6
330
5A3
100
AcDbEntity
  8
BEMAßUNG
  0
POLYLINE
  5
5A7
330
1F
100
AcDbEntity
  8
BEMAßUNG
 62
     7
100
AcDb2dPolyline
 66
     1
 10
0.0
 20
0.0
 30
0.0
  0
VERTEX
  5
5A8
330
5A7
100
AcDbEntity
  8
BEMAßUNG
 62
     7
100
AcDbVertex
100
AcDb2dVertex
 10
-20.69399956079872
 20
22.011231819584
 30
0.0
  0
VERTEX
  5
5A9
330
5A7
100
AcDbEntity
  8
BEMAßUNG
 62
     7
100
AcDbVertex
100
AcDb2dVertex
 10
-20.79597438716212
 20
22.011231819584
 30
0.0
  0
SEQEND
  5
5AA
330
5A7
100
AcDbEntity
  8
BEMAßUNG
  0
POLYLINE
  5
5AB
330
1F
100
AcDbEntity
  8
BEMAßUNG
 62
     7
100
AcDb2dPolyline
 66
     1
 10
0.0
 20
0.0
 30
0.0
  0
VERTEX
  5
5AC
330
5AB
100
AcDbEntity
  8
BEMAßUNG
 62
     7
100
AcDbVertex
100
AcDb2dVertex
 10
-20.69399956079872
 20
21.98315429137921
 30
0.0
  0
VERTEX
  5
5AD
330
5AB
100
AcDbEntity
  8
BEMAßUNG
 62
     7
100
AcDbVertex
100
AcDb2dVertex
 10
-21.00819226905351
 20
21.98315429137921
 30
0.0
  0
SEQEND
  5
5AE
330
5AB
100
AcDbEntity
  8
BEMAßUNG
  0
POLYLINE
  5
5AF
330
1F
100
AcDbEntity
  8
BEMAßUNG
 62
     7
100
AcDb2dPolyline
 66
     1
 10
0.0
 20
0.0
 30
0.0
  0
VERTEX
  5
5B0
330
5AF
100
AcDbEntity
  8
BEMAßUNG
 62
     7
100
AcDbVertex
100
AcDb2dVertex
 10
-20.69399956079872
 20
21.95542127272295
 30
0.0
  0
VERTEX
  5
5B1
330
5AF
100
AcDbEntity
  8
BEMAßUNG
 62
     7
100
AcDbVertex
100
AcDb2dVertex
 10
-21.2204101509449
 20
21.95542127272295
 30
0.0
  0
SEQEND
  5
5B2
330
5AF
100
AcDbEntity
  8
BEMAßUNG
  0
POLYLINE
  5
5B3
330
1F
100
AcDbEntity
  8
BEMAßUNG
 62
     7
100
AcDb2dPolyline
 66
     1
 10
0.0
 20
0.0
 30
0.0
  0
VERTEX
  5
5B4
330
5B3
100
AcDbEntity
  8
BEMAßUNG
 62
     7
100
AcDbVertex
100
AcDb2dVertex
 10
-20.69399956079872
 20
21.9271714897439
 30
0.0
  0
VERTEX
  5
5B5
330
5B3
100
AcDbEntity
  8
BEMAßUNG
 62
     7
100
AcDbVertex
100
AcDb2dVertex
 10
-21.43297254238481
 20
21.9271714897439
 30
0.0
  0
SEQEND
  5
5B6
330
5B3
100
AcDbEntity
  8
BEMAßUNG
  0
POLYLINE
  5
5B7
330
1F
100
AcDbEntity
  8
BEMAßUNG
 62
     7
100
AcDb2dPolyline
 66
     1
 10
0.0
 20
0.0
 30
0.0
  0
VERTEX
  5
5B8
330
5B7
100
AcDbEntity
  8
BEMAßUNG
 62
     7
100
AcDbVertex
100
AcDb2dVertex
 10
-20.69399956079872
 20
21.89926621631338
 30
0.0
  0
VERTEX
  5
5B9
330
5B7
100
AcDbEntity
  8
BEMAßUNG
 62
     7
100
AcDbVertex
100
AcDb2dVertex
 10
-21.64484591472768
 20
21.89926621631338
 30
0.0
  0
SEQEND
  5
5BA
330
5B7
100
AcDbEntity
  8
BEMAßUNG
  0
POLYLINE
  5
5BB
330
1F
100
AcDbEntity
  8
BEMAßUNG
 62
     7
100
AcDb2dPolyline
 66
     1
 10
0.0
 20
0.0
 30
0.0
  0
VERTEX
  5
5BC
330
5BB
100
AcDbEntity
  8
BEMAßUNG
 62
     7
100
AcDbVertex
100
AcDb2dVertex
 10
-20.69399956079872
 20
21.87136094288286
 30
0.0
  0
VERTEX
  5
5BD
330
5BB
100
AcDbEntity
  8
BEMAßUNG
 62
     7
100
AcDbVertex
100
AcDb2dVertex
 10
-21.85706379661907
 20
21.87136094288286
 30
0.0
  0
SEQEND
  5
5BE
330
5BB
100
AcDbEntity
  8
BEMAßUNG
  0
POLYLINE
  5
5BF
330
1F
100
AcDbEntity
  8
BEMAßUNG
 62
     7
100
AcDb2dPolyline
 66
     1
 10
0.0
 20
0.0
 30
0.0
  0
VERTEX
  5
5C0
330
5BF
100
AcDbEntity
  8
BEMAßUNG
 62
     7
100
AcDbVertex
100
AcDb2dVertex
 10
-20.69399956079872
 20
21.84328341467807
 30
0.0
  0
VERTEX
  5
5C1
330
5BF
100
AcDbEntity
  8
BEMAßUNG
 62
     7
100
AcDbVertex
100
AcDb2dVertex
 10
-22.06893716896193
 20
21.84328341467807
 30
0.0
  0
SEQEND
  5
5C2
330
5BF
100
AcDbEntity
  8
BEMAßUNG
  0
POLYLINE
  5
5C3
330
1F
100
AcDbEntity
  8
BEMAßUNG
 62
     7
100
AcDb2dPolyline
 66
     1
 10
0.0
 20
0.0
 30
0.0
  0
VERTEX
  5
5C4
330
5C3
100
AcDbEntity
  8
BEMAßUNG
 62
     7
100
AcDbVertex
100
AcDb2dVertex
 10
-22.06893716896193
 20
9.677617727615319
 30
0.0
  0
VERTEX
  5
5C5
330
5C3
100
AcDbEntity
  8
BEMAßUNG
 62
     7
100
AcDbVertex
100
AcDb2dVertex
 10
-22.06893716896193
 20
22.94330240311834
 30
0.0
  0
SEQEND
  5
5C6
330
5C3
100
AcDbEntity
  8
BEMAßUNG
  0
POLYLINE
  5
5C7
330
1F
100
AcDbEntity
  8
BEMAßUNG
 62
     7
100
AcDb2dPolyline
 66
     1
 10
0.0
 20
0.0
 30
0.0
  0
VERTEX
  5
5C8
330
5C7
100
AcDbEntity
  8
BEMAßUNG
 62
     7
100
AcDbVertex
100
AcDb2dVertex
 10
-7.219542098889559
 20
9.677617727615319
 30
0.0
  0
VERTEX
  5
5C9
330
5C7
100
AcDbEntity
  8
BEMAßUNG
 62
     7
100
AcDbVertex
100
AcDb2dVertex
 10
-7.219542098889559
 20
22.94330240311834
 30
0.0
  0
SEQEND
  5
5CA
330
5C7
100
AcDbEntity
  8
BEMAßUNG
  0
POLYLINE
  5
5CB
330
1F
100
AcDbEntity
  8
BEMAßUNG
 62
     7
100
AcDb2dPolyline
 66
     1
 10
0.0
 20
0.0
 30
0.0
  0
VERTEX
  5
5CC
330
5CB
100
AcDbEntity
  8
BEMAßUNG
 62
     7
100
AcDbVertex
100
AcDb2dVertex
 10
-22.06893716896193
 20
21.84328341467807
 30
0.0
  0
VERTEX
  5
5CD
330
5CB
100
AcDbEntity
  8
BEMAßUNG
 62
     7
100
AcDbVertex
100
AcDb2dVertex
 10
-7.219542098889559
 20
21.84328341467807
 30
0.0
  0
SEQEND
  5
5CE
330
5CB
100
AcDbEntity
  8
BEMAßUNG
  0
POLYLINE
  5
5CF
330
1F
100
AcDbEntity
  8
BEMAßUNG
 62
     7
100
AcDb2dPolyline
 66
     1
 10
0.0
 20
0.0
 30
0.0
  0
VERTEX
  5
5D0
330
5CF
100
AcDbEntity
  8
BEMAßUNG
 62
     7
100
AcDbVertex
100
AcDb2dVertex
 10
-22.06893716896193
 20
21.84328341467807
 30
0.0
  0
VERTEX
  5
5D1
330
5CF
100
AcDbEntity
  8
BEMAßUNG
 62
     7
100
AcDbVertex
100
AcDb2dVertex
 10
-20.69399956079872
 20
21.66241590170245
 30
0.0
  0
VERTEX
  5
5D2
330
5CF
100
AcDbEntity
  8
BEMAßUNG
 62
     7
100
AcDbVertex
100
AcDb2dVertex
 10
-20.69399956079872
 20
22.02449543720221
 30
0.0
  0
VERTEX
  5
5D3
330
5CF
100
AcDbEntity
  8
BEMAßUNG
 62
     7
100
AcDbVertex
100
AcDb2dVertex
 10
-22.06893716896193
 20
21.84328341467807
 30
0.0
  0
SEQEND
  5
5D4
330
5CF
100
AcDbEntity
  8
BEMAßUNG
  0
POLYLINE
  5
5D5
330
1F
100
AcDbEntity
  8
BEMAßUNG
 62
     7
100
AcDb2dPolyline
 66
     1
 10
0.0
 20
0.0
 30
0.0
  0
VERTEX
  5
5D6
330
5D5
100
AcDbEntity
  8
BEMAßUNG
 62
     7
100
AcDbVertex
100
AcDb2dVertex
 10
-20.69399956079872
 20
21.67567951932066
 30
0.0
  0
VERTEX
  5
5D7
330
5D5
100
AcDbEntity
  8
BEMAßUNG
 62
     7
100
AcDbVertex
100
AcDb2dVertex
 10
-20.79597438716212
 20
21.67567951932066
 30
0.0
  0
SEQEND
  5
5D8
330
5D5
100
AcDbEntity
  8
BEMAßUNG
  0
POLYLINE
  5
5D9
330
1F
100
AcDbEntity
  8
BEMAßUNG
 62
     7
100
AcDb2dPolyline
 66
     1
 10
0.0
 20
0.0
 30
0.0
  0
VERTEX
  5
5DA
330
5D9
100
AcDbEntity
  8
BEMAßUNG
 62
     7
100
AcDbVertex
100
AcDb2dVertex
 10
-20.69399956079872
 20
21.67567951932066
 30
0.0
  0
VERTEX
  5
5DB
330
5D9
100
AcDbEntity
  8
BEMAßUNG
 62
     7
100
AcDbVertex
100
AcDb2dVertex
 10
-20.79597438716212
 20
21.67567951932066
 30
0.0
  0
SEQEND
  5
5DC
330
5D9
100
AcDbEntity
  8
BEMAßUNG
  0
POLYLINE
  5
5DD
330
1F
100
AcDbEntity
  8
BEMAßUNG
 62
     7
100
AcDb2dPolyline
 66
     1
 10
0.0
 20
0.0
 30
0.0
  0
VERTEX
  5
5DE
330
5DD
100
AcDbEntity
  8
BEMAßUNG
 62
     7
100
AcDbVertex
100
AcDb2dVertex
 10
-20.69399956079872
 20
21.70358479275119
 30
0.0
  0
VERTEX
  5
5DF
330
5DD
100
AcDbEntity
  8
BEMAßUNG
 62
     7
100
AcDbVertex
100
AcDb2dVertex
 10
-21.00819226905351
 20
21.70358479275119
 30
0.0
  0
SEQEND
  5
5E0
330
5DD
100
AcDbEntity
  8
BEMAßUNG
  0
POLYLINE
  5
5E1
330
1F
100
AcDbEntity
  8
BEMAßUNG
 62
     7
100
AcDb2dPolyline
 66
     1
 10
0.0
 20
0.0
 30
0.0
  0
VERTEX
  5
5E2
330
5E1
100
AcDbEntity
  8
BEMAßUNG
 62
     7
100
AcDbVertex
100
AcDb2dVertex
 10
-20.69399956079872
 20
21.73166232095597
 30
0.0
  0
VERTEX
  5
5E3
330
5E1
100
AcDbEntity
  8
BEMAßUNG
 62
     7
100
AcDbVertex
100
AcDb2dVertex
 10
-21.2204101509449
 20
21.73166232095597
 30
0.0
  0
SEQEND
  5
5E4
330
5E1
100
AcDbEntity
  8
BEMAßUNG
  0
POLYLINE
  5
5E5
330
1F
100
AcDbEntity
  8
BEMAßUNG
 62
     7
100
AcDb2dPolyline
 66
     1
 10
0.0
 20
0.0
 30
0.0
  0
VERTEX
  5
5E6
330
5E5
100
AcDbEntity
  8
BEMAßUNG
 62
     7
100
AcDbVertex
100
AcDb2dVertex
 10
-20.69399956079872
 20
21.7595675943865
 30
0.0
  0
VERTEX
  5
5E7
330
5E5
100
AcDbEntity
  8
BEMAßUNG
 62
     7
100
AcDbVertex
100
AcDb2dVertex
 10
-21.43297254238481
 20
21.7595675943865
 30
0.0
  0
SEQEND
  5
5E8
330
5E5
100
AcDbEntity
  8
BEMAßUNG
  0
POLYLINE
  5
5E9
330
1F
100
AcDbEntity
  8
BEMAßUNG
 62
     7
100
AcDb2dPolyline
 66
     1
 10
0.0
 20
0.0
 30
0.0
  0
VERTEX
  5
5EA
330
5E9
100
AcDbEntity
  8
BEMAßUNG
 62
     7
100
AcDbVertex
100
AcDb2dVertex
 10
-20.69399956079872
 20
21.78747286781702
 30
0.0
  0
VERTEX
  5
5EB
330
5E9
100
AcDbEntity
  8
BEMAßUNG
 62
     7
100
AcDbVertex
100
AcDb2dVertex
 10
-21.64484591472768
 20
21.78747286781702
 30
0.0
  0
SEQEND
  5
5EC
330
5E9
100
AcDbEntity
  8
BEMAßUNG
  0
POLYLINE
  5
5ED
330
1F
100
AcDbEntity
  8
BEMAßUNG
 62
     7
100
AcDb2dPolyline
 66
     1
 10
0.0
 20
0.0
 30
0.0
  0
VERTEX
  5
5EE
330
5ED
100
AcDbEntity
  8
BEMAßUNG
 62
     7
100
AcDbVertex
100
AcDb2dVertex
 10
-20.69399956079872
 20
21.81537814124755
 30
0.0
  0
VERTEX
  5
5EF
330
5ED
100
AcDbEntity
  8
BEMAßUNG
 62
     7
100
AcDbVertex
100
AcDb2dVertex
 10
-21.85706379661907
 20
21.81537814124755
 30
0.0
  0
SEQEND
  5
5F0
330
5ED
100
AcDbEntity
  8
BEMAßUNG
  0
POLYLINE
  5
5F1
330
1F
100
AcDbEntity
  8
BEMAßUNG
 62
     7
100
AcDb2dPolyline
 66
     1
 10
0.0
 20
0.0
 30
0.0
  0
VERTEX
  5
5F2
330
5F1
100
AcDbEntity
  8
BEMAßUNG
 62
     7
100
AcDbVertex
100
AcDb2dVertex
 10
-20.69399956079872
 20
21.84328341467807
 30
0.0
  0
VERTEX
  5
5F3
330
5F1
100
AcDbEntity
  8
BEMAßUNG
 62
     7
100
AcDbVertex
100
AcDb2dVertex
 10
-22.06893716896193
 20
21.84328341467807
 30
0.0
  0
SEQEND
  5
5F4
330
5F1
100
AcDbEntity
  8
BEMAßUNG
  0
POLYLINE
  5
5F5
330
1F
100
AcDbEntity
  8
BEMAßUNG
 62
     7
100
AcDb2dPolyline
 66
     1
 10
0.0
 20
0.0
 30
0.0
  0
VERTEX
  5
5F6
330
5F5
100
AcDbEntity
  8
BEMAßUNG
 62
     7
100
AcDbVertex
100
AcDb2dVertex
 10
-20.69399956079872
 20
22.011231819584
 30
0.0
  0
VERTEX
  5
5F7
330
5F5
100
AcDbEntity
  8
BEMAßUNG
 62
     7
100
AcDbVertex
100
AcDb2dVertex
 10
-20.79597438716212
 20
22.011231819584
 30
0.0
  0
SEQEND
  5
5F8
330
5F5
100
AcDbEntity
  8
BEMAßUNG
  0
POLYLINE
  5
5F9
330
1F
100
AcDbEntity
  8
BEMAßUNG
 62
     7
100
AcDb2dPolyline
 66
     1
 10
0.0
 20
0.0
 30
0.0
  0
VERTEX
  5
5FA
330
5F9
100
AcDbEntity
  8
BEMAßUNG
 62
     7
100
AcDbVertex
100
AcDb2dVertex
 10
-20.69399956079872
 20
22.011231819584
 30
0.0
  0
VERTEX
  5
5FB
330
5F9
100
AcDbEntity
  8
BEMAßUNG
 62
     7
100
AcDbVertex
100
AcDb2dVertex
 10
-20.79597438716212
 20
22.011231819584
 30
0.0
  0
SEQEND
  5
5FC
330
5F9
100
AcDbEntity
  8
BEMAßUNG
  0
POLYLINE
  5
5FD
330
1F
100
AcDbEntity
  8
BEMAßUNG
 62
     7
100
AcDb2dPolyline
 66
     1
 10
0.0
 20
0.0
 30
0.0
  0
VERTEX
  5
5FE
330
5FD
100
AcDbEntity
  8
BEMAßUNG
 62
     7
100
AcDbVertex
100
AcDb2dVertex
 10
-20.69399956079872
 20
21.98315429137921
 30
0.0
  0
VERTEX
  5
5FF
330
5FD
100
AcDbEntity
  8
BEMAßUNG
 62
     7
100
AcDbVertex
100
AcDb2dVertex
 10
-21.00819226905351
 20
21.98315429137921
 30
0.0
  0
SEQEND
  5
600
330
5FD
100
AcDbEntity
  8
BEMAßUNG
  0
POLYLINE
  5
601
330
1F
100
AcDbEntity
  8
BEMAßUNG
 62
     7
100
AcDb2dPolyline
 66
     1
 10
0.0
 20
0.0
 30
0.0
  0
VERTEX
  5
602
330
601
100
AcDbEntity
  8
BEMAßUNG
 62
     7
100
AcDbVertex
100
AcDb2dVertex
 10
-20.69399956079872
 20
21.95542127272295
 30
0.0
  0
VERTEX
  5
603
330
601
100
AcDbEntity
  8
BEMAßUNG
 62
     7
100
AcDbVertex
100
AcDb2dVertex
 10
-21.2204101509449
 20
21.95542127272295
 30
0.0
  0
SEQEND
  5
604
330
601
100
AcDbEntity
  8
BEMAßUNG
  0
POLYLINE
  5
605
330
1F
100
AcDbEntity
  8
BEMAßUNG
 62
     7
100
AcDb2dPolyline
 66
     1
 10
0.0
 20
0.0
 30
0.0
  0
VERTEX
  5
606
330
605
100
AcDbEntity
  8
BEMAßUNG
 62
     7
100
AcDbVertex
100
AcDb2dVertex
 10
-20.69399956079872
 20
21.9271714897439
 30
0.0
  0
VERTEX
  5
607
330
605
100
AcDbEntity
  8
BEMAßUNG
 62
     7
100
AcDbVertex
100
AcDb2dVertex
 10
-21.43297254238481
 20
21.9271714897439
 30
0.0
  0
SEQEND
  5
608
330
605
100
AcDbEntity
  8
BEMAßUNG
  0
POLYLINE
  5
609
330
1F
100
AcDbEntity
  8
BEMAßUNG
 62
     7
100
AcDb2dPolyline
 66
     1
 10
0.0
 20
0.0
 30
0.0
  0
VERTEX
  5
60A
330
609
100
AcDbEntity
  8
BEMAßUNG
 62
     7
100
AcDbVertex
100
AcDb2dVertex
 10
-20.69399956079872
 20
21.89926621631338
 30
0.0
  0
VERTEX
  5
60B
330
609
100
AcDbEntity
  8
BEMAßUNG
 62
     7
100
AcDbVertex
100
AcDb2dVertex
 10
-21.64484591472768
 20
21.89926621631338
 30
0.0
  0
SEQEND
  5
60C
330
609
100
AcDbEntity
  8
BEMAßUNG
  0
POLYLINE
  5
60D
330
1F
100
AcDbEntity
  8
BEMAßUNG
 62
     7
100
AcDb2dPolyline
 66
     1
 10
0.0
 20
0.0
 30
0.0
  0
VERTEX
  5
60E
330
60D
100
AcDbEntity
  8
BEMAßUNG
 62
     7
100
AcDbVertex
100
AcDb2dVertex
 10
-20.69399956079872
 20
21.87136094288286
 30
0.0
  0
VERTEX
  5
60F
330
60D
100
AcDbEntity
  8
BEMAßUNG
 62
     7
100
AcDbVertex
100
AcDb2dVertex
 10
-21.85706379661907
 20
21.87136094288286
 30
0.0
  0
SEQEND
  5
610
330
60D
100
AcDbEntity
  8
BEMAßUNG
  0
POLYLINE
  5
611
330
1F
100
AcDbEntity
  8
BEMAßUNG
 62
     7
100
AcDb2dPolyline
 66
     1
 10
0.0
 20
0.0
 30
0.0
  0
VERTEX
  5
612
330
611
100
AcDbEntity
  8
BEMAßUNG
 62
     7
100
AcDbVertex
100
AcDb2dVertex
 10
-20.69399956079872
 20
21.84328341467807
 30
0.0
  0
VERTEX
  5
613
330
611
100
AcDbEntity
  8
BEMAßUNG
 62
     7
100
AcDbVertex
100
AcDb2dVertex
 10
-22.06893716896193
 20
21.84328341467807
 30
0.0
  0
SEQEND
  5
614
330
611
100
AcDbEntity
  8
BEMAßUNG
  0
POLYLINE
  5
615
330
1F
100
AcDbEntity
  8
BEMAßUNG
 62
     7
100
AcDb2dPolyline
 66
     1
 10
0.0
 20
0.0
 30
0.0
  0
VERTEX
  5
616
330
615
100
AcDbEntity
  8
BEMAßUNG
 62
     7
100
AcDbVertex
100
AcDb2dVertex
 10
-7.219542098889559
 20
21.84328341467807
 30
0.0
  0
VERTEX
  5
617
330
615
100
AcDbEntity
  8
BEMAßUNG
 62
     7
100
AcDbVertex
100
AcDb2dVertex
 10
-8.594135197504244
 20
22.02449543720221
 30
0.0
  0
VERTEX
  5
618
330
615
100
AcDbEntity
  8
BEMAßUNG
 62
     7
100
AcDbVertex
100
AcDb2dVertex
 10
-8.594135197504244
 20
21.66241590170245
 30
0.0
  0
VERTEX
  5
619
330
615
100
AcDbEntity
  8
BEMAßUNG
 62
     7
100
AcDbVertex
100
AcDb2dVertex
 10
-7.219542098889559
 20
21.84328341467807
 30
0.0
  0
SEQEND
  5
61A
330
615
100
AcDbEntity
  8
BEMAßUNG
  0
POLYLINE
  5
61B
330
1F
100
AcDbEntity
  8
BEMAßUNG
 62
     7
100
AcDb2dPolyline
 66
     1
 10
0.0
 20
0.0
 30
0.0
  0
VERTEX
  5
61C
330
61B
100
AcDbEntity
  8
BEMAßUNG
 62
     7
100
AcDbVertex
100
AcDb2dVertex
 10
-8.594135197504244
 20
22.011231819584
 30
0.0
  0
VERTEX
  5
61D
330
61B
100
AcDbEntity
  8
BEMAßUNG
 62
     7
100
AcDbVertex
100
AcDb2dVertex
 10
-8.492504880689374
 20
22.011231819584
 30
0.0
  0
SEQEND
  5
61E
330
61B
100
AcDbEntity
  8
BEMAßUNG
  0
POLYLINE
  5
61F
330
1F
100
AcDbEntity
  8
BEMAßUNG
 62
     7
100
AcDb2dPolyline
 66
     1
 10
0.0
 20
0.0
 30
0.0
  0
VERTEX
  5
620
330
61F
100
AcDbEntity
  8
BEMAßUNG
 62
     7
100
AcDbVertex
100
AcDb2dVertex
 10
-8.594135197504244
 20
22.011231819584
 30
0.0
  0
VERTEX
  5
621
330
61F
100
AcDbEntity
  8
BEMAßUNG
 62
     7
100
AcDbVertex
100
AcDb2dVertex
 10
-8.492504880689374
 20
22.011231819584
 30
0.0
  0
SEQEND
  5
622
330
61F
100
AcDbEntity
  8
BEMAßUNG
  0
POLYLINE
  5
623
330
1F
100
AcDbEntity
  8
BEMAßUNG
 62
     7
100
AcDb2dPolyline
 66
     1
 10
0.0
 20
0.0
 30
0.0
  0
VERTEX
  5
624
330
623
100
AcDbEntity
  8
BEMAßUNG
 62
     7
100
AcDbVertex
100
AcDb2dVertex
 10
-8.594135197504244
 20
21.98315429137921
 30
0.0
  0
VERTEX
  5
625
330
623
100
AcDbEntity
  8
BEMAßUNG
 62
     7
100
AcDbVertex
100
AcDb2dVertex
 10
-8.28063150834651
 20
21.98315429137921
 30
0.0
  0
SEQEND
  5
626
330
623
100
AcDbEntity
  8
BEMAßUNG
  0
POLYLINE
  5
627
330
1F
100
AcDbEntity
  8
BEMAßUNG
 62
     7
100
AcDb2dPolyline
 66
     1
 10
0.0
 20
0.0
 30
0.0
  0
VERTEX
  5
628
330
627
100
AcDbEntity
  8
BEMAßUNG
 62
     7
100
AcDbVertex
100
AcDb2dVertex
 10
-8.594135197504244
 20
21.95542127272295
 30
0.0
  0
VERTEX
  5
629
330
627
100
AcDbEntity
  8
BEMAßUNG
 62
     7
100
AcDbVertex
100
AcDb2dVertex
 10
-8.068069116906594
 20
21.95542127272295
 30
0.0
  0
SEQEND
  5
62A
330
627
100
AcDbEntity
  8
BEMAßUNG
  0
POLYLINE
  5
62B
330
1F
100
AcDbEntity
  8
BEMAßUNG
 62
     7
100
AcDb2dPolyline
 66
     1
 10
0.0
 20
0.0
 30
0.0
  0
VERTEX
  5
62C
330
62B
100
AcDbEntity
  8
BEMAßUNG
 62
     7
100
AcDbVertex
100
AcDb2dVertex
 10
-8.594135197504244
 20
21.9271714897439
 30
0.0
  0
VERTEX
  5
62D
330
62B
100
AcDbEntity
  8
BEMAßUNG
 62
     7
100
AcDbVertex
100
AcDb2dVertex
 10
-7.855851235015204
 20
21.9271714897439
 30
0.0
  0
SEQEND
  5
62E
330
62B
100
AcDbEntity
  8
BEMAßUNG
  0
POLYLINE
  5
62F
330
1F
100
AcDbEntity
  8
BEMAßUNG
 62
     7
100
AcDb2dPolyline
 66
     1
 10
0.0
 20
0.0
 30
0.0
  0
VERTEX
  5
630
330
62F
100
AcDbEntity
  8
BEMAßUNG
 62
     7
100
AcDbVertex
100
AcDb2dVertex
 10
-8.594135197504244
 20
21.89926621631338
 30
0.0
  0
VERTEX
  5
631
330
62F
100
AcDbEntity
  8
BEMAßUNG
 62
     7
100
AcDbVertex
100
AcDb2dVertex
 10
-7.643977862672339
 20
21.89926621631338
 30
0.0
  0
SEQEND
  5
632
330
62F
100
AcDbEntity
  8
BEMAßUNG
  0
POLYLINE
  5
633
330
1F
100
AcDbEntity
  8
BEMAßUNG
 62
     7
100
AcDb2dPolyline
 66
     1
 10
0.0
 20
0.0
 30
0.0
  0
VERTEX
  5
634
330
633
100
AcDbEntity
  8
BEMAßUNG
 62
     7
100
AcDbVertex
100
AcDb2dVertex
 10
-8.594135197504244
 20
21.87136094288286
 30
0.0
  0
VERTEX
  5
635
330
633
100
AcDbEntity
  8
BEMAßUNG
 62
     7
100
AcDbVertex
100
AcDb2dVertex
 10
-7.431415471232424
 20
21.87136094288286
 30
0.0
  0
SEQEND
  5
636
330
633
100
AcDbEntity
  8
BEMAßUNG
  0
POLYLINE
  5
637
330
1F
100
AcDbEntity
  8
BEMAßUNG
 62
     7
100
AcDb2dPolyline
 66
     1
 10
0.0
 20
0.0
 30
0.0
  0
VERTEX
  5
638
330
637
100
AcDbEntity
  8
BEMAßUNG
 62
     7
100
AcDbVertex
100
AcDb2dVertex
 10
-8.594135197504244
 20
21.84328341467807
 30
0.0
  0
VERTEX
  5
639
330
637
100
AcDbEntity
  8
BEMAßUNG
 62
     7
100
AcDbVertex
100
AcDb2dVertex
 10
-7.219542098889559
 20
21.84328341467807
 30
0.0
  0
SEQEND
  5
63A
330
637
100
AcDbEntity
  8
BEMAßUNG
  0
POLYLINE
  5
63B
330
1F
100
AcDbEntity
  8
BEMAßUNG
 62
     7
100
AcDb2dPolyline
 66
     1
 10
0.0
 20
0.0
 30
0.0
  0
VERTEX
  5
63C
330
63B
100
AcDbEntity
  8
BEMAßUNG
 62
     7
100
AcDbVertex
100
AcDb2dVertex
 10
-8.594135197504244
 20
21.67567951932066
 30
0.0
  0
VERTEX
  5
63D
330
63B
100
AcDbEntity
  8
BEMAßUNG
 62
     7
100
AcDbVertex
100
AcDb2dVertex
 10
-8.492504880689374
 20
21.67567951932066
 30
0.0
  0
SEQEND
  5
63E
330
63B
100
AcDbEntity
  8
BEMAßUNG
  0
POLYLINE
  5
63F
330
1F
100
AcDbEntity
  8
BEMAßUNG
 62
     7
100
AcDb2dPolyline
 66
     1
 10
0.0
 20
0.0
 30
0.0
  0
VERTEX
  5
640
330
63F
100
AcDbEntity
  8
BEMAßUNG
 62
     7
100
AcDbVertex
100
AcDb2dVertex
 10
-8.594135197504244
 20
21.67567951932066
 30
0.0
  0
VERTEX
  5
641
330
63F
100
AcDbEntity
  8
BEMAßUNG
 62
     7
100
AcDbVertex
100
AcDb2dVertex
 10
-8.492504880689374
 20
21.67567951932066
 30
0.0
  0
SEQEND
  5
642
330
63F
100
AcDbEntity
  8
BEMAßUNG
  0
POLYLINE
  5
643
330
1F
100
AcDbEntity
  8
BEMAßUNG
 62
     7
100
AcDb2dPolyline
 66
     1
 10
0.0
 20
0.0
 30
0.0
  0
VERTEX
  5
644
330
643
100
AcDbEntity
  8
BEMAßUNG
 62
     7
100
AcDbVertex
100
AcDb2dVertex
 10
-8.594135197504244
 20
21.70358479275119
 30
0.0
  0
VERTEX
  5
645
330
643
100
AcDbEntity
  8
BEMAßUNG
 62
     7
100
AcDbVertex
100
AcDb2dVertex
 10
-8.28063150834651
 20
21.70358479275119
 30
0.0
  0
SEQEND
  5
646
330
643
100
AcDbEntity
  8
BEMAßUNG
  0
POLYLINE
  5
647
330
1F
100
AcDbEntity
  8
BEMAßUNG
 62
     7
100
AcDb2dPolyline
 66
     1
 10
0.0
 20
0.0
 30
0.0
  0
VERTEX
  5
648
330
647
100
AcDbEntity
  8
BEMAßUNG
 62
     7
100
AcDbVertex
100
AcDb2dVertex
 10
-8.594135197504244
 20
21.73166232095597
 30
0.0
  0
VERTEX
  5
649
330
647
100
AcDbEntity
  8
BEMAßUNG
 62
     7
100
AcDbVertex
100
AcDb2dVertex
 10
-8.068069116906594
 20
21.73166232095597
 30
0.0
  0
SEQEND
  5
64A
330
647
100
AcDbEntity
  8
BEMAßUNG
  0
POLYLINE
  5
64B
330
1F
100
AcDbEntity
  8
BEMAßUNG
 62
     7
100
AcDb2dPolyline
 66
     1
 10
0.0
 20
0.0
 30
0.0
  0
VERTEX
  5
64C
330
64B
100
AcDbEntity
  8
BEMAßUNG
 62
     7
100
AcDbVertex
100
AcDb2dVertex
 10
-8.594135197504244
 20
21.7595675943865
 30
0.0
  0
VERTEX
  5
64D
330
64B
100
AcDbEntity
  8
BEMAßUNG
 62
     7
100
AcDbVertex
100
AcDb2dVertex
 10
-7.855851235015204
 20
21.7595675943865
 30
0.0
  0
SEQEND
  5
64E
330
64B
100
AcDbEntity
  8
BEMAßUNG
  0
POLYLINE
  5
64F
330
1F
100
AcDbEntity
  8
BEMAßUNG
 62
     7
100
AcDb2dPolyline
 66
     1
 10
0.0
 20
0.0
 30
0.0
  0
VERTEX
  5
650
330
64F
100
AcDbEntity
  8
BEMAßUNG
 62
     7
100
AcDbVertex
100
AcDb2dVertex
 10
-8.594135197504244
 20
21.78747286781702
 30
0.0
  0
VERTEX
  5
651
330
64F
100
AcDbEntity
  8
BEMAßUNG
 62
     7
100
AcDbVertex
100
AcDb2dVertex
 10
-7.643977862672339
 20
21.78747286781702
 30
0.0
  0
SEQEND
  5
652
330
64F
100
AcDbEntity
  8
BEMAßUNG
  0
POLYLINE
  5
653
330
1F
100
AcDbEntity
  8
BEMAßUNG
 62
     7
100
AcDb2dPolyline
 66
     1
 10
0.0
 20
0.0
 30
0.0
  0
VERTEX
  5
654
330
653
100
AcDbEntity
  8
BEMAßUNG
 62
     7
100
AcDbVertex
100
AcDb2dVertex
 10
-8.594135197504244
 20
21.81537814124755
 30
0.0
  0
VERTEX
  5
655
330
653
100
AcDbEntity
  8
BEMAßUNG
 62
     7
100
AcDbVertex
100
AcDb2dVertex
 10
-7.431415471232424
 20
21.81537814124755
 30
0.0
  0
SEQEND
  5
656
330
653
100
AcDbEntity
  8
BEMAßUNG
  0
POLYLINE
  5
657
330
1F
100
AcDbEntity
  8
BEMAßUNG
 62
     7
100
AcDb2dPolyline
 66
     1
 10
0.0
 20
0.0
 30
0.0
  0
VERTEX
  5
658
330
657
100
AcDbEntity
  8
BEMAßUNG
 62
     7
100
AcDbVertex
100
AcDb2dVertex
 10
-8.594135197504244
 20
21.84328341467807
 30
0.0
  0
VERTEX
  5
659
330
657
100
AcDbEntity
  8
BEMAßUNG
 62
     7
100
AcDbVertex
100
AcDb2dVertex
 10
-7.219542098889559
 20
21.84328341467807
 30
0.0
  0
SEQEND
  5
65A
330
657
100
AcDbEntity
  8
BEMAßUNG
  0
POLYLINE
  5
65B
330
1F
100
AcDbEntity
  8
BEMAßUNG
 62
     7
100
AcDb2dPolyline
 66
     1
 10
0.0
 20
0.0
 30
0.0
  0
VERTEX
  5
65C
330
65B
100
AcDbEntity
  8
BEMAßUNG
 62
     7
100
AcDbVertex
100
AcDb2dVertex
 10
-10.79417317438479
 20
13.2529378222076
 30
0.0
  0
VERTEX
  5
65D
330
65B
100
AcDbEntity
  8
BEMAßUNG
 62
     7
100
AcDbVertex
100
AcDb2dVertex
 10
4.580598957188184
 20
13.2529378222076
 30
0.0
  0
SEQEND
  5
65E
330
65B
100
AcDbEntity
  8
BEMAßUNG
  0
POLYLINE
  5
65F
330
1F
100
AcDbEntity
  8
BEMAßUNG
 62
     7
100
AcDb2dPolyline
 66
     1
 10
0.0
 20
0.0
 30
0.0
  0
VERTEX
  5
660
330
65F
100
AcDbEntity
  8
BEMAßUNG
 62
     7
100
AcDbVertex
100
AcDb2dVertex
 10
-10.79417317438479
 20
6.102986652120087
 30
0.0
  0
VERTEX
  5
661
330
65F
100
AcDbEntity
  8
BEMAßUNG
 62
     7
100
AcDbVertex
100
AcDb2dVertex
 10
4.580598957188184
 20
6.102986652120087
 30
0.0
  0
SEQEND
  5
662
330
65F
100
AcDbEntity
  8
BEMAßUNG
  0
POLYLINE
  5
663
330
1F
100
AcDbEntity
  8
BEMAßUNG
 62
     7
100
AcDb2dPolyline
 66
     1
 10
0.0
 20
0.0
 30
0.0
  0
VERTEX
  5
664
330
663
100
AcDbEntity
  8
BEMAßUNG
 62
     7
100
AcDbVertex
100
AcDb2dVertex
 10
3.480235459199386
 20
13.2529378222076
 30
0.0
  0
VERTEX
  5
665
330
663
100
AcDbEntity
  8
BEMAßUNG
 62
     7
100
AcDbVertex
100
AcDb2dVertex
 10
3.480235459199386
 20
6.102986652120087
 30
0.0
  0
SEQEND
  5
666
330
663
100
AcDbEntity
  8
BEMAßUNG
  0
POLYLINE
  5
667
330
1F
100
AcDbEntity
  8
BEMAßUNG
 62
     7
100
AcDb2dPolyline
 66
     1
 10
0.0
 20
0.0
 30
0.0
  0
VERTEX
  5
668
330
667
100
AcDbEntity
  8
BEMAßUNG
 62
     7
100
AcDbVertex
100
AcDb2dVertex
 10
3.480235459199386
 20
13.2529378222076
 30
0.0
  0
VERTEX
  5
669
330
667
100
AcDbEntity
  8
BEMAßUNG
 62
     7
100
AcDbVertex
100
AcDb2dVertex
 10
3.299023436675244
 20
11.87782795927013
 30
0.0
  0
VERTEX
  5
66A
330
667
100
AcDbEntity
  8
BEMAßUNG
 62
     7
100
AcDbVertex
100
AcDb2dVertex
 10
3.661102972175002
 20
11.87782795927013
 30
0.0
  0
VERTEX
  5
66B
330
667
100
AcDbEntity
  8
BEMAßUNG
 62
     7
100
AcDbVertex
100
AcDb2dVertex
 10
3.480235459199386
 20
13.2529378222076
 30
0.0
  0
SEQEND
  5
66C
330
667
100
AcDbEntity
  8
BEMAßUNG
  0
POLYLINE
  5
66D
330
1F
100
AcDbEntity
  8
BEMAßUNG
 62
     7
100
AcDb2dPolyline
 66
     1
 10
0.0
 20
0.0
 30
0.0
  0
VERTEX
  5
66E
330
66D
100
AcDbEntity
  8
BEMAßUNG
 62
     7
100
AcDbVertex
100
AcDb2dVertex
 10
3.312803818616244
 20
11.87782795927013
 30
0.0
  0
VERTEX
  5
66F
330
66D
100
AcDbEntity
  8
BEMAßUNG
 62
     7
100
AcDbVertex
100
AcDb2dVertex
 10
3.312803818616244
 20
11.97963053085926
 30
0.0
  0
SEQEND
  5
670
330
66D
100
AcDbEntity
  8
BEMAßUNG
  0
POLYLINE
  5
671
330
1F
100
AcDbEntity
  8
BEMAßUNG
 62
     7
100
AcDb2dPolyline
 66
     1
 10
0.0
 20
0.0
 30
0.0
  0
VERTEX
  5
672
330
671
100
AcDbEntity
  8
BEMAßUNG
 62
     7
100
AcDbVertex
100
AcDb2dVertex
 10
3.312803818616244
 20
11.87782795927013
 30
0.0
  0
VERTEX
  5
673
330
671
100
AcDbEntity
  8
BEMAßUNG
 62
     7
100
AcDbVertex
100
AcDb2dVertex
 10
3.312803818616244
 20
11.97963053085926
 30
0.0
  0
SEQEND
  5
674
330
671
100
AcDbEntity
  8
BEMAßUNG
  0
POLYLINE
  5
675
330
1F
100
AcDbEntity
  8
BEMAßUNG
 62
     7
100
AcDb2dPolyline
 66
     1
 10
0.0
 20
0.0
 30
0.0
  0
VERTEX
  5
676
330
675
100
AcDbEntity
  8
BEMAßUNG
 62
     7
100
AcDbVertex
100
AcDb2dVertex
 10
3.340709092046767
 20
11.87782795927013
 30
0.0
  0
VERTEX
  5
677
330
675
100
AcDbEntity
  8
BEMAßUNG
 62
     7
100
AcDbVertex
100
AcDb2dVertex
 10
3.340709092046767
 20
12.19167615797639
 30
0.0
  0
SEQEND
  5
678
330
675
100
AcDbEntity
  8
BEMAßUNG
  0
POLYLINE
  5
679
330
1F
100
AcDbEntity
  8
BEMAßUNG
 62
     7
100
AcDb2dPolyline
 66
     1
 10
0.0
 20
0.0
 30
0.0
  0
VERTEX
  5
67A
330
679
100
AcDbEntity
  8
BEMAßUNG
 62
     7
100
AcDbVertex
100
AcDb2dVertex
 10
3.368614365477291
 20
11.87782795927013
 30
0.0
  0
VERTEX
  5
67B
330
679
100
AcDbEntity
  8
BEMAßUNG
 62
     7
100
AcDbVertex
100
AcDb2dVertex
 10
3.368614365477291
 20
12.40406629464204
 30
0.0
  0
SEQEND
  5
67C
330
679
100
AcDbEntity
  8
BEMAßUNG
  0
POLYLINE
  5
67D
330
1F
100
AcDbEntity
  8
BEMAßUNG
 62
     7
100
AcDb2dPolyline
 66
     1
 10
0.0
 20
0.0
 30
0.0
  0
VERTEX
  5
67E
330
67D
100
AcDbEntity
  8
BEMAßUNG
 62
     7
100
AcDbVertex
100
AcDb2dVertex
 10
3.39617512935929
 20
11.87782795927013
 30
0.0
  0
VERTEX
  5
67F
330
67D
100
AcDbEntity
  8
BEMAßUNG
 62
     7
100
AcDbVertex
100
AcDb2dVertex
 10
3.39617512935929
 20
12.61611192175917
 30
0.0
  0
SEQEND
  5
680
330
67D
100
AcDbEntity
  8
BEMAßUNG
  0
POLYLINE
  5
681
330
1F
100
AcDbEntity
  8
BEMAßUNG
 62
     7
100
AcDb2dPolyline
 66
     1
 10
0.0
 20
0.0
 30
0.0
  0
VERTEX
  5
682
330
681
100
AcDbEntity
  8
BEMAßUNG
 62
     7
100
AcDbVertex
100
AcDb2dVertex
 10
3.424080402789814
 20
11.87782795927013
 30
0.0
  0
VERTEX
  5
683
330
681
100
AcDbEntity
  8
BEMAßUNG
 62
     7
100
AcDbVertex
100
AcDb2dVertex
 10
3.424080402789814
 20
12.82850205842482
 30
0.0
  0
SEQEND
  5
684
330
681
100
AcDbEntity
  8
BEMAßUNG
  0
POLYLINE
  5
685
330
1F
100
AcDbEntity
  8
BEMAßUNG
 62
     7
100
AcDb2dPolyline
 66
     1
 10
0.0
 20
0.0
 30
0.0
  0
VERTEX
  5
686
330
685
100
AcDbEntity
  8
BEMAßUNG
 62
     7
100
AcDbVertex
100
AcDb2dVertex
 10
3.452330185768862
 20
11.87782795927013
 30
0.0
  0
VERTEX
  5
687
330
685
100
AcDbEntity
  8
BEMAßUNG
 62
     7
100
AcDbVertex
100
AcDb2dVertex
 10
3.452330185768862
 20
13.04054768554195
 30
0.0
  0
SEQEND
  5
688
330
685
100
AcDbEntity
  8
BEMAßUNG
  0
POLYLINE
  5
689
330
1F
100
AcDbEntity
  8
BEMAßUNG
 62
     7
100
AcDb2dPolyline
 66
     1
 10
0.0
 20
0.0
 30
0.0
  0
VERTEX
  5
68A
330
689
100
AcDbEntity
  8
BEMAßUNG
 62
     7
100
AcDbVertex
100
AcDb2dVertex
 10
3.480235459199386
 20
11.87782795927013
 30
0.0
  0
VERTEX
  5
68B
330
689
100
AcDbEntity
  8
BEMAßUNG
 62
     7
100
AcDbVertex
100
AcDb2dVertex
 10
3.480235459199386
 20
13.2529378222076
 30
0.0
  0
SEQEND
  5
68C
330
689
100
AcDbEntity
  8
BEMAßUNG
  0
POLYLINE
  5
68D
330
1F
100
AcDbEntity
  8
BEMAßUNG
 62
     7
100
AcDb2dPolyline
 66
     1
 10
0.0
 20
0.0
 30
0.0
  0
VERTEX
  5
68E
330
68D
100
AcDbEntity
  8
BEMAßUNG
 62
     7
100
AcDbVertex
100
AcDb2dVertex
 10
3.648011609331053
 20
11.87782795927013
 30
0.0
  0
VERTEX
  5
68F
330
68D
100
AcDbEntity
  8
BEMAßUNG
 62
     7
100
AcDbVertex
100
AcDb2dVertex
 10
3.648011609331053
 20
11.97963053085926
 30
0.0
  0
SEQEND
  5
690
330
68D
100
AcDbEntity
  8
BEMAßUNG
  0
POLYLINE
  5
691
330
1F
100
AcDbEntity
  8
BEMAßUNG
 62
     7
100
AcDb2dPolyline
 66
     1
 10
0.0
 20
0.0
 30
0.0
  0
VERTEX
  5
692
330
691
100
AcDbEntity
  8
BEMAßUNG
 62
     7
100
AcDbVertex
100
AcDb2dVertex
 10
3.648011609331053
 20
11.87782795927013
 30
0.0
  0
VERTEX
  5
693
330
691
100
AcDbEntity
  8
BEMAßUNG
 62
     7
100
AcDbVertex
100
AcDb2dVertex
 10
3.648011609331053
 20
11.97963053085926
 30
0.0
  0
SEQEND
  5
694
330
691
100
AcDbEntity
  8
BEMAßUNG
  0
POLYLINE
  5
695
330
1F
100
AcDbEntity
  8
BEMAßUNG
 62
     7
100
AcDb2dPolyline
 66
     1
 10
0.0
 20
0.0
 30
0.0
  0
VERTEX
  5
696
330
695
100
AcDbEntity
  8
BEMAßUNG
 62
     7
100
AcDbVertex
100
AcDb2dVertex
 10
3.620106335900529
 20
11.87782795927013
 30
0.0
  0
VERTEX
  5
697
330
695
100
AcDbEntity
  8
BEMAßUNG
 62
     7
100
AcDbVertex
100
AcDb2dVertex
 10
3.620106335900529
 20
12.19167615797639
 30
0.0
  0
SEQEND
  5
698
330
695
100
AcDbEntity
  8
BEMAßUNG
  0
POLYLINE
  5
699
330
1F
100
AcDbEntity
  8
BEMAßUNG
 62
     7
100
AcDb2dPolyline
 66
     1
 10
0.0
 20
0.0
 30
0.0
  0
VERTEX
  5
69A
330
699
100
AcDbEntity
  8
BEMAßUNG
 62
     7
100
AcDbVertex
100
AcDb2dVertex
 10
3.591856552921481
 20
11.87782795927013
 30
0.0
  0
VERTEX
  5
69B
330
699
100
AcDbEntity
  8
BEMAßUNG
 62
     7
100
AcDbVertex
100
AcDb2dVertex
 10
3.591856552921481
 20
12.40406629464204
 30
0.0
  0
SEQEND
  5
69C
330
699
100
AcDbEntity
  8
BEMAßUNG
  0
POLYLINE
  5
69D
330
1F
100
AcDbEntity
  8
BEMAßUNG
 62
     7
100
AcDb2dPolyline
 66
     1
 10
0.0
 20
0.0
 30
0.0
  0
VERTEX
  5
69E
330
69D
100
AcDbEntity
  8
BEMAßUNG
 62
     7
100
AcDbVertex
100
AcDb2dVertex
 10
3.563951279490957
 20
11.87782795927013
 30
0.0
  0
VERTEX
  5
69F
330
69D
100
AcDbEntity
  8
BEMAßUNG
 62
     7
100
AcDbVertex
100
AcDb2dVertex
 10
3.563951279490957
 20
12.61611192175917
 30
0.0
  0
SEQEND
  5
6A0
330
69D
100
AcDbEntity
  8
BEMAßUNG
  0
POLYLINE
  5
6A1
330
1F
100
AcDbEntity
  8
BEMAßUNG
 62
     7
100
AcDb2dPolyline
 66
     1
 10
0.0
 20
0.0
 30
0.0
  0
VERTEX
  5
6A2
330
6A1
100
AcDbEntity
  8
BEMAßUNG
 62
     7
100
AcDbVertex
100
AcDb2dVertex
 10
3.536046006060433
 20
11.87782795927013
 30
0.0
  0
VERTEX
  5
6A3
330
6A1
100
AcDbEntity
  8
BEMAßUNG
 62
     7
100
AcDbVertex
100
AcDb2dVertex
 10
3.536046006060433
 20
12.82850205842482
 30
0.0
  0
SEQEND
  5
6A4
330
6A1
100
AcDbEntity
  8
BEMAßUNG
  0
POLYLINE
  5
6A5
330
1F
100
AcDbEntity
  8
BEMAßUNG
 62
     7
100
AcDb2dPolyline
 66
     1
 10
0.0
 20
0.0
 30
0.0
  0
VERTEX
  5
6A6
330
6A5
100
AcDbEntity
  8
BEMAßUNG
 62
     7
100
AcDbVertex
100
AcDb2dVertex
 10
3.508140732629909
 20
11.87782795927013
 30
0.0
  0
VERTEX
  5
6A7
330
6A5
100
AcDbEntity
  8
BEMAßUNG
 62
     7
100
AcDbVertex
100
AcDb2dVertex
 10
3.508140732629909
 20
13.04054768554195
 30
0.0
  0
SEQEND
  5
6A8
330
6A5
100
AcDbEntity
  8
BEMAßUNG
  0
POLYLINE
  5
6A9
330
1F
100
AcDbEntity
  8
BEMAßUNG
 62
     7
100
AcDb2dPolyline
 66
     1
 10
0.0
 20
0.0
 30
0.0
  0
VERTEX
  5
6AA
330
6A9
100
AcDbEntity
  8
BEMAßUNG
 62
     7
100
AcDbVertex
100
AcDb2dVertex
 10
3.480235459199386
 20
11.87782795927013
 30
0.0
  0
VERTEX
  5
6AB
330
6A9
100
AcDbEntity
  8
BEMAßUNG
 62
     7
100
AcDbVertex
100
AcDb2dVertex
 10
3.480235459199386
 20
13.2529378222076
 30
0.0
  0
SEQEND
  5
6AC
330
6A9
100
AcDbEntity
  8
BEMAßUNG
  0
POLYLINE
  5
6AD
330
1F
100
AcDbEntity
  8
BEMAßUNG
 62
     7
100
AcDb2dPolyline
 66
     1
 10
0.0
 20
0.0
 30
0.0
  0
VERTEX
  5
6AE
330
6AD
100
AcDbEntity
  8
BEMAßUNG
 62
     7
100
AcDbVertex
100
AcDb2dVertex
 10
3.480235459199386
 20
6.102986652120087
 30
0.0
  0
VERTEX
  5
6AF
330
6AD
100
AcDbEntity
  8
BEMAßUNG
 62
     7
100
AcDbVertex
100
AcDb2dVertex
 10
3.661102972175002
 20
7.477752005509035
 30
0.0
  0
VERTEX
  5
6B0
330
6AD
100
AcDbEntity
  8
BEMAßUNG
 62
     7
100
AcDbVertex
100
AcDb2dVertex
 10
3.299023436675244
 20
7.477752005509035
 30
0.0
  0
VERTEX
  5
6B1
330
6AD
100
AcDbEntity
  8
BEMAßUNG
 62
     7
100
AcDbVertex
100
AcDb2dVertex
 10
3.480235459199386
 20
6.102986652120087
 30
0.0
  0
SEQEND
  5
6B2
330
6AD
100
AcDbEntity
  8
BEMAßUNG
  0
POLYLINE
  5
6B3
330
1F
100
AcDbEntity
  8
BEMAßUNG
 62
     7
100
AcDb2dPolyline
 66
     1
 10
0.0
 20
0.0
 30
0.0
  0
VERTEX
  5
6B4
330
6B3
100
AcDbEntity
  8
BEMAßUNG
 62
     7
100
AcDbVertex
100
AcDb2dVertex
 10
3.648011609331053
 20
7.477752005509035
 30
0.0
  0
VERTEX
  5
6B5
330
6B3
100
AcDbEntity
  8
BEMAßUNG
 62
     7
100
AcDbVertex
100
AcDb2dVertex
 10
3.648011609331053
 20
7.376121688694164
 30
0.0
  0
SEQEND
  5
6B6
330
6B3
100
AcDbEntity
  8
BEMAßUNG
  0
POLYLINE
  5
6B7
330
1F
100
AcDbEntity
  8
BEMAßUNG
 62
     7
100
AcDb2dPolyline
 66
     1
 10
0.0
 20
0.0
 30
0.0
  0
VERTEX
  5
6B8
330
6B7
100
AcDbEntity
  8
BEMAßUNG
 62
     7
100
AcDbVertex
100
AcDb2dVertex
 10
3.648011609331053
 20
7.477752005509035
 30
0.0
  0
VERTEX
  5
6B9
330
6B7
100
AcDbEntity
  8
BEMAßUNG
 62
     7
100
AcDbVertex
100
AcDb2dVertex
 10
3.648011609331053
 20
7.376121688694164
 30
0.0
  0
SEQEND
  5
6BA
330
6B7
100
AcDbEntity
  8
BEMAßUNG
  0
POLYLINE
  5
6BB
330
1F
100
AcDbEntity
  8
BEMAßUNG
 62
     7
100
AcDb2dPolyline
 66
     1
 10
0.0
 20
0.0
 30
0.0
  0
VERTEX
  5
6BC
330
6BB
100
AcDbEntity
  8
BEMAßUNG
 62
     7
100
AcDbVertex
100
AcDb2dVertex
 10
3.620106335900529
 20
7.477752005509035
 30
0.0
  0
VERTEX
  5
6BD
330
6BB
100
AcDbEntity
  8
BEMAßUNG
 62
     7
100
AcDbVertex
100
AcDb2dVertex
 10
3.620106335900529
 20
7.164076061577036
 30
0.0
  0
SEQEND
  5
6BE
330
6BB
100
AcDbEntity
  8
BEMAßUNG
  0
POLYLINE
  5
6BF
330
1F
100
AcDbEntity
  8
BEMAßUNG
 62
     7
100
AcDb2dPolyline
 66
     1
 10
0.0
 20
0.0
 30
0.0
  0
VERTEX
  5
6C0
330
6BF
100
AcDbEntity
  8
BEMAßUNG
 62
     7
100
AcDbVertex
100
AcDb2dVertex
 10
3.591856552921481
 20
7.477752005509035
 30
0.0
  0
VERTEX
  5
6C1
330
6BF
100
AcDbEntity
  8
BEMAßUNG
 62
     7
100
AcDbVertex
100
AcDb2dVertex
 10
3.591856552921481
 20
6.951858179685646
 30
0.0
  0
SEQEND
  5
6C2
330
6BF
100
AcDbEntity
  8
BEMAßUNG
  0
POLYLINE
  5
6C3
330
1F
100
AcDbEntity
  8
BEMAßUNG
 62
     7
100
AcDb2dPolyline
 66
     1
 10
0.0
 20
0.0
 30
0.0
  0
VERTEX
  5
6C4
330
6C3
100
AcDbEntity
  8
BEMAßUNG
 62
     7
100
AcDbVertex
100
AcDb2dVertex
 10
3.563951279490957
 20
7.477752005509035
 30
0.0
  0
VERTEX
  5
6C5
330
6C3
100
AcDbEntity
  8
BEMAßUNG
 62
     7
100
AcDbVertex
100
AcDb2dVertex
 10
3.563951279490957
 20
6.739640297794257
 30
0.0
  0
SEQEND
  5
6C6
330
6C3
100
AcDbEntity
  8
BEMAßUNG
  0
POLYLINE
  5
6C7
330
1F
100
AcDbEntity
  8
BEMAßUNG
 62
     7
100
AcDb2dPolyline
 66
     1
 10
0.0
 20
0.0
 30
0.0
  0
VERTEX
  5
6C8
330
6C7
100
AcDbEntity
  8
BEMAßUNG
 62
     7
100
AcDbVertex
100
AcDb2dVertex
 10
3.536046006060433
 20
7.477752005509035
 30
0.0
  0
VERTEX
  5
6C9
330
6C7
100
AcDbEntity
  8
BEMAßUNG
 62
     7
100
AcDbVertex
100
AcDb2dVertex
 10
3.536046006060433
 20
6.527250161128604
 30
0.0
  0
SEQEND
  5
6CA
330
6C7
100
AcDbEntity
  8
BEMAßUNG
  0
POLYLINE
  5
6CB
330
1F
100
AcDbEntity
  8
BEMAßUNG
 62
     7
100
AcDb2dPolyline
 66
     1
 10
0.0
 20
0.0
 30
0.0
  0
VERTEX
  5
6CC
330
6CB
100
AcDbEntity
  8
BEMAßUNG
 62
     7
100
AcDbVertex
100
AcDb2dVertex
 10
3.508140732629909
 20
7.477752005509035
 30
0.0
  0
VERTEX
  5
6CD
330
6CB
100
AcDbEntity
  8
BEMAßUNG
 62
     7
100
AcDbVertex
100
AcDb2dVertex
 10
3.508140732629909
 20
6.315204534011477
 30
0.0
  0
SEQEND
  5
6CE
330
6CB
100
AcDbEntity
  8
BEMAßUNG
  0
POLYLINE
  5
6CF
330
1F
100
AcDbEntity
  8
BEMAßUNG
 62
     7
100
AcDb2dPolyline
 66
     1
 10
0.0
 20
0.0
 30
0.0
  0
VERTEX
  5
6D0
330
6CF
100
AcDbEntity
  8
BEMAßUNG
 62
     7
100
AcDbVertex
100
AcDb2dVertex
 10
3.480235459199386
 20
7.477752005509035
 30
0.0
  0
VERTEX
  5
6D1
330
6CF
100
AcDbEntity
  8
BEMAßUNG
 62
     7
100
AcDbVertex
100
AcDb2dVertex
 10
3.480235459199386
 20
6.102986652120087
 30
0.0
  0
SEQEND
  5
6D2
330
6CF
100
AcDbEntity
  8
BEMAßUNG
  0
POLYLINE
  5
6D3
330
1F
100
AcDbEntity
  8
BEMAßUNG
 62
     7
100
AcDb2dPolyline
 66
     1
 10
0.0
 20
0.0
 30
0.0
  0
VERTEX
  5
6D4
330
6D3
100
AcDbEntity
  8
BEMAßUNG
 62
     7
100
AcDbVertex
100
AcDb2dVertex
 10
3.312803818616244
 20
7.477752005509035
 30
0.0
  0
VERTEX
  5
6D5
330
6D3
100
AcDbEntity
  8
BEMAßUNG
 62
     7
100
AcDbVertex
100
AcDb2dVertex
 10
3.312803818616244
 20
7.376121688694164
 30
0.0
  0
SEQEND
  5
6D6
330
6D3
100
AcDbEntity
  8
BEMAßUNG
  0
POLYLINE
  5
6D7
330
1F
100
AcDbEntity
  8
BEMAßUNG
 62
     7
100
AcDb2dPolyline
 66
     1
 10
0.0
 20
0.0
 30
0.0
  0
VERTEX
  5
6D8
330
6D7
100
AcDbEntity
  8
BEMAßUNG
 62
     7
100
AcDbVertex
100
AcDb2dVertex
 10
3.312803818616244
 20
7.477752005509035
 30
0.0
  0
VERTEX
  5
6D9
330
6D7
100
AcDbEntity
  8
BEMAßUNG
 62
     7
100
AcDbVertex
100
AcDb2dVertex
 10
3.312803818616244
 20
7.376121688694164
 30
0.0
  0
SEQEND
  5
6DA
330
6D7
100
AcDbEntity
  8
BEMAßUNG
  0
POLYLINE
  5
6DB
330
1F
100
AcDbEntity
  8
BEMAßUNG
 62
     7
100
AcDb2dPolyline
 66
     1
 10
0.0
 20
0.0
 30
0.0
  0
VERTEX
  5
6DC
330
6DB
100
AcDbEntity
  8
BEMAßUNG
 62
     7
100
AcDbVertex
100
AcDb2dVertex
 10
3.340709092046767
 20
7.477752005509035
 30
0.0
  0
VERTEX
  5
6DD
330
6DB
100
AcDbEntity
  8
BEMAßUNG
 62
     7
100
AcDbVertex
100
AcDb2dVertex
 10
3.340709092046767
 20
7.164076061577036
 30
0.0
  0
SEQEND
  5
6DE
330
6DB
100
AcDbEntity
  8
BEMAßUNG
  0
POLYLINE
  5
6DF
330
1F
100
AcDbEntity
  8
BEMAßUNG
 62
     7
100
AcDb2dPolyline
 66
     1
 10
0.0
 20
0.0
 30
0.0
  0
VERTEX
  5
6E0
330
6DF
100
AcDbEntity
  8
BEMAßUNG
 62
     7
100
AcDbVertex
100
AcDb2dVertex
 10
3.368614365477291
 20
7.477752005509035
 30
0.0
  0
VERTEX
  5
6E1
330
6DF
100
AcDbEntity
  8
BEMAßUNG
 62
     7
100
AcDbVertex
100
AcDb2dVertex
 10
3.368614365477291
 20
6.951858179685646
 30
0.0
  0
SEQEND
  5
6E2
330
6DF
100
AcDbEntity
  8
BEMAßUNG
  0
POLYLINE
  5
6E3
330
1F
100
AcDbEntity
  8
BEMAßUNG
 62
     7
100
AcDb2dPolyline
 66
     1
 10
0.0
 20
0.0
 30
0.0
  0
VERTEX
  5
6E4
330
6E3
100
AcDbEntity
  8
BEMAßUNG
 62
     7
100
AcDbVertex
100
AcDb2dVertex
 10
3.39617512935929
 20
7.477752005509035
 30
0.0
  0
VERTEX
  5
6E5
330
6E3
100
AcDbEntity
  8
BEMAßUNG
 62
     7
100
AcDbVertex
100
AcDb2dVertex
 10
3.39617512935929
 20
6.739640297794257
 30
0.0
  0
SEQEND
  5
6E6
330
6E3
100
AcDbEntity
  8
BEMAßUNG
  0
POLYLINE
  5
6E7
330
1F
100
AcDbEntity
  8
BEMAßUNG
 62
     7
100
AcDb2dPolyline
 66
     1
 10
0.0
 20
0.0
 30
0.0
  0
VERTEX
  5
6E8
330
6E7
100
AcDbEntity
  8
BEMAßUNG
 62
     7
100
AcDbVertex
100
AcDb2dVertex
 10
3.424080402789814
 20
7.477752005509035
 30
0.0
  0
VERTEX
  5
6E9
330
6E7
100
AcDbEntity
  8
BEMAßUNG
 62
     7
100
AcDbVertex
100
AcDb2dVertex
 10
3.424080402789814
 20
6.527250161128604
 30
0.0
  0
SEQEND
  5
6EA
330
6E7
100
AcDbEntity
  8
BEMAßUNG
  0
POLYLINE
  5
6EB
330
1F
100
AcDbEntity
  8
BEMAßUNG
 62
     7
100
AcDb2dPolyline
 66
     1
 10
0.0
 20
0.0
 30
0.0
  0
VERTEX
  5
6EC
330
6EB
100
AcDbEntity
  8
BEMAßUNG
 62
     7
100
AcDbVertex
100
AcDb2dVertex
 10
3.452330185768862
 20
7.477752005509035
 30
0.0
  0
VERTEX
  5
6ED
330
6EB
100
AcDbEntity
  8
BEMAßUNG
 62
     7
100
AcDbVertex
100
AcDb2dVertex
 10
3.452330185768862
 20
6.315204534011477
 30
0.0
  0
SEQEND
  5
6EE
330
6EB
100
AcDbEntity
  8
BEMAßUNG
  0
POLYLINE
  5
6EF
330
1F
100
AcDbEntity
  8
BEMAßUNG
 62
     7
100
AcDb2dPolyline
 66
     1
 10
0.0
 20
0.0
 30
0.0
  0
VERTEX
  5
6F0
330
6EF
100
AcDbEntity
  8
BEMAßUNG
 62
     7
100
AcDbVertex
100
AcDb2dVertex
 10
3.480235459199386
 20
7.477752005509035
 30
0.0
  0
VERTEX
  5
6F1
330
6EF
100
AcDbEntity
  8
BEMAßUNG
 62
     7
100
AcDbVertex
100
AcDb2dVertex
 10
3.480235459199386
 20
6.102986652120087
 30
0.0
  0
SEQEND
  5
6F2
330
6EF
100
AcDbEntity
  8
BEMAßUNG
  0
MTEXT
  5
6F4
330
1F
100
AcDbEntity
  8
TEXT
 62
     7
100
AcDbMText
 10
8.371582029157105
 20
4.775419106879062
 30
0.0
 40
2.398888888289167
 41
0.0
 71
     7
 72
     1
  1
\fINDEX Univers 45 Light|b0|i0|c0|p34;\W1;ø20h6
 11
-4.371139000186241E-8
 21
0.999999999999999
 31
0.0
  0
MTEXT
  5
6F5
330
1F
100
AcDbEntity
  8
TEXT
 62
     7
100
AcDbMText
 10
-30.88786484687873
 20
8.659247502175466
 30
0.0
 40
2.398888888289167
 41
0.0
 71
     7
 72
     1
  1
\fINDEX Univers 45 Light|b0|i0|c0|p34;\W1;D
 11
-4.371139000186241E-8
 21
0.999999999999999
 31
0.0
  0
MTEXT
  5
6F6
330
1F
100
AcDbEntity
  8
TEXT
 62
     7
100
AcDbMText
 10
-16.74867621109061
 20
-7.126869030336339
 30
0.0
 40
2.398888888289167
 41
0.0
 71
     7
 72
     1
  1
\fINDEX Univers 45 Light|b0|i0|c0|p34;\W1;36
  0
MTEXT
  5
6F7
330
1F
100
AcDbEntity
  8
TEXT
 62
     7
100
AcDbMText
 10
-16.23604600288543
 20
-1.685168456609958
 30
0.0
 40
2.398888888289167
 41
0.0
 71
     7
 72
     1
  1
\fINDEX Univers 45 Light|b0|i0|c0|p34;\W1;34
  0
MTEXT
  5
6F8
330
1F
100
AcDbEntity
  8
TEXT
 62
     7
100
AcDbMText
 10
-29.40440673093015
 20
22.53867593837575
 30
0.0
 40
2.398888888289167
 41
0.0
 71
     7
 72
     1
  1
\fINDEX Univers 45 Light|b0|i0|c0|p34;\W1;2,5
  0
MTEXT
  5
6F9
330
1F
100
AcDbEntity
  8
TEXT
 62
     7
100
AcDbMText
 10
-16.3528347398354
 20
22.35109048920389
 30
0.0
 40
2.398888888289167
 41
0.0
 71
     7
 72
     1
  1
\fINDEX Univers 45 Light|b0|i0|c0|p34;\W1;27
  0
MTEXT
  5
6FA
330
1F
100
AcDbEntity
  8
TEXT
 62
     7
100
AcDbMText
 10
2.822222221516667
 20
7.84448241991388
 30
0.0
 40
2.398888888289167
 41
0.0
 71
     7
 72
     1
  1
\fINDEX Univers 45 Light|b0|i0|c0|p34;\W1;13
 11
-4.371139000186241E-8
 21
0.999999999999999
 31
0.0
  0
ENDSEC
  0
SECTION
  2
OBJECTS
  0
DICTIONARY
  5
C
330
0
100
AcDbDictionary
  3
ACAD_GROUP
350
D
  3
ACAD_LAYOUT
350
1A
  3
ACAD_MLINESTYLE
350
17
  3
ACAD_PLOTSETTINGS
350
19
  3
ACAD_TABLESTYLE
350
71B
  3
ACAD_VISUALSTYLE
350
2A
  3
ACDBHEADERROUNDTRIPXREC
350
6FB
  0
DICTIONARY
  5
D
102
{ACAD_REACTORS
330
C
102
}
330
C
100
AcDbDictionary
  0
DICTIONARY
  5
1A
102
{ACAD_REACTORS
330
C
102
}
330
C
100
AcDbDictionary
  0
DICTIONARY
  5
17
102
{ACAD_REACTORS
330
C
102
}
330
C
100
AcDbDictionary
  3
STANDARD
350
18
  0
DICTIONARY
  5
19
102
{ACAD_REACTORS
330
C
102
}
330
C
100
AcDbDictionary
  0
DICTIONARY
  5
71B
102
{ACAD_REACTORS
330
C
102
}
330
C
100
AcDbDictionary
  0
DICTIONARY
  5
2A
102
{ACAD_REACTORS
330
C
102
}
330
C
100
AcDbDictionary
  3
2DWIREFRAME
350
2F
  3
3D_HIDDEN
350
31
  3
3DWIREFRAME
350
30
  3
BASIC
350
32
  3
BRIGHTEN
350
36
  3
COLORCHANGE
350
3A
  3
CONCEPTUAL
350
34
  3
DIM
350
35
  3
FACEPATTERN
350
39
  3
FLAT
350
2B
  3
FLATWITHEDGES
350
2C
  3
GOURAUD
350
2D
  3
GOURAUDWITHEDGES
350
2E
  3
LINEPATTERN
350
38
  3
REALISTIC
350
33
  3
THICKEN
350
37
  0
DICTIONARY
  5
6FB
102
{ACAD_REACTORS
330
C
102
}
330
C
100
AcDbDictionary
  3
CEPSNTYPE
350
704
  3
DIMSTYLEDATA
350
71A
  3
FINGERPRINTGUID
350
705
  3
HYPERLINKBASE
350
6FE
  3
INSUNITS
350
703
  3
LAYOUTDICT
350
700
  3
LWETCUNION
350
702
  3
PLOTSETDICT
350
701
  3
PSVPSCALE
350
707
  3
PUCSBASE
350
70A
  3
PUCSORGBACK
350
710
  3
PUCSORGBOTTOM
350
70C
  3
PUCSORGFRONT
350
70F
  3
PUCSORGLEFT
350
70D
  3
PUCSORGRIGHT
350
70E
  3
PUCSORGTOP
350
70B
  3
PUCSORTHOREF
350
708
  3
PUCSORTHOVIEW
350
709
  3
STYLESHEET
350
6FF
  3
TSTACKALIGN
350
6FC
  3
TSTACKSIZE
350
6FD
  3
UCSBASE
350
713
  3
UCSORGBACK
350
719
  3
UCSORGBOTTOM
350
715
  3
UCSORGFRONT
350
718
  3
UCSORGLEFT
350
716
  3
UCSORGRIGHT
350
717
  3
UCSORGTOP
350
714
  3
UCSORTHOREF
350
711
  3
UCSORTHOVIEW
350
712
  3
VERSIONGUID
350
706
  0
MLINESTYLE
  5
18
102
{ACAD_REACTORS
330
17
102
}
330
17
100
AcDbMlineStyle
  2
Standard
 70
     0
  3

 62
   256
 51
90.0
 52
90.0
 71
     2
 49
0.5
 62
   256
  6
BYLAYER
 49
-0.5
 62
   256
  6
BYLAYER
  0
VISUALSTYLE
  5
2F
102
{ACAD_REACTORS
330
2A
102
}
330
2A
100
AcDbVisualStyle
  2
2dWireframe
 70
     4
 71
     0
 72
     2
 73
     0
 90
        0
 40
-0.6
 41
-30.0
 62
     5
 63
     7
 74
     1
 91
        4
 64
     7
 65
   257
 75
     1
175
     1
 42
1.0
 92
        0
 66
   257
 43
1.0
 76
     1
 77
     6
 78
     2
 67
     7
 79
     5
170
     0
171
     0
290
     0
174
     0
 93
        1
 44
0.0
173
     0
291
     0
 45
0.0
1001
ACAD
1000
AcDbSavedByObjectVersion
1070
     0
  0
VISUALSTYLE
  5
31
102
{ACAD_REACTORS
330
2A
102
}
330
2A
100
AcDbVisualStyle
  2
3D Hidden
 70
     6
 71
     1
 72
     2
 73
     2
 90
        0
 40
-0.6
 41
-30.0
 62
     5
 63
     7
 74
     2
 91
        2
 64
     7
 65
   257
 75
     2
175
     1
 42
40.0
 92
        0
 66
   257
 43
1.0
 76
     1
 77
     6
 78
     2
 67
     7
 79
     3
170
     0
171
     0
290
     0
174
     0
 93
        1
 44
0.0
173
     0
291
     0
 45
0.0
1001
ACAD
1000
AcDbSavedByObjectVersion
1070
     0
  0
VISUALSTYLE
  5
30
102
{ACAD_REACTORS
330
2A
102
}
330
2A
100
AcDbVisualStyle
  2
3dWireframe
 70
     5
 71
     0
 72
     2
 73
     0
 90
        0
 40
-0.6
 41
-30.0
 62
     5
 63
     7
 74
     1
 91
        4
 64
     7
 65
   257
 75
     1
175
     1
 42
1.0
 92
        0
 66
   257
 43
1.0
 76
     1
 77
     6
 78
     2
 67
     7
 79
     5
170
     0
171
     0
290
     0
174
     0
 93
        1
 44
0.0
173
     0
291
     0
 45
0.0
1001
ACAD
1000
AcDbSavedByObjectVersion
1070
     0
  0
VISUALSTYLE
  5
32
102
{ACAD_REACTORS
330
2A
102
}
330
2A
100
AcDbVisualStyle
  2
Basic
 70
     7
 71
     1
 72
     0
 73
     1
 90
        0
 40
-0.6
 41
-30.0
 62
     5
 63
     7
 74
     0
 91
        4
 64
     7
 65
   257
 75
     1
175
     1
 42
1.0
 92
        8
 66
     7
 43
1.0
 76
     1
 77
     6
 78
     2
 67
     7
 79
     5
170
     0
171
     0
290
     0
174
     0
 93
        1
 44
0.0
173
     0
291
     1
 45
0.0
1001
ACAD
1000
AcDbSavedByObjectVersion
1070
     0
  0
VISUALSTYLE
  5
36
102
{ACAD_REACTORS
330
2A
102
}
330
2A
100
AcDbVisualStyle
  2
Brighten
 70
    12
 71
     2
 72
     2
 73
     0
 90
        0
 40
-0.6
 41
-30.0
 62
     5
 63
     7
 74
     1
 91
        4
 64
     7
 65
   257
 75
     1
175
     1
 42
1.0
 92
        8
 66
     7
 43
1.0
 76
     1
 77
     6
 78
     2
 67
     7
 79
     5
170
     0
171
     0
290
     0
174
     0
 93
        1
 44
50.0
173
     0
291
     1
 45
0.0
1001
ACAD
1000
AcDbSavedByObjectVersion
1070
     0
  0
VISUALSTYLE
  5
3A
102
{ACAD_REACTORS
330
2A
102
}
330
2A
100
AcDbVisualStyle
  2
ColorChange
 70
    16
 71
     2
 72
     2
 73
     3
 90
        0
 40
-0.6
 41
-30.0
 62
     5
 63
     8
 74
     1
 91
        4
 64
     7
 65
   257
 75
     1
175
     1
 42
1.0
 92
        8
 66
     8
 43
1.0
 76
     1
 77
     6
 78
     2
 67
     7
 79
     5
170
     0
171
     0
290
     0
174
     0
 93
        1
 44
0.0
173
     0
291
     1
 45
0.0
1001
ACAD
1000
AcDbSavedByObjectVersion
1070
     0
  0
VISUALSTYLE
  5
34
102
{ACAD_REACTORS
330
2A
102
}
330
2A
100
AcDbVisualStyle
  2
Conceptual
 70
     9
 71
     3
 72
     2
 73
     0
 90
        0
 40
-0.6
 41
-30.0
 62
     5
 63
     7
 74
     2
 91
        2
 64
     7
 65
   257
 75
     1
175
     1
 42
40.0
 92
        8
 66
     7
 43
1.0
 76
     1
 77
     6
 78
     2
 67
     7
 79
     3
170
     0
171
     0
290
     0
174
     0
 93
        1
 44
0.0
173
     0
291
     0
 45
0.0
1001
ACAD
1000
AcDbSavedByObjectVersion
1070
     0
  0
VISUALSTYLE
  5
35
102
{ACAD_REACTORS
330
2A
102
}
330
2A
100
AcDbVisualStyle
  2
Dim
 70
    11
 71
     2
 72
     2
 73
     0
 90
        0
 40
-0.6
 41
-30.0
 62
     5
 63
     7
 74
     1
 91
        4
 64
     7
 65
   257
 75
     1
175
     1
 42
1.0
 92
        8
 66
     7
 43
1.0
 76
     1
 77
     6
 78
     2
 67
     7
 79
     5
170
     0
171
     0
290
     0
174
     0
 93
        1
 44
-50.0
173
     0
291
     1
 45
0.0
1001
ACAD
1000
AcDbSavedByObjectVersion
1070
     0
  0
VISUALSTYLE
  5
39
102
{ACAD_REACTORS
330
2A
102
}
330
2A
100
AcDbVisualStyle
  2
Facepattern
 70
    15
 71
     2
 72
     2
 73
     0
 90
        0
 40
-0.6
 41
-30.0
 62
     5
 63
     7
 74
     1
 91
        4
 64
     7
 65
   257
 75
     1
175
     1
 42
1.0
 92
        8
 66
     7
 43
1.0
 76
     1
 77
     6
 78
     2
 67
     7
 79
     5
170
     0
171
     0
290
     0
174
     0
 93
        1
 44
0.0
173
     0
291
     1
 45
0.0
1001
ACAD
1000
AcDbSavedByObjectVersion
1070
     0
  0
VISUALSTYLE
  5
2B
102
{ACAD_REACTORS
330
2A
102
}
330
2A
100
AcDbVisualStyle
  2
Flat
 70
     0
 71
     2
 72
     1
 73
     1
 90
        2
 40
-0.6
 41
30.0
 62
     5
 63
     7
 74
     0
 91
        4
 64
     7
 65
   257
 75
     1
175
     1
 42
1.0
 92
        8
 66
     7
 43
1.0
 76
     1
 77
     6
 78
     2
 67
     7
 79
     5
170
     0
171
     0
290
     0
174
     0
 93
       13
 44
0.0
173
     0
291
     1
 45
0.0
1001
ACAD
1000
AcDbSavedByObjectVersion
1070
     0
  0
VISUALSTYLE
  5
2C
102
{ACAD_REACTORS
330
2A
102
}
330
2A
100
AcDbVisualStyle
  2
FlatWithEdges
 70
     1
 71
     2
 72
     1
 73
     1
 90
        2
 40
-0.6
 41
30.0
 62
     5
 63
     7
 74
     1
 91
        4
 64
     7
 65
   257
 75
     1
175
     1
 42
1.0
 92
        0
 66
   257
 43
1.0
 76
     1
 77
     6
 78
     2
 67
     7
 79
     5
170
     0
171
     0
290
     0
174
     0
 93
       13
 44
0.0
173
     0
291
     1
 45
0.0
1001
ACAD
1000
AcDbSavedByObjectVersion
1070
     0
  0
VISUALSTYLE
  5
2D
102
{ACAD_REACTORS
330
2A
102
}
330
2A
100
AcDbVisualStyle
  2
Gouraud
 70
     2
 71
     2
 72
     2
 73
     1
 90
        2
 40
-0.6
 41
30.0
 62
     5
 63
     7
 74
     0
 91
        4
 64
     7
 65
   257
 75
     1
175
     1
 42
1.0
 92
        0
 66
     7
 43
1.0
 76
     1
 77
     6
 78
     2
 67
     7
 79
     5
170
     0
171
     0
290
     0
174
     0
 93
       13
 44
0.0
173
     0
291
     1
 45
0.0
1001
ACAD
1000
AcDbSavedByObjectVersion
1070
     0
  0
VISUALSTYLE
  5
2E
102
{ACAD_REACTORS
330
2A
102
}
330
2A
100
AcDbVisualStyle
  2
GouraudWithEdges
 70
     3
 71
     2
 72
     2
 73
     1
 90
        2
 40
-0.6
 41
30.0
 62
     5
 63
     7
 74
     1
 91
        4
 64
     7
 65
   257
 75
     1
175
     1
 42
1.0
 92
        0
 66
   257
 43
1.0
 76
     1
 77
     6
 78
     2
 67
     7
 79
     5
170
     0
171
     0
290
     0
174
     0
 93
       13
 44
0.0
173
     0
291
     1
 45
0.0
1001
ACAD
1000
AcDbSavedByObjectVersion
1070
     0
  0
VISUALSTYLE
  5
38
102
{ACAD_REACTORS
330
2A
102
}
330
2A
100
AcDbVisualStyle
  2
Linepattern
 70
    14
 71
     2
 72
     2
 73
     0
 90
        0
 40
-0.6
 41
-30.0
 62
     5
 63
     7
 74
     1
 91
        4
 64
     7
 65
   257
 75
     7
175
     7
 42
1.0
 92
        8
 66
     7
 43
1.0
 76
     1
 77
     6
 78
     2
 67
     7
 79
     5
170
     0
171
     0
290
     0
174
     0
 93
        1
 44
0.0
173
     0
291
     1
 45
0.0
1001
ACAD
1000
AcDbSavedByObjectVersion
1070
     0
  0
VISUALSTYLE
  5
33
102
{ACAD_REACTORS
330
2A
102
}
330
2A
100
AcDbVisualStyle
  2
Realistic
 70
     8
 71
     2
 72
     2
 73
     0
 90
        0
 40
-0.6
 41
-30.0
 62
     5
 63
     7
 74
     1
 91
        0
 64
     7
 65
   257
 75
     1
175
     1
 42
1.0
 92
        8
 66
     8
 43
1.0
 76
     1
 77
     6
 78
     2
 67
     7
 79
     5
170
     0
171
     0
290
     0
174
     0
 93
       13
 44
0.0
173
     0
291
     0
 45
0.0
1001
ACAD
1000
AcDbSavedByObjectVersion
1070
     0
  0
VISUALSTYLE
  5
37
102
{ACAD_REACTORS
330
2A
102
}
330
2A
100
AcDbVisualStyle
  2
Thicken
 70
    13
 71
     2
 72
     2
 73
     0
 90
        0
 40
-0.6
 41
-30.0
 62
     5
 63
     7
 74
     1
 91
        4
 64
     7
 65
   257
 75
     1
175
     1
 42
1.0
 92
       12
 66
     7
 43
1.0
 76
     1
 77
     6
 78
     2
 67
     7
 79
     5
170
     0
171
     0
290
     0
174
     0
 93
        1
 44
0.0
173
     0
291
     1
 45
0.0
1001
ACAD
1000
AcDbSavedByObjectVersion
1070
     0
  0
XRECORD
  5
704
102
{ACAD_REACTORS
330
6FB
102
}
330
6FB
100
AcDbXrecord
 90
        0
  0
XRECORD
  5
71A
102
{ACAD_REACTORS
330
6FB
102
}
330
6FB
100
AcDbXrecord
1000
DSTYLE
1002
{
1070
   340
340
11
1002
}
  0
XRECORD
  5
705
102
{ACAD_REACTORS
330
6FB
102
}
330
6FB
100
AcDbXrecord
  1
{2C9B9666-3851-4583-91FE-32245974014B}
  0
XRECORD
  5
6FE
102
{ACAD_REACTORS
330
6FB
102
}
330
6FB
100
AcDbXrecord
  1

  0
XRECORD
  5
703
102
{ACAD_REACTORS
330
6FB
102
}
330
6FB
100
AcDbXrecord
 90
        1
  0
XRECORD
  5
700
102
{ACAD_REACTORS
330
6FB
102
}
330
6FB
100
AcDbXrecord
340
1A
  0
XRECORD
  5
702
102
{ACAD_REACTORS
330
6FB
102
}
330
6FB
100
AcDbXrecord
 90
    10269
  0
XRECORD
  5
701
102
{ACAD_REACTORS
330
6FB
102
}
330
6FB
100
AcDbXrecord
340
19
  0
XRECORD
  5
707
102
{ACAD_REACTORS
330
6FB
102
}
330
6FB
100
AcDbXrecord
 40
0.0
  0
XRECORD
  5
70A
102
{ACAD_REACTORS
330
6FB
102
}
330
6FB
100
AcDbXrecord
340
0
  0
XRECORD
  5
710
102
{ACAD_REACTORS
330
6FB
102
}
330
6FB
100
AcDbXrecord
 10
0.0
 20
0.0
 30
0.0
  0
XRECORD
  5
70C
102
{ACAD_REACTORS
330
6FB
102
}
330
6FB
100
AcDbXrecord
 10
0.0
 20
0.0
 30
0.0
  0
XRECORD
  5
70F
102
{ACAD_REACTORS
330
6FB
102
}
330
6FB
100
AcDbXrecord
 10
0.0
 20
0.0
 30
0.0
  0
XRECORD
  5
70D
102
{ACAD_REACTORS
330
6FB
102
}
330
6FB
100
AcDbXrecord
 10
0.0
 20
0.0
 30
0.0
  0
XRECORD
  5
70E
102
{ACAD_REACTORS
330
6FB
102
}
330
6FB
100
AcDbXrecord
 10
0.0
 20
0.0
 30
0.0
  0
XRECORD
  5
70B
102
{ACAD_REACTORS
330
6FB
102
}
330
6FB
100
AcDbXrecord
 10
0.0
 20
0.0
 30
0.0
  0
XRECORD
  5
708
102
{ACAD_REACTORS
330
6FB
102
}
330
6FB
100
AcDbXrecord
340
0
  0
XRECORD
  5
709
102
{ACAD_REACTORS
330
6FB
102
}
330
6FB
100
AcDbXrecord
 70
     0
  0
XRECORD
  5
6FF
102
{ACAD_REACTORS
330
6FB
102
}
330
6FB
100
AcDbXrecord
  1

  0
XRECORD
  5
6FC
102
{ACAD_REACTORS
330
6FB
102
}
330
6FB
100
AcDbXrecord
 90
        1
  0
XRECORD
  5
6FD
102
{ACAD_REACTORS
330
6FB
102
}
330
6FB
100
AcDbXrecord
 90
       70
  0
XRECORD
  5
713
102
{ACAD_REACTORS
330
6FB
102
}
330
6FB
100
AcDbXrecord
340
0
  0
XRECORD
  5
719
102
{ACAD_REACTORS
330
6FB
102
}
330
6FB
100
AcDbXrecord
 10
0.0
 20
0.0
 30
0.0
  0
XRECORD
  5
715
102
{ACAD_REACTORS
330
6FB
102
}
330
6FB
100
AcDbXrecord
 10
0.0
 20
0.0
 30
0.0
  0
XRECORD
  5
718
102
{ACAD_REACTORS
330
6FB
102
}
330
6FB
100
AcDbXrecord
 10
0.0
 20
0.0
 30
0.0
  0
XRECORD
  5
716
102
{ACAD_REACTORS
330
6FB
102
}
330
6FB
100
AcDbXrecord
 10
0.0
 20
0.0
 30
0.0
  0
XRECORD
  5
717
102
{ACAD_REACTORS
330
6FB
102
}
330
6FB
100
AcDbXrecord
 10
0.0
 20
0.0
 30
0.0
  0
XRECORD
  5
714
102
{ACAD_REACTORS
330
6FB
102
}
330
6FB
100
AcDbXrecord
 10
0.0
 20
0.0
 30
0.0
  0
XRECORD
  5
711
102
{ACAD_REACTORS
330
6FB
102
}
330
6FB
100
AcDbXrecord
340
0
  0
XRECORD
  5
712
102
{ACAD_REACTORS
330
6FB
102
}
330
6FB
100
AcDbXrecord
 70
     0
  0
XRECORD
  5
706
102
{ACAD_REACTORS
330
6FB
102
}
330
6FB
100
AcDbXrecord
  1
{FAEB1C32-E019-11D5-929B-00C0DF256EC4}
  0
ENDSEC
  0
EOF
