ISO-10303-21;
HEADER;
/* Generated by software containing ST-Developer
 * from STEP Tools, Inc. (www.steptools.com) 
 */
/* OPTION: using custom schema-name function */

FILE_DESCRIPTION(
/* description */ (''),
/* implementation_level */ '2;1');

FILE_NAME(
/* name */ 'W9990185.stp',
/* time_stamp */ '2017-05-09T07:12:33+02:00',
/* author */ (''),
/* organization */ (''),
/* preprocessor_version */ 'ST-DEVELOPER v15',
/* originating_system */ 'SIEMENS PLM Software NX 9.0',
/* authorisation */ '');

FILE_SCHEMA (('AUTOMOTIVE_DESIGN { 1 0 10303 214 3 1 1 1 }'));
ENDSEC;

DATA;
#10=PROPERTY_DEFINITION_REPRESENTATION(#14,#12);
#11=PROPERTY_DEFINITION_REPRESENTATION(#15,#13);
#12=REPRESENTATION('',(#16),#377);
#13=REPRESENTATION('',(#17),#377);
#14=PROPERTY_DEFINITION('pmi validation property','',#21);
#15=PROPERTY_DEFINITION('pmi validation property','',#21);
#16=VALUE_REPRESENTATION_ITEM('number of annotations',COUNT_MEASURE(0.));
#17=VALUE_REPRESENTATION_ITEM('number of views',COUNT_MEASURE(0.));
#18=SHAPE_REPRESENTATION_RELATIONSHIP('None',
'relationship between reic119C905Eo62t-None and reic119C905Eo62t-None',
#30,#19);
#19=ADVANCED_BREP_SHAPE_REPRESENTATION('reic119C905Eo62t-None',(#40),#377);
#20=SHAPE_DEFINITION_REPRESENTATION(#21,#30);
#21=PRODUCT_DEFINITION_SHAPE('','',#22);
#22=PRODUCT_DEFINITION(' ','',#24,#23);
#23=PRODUCT_DEFINITION_CONTEXT('part definition',#29,'design');
#24=PRODUCT_DEFINITION_FORMATION_WITH_SPECIFIED_SOURCE(' ',' ',#26,
 .NOT_KNOWN.);
#25=PRODUCT_RELATED_PRODUCT_CATEGORY('part','',(#26));
#26=PRODUCT('reic119C905Eo62t','reic119C905Eo62t',' ',(#27));
#27=PRODUCT_CONTEXT(' ',#29,'mechanical');
#28=APPLICATION_PROTOCOL_DEFINITION('international standard',
'automotive_design',2010,#29);
#29=APPLICATION_CONTEXT(
'core data for automotive mechanical design processes');
#30=SHAPE_REPRESENTATION('reic119C905Eo62t-None',(#223),#377);
#31=PRESENTATION_LAYER_ASSIGNMENT('210','Layer 210',(#40));
#32=STYLED_ITEM('',(#33),#40);
#33=PRESENTATION_STYLE_ASSIGNMENT((#34));
#34=SURFACE_STYLE_USAGE(.BOTH.,#35);
#35=SURFACE_SIDE_STYLE('',(#36));
#36=SURFACE_STYLE_FILL_AREA(#37);
#37=FILL_AREA_STYLE('',(#38));
#38=FILL_AREA_STYLE_COLOUR('',#39);
#39=COLOUR_RGB('Orange',1.,0.499992370489052,0.);
#40=MANIFOLD_SOLID_BREP('',#41);
#41=CLOSED_SHELL('',(#55,#56,#57,#58,#59,#60,#61,#62,#63,#64,#65,#66,#67,
#68,#69,#70,#71));
#42=VERTEX_LOOP('',#190);
#43=FACE_OUTER_BOUND('',#124,.T.);
#44=FACE_OUTER_BOUND('',#131,.T.);
#45=CONICAL_SURFACE('',#232,7.50000000000011,44.9999999999999);
#46=CONICAL_SURFACE('',#253,5.71891801425416,7.99999805021198);
#47=PLANE('',#228);
#48=PLANE('',#234);
#49=PLANE('',#237);
#50=PLANE('',#240);
#51=PLANE('',#244);
#52=PLANE('',#247);
#53=PLANE('',#251);
#54=PLANE('',#255);
#55=ADVANCED_FACE('',(#79,#80),#72,.T.);
#56=ADVANCED_FACE('',(#81,#82),#47,.T.);
#57=ADVANCED_FACE('',(#83,#84),#73,.T.);
#58=ADVANCED_FACE('',(#85,#86),#45,.T.);
#59=ADVANCED_FACE('',(#87,#88),#48,.T.);
#60=ADVANCED_FACE('',(#89,#90),#49,.T.);
#61=ADVANCED_FACE('',(#91,#92),#74,.T.);
#62=ADVANCED_FACE('',(#43),#50,.T.);
#63=ADVANCED_FACE('',(#93,#94),#75,.T.);
#64=ADVANCED_FACE('',(#95,#96),#51,.T.);
#65=ADVANCED_FACE('',(#97,#98),#76,.T.);
#66=ADVANCED_FACE('',(#44),#52,.T.);
#67=ADVANCED_FACE('',(#99,#100),#77,.T.);
#68=ADVANCED_FACE('',(#101,#102),#53,.T.);
#69=ADVANCED_FACE('',(#103,#104),#46,.T.);
#70=ADVANCED_FACE('',(#105,#106),#54,.T.);
#71=ADVANCED_FACE('',(#107,#108,#109),#78,.T.);
#72=CYLINDRICAL_SURFACE('',#226,4.00000000000026);
#73=CYLINDRICAL_SURFACE('',#230,7.50000000000012);
#74=CYLINDRICAL_SURFACE('',#238,7.);
#75=CYLINDRICAL_SURFACE('',#241,6.5);
#76=CYLINDRICAL_SURFACE('',#245,15.0000000000001);
#77=CYLINDRICAL_SURFACE('',#249,3.9999999999999);
#78=CYLINDRICAL_SURFACE('',#256,10.);
#79=FACE_BOUND('',#110,.T.);
#80=FACE_BOUND('',#111,.T.);
#81=FACE_BOUND('',#112,.T.);
#82=FACE_BOUND('',#113,.T.);
#83=FACE_BOUND('',#114,.T.);
#84=FACE_BOUND('',#115,.T.);
#85=FACE_BOUND('',#116,.T.);
#86=FACE_BOUND('',#117,.T.);
#87=FACE_BOUND('',#118,.T.);
#88=FACE_BOUND('',#119,.T.);
#89=FACE_BOUND('',#120,.T.);
#90=FACE_BOUND('',#121,.T.);
#91=FACE_BOUND('',#122,.T.);
#92=FACE_BOUND('',#123,.T.);
#93=FACE_BOUND('',#125,.T.);
#94=FACE_BOUND('',#126,.T.);
#95=FACE_BOUND('',#127,.T.);
#96=FACE_BOUND('',#128,.T.);
#97=FACE_BOUND('',#129,.T.);
#98=FACE_BOUND('',#130,.T.);
#99=FACE_BOUND('',#132,.T.);
#100=FACE_BOUND('',#133,.T.);
#101=FACE_BOUND('',#134,.T.);
#102=FACE_BOUND('',#135,.T.);
#103=FACE_BOUND('',#136,.T.);
#104=FACE_BOUND('',#137,.T.);
#105=FACE_BOUND('',#138,.T.);
#106=FACE_BOUND('',#139,.T.);
#107=FACE_BOUND('',#140,.T.);
#108=FACE_BOUND('',#141,.T.);
#109=FACE_BOUND('',#42,.T.);
#110=EDGE_LOOP('',(#142));
#111=EDGE_LOOP('',(#143));
#112=EDGE_LOOP('',(#144));
#113=EDGE_LOOP('',(#145));
#114=EDGE_LOOP('',(#146));
#115=EDGE_LOOP('',(#147));
#116=EDGE_LOOP('',(#148));
#117=EDGE_LOOP('',(#149));
#118=EDGE_LOOP('',(#150));
#119=EDGE_LOOP('',(#151));
#120=EDGE_LOOP('',(#152));
#121=EDGE_LOOP('',(#153));
#122=EDGE_LOOP('',(#154));
#123=EDGE_LOOP('',(#155));
#124=EDGE_LOOP('',(#156));
#125=EDGE_LOOP('',(#157));
#126=EDGE_LOOP('',(#158));
#127=EDGE_LOOP('',(#159));
#128=EDGE_LOOP('',(#160));
#129=EDGE_LOOP('',(#161));
#130=EDGE_LOOP('',(#162));
#131=EDGE_LOOP('',(#163));
#132=EDGE_LOOP('',(#164));
#133=EDGE_LOOP('',(#165));
#134=EDGE_LOOP('',(#166));
#135=EDGE_LOOP('',(#167));
#136=EDGE_LOOP('',(#168));
#137=EDGE_LOOP('',(#169));
#138=EDGE_LOOP('',(#170));
#139=EDGE_LOOP('',(#171));
#140=EDGE_LOOP('',(#172));
#141=EDGE_LOOP('',(#173));
#142=ORIENTED_EDGE('',*,*,#191,.F.);
#143=ORIENTED_EDGE('',*,*,#192,.T.);
#144=ORIENTED_EDGE('',*,*,#193,.T.);
#145=ORIENTED_EDGE('',*,*,#192,.F.);
#146=ORIENTED_EDGE('',*,*,#194,.T.);
#147=ORIENTED_EDGE('',*,*,#193,.F.);
#148=ORIENTED_EDGE('',*,*,#194,.F.);
#149=ORIENTED_EDGE('',*,*,#195,.T.);
#150=ORIENTED_EDGE('',*,*,#191,.T.);
#151=ORIENTED_EDGE('',*,*,#196,.T.);
#152=ORIENTED_EDGE('',*,*,#197,.F.);
#153=ORIENTED_EDGE('',*,*,#198,.T.);
#154=ORIENTED_EDGE('',*,*,#196,.F.);
#155=ORIENTED_EDGE('',*,*,#197,.T.);
#156=ORIENTED_EDGE('',*,*,#199,.F.);
#157=ORIENTED_EDGE('',*,*,#199,.T.);
#158=ORIENTED_EDGE('',*,*,#198,.F.);
#159=ORIENTED_EDGE('',*,*,#200,.F.);
#160=ORIENTED_EDGE('',*,*,#201,.T.);
#161=ORIENTED_EDGE('',*,*,#195,.F.);
#162=ORIENTED_EDGE('',*,*,#200,.T.);
#163=ORIENTED_EDGE('',*,*,#202,.T.);
#164=ORIENTED_EDGE('',*,*,#203,.T.);
#165=ORIENTED_EDGE('',*,*,#202,.F.);
#166=ORIENTED_EDGE('',*,*,#203,.F.);
#167=ORIENTED_EDGE('',*,*,#204,.F.);
#168=ORIENTED_EDGE('',*,*,#204,.T.);
#169=ORIENTED_EDGE('',*,*,#205,.F.);
#170=ORIENTED_EDGE('',*,*,#205,.T.);
#171=ORIENTED_EDGE('',*,*,#206,.F.);
#172=ORIENTED_EDGE('',*,*,#201,.F.);
#173=ORIENTED_EDGE('',*,*,#206,.T.);
#174=VERTEX_POINT('',#327);
#175=VERTEX_POINT('',#329);
#176=VERTEX_POINT('',#332);
#177=VERTEX_POINT('',#335);
#178=VERTEX_POINT('',#338);
#179=VERTEX_POINT('',#341);
#180=VERTEX_POINT('',#344);
#181=VERTEX_POINT('',#346);
#182=VERTEX_POINT('',#350);
#183=VERTEX_POINT('',#354);
#184=VERTEX_POINT('',#356);
#185=VERTEX_POINT('',#360);
#186=VERTEX_POINT('',#363);
#187=VERTEX_POINT('',#366);
#188=VERTEX_POINT('',#369);
#189=VERTEX_POINT('',#372);
#190=VERTEX_POINT('',#374);
#191=EDGE_CURVE('',#174,#174,#207,.T.);
#192=EDGE_CURVE('',#175,#175,#208,.T.);
#193=EDGE_CURVE('',#176,#176,#209,.T.);
#194=EDGE_CURVE('',#177,#177,#210,.T.);
#195=EDGE_CURVE('',#178,#178,#211,.T.);
#196=EDGE_CURVE('',#179,#179,#212,.T.);
#197=EDGE_CURVE('',#180,#180,#213,.T.);
#198=EDGE_CURVE('',#181,#181,#214,.T.);
#199=EDGE_CURVE('',#182,#182,#215,.T.);
#200=EDGE_CURVE('',#183,#183,#216,.T.);
#201=EDGE_CURVE('',#184,#184,#217,.T.);
#202=EDGE_CURVE('',#185,#185,#218,.T.);
#203=EDGE_CURVE('',#186,#186,#219,.T.);
#204=EDGE_CURVE('',#187,#187,#220,.T.);
#205=EDGE_CURVE('',#188,#188,#221,.T.);
#206=EDGE_CURVE('',#189,#189,#222,.T.);
#207=CIRCLE('',#224,4.00000000000026);
#208=CIRCLE('',#225,4.00000000000024);
#209=CIRCLE('',#227,7.50000000000013);
#210=CIRCLE('',#229,7.50000000000011);
#211=CIRCLE('',#231,15.0000000000001);
#212=CIRCLE('',#233,7.);
#213=CIRCLE('',#235,7.);
#214=CIRCLE('',#236,6.5);
#215=CIRCLE('',#239,6.5);
#216=CIRCLE('',#242,15.0000000000001);
#217=CIRCLE('',#243,10.);
#218=CIRCLE('',#246,4.);
#219=CIRCLE('',#248,4.);
#220=CIRCLE('',#250,4.31350999999985);
#221=CIRCLE('',#252,5.99999960000004);
#222=CIRCLE('',#254,10.);
#223=AXIS2_PLACEMENT_3D('',#325,#257,#258);
#224=AXIS2_PLACEMENT_3D('',#326,#259,#260);
#225=AXIS2_PLACEMENT_3D('',#328,#261,#262);
#226=AXIS2_PLACEMENT_3D('',#330,#263,#264);
#227=AXIS2_PLACEMENT_3D('',#331,#265,#266);
#228=AXIS2_PLACEMENT_3D('',#333,#267,#268);
#229=AXIS2_PLACEMENT_3D('',#334,#269,#270);
#230=AXIS2_PLACEMENT_3D('',#336,#271,#272);
#231=AXIS2_PLACEMENT_3D('',#337,#273,#274);
#232=AXIS2_PLACEMENT_3D('',#339,#275,#276);
#233=AXIS2_PLACEMENT_3D('',#340,#277,#278);
#234=AXIS2_PLACEMENT_3D('',#342,#279,#280);
#235=AXIS2_PLACEMENT_3D('',#343,#281,#282);
#236=AXIS2_PLACEMENT_3D('',#345,#283,#284);
#237=AXIS2_PLACEMENT_3D('',#347,#285,#286);
#238=AXIS2_PLACEMENT_3D('',#348,#287,#288);
#239=AXIS2_PLACEMENT_3D('',#349,#289,#290);
#240=AXIS2_PLACEMENT_3D('',#351,#291,#292);
#241=AXIS2_PLACEMENT_3D('',#352,#293,#294);
#242=AXIS2_PLACEMENT_3D('',#353,#295,#296);
#243=AXIS2_PLACEMENT_3D('',#355,#297,#298);
#244=AXIS2_PLACEMENT_3D('',#357,#299,#300);
#245=AXIS2_PLACEMENT_3D('',#358,#301,#302);
#246=AXIS2_PLACEMENT_3D('',#359,#303,#304);
#247=AXIS2_PLACEMENT_3D('',#361,#305,#306);
#248=AXIS2_PLACEMENT_3D('',#362,#307,#308);
#249=AXIS2_PLACEMENT_3D('',#364,#309,#310);
#250=AXIS2_PLACEMENT_3D('',#365,#311,#312);
#251=AXIS2_PLACEMENT_3D('',#367,#313,#314);
#252=AXIS2_PLACEMENT_3D('',#368,#315,#316);
#253=AXIS2_PLACEMENT_3D('',#370,#317,#318);
#254=AXIS2_PLACEMENT_3D('',#371,#319,#320);
#255=AXIS2_PLACEMENT_3D('',#373,#321,#322);
#256=AXIS2_PLACEMENT_3D('',#375,#323,#324);
#257=DIRECTION('',(0.,0.,1.));
#258=DIRECTION('',(1.,0.,0.));
#259=DIRECTION('',(0.,0.,1.));
#260=DIRECTION('',(-1.,0.,0.));
#261=DIRECTION('',(0.,-2.33619092516507E-015,1.));
#262=DIRECTION('',(0.,1.,2.60208521396505E-015));
#263=DIRECTION('',(0.,-2.33619092516507E-015,1.));
#264=DIRECTION('',(0.,1.,1.73472347597669E-015));
#265=DIRECTION('',(0.,-2.33619092516507E-015,1.));
#266=DIRECTION('',(0.,1.,2.3129646346357E-015));
#267=DIRECTION('',(0.,-2.33619092516507E-015,1.));
#268=DIRECTION('',(0.,1.,2.33493779866478E-015));
#269=DIRECTION('',(0.,-2.33619092516507E-015,1.));
#270=DIRECTION('',(0.,1.,2.31296463463571E-015));
#271=DIRECTION('',(0.,-2.33619092516507E-015,1.));
#272=DIRECTION('',(0.,1.,2.77555756156285E-015));
#273=DIRECTION('',(0.,-2.33619092516507E-015,1.));
#274=DIRECTION('',(0.,1.,2.31296463463573E-015));
#275=DIRECTION('',(0.,2.33619092516507E-015,-1.));
#276=DIRECTION('',(0.,-1.,-2.30722526829671E-015));
#277=DIRECTION('',(0.,0.,-1.));
#278=DIRECTION('',(-1.,0.,0.));
#279=DIRECTION('',(0.,0.,-1.));
#280=DIRECTION('',(-1.,0.,0.));
#281=DIRECTION('',(0.,0.,-1.));
#282=DIRECTION('',(-1.,0.,0.));
#283=DIRECTION('',(0.,0.,-1.));
#284=DIRECTION('',(1.,0.,0.));
#285=DIRECTION('',(0.,0.,1.));
#286=DIRECTION('',(1.,0.,0.));
#287=DIRECTION('',(0.,0.,-1.));
#288=DIRECTION('',(-1.,0.,0.));
#289=DIRECTION('',(0.,0.,-1.));
#290=DIRECTION('',(-1.,0.,0.));
#291=DIRECTION('',(0.,0.,1.));
#292=DIRECTION('',(1.,0.,0.));
#293=DIRECTION('',(0.,0.,-1.));
#294=DIRECTION('',(-1.,0.,0.));
#295=DIRECTION('',(0.,-2.33619092516507E-015,1.));
#296=DIRECTION('',(0.,1.,2.33619092516507E-015));
#297=DIRECTION('',(0.,-2.33619092516507E-015,1.));
#298=DIRECTION('',(0.,1.,2.33619092516507E-015));
#299=DIRECTION('',(0.,2.33619092516507E-015,-1.));
#300=DIRECTION('',(0.,-1.,-2.33619092516507E-015));
#301=DIRECTION('',(0.,-2.33619092516507E-015,1.));
#302=DIRECTION('',(0.,1.,2.31296463463573E-015));
#303=DIRECTION('',(0.,0.,-1.));
#304=DIRECTION('',(-1.,0.,0.));
#305=DIRECTION('',(0.,0.,-1.));
#306=DIRECTION('',(0.,1.,0.));
#307=DIRECTION('',(0.,0.,-1.));
#308=DIRECTION('',(-1.,0.,0.));
#309=DIRECTION('',(0.,-2.33619092516507E-015,1.));
#310=DIRECTION('',(0.,1.,1.73472347597685E-015));
#311=DIRECTION('',(0.,-2.33619092516507E-015,1.));
#312=DIRECTION('',(0.,1.,2.41296319142907E-015));
#313=DIRECTION('',(0.,2.33619092516507E-015,-1.));
#314=DIRECTION('',(0.,-1.,-2.33493779866478E-015));
#315=DIRECTION('',(0.,-2.33619092516507E-015,1.));
#316=DIRECTION('',(0.,1.,2.31296478883338E-015));
#317=DIRECTION('',(0.,-2.33619092516507E-015,1.));
#318=DIRECTION('',(0.,1.,2.41955607397481E-015));
#319=DIRECTION('',(0.,0.,1.));
#320=DIRECTION('',(0.,-1.,0.));
#321=DIRECTION('',(0.,2.33619092516507E-015,-1.));
#322=DIRECTION('',(0.,-1.,-2.33667252214076E-015));
#323=DIRECTION('',(0.,-2.33619092516507E-015,1.));
#324=DIRECTION('',(0.,1.,2.08166817117216E-015));
#325=CARTESIAN_POINT('',(0.,0.,0.));
#326=CARTESIAN_POINT('',(0.,-1.10216147386797E-013,35.));
#327=CARTESIAN_POINT('',(-4.00000000000026,-1.10216147386797E-013,35.));
#328=CARTESIAN_POINT('',(0.,-8.91904290603115E-014,26.));
#329=CARTESIAN_POINT('',(0.,4.00000000000016,26.));
#330=CARTESIAN_POINT('',(0.,-1.28905674788117E-013,42.9999999999999));
#331=CARTESIAN_POINT('',(0.,-8.91904290603115E-014,26.));
#332=CARTESIAN_POINT('',(0.,7.50000000000004,26.));
#333=CARTESIAN_POINT('',(0.,4.00000000000016,26.));
#334=CARTESIAN_POINT('',(0.,-6.93328061964083E-014,17.5));
#335=CARTESIAN_POINT('',(0.,7.50000000000004,17.5));
#336=CARTESIAN_POINT('',(0.,-1.28905674788117E-013,42.9999999999999));
#337=CARTESIAN_POINT('',(0.,-5.18113742576703E-014,9.99999999999993));
#338=CARTESIAN_POINT('',(0.,15.,9.99999999999997));
#339=CARTESIAN_POINT('',(0.,-6.93328061964083E-014,17.5));
#340=CARTESIAN_POINT('',(4.33680868994202E-016,-1.35480566694619E-013,35.));
#341=CARTESIAN_POINT('',(-7.,-1.35480566694619E-013,35.));
#342=CARTESIAN_POINT('',(4.33680868994202E-016,-1.35480566694619E-013,35.));
#343=CARTESIAN_POINT('',(4.33680868994202E-016,-1.35480566694619E-013,41.));
#344=CARTESIAN_POINT('',(-7.,-1.35480566694619E-013,41.));
#345=CARTESIAN_POINT('',(0.,-1.35480566694619E-013,41.));
#346=CARTESIAN_POINT('',(6.5,-1.35480566694619E-013,41.));
#347=CARTESIAN_POINT('',(4.33680868994202E-016,-1.35480566694619E-013,41.));
#348=CARTESIAN_POINT('',(4.33680868994202E-016,-1.35480566694619E-013,41.));
#349=CARTESIAN_POINT('',(0.,-1.35480566694619E-013,46.));
#350=CARTESIAN_POINT('',(-6.5,-1.35480566694619E-013,46.));
#351=CARTESIAN_POINT('',(0.,-1.35480566694619E-013,46.));
#352=CARTESIAN_POINT('',(0.,-1.35480566694619E-013,46.));
#353=CARTESIAN_POINT('',(0.,-2.84494650060197E-014,-6.93889390390723E-015));
#354=CARTESIAN_POINT('',(0.,15.,2.8103969973569E-014));
#355=CARTESIAN_POINT('',(0.,-2.84494650060197E-014,6.93889390390723E-015));
#356=CARTESIAN_POINT('',(0.,10.,3.0300803155558E-014));
#357=CARTESIAN_POINT('',(0.,15.,3.46944695195361E-014));
#358=CARTESIAN_POINT('',(0.,-1.28905674788117E-013,42.9999999999999));
#359=CARTESIAN_POINT('',(0.,0.,-28.));
#360=CARTESIAN_POINT('',(-4.,0.,-28.));
#361=CARTESIAN_POINT('',(0.,0.,-28.));
#362=CARTESIAN_POINT('',(0.,0.,-23.));
#363=CARTESIAN_POINT('',(-4.,0.,-23.));
#364=CARTESIAN_POINT('',(0.,-1.28905674788117E-013,42.9999999999999));
#365=CARTESIAN_POINT('',(0.,2.5282926272777E-014,-23.0000000000001));
#366=CARTESIAN_POINT('',(0.,4.31350999999988,-23.));
#367=CARTESIAN_POINT('',(0.,4.31350999999988,-23.));
#368=CARTESIAN_POINT('',(0.,-2.75136482920385E-015,-11.));
#369=CARTESIAN_POINT('',(0.,5.99999960000004,-11.));
#370=CARTESIAN_POINT('',(0.,1.9210167841815E-015,-12.9999998985765));
#371=CARTESIAN_POINT('',(0.,0.,-11.));
#372=CARTESIAN_POINT('',(0.,-10.,-11.));
#373=CARTESIAN_POINT('',(0.,10.,-11.));
#374=CARTESIAN_POINT('',(4.35889894354041,-9.00000000000013,-10.1281271201696));
#375=CARTESIAN_POINT('',(0.,-1.28905674788117E-013,42.9999999999999));
#376=MECHANICAL_DESIGN_GEOMETRIC_PRESENTATION_REPRESENTATION('',(#32),#377);
#377=(
GEOMETRIC_REPRESENTATION_CONTEXT(3)
GLOBAL_UNCERTAINTY_ASSIGNED_CONTEXT((#378))
GLOBAL_UNIT_ASSIGNED_CONTEXT((#384,#380,#379))
REPRESENTATION_CONTEXT('W9990185','TOP_LEVEL_ASSEMBLY_PART')
);
#378=UNCERTAINTY_MEASURE_WITH_UNIT(LENGTH_MEASURE(0.02),#384,
'DISTANCE_ACCURACY_VALUE','Maximum Tolerance applied to model');
#379=(
NAMED_UNIT(*)
SI_UNIT($,.STERADIAN.)
SOLID_ANGLE_UNIT()
);
#380=(
CONVERSION_BASED_UNIT('DEGREE',#382)
NAMED_UNIT(#381)
PLANE_ANGLE_UNIT()
);
#381=DIMENSIONAL_EXPONENTS(0.,0.,0.,0.,0.,0.,0.);
#382=PLANE_ANGLE_MEASURE_WITH_UNIT(PLANE_ANGLE_MEASURE(0.0174532925),#383);
#383=(
NAMED_UNIT(*)
PLANE_ANGLE_UNIT()
SI_UNIT($,.RADIAN.)
);
#384=(
LENGTH_UNIT()
NAMED_UNIT(*)
SI_UNIT(.MILLI.,.METRE.)
);
ENDSEC;
END-ISO-10303-21;
