ISO-10303-21;
HEADER;
/* Generated by software containing ST-Developer
 * from STEP Tools, Inc. (www.steptools.com) 
 */
/* OPTION: using custom schema-name function */

FILE_DESCRIPTION(
/* description */ (''),
/* implementation_level */ '2;1');

FILE_NAME(
/* name */ 'W9990787_stp.stp',
/* time_stamp */ '2017-05-29T13:11:07+02:00',
/* author */ (''),
/* organization */ (''),
/* preprocessor_version */ 'ST-DEVELOPER v15',
/* originating_system */ 'SIEMENS PLM Software NX 9.0',
/* authorisation */ '');

FILE_SCHEMA (('AUTOMOTIVE_DESIGN { 1 0 10303 214 3 1 1 1 }'));
ENDSEC;

DATA;
#10=PROPERTY_DEFINITION_REPRESENTATION(#14,#12);
#11=PROPERTY_DEFINITION_REPRESENTATION(#15,#13);
#12=REPRESENTATION('',(#16),#313);
#13=REPRESENTATION('',(#17),#313);
#14=PROPERTY_DEFINITION('pmi validation property','',#21);
#15=PROPERTY_DEFINITION('pmi validation property','',#21);
#16=VALUE_REPRESENTATION_ITEM('number of annotations',COUNT_MEASURE(0.));
#17=VALUE_REPRESENTATION_ITEM('number of views',COUNT_MEASURE(0.));
#18=SHAPE_REPRESENTATION_RELATIONSHIP('None',
'relationship between reic1C24C78Ap7ky-None and reic1C24C78Ap7ky-None',
#30,#19);
#19=ADVANCED_BREP_SHAPE_REPRESENTATION('reic1C24C78Ap7ky-None',(#40),#313);
#20=SHAPE_DEFINITION_REPRESENTATION(#21,#30);
#21=PRODUCT_DEFINITION_SHAPE('','',#22);
#22=PRODUCT_DEFINITION(' ','',#24,#23);
#23=PRODUCT_DEFINITION_CONTEXT('part definition',#29,'design');
#24=PRODUCT_DEFINITION_FORMATION_WITH_SPECIFIED_SOURCE(' ',' ',#26,
 .NOT_KNOWN.);
#25=PRODUCT_RELATED_PRODUCT_CATEGORY('part','',(#26));
#26=PRODUCT('reic1C24C78Ap7ky','reic1C24C78Ap7ky',' ',(#27));
#27=PRODUCT_CONTEXT(' ',#29,'mechanical');
#28=APPLICATION_PROTOCOL_DEFINITION('international standard',
'automotive_design',2010,#29);
#29=APPLICATION_CONTEXT(
'core data for automotive mechanical design processes');
#30=SHAPE_REPRESENTATION('reic1C24C78Ap7ky-None',(#187),#313);
#31=PRESENTATION_LAYER_ASSIGNMENT('210','Layer 210',(#40));
#32=STYLED_ITEM('',(#33),#40);
#33=PRESENTATION_STYLE_ASSIGNMENT((#34));
#34=SURFACE_STYLE_USAGE(.BOTH.,#35);
#35=SURFACE_SIDE_STYLE('',(#36));
#36=SURFACE_STYLE_FILL_AREA(#37);
#37=FILL_AREA_STYLE('',(#38));
#38=FILL_AREA_STYLE_COLOUR('',#39);
#39=COLOUR_RGB('RAL 7035',0.8,0.8,0.8);
#40=MANIFOLD_SOLID_BREP('',#41);
#41=CLOSED_SHELL('',(#53,#54,#55,#56,#57,#58,#59,#60,#61,#62,#63,#64,#65,
#66));
#42=FACE_OUTER_BOUND('',#120,.T.);
#43=FACE_OUTER_BOUND('',#121,.T.);
#44=CONICAL_SURFACE('',#199,20.,44.9999999999999);
#45=CONICAL_SURFACE('',#210,10.0723145172501,8.00000000000004);
#46=CYLINDRICAL_SURFACE('',#197,25.);
#47=CYLINDRICAL_SURFACE('',#200,20.);
#48=CYLINDRICAL_SURFACE('',#204,6.);
#49=CYLINDRICAL_SURFACE('',#206,16.);
#50=CYLINDRICAL_SURFACE('',#212,8.);
#51=TOROIDAL_SURFACE('',#192,18.,2.);
#52=TOROIDAL_SURFACE('',#195,24.5,0.5);
#53=ADVANCED_FACE('',(#72,#73),#67,.F.);
#54=ADVANCED_FACE('',(#74,#75),#51,.T.);
#55=ADVANCED_FACE('',(#76,#77),#52,.T.);
#56=ADVANCED_FACE('',(#78,#79),#46,.T.);
#57=ADVANCED_FACE('',(#80,#81),#44,.T.);
#58=ADVANCED_FACE('',(#82,#83),#47,.T.);
#59=ADVANCED_FACE('',(#84,#85),#68,.F.);
#60=ADVANCED_FACE('',(#86,#87),#48,.F.);
#61=ADVANCED_FACE('',(#88,#89),#49,.T.);
#62=ADVANCED_FACE('',(#90,#91),#69,.F.);
#63=ADVANCED_FACE('',(#92,#93),#45,.T.);
#64=ADVANCED_FACE('',(#94,#95),#50,.T.);
#65=ADVANCED_FACE('',(#42),#70,.F.);
#66=ADVANCED_FACE('',(#43),#71,.F.);
#67=PLANE('',#190);
#68=PLANE('',#202);
#69=PLANE('',#208);
#70=PLANE('',#213);
#71=PLANE('',#214);
#72=FACE_BOUND('',#96,.T.);
#73=FACE_BOUND('',#97,.T.);
#74=FACE_BOUND('',#98,.T.);
#75=FACE_BOUND('',#99,.T.);
#76=FACE_BOUND('',#100,.T.);
#77=FACE_BOUND('',#101,.T.);
#78=FACE_BOUND('',#102,.T.);
#79=FACE_BOUND('',#103,.T.);
#80=FACE_BOUND('',#104,.T.);
#81=FACE_BOUND('',#105,.T.);
#82=FACE_BOUND('',#106,.T.);
#83=FACE_BOUND('',#107,.T.);
#84=FACE_BOUND('',#108,.T.);
#85=FACE_BOUND('',#109,.T.);
#86=FACE_BOUND('',#110,.T.);
#87=FACE_BOUND('',#111,.T.);
#88=FACE_BOUND('',#112,.T.);
#89=FACE_BOUND('',#113,.T.);
#90=FACE_BOUND('',#114,.T.);
#91=FACE_BOUND('',#115,.T.);
#92=FACE_BOUND('',#116,.T.);
#93=FACE_BOUND('',#117,.T.);
#94=FACE_BOUND('',#118,.T.);
#95=FACE_BOUND('',#119,.T.);
#96=EDGE_LOOP('',(#122));
#97=EDGE_LOOP('',(#123));
#98=EDGE_LOOP('',(#124));
#99=EDGE_LOOP('',(#125));
#100=EDGE_LOOP('',(#126));
#101=EDGE_LOOP('',(#127));
#102=EDGE_LOOP('',(#128));
#103=EDGE_LOOP('',(#129));
#104=EDGE_LOOP('',(#130));
#105=EDGE_LOOP('',(#131));
#106=EDGE_LOOP('',(#132));
#107=EDGE_LOOP('',(#133));
#108=EDGE_LOOP('',(#134));
#109=EDGE_LOOP('',(#135));
#110=EDGE_LOOP('',(#136));
#111=EDGE_LOOP('',(#137));
#112=EDGE_LOOP('',(#138));
#113=EDGE_LOOP('',(#139));
#114=EDGE_LOOP('',(#140));
#115=EDGE_LOOP('',(#141));
#116=EDGE_LOOP('',(#142));
#117=EDGE_LOOP('',(#143));
#118=EDGE_LOOP('',(#144));
#119=EDGE_LOOP('',(#145));
#120=EDGE_LOOP('',(#146));
#121=EDGE_LOOP('',(#147));
#122=ORIENTED_EDGE('',*,*,#161,.F.);
#123=ORIENTED_EDGE('',*,*,#162,.T.);
#124=ORIENTED_EDGE('',*,*,#163,.F.);
#125=ORIENTED_EDGE('',*,*,#161,.T.);
#126=ORIENTED_EDGE('',*,*,#164,.F.);
#127=ORIENTED_EDGE('',*,*,#165,.F.);
#128=ORIENTED_EDGE('',*,*,#164,.T.);
#129=ORIENTED_EDGE('',*,*,#166,.T.);
#130=ORIENTED_EDGE('',*,*,#166,.F.);
#131=ORIENTED_EDGE('',*,*,#167,.T.);
#132=ORIENTED_EDGE('',*,*,#167,.F.);
#133=ORIENTED_EDGE('',*,*,#163,.T.);
#134=ORIENTED_EDGE('',*,*,#168,.T.);
#135=ORIENTED_EDGE('',*,*,#165,.T.);
#136=ORIENTED_EDGE('',*,*,#162,.F.);
#137=ORIENTED_EDGE('',*,*,#169,.T.);
#138=ORIENTED_EDGE('',*,*,#170,.T.);
#139=ORIENTED_EDGE('',*,*,#168,.F.);
#140=ORIENTED_EDGE('',*,*,#170,.F.);
#141=ORIENTED_EDGE('',*,*,#171,.T.);
#142=ORIENTED_EDGE('',*,*,#172,.F.);
#143=ORIENTED_EDGE('',*,*,#171,.F.);
#144=ORIENTED_EDGE('',*,*,#172,.T.);
#145=ORIENTED_EDGE('',*,*,#173,.T.);
#146=ORIENTED_EDGE('',*,*,#173,.F.);
#147=ORIENTED_EDGE('',*,*,#169,.F.);
#148=VERTEX_POINT('',#273);
#149=VERTEX_POINT('',#275);
#150=VERTEX_POINT('',#278);
#151=VERTEX_POINT('',#281);
#152=VERTEX_POINT('',#283);
#153=VERTEX_POINT('',#286);
#154=VERTEX_POINT('',#289);
#155=VERTEX_POINT('',#293);
#156=VERTEX_POINT('',#296);
#157=VERTEX_POINT('',#299);
#158=VERTEX_POINT('',#302);
#159=VERTEX_POINT('',#305);
#160=VERTEX_POINT('',#308);
#161=EDGE_CURVE('',#148,#148,#174,.T.);
#162=EDGE_CURVE('',#149,#149,#175,.T.);
#163=EDGE_CURVE('',#150,#150,#176,.T.);
#164=EDGE_CURVE('',#151,#151,#177,.T.);
#165=EDGE_CURVE('',#152,#152,#178,.T.);
#166=EDGE_CURVE('',#153,#153,#179,.T.);
#167=EDGE_CURVE('',#154,#154,#180,.T.);
#168=EDGE_CURVE('',#155,#155,#181,.T.);
#169=EDGE_CURVE('',#156,#156,#182,.T.);
#170=EDGE_CURVE('',#157,#157,#183,.T.);
#171=EDGE_CURVE('',#158,#158,#184,.T.);
#172=EDGE_CURVE('',#159,#159,#185,.T.);
#173=EDGE_CURVE('',#160,#160,#186,.T.);
#174=CIRCLE('',#188,18.);
#175=CIRCLE('',#189,6.);
#176=CIRCLE('',#191,20.);
#177=CIRCLE('',#193,25.);
#178=CIRCLE('',#194,24.5);
#179=CIRCLE('',#196,25.);
#180=CIRCLE('',#198,20.);
#181=CIRCLE('',#201,16.);
#182=CIRCLE('',#203,6.);
#183=CIRCLE('',#205,16.);
#184=CIRCLE('',#207,10.0723145172501);
#185=CIRCLE('',#209,8.);
#186=CIRCLE('',#211,8.);
#187=AXIS2_PLACEMENT_3D('',#271,#215,#216);
#188=AXIS2_PLACEMENT_3D('',#272,#217,#218);
#189=AXIS2_PLACEMENT_3D('',#274,#219,#220);
#190=AXIS2_PLACEMENT_3D('',#276,#221,#222);
#191=AXIS2_PLACEMENT_3D('',#277,#223,#224);
#192=AXIS2_PLACEMENT_3D('',#279,#225,#226);
#193=AXIS2_PLACEMENT_3D('',#280,#227,#228);
#194=AXIS2_PLACEMENT_3D('',#282,#229,#230);
#195=AXIS2_PLACEMENT_3D('',#284,#231,#232);
#196=AXIS2_PLACEMENT_3D('',#285,#233,#234);
#197=AXIS2_PLACEMENT_3D('',#287,#235,#236);
#198=AXIS2_PLACEMENT_3D('',#288,#237,#238);
#199=AXIS2_PLACEMENT_3D('',#290,#239,#240);
#200=AXIS2_PLACEMENT_3D('',#291,#241,#242);
#201=AXIS2_PLACEMENT_3D('',#292,#243,#244);
#202=AXIS2_PLACEMENT_3D('',#294,#245,#246);
#203=AXIS2_PLACEMENT_3D('',#295,#247,#248);
#204=AXIS2_PLACEMENT_3D('',#297,#249,#250);
#205=AXIS2_PLACEMENT_3D('',#298,#251,#252);
#206=AXIS2_PLACEMENT_3D('',#300,#253,#254);
#207=AXIS2_PLACEMENT_3D('',#301,#255,#256);
#208=AXIS2_PLACEMENT_3D('',#303,#257,#258);
#209=AXIS2_PLACEMENT_3D('',#304,#259,#260);
#210=AXIS2_PLACEMENT_3D('',#306,#261,#262);
#211=AXIS2_PLACEMENT_3D('',#307,#263,#264);
#212=AXIS2_PLACEMENT_3D('',#309,#265,#266);
#213=AXIS2_PLACEMENT_3D('',#310,#267,#268);
#214=AXIS2_PLACEMENT_3D('',#311,#269,#270);
#215=DIRECTION('',(0.,0.,1.));
#216=DIRECTION('',(1.,0.,0.));
#217=DIRECTION('',(0.,0.,-1.));
#218=DIRECTION('',(-1.,0.,0.));
#219=DIRECTION('',(0.,0.,-1.));
#220=DIRECTION('',(-1.,0.,0.));
#221=DIRECTION('',(0.,0.,-1.));
#222=DIRECTION('',(1.,0.,0.));
#223=DIRECTION('',(0.,0.,-1.));
#224=DIRECTION('',(-1.,0.,0.));
#225=DIRECTION('',(0.,0.,-1.));
#226=DIRECTION('',(1.,0.,0.));
#227=DIRECTION('',(0.,0.,1.));
#228=DIRECTION('',(1.,0.,0.));
#229=DIRECTION('',(0.,0.,-1.));
#230=DIRECTION('',(1.,0.,0.));
#231=DIRECTION('',(0.,0.,1.));
#232=DIRECTION('',(-1.,0.,0.));
#233=DIRECTION('',(0.,0.,-1.));
#234=DIRECTION('',(-1.,0.,0.));
#235=DIRECTION('',(0.,0.,-1.));
#236=DIRECTION('',(1.,0.,0.));
#237=DIRECTION('',(0.,0.,-1.));
#238=DIRECTION('',(-1.,0.,0.));
#239=DIRECTION('',(0.,0.,-1.));
#240=DIRECTION('',(1.,0.,1.36056743213868E-017));
#241=DIRECTION('',(0.,0.,-1.));
#242=DIRECTION('',(1.,0.,0.));
#243=DIRECTION('',(0.,0.,1.));
#244=DIRECTION('',(1.,0.,0.));
#245=DIRECTION('',(0.,0.,1.));
#246=DIRECTION('',(-1.,0.,0.));
#247=DIRECTION('',(0.,0.,-1.));
#248=DIRECTION('',(-1.,0.,0.));
#249=DIRECTION('',(0.,0.,-1.));
#250=DIRECTION('',(1.,0.,0.));
#251=DIRECTION('',(0.,0.,1.));
#252=DIRECTION('',(1.,0.,0.));
#253=DIRECTION('',(0.,0.,-1.));
#254=DIRECTION('',(1.,0.,0.));
#255=DIRECTION('',(0.,0.,1.));
#256=DIRECTION('',(1.,0.,0.));
#257=DIRECTION('',(0.,0.,1.));
#258=DIRECTION('',(-1.,0.,0.));
#259=DIRECTION('',(0.,0.,-1.));
#260=DIRECTION('',(1.,0.,0.));
#261=DIRECTION('',(0.,0.,1.));
#262=DIRECTION('',(-1.,0.,2.53390335898458E-016));
#263=DIRECTION('',(0.,0.,1.));
#264=DIRECTION('',(1.,0.,0.));
#265=DIRECTION('',(0.,0.,-1.));
#266=DIRECTION('',(1.,0.,0.));
#267=DIRECTION('',(0.,0.,1.));
#268=DIRECTION('',(-1.,0.,0.));
#269=DIRECTION('',(0.,0.,-1.));
#270=DIRECTION('',(-1.,0.,0.));
#271=CARTESIAN_POINT('',(0.,0.,0.));
#272=CARTESIAN_POINT('',(0.,0.,25.));
#273=CARTESIAN_POINT('',(-18.,0.,25.));
#274=CARTESIAN_POINT('',(0.,0.,25.));
#275=CARTESIAN_POINT('',(-6.,0.,25.));
#276=CARTESIAN_POINT('',(0.,0.,25.));
#277=CARTESIAN_POINT('',(0.,0.,23.));
#278=CARTESIAN_POINT('',(-20.,0.,23.));
#279=CARTESIAN_POINT('',(0.,0.,23.));
#280=CARTESIAN_POINT('',(0.,0.,0.5));
#281=CARTESIAN_POINT('',(25.,0.,0.5));
#282=CARTESIAN_POINT('',(0.,0.,0.));
#283=CARTESIAN_POINT('',(24.5,0.,0.));
#284=CARTESIAN_POINT('',(0.,0.,0.5));
#285=CARTESIAN_POINT('',(0.,0.,5.99999999999996));
#286=CARTESIAN_POINT('',(-25.,0.,5.99999999999996));
#287=CARTESIAN_POINT('',(0.,0.,-41.));
#288=CARTESIAN_POINT('',(0.,0.,11.));
#289=CARTESIAN_POINT('',(-20.,0.,11.));
#290=CARTESIAN_POINT('',(0.,0.,11.));
#291=CARTESIAN_POINT('',(0.,0.,-41.));
#292=CARTESIAN_POINT('',(0.,0.,0.));
#293=CARTESIAN_POINT('',(16.,0.,0.));
#294=CARTESIAN_POINT('',(0.,25.,0.));
#295=CARTESIAN_POINT('',(0.,0.,-15.));
#296=CARTESIAN_POINT('',(-6.,0.,-15.));
#297=CARTESIAN_POINT('',(0.,0.,-42.4884705629218));
#298=CARTESIAN_POINT('',(0.,0.,-18.5));
#299=CARTESIAN_POINT('',(16.,0.,-18.5));
#300=CARTESIAN_POINT('',(0.,0.,-41.));
#301=CARTESIAN_POINT('',(0.,0.,-18.5));
#302=CARTESIAN_POINT('',(10.0723145172501,0.,-18.5));
#303=CARTESIAN_POINT('',(0.,16.,-18.5));
#304=CARTESIAN_POINT('',(0.,0.,-33.2452839712988));
#305=CARTESIAN_POINT('',(8.,0.,-33.2452839712988));
#306=CARTESIAN_POINT('',(0.,0.,-18.5));
#307=CARTESIAN_POINT('',(0.,0.,-41.));
#308=CARTESIAN_POINT('',(8.,0.,-41.));
#309=CARTESIAN_POINT('',(0.,0.,-41.));
#310=CARTESIAN_POINT('',(0.,0.,-41.));
#311=CARTESIAN_POINT('',(0.,0.,-15.));
#312=MECHANICAL_DESIGN_GEOMETRIC_PRESENTATION_REPRESENTATION('',(#32),#313);
#313=(
GEOMETRIC_REPRESENTATION_CONTEXT(3)
GLOBAL_UNCERTAINTY_ASSIGNED_CONTEXT((#314))
GLOBAL_UNIT_ASSIGNED_CONTEXT((#320,#316,#315))
REPRESENTATION_CONTEXT('W9990787_stp','TOP_LEVEL_ASSEMBLY_PART')
);
#314=UNCERTAINTY_MEASURE_WITH_UNIT(LENGTH_MEASURE(2.E-005),#320,
'DISTANCE_ACCURACY_VALUE','Maximum Tolerance applied to model');
#315=(
NAMED_UNIT(*)
SI_UNIT($,.STERADIAN.)
SOLID_ANGLE_UNIT()
);
#316=(
CONVERSION_BASED_UNIT('DEGREE',#318)
NAMED_UNIT(#317)
PLANE_ANGLE_UNIT()
);
#317=DIMENSIONAL_EXPONENTS(0.,0.,0.,0.,0.,0.,0.);
#318=PLANE_ANGLE_MEASURE_WITH_UNIT(PLANE_ANGLE_MEASURE(0.0174532925),#319);
#319=(
NAMED_UNIT(*)
PLANE_ANGLE_UNIT()
SI_UNIT($,.RADIAN.)
);
#320=(
LENGTH_UNIT()
NAMED_UNIT(*)
SI_UNIT(.MILLI.,.METRE.)
);
ENDSEC;
END-ISO-10303-21;
