  0
SECTION
  2
HEADER
  9
$ACADVER
  1
AC1014
  9
$ACADMAINTVER
 70
     9
  9
$DWGCODEPAGE
  3
ASCII
  9
$INSBASE
 10
0.0
 20
0.0
 30
0.0
  9
$EXTMIN
 10
1.000000000000000E+20
 20
1.000000000000000E+20
 30
1.000000000000000E+20
  9
$EXTMAX
 10
-1.000000000000000E+20
 20
-1.000000000000000E+20
 30
-1.000000000000000E+20
  9
$LIMMIN
 10
0.0
 20
0.0
  9
$LIMMAX
 10
12.0
 20
9.0
  9
$ORTHOMODE
 70
     0
  9
$REGENMODE
 70
     1
  9
$FILLMODE
 70
     1
  9
$QTEXTMODE
 70
     0
  9
$MIRRTEXT
 70
     1
  9
$DRAGMODE
 70
     2
  9
$LTSCALE
 40
1.0
  9
$OSMODE
 70
    37
  9
$ATTMODE
 70
     1
  9
$TEXTSIZE
 40
0.2
  9
$TRACEWID
 40
0.05
  9
$TEXTSTYLE
  7
STANDARD
  9
$CLAYER
  8
0
  9
$CELTYPE
  6
BYLAYER
  9
$CECOLOR
 62
   256
  9
$CELTSCALE
 40
1.0
  9
$DELOBJ
 70
     1
  9
$DISPSILH
 70
     0
  9
$DIMSCALE
 40
1.0
  9
$DIMASZ
 40
0.18
  9
$DIMEXO
 40
0.0625
  9
$DIMDLI
 40
0.38
  9
$DIMRND
 40
0.0
  9
$DIMDLE
 40
0.0
  9
$DIMEXE
 40
0.18
  9
$DIMTP
 40
0.0
  9
$DIMTM
 40
0.0
  9
$DIMTXT
 40
0.18
  9
$DIMCEN
 40
0.09
  9
$DIMTSZ
 40
0.0
  9
$DIMTOL
 70
     0
  9
$DIMLIM
 70
     0
  9
$DIMTIH
 70
     1
  9
$DIMTOH
 70
     1
  9
$DIMSE1
 70
     0
  9
$DIMSE2
 70
     0
  9
$DIMTAD
 70
     0
  9
$DIMZIN
 70
     0
  9
$DIMBLK
  1

  9
$DIMASO
 70
     1
  9
$DIMSHO
 70
     1
  9
$DIMPOST
  1

  9
$DIMAPOST
  1

  9
$DIMALT
 70
     0
  9
$DIMALTD
 70
     2
  9
$DIMALTF
 40
25.4
  9
$DIMLFAC
 40
1.0
  9
$DIMTOFL
 70
     0
  9
$DIMTVP
 40
0.0
  9
$DIMTIX
 70
     0
  9
$DIMSOXD
 70
     0
  9
$DIMSAH
 70
     0
  9
$DIMBLK1
  1

  9
$DIMBLK2
  1

  9
$DIMSTYLE
  2
STANDARD
  9
$DIMCLRD
 70
     0
  9
$DIMCLRE
 70
     0
  9
$DIMCLRT
 70
     0
  9
$DIMTFAC
 40
1.0
  9
$DIMGAP
 40
0.09
  9
$DIMJUST
 70
     0
  9
$DIMSD1
 70
     0
  9
$DIMSD2
 70
     0
  9
$DIMTOLJ
 70
     1
  9
$DIMTZIN
 70
     0
  9
$DIMALTZ
 70
     0
  9
$DIMALTTZ
 70
     0
  9
$DIMFIT
 70
     3
  9
$DIMUPT
 70
     0
  9
$DIMUNIT
 70
     2
  9
$DIMDEC
 70
     4
  9
$DIMTDEC
 70
     4
  9
$DIMALTU
 70
     2
  9
$DIMALTTD
 70
     2
  9
$DIMTXSTY
  7
STANDARD
  9
$DIMAUNIT
 70
     0
  9
$LUNITS
 70
     2
  9
$LUPREC
 70
     4
  9
$SKETCHINC
 40
0.1
  9
$FILLETRAD
 40
0.5
  9
$AUNITS
 70
     0
  9
$AUPREC
 70
     0
  9
$MENU
  1
.
  9
$ELEVATION
 40
0.0
  9
$PELEVATION
 40
0.0
  9
$THICKNESS
 40
0.0
  9
$LIMCHECK
 70
     0
  9
$CHAMFERA
 40
0.5
  9
$CHAMFERB
 40
0.5
  9
$CHAMFERC
 40
1.0
  9
$CHAMFERD
 40
0.0
  9
$SKPOLY
 70
     0
  9
$TDCREATE
 40
2454883.346527199
  9
$TDUPDATE
 40
2454883.34652721
  9
$TDINDWG
 40
0.0000000116
  9
$TDUSRTIMER
 40
0.0000000116
  9
$USRTIMER
 70
     1
  9
$ANGBASE
 50
0.0
  9
$ANGDIR
 70
     0
  9
$PDMODE
 70
     0
  9
$PDSIZE
 40
0.0
  9
$PLINEWID
 40
0.0
  9
$COORDS
 70
     1
  9
$SPLFRAME
 70
     0
  9
$SPLINETYPE
 70
     6
  9
$SPLINESEGS
 70
     8
  9
$ATTDIA
 70
     0
  9
$ATTREQ
 70
     1
  9
$HANDLING
 70
     1
  9
$HANDSEED
  5
833
  9
$SURFTAB1
 70
     6
  9
$SURFTAB2
 70
     6
  9
$SURFTYPE
 70
     6
  9
$SURFU
 70
     6
  9
$SURFV
 70
     6
  9
$UCSNAME
  2

  9
$UCSORG
 10
0.0
 20
0.0
 30
0.0
  9
$UCSXDIR
 10
1.0
 20
0.0
 30
0.0
  9
$UCSYDIR
 10
0.0
 20
1.0
 30
0.0
  9
$PUCSNAME
  2

  9
$PUCSORG
 10
0.0
 20
0.0
 30
0.0
  9
$PUCSXDIR
 10
1.0
 20
0.0
 30
0.0
  9
$PUCSYDIR
 10
0.0
 20
1.0
 30
0.0
  9
$USERI1
 70
     0
  9
$USERI2
 70
     0
  9
$USERI3
 70
     0
  9
$USERI4
 70
     0
  9
$USERI5
 70
     0
  9
$USERR1
 40
0.0
  9
$USERR2
 40
0.0
  9
$USERR3
 40
0.0
  9
$USERR4
 40
0.0
  9
$USERR5
 40
0.0
  9
$WORLDVIEW
 70
     1
  9
$SHADEDGE
 70
     3
  9
$SHADEDIF
 70
    70
  9
$TILEMODE
 70
     1
  9
$MAXACTVP
 70
    64
  9
$PINSBASE
 10
0.0
 20
0.0
 30
0.0
  9
$PLIMCHECK
 70
     0
  9
$PEXTMIN
 10
1.000000000000000E+20
 20
1.000000000000000E+20
 30
1.000000000000000E+20
  9
$PEXTMAX
 10
-1.000000000000000E+20
 20
-1.000000000000000E+20
 30
-1.000000000000000E+20
  9
$PLIMMIN
 10
0.0
 20
0.0
  9
$PLIMMAX
 10
12.0
 20
9.0
  9
$UNITMODE
 70
     0
  9
$VISRETAIN
 70
     1
  9
$PLINEGEN
 70
     0
  9
$PSLTSCALE
 70
     1
  9
$TREEDEPTH
 70
  3020
  9
$PICKSTYLE
 70
     1
  9
$CMLSTYLE
  2
STANDARD
  9
$CMLJUST
 70
     0
  9
$CMLSCALE
 40
1.0
  9
$PROXYGRAPHICS
 70
     1
  9
$MEASUREMENT
 70
     0
  0
ENDSEC
  0
SECTION
  2
CLASSES
  0
CLASS
  1
ACDBDICTIONARYWDFLT
  2
AcDbDictionaryWithDefault
  3
ObjectDBX Classes
 90
        0
280
     0
281
     0
  0
CLASS
  1
VISUALSTYLE
  2
AcDbVisualStyle
  3
ObjectDBX Classes
 90
     4095
280
     0
281
     0
  0
CLASS
  1
XRECORD
  2
AcDbXrecord
  3
AutoCAD 2000
 90
        0
280
     0
281
     0
  0
CLASS
  1
LWPOLYLINE
  2
AcDbPolyline
  3
AutoCAD 2000
 90
        0
280
     0
281
     1
  0
CLASS
  1
HATCH
  2
AcDbHatch
  3
AutoCAD 2000
 90
        0
280
     0
281
     1
  0
CLASS
  1
ACDBPLACEHOLDER
  2
AcDbPlaceHolder
  3
ObjectDBX Classes
 90
        0
280
     0
281
     0
  0
CLASS
  1
LAYOUT
  2
AcDbLayout
  3
ObjectDBX Classes
 90
        0
280
     0
281
     0
  0
ENDSEC
  0
SECTION
  2
TABLES
  0
TABLE
  2
VPORT
  5
8
330
0
100
AcDbSymbolTable
 70
     1
  0
VPORT
  5
29
330
8
100
AcDbSymbolTableRecord
100
AcDbViewportTableRecord
  2
*ACTIVE
 70
     0
 10
0.0
 20
0.0
 11
1.0
 21
1.0
 12
0.0
 22
0.0
 13
0.0
 23
0.0
 14
0.5
 24
0.5
 15
0.5
 25
0.5
 16
0.0
 26
0.0
 36
1.0
 17
143.0974752784636
 27
2.551611654434325
 37
0.0
 40
114.7805838294392
 41
0.8277450878342386
 42
50.0
 43
0.0
 44
0.0
 50
0.0
 51
0.0
 71
     0
 72
   100
 73
     1
 74
     3
 75
     0
 76
     0
 77
     0
 78
     0
  0
ENDTAB
  0
TABLE
  2
LTYPE
  5
5
330
0
100
AcDbSymbolTable
 70
     5
  0
LTYPE
  5
14
330
5
100
AcDbSymbolTableRecord
100
AcDbLinetypeTableRecord
  2
BYBLOCK
 70
     0
  3

 72
    65
 73
     0
 40
0.0
  0
LTYPE
  5
15
330
5
100
AcDbSymbolTableRecord
100
AcDbLinetypeTableRecord
  2
BYLAYER
 70
     0
  3

 72
    65
 73
     0
 40
0.0
  0
LTYPE
  5
16
330
5
100
AcDbSymbolTableRecord
100
AcDbLinetypeTableRecord
  2
CONTINUOUS
 70
     0
  3
Solid line
 72
    65
 73
     0
 40
0.0
  0
LTYPE
  5
455
330
5
100
AcDbSymbolTableRecord
100
AcDbLinetypeTableRecord
  2
AI-LINETYPE-1
 70
     0
  3
Adobe Illustrator Linetype No. 1
 72
    65
 73
     4
 40
8.819450260381924
 49
7.055560208305538
 74
     0
 49
-0.7055560208305538
 74
     0
 49
0.3527780104152769
 74
     0
 49
-0.7055560208305538
 74
     0
  0
LTYPE
  5
45A
330
5
100
AcDbSymbolTableRecord
100
AcDbLinetypeTableRecord
  2
AI-LINETYPE-2
 70
     0
  3
Adobe Illustrator Linetype No. 2
 72
    65
 73
     4
 40
8.819450260381924
 49
7.055560208305538
 74
     0
 49
-0.7055560208305538
 74
     0
 49
0.3527780104152769
 74
     0
 49
-0.7055560208305538
 74
     0
  0
LTYPE
  5
45F
330
5
100
AcDbSymbolTableRecord
100
AcDbLinetypeTableRecord
  2
AI-LINETYPE-3
 70
     0
  3
Adobe Illustrator Linetype No. 3
 72
    65
 73
     4
 40
8.819450260381924
 49
7.055560208305538
 74
     0
 49
-0.7055560208305538
 74
     0
 49
0.3527780104152769
 74
     0
 49
-0.7055560208305538
 74
     0
  0
LTYPE
  5
464
330
5
100
AcDbSymbolTableRecord
100
AcDbLinetypeTableRecord
  2
AI-LINETYPE-4
 70
     0
  3
Adobe Illustrator Linetype No. 4
 72
    65
 73
     4
 40
8.819450260381924
 49
7.055560208305538
 74
     0
 49
-0.7055560208305538
 74
     0
 49
0.3527780104152769
 74
     0
 49
-0.7055560208305538
 74
     0
  0
ENDTAB
  0
TABLE
  2
LAYER
  5
2
330
0
100
AcDbSymbolTable
 70
     5
  0
LAYER
  5
10
330
2
100
AcDbSymbolTableRecord
100
AcDbLayerTableRecord
  2
0
 70
     0
 62
     7
  6
CONTINUOUS
  0
LAYER
  5
3B
330
2
100
AcDbSymbolTableRecord
100
AcDbLayerTableRecord
  2
GRAU_10_
 70
     1
 62
     7
  6
CONTINUOUS
  0
LAYER
  5
42
330
2
100
AcDbSymbolTableRecord
100
AcDbLayerTableRecord
  2
STANDARDEBENE
 70
     0
 62
     7
  6
CONTINUOUS
  0
LAYER
  5
465
330
2
100
AcDbSymbolTableRecord
100
AcDbLayerTableRecord
  2
TEXT
 70
     1
 62
     7
  6
CONTINUOUS
  0
LAYER
  5
46E
330
2
100
AcDbSymbolTableRecord
100
AcDbLayerTableRecord
  2
BEMA_UNG
 70
     1
 62
     7
  6
CONTINUOUS
  0
ENDTAB
  0
TABLE
  2
STYLE
  5
3
330
0
100
AcDbSymbolTable
 70
     1
  0
STYLE
  5
11
330
3
100
AcDbSymbolTableRecord
100
AcDbTextStyleTableRecord
  2
STANDARD
 70
     0
 40
0.0
 41
1.0
 50
0.0
 71
     0
 42
0.2
  3
txt
  4

  0
ENDTAB
  0
TABLE
  2
VIEW
  5
6
330
0
100
AcDbSymbolTable
 70
     0
  0
ENDTAB
  0
TABLE
  2
UCS
  5
7
330
0
100
AcDbSymbolTable
 70
     0
  0
ENDTAB
  0
TABLE
  2
APPID
  5
9
330
0
100
AcDbSymbolTable
 70
     1
  0
APPID
  5
12
330
9
100
AcDbSymbolTableRecord
100
AcDbRegAppTableRecord
  2
ACAD
 70
     0
  0
ENDTAB
  0
TABLE
  2
DIMSTYLE
  5
A
330
0
100
AcDbSymbolTable
 70
     1
  0
DIMSTYLE
105
27
330
A
100
AcDbSymbolTableRecord
100
AcDbDimStyleTableRecord
  2
STANDARD
 70
     0
  3

  4

  5

  6

  7

 40
1.0
 41
0.18
 42
0.0625
 43
0.38
 44
0.18
 45
0.0
 46
0.0
 47
0.0
 48
0.0
140
0.18
141
0.09
142
0.0
143
25.4
144
1.0
145
0.0
146
1.0
147
0.09
 71
     0
 72
     0
 73
     1
 74
     1
 75
     0
 76
     0
 77
     0
 78
     0
170
     0
171
     2
172
     0
173
     0
174
     0
175
     0
176
     0
177
     0
178
     0
270
     2
271
     4
272
     4
273
     2
274
     2
340
11
275
     0
280
     0
281
     0
282
     0
283
     1
284
     0
285
     0
286
     0
287
     3
288
     0
  0
ENDTAB
  0
TABLE
  2
BLOCK_RECORD
  5
1
330
0
100
AcDbSymbolTable
 70
     1
  0
BLOCK_RECORD
  5
1F
330
1
100
AcDbSymbolTableRecord
100
AcDbBlockTableRecord
  2
*MODEL_SPACE
  0
BLOCK_RECORD
  5
1B
330
1
100
AcDbSymbolTableRecord
100
AcDbBlockTableRecord
  2
*PAPER_SPACE
  0
ENDTAB
  0
ENDSEC
  0
SECTION
  2
BLOCKS
  0
BLOCK
  5
20
330
1F
100
AcDbEntity
  8
0
100
AcDbBlockBegin
  2
*MODEL_SPACE
 70
     0
 71
     0
 10
0.0
 20
0.0
 30
0.0
  3
*MODEL_SPACE
  1

  0
ENDBLK
  5
21
330
1F
100
AcDbEntity
  8
0
100
AcDbBlockEnd
  0
BLOCK
  5
1C
330
1B
100
AcDbEntity
 67
     1
  8
0
100
AcDbBlockBegin
  2
*PAPER_SPACE
 70
     0
 71
     0
 10
0.0
 20
0.0
 30
0.0
  3
*PAPER_SPACE
  1

  0
ENDBLK
  5
1D
330
1B
100
AcDbEntity
 67
     1
  8
0
100
AcDbBlockEnd
  0
ENDSEC
  0
SECTION
  2
ENTITIES
  0
SPLINE
  5
3C
330
1F
100
AcDbEntity
  8
GRAU_10_
100
AcDbSpline
210
0.0
220
0.0
230
1.0
 70
    11
 71
     3
 72
    95
 73
    91
 74
     0
 42
0.0000000001
 43
0.0000000001
 40
0.0
 40
0.0
 40
0.0
 40
0.0
 40
1.0
 40
1.0
 40
1.0
 40
2.0
 40
2.0
 40
2.0
 40
3.0
 40
3.0
 40
3.0
 40
4.0
 40
4.0
 40
4.0
 40
5.0
 40
5.0
 40
5.0
 40
6.0
 40
6.0
 40
6.0
 40
7.0
 40
7.0
 40
7.0
 40
8.0
 40
8.0
 40
8.0
 40
9.0
 40
9.0
 40
9.0
 40
10.0
 40
10.0
 40
10.0
 40
11.0
 40
11.0
 40
11.0
 40
12.0
 40
12.0
 40
12.0
 40
13.0
 40
13.0
 40
13.0
 40
14.0
 40
14.0
 40
14.0
 40
15.0
 40
15.0
 40
15.0
 40
16.0
 40
16.0
 40
16.0
 40
17.0
 40
17.0
 40
17.0
 40
18.0
 40
18.0
 40
18.0
 40
19.0
 40
19.0
 40
19.0
 40
20.0
 40
20.0
 40
20.0
 40
21.0
 40
21.0
 40
21.0
 40
22.0
 40
22.0
 40
22.0
 40
23.0
 40
23.0
 40
23.0
 40
24.0
 40
24.0
 40
24.0
 40
25.0
 40
25.0
 40
25.0
 40
26.0
 40
26.0
 40
26.0
 40
27.0
 40
27.0
 40
27.0
 40
28.0
 40
28.0
 40
28.0
 40
29.0
 40
29.0
 40
29.0
 40
30.0
 40
30.0
 40
30.0
 40
30.0
 10
132.981117967097
 20
32.17101188339784
 30
0.0
 10
132.981117967097
 20
32.17101188339784
 30
0.0
 10
132.9166946390231
 20
9.685892346509288
 30
0.0
 10
132.9166946390231
 20
9.685892346509288
 30
0.0
 10
132.9166946390231
 20
9.685892346509288
 30
0.0
 10
131.1076738063174
 20
9.642828624534767
 30
0.0
 10
131.1076738063174
 20
9.642828624534767
 30
0.0
 10
131.1076738063174
 20
9.642828624534767
 30
0.0
 10
131.1076738063174
 20
9.491933342736043
 30
0.0
 10
131.1076738063174
 20
9.491933342736043
 30
0.0
 10
131.1076738063174
 20
9.491933342736043
 30
0.0
 10
131.3016328100906
 20
8.88904123509275
 30
0.0
 10
131.3016328100906
 20
8.88904123509275
 30
0.0
 10
131.3016328100906
 20
8.88904123509275
 30
0.0
 10
131.2799286942155
 20
8.221381289599773
 30
0.0
 10
131.2799286942155
 20
8.221381289599773
 30
0.0
 10
131.2799286942155
 20
8.221381289599773
 30
0.0
 10
131.1938012502665
 20
7.639848788055841
 30
0.0
 10
131.1938012502665
 20
7.639848788055841
 30
0.0
 10
131.1938012502665
 20
7.639848788055841
 30
0.0
 10
131.2155053661416
 20
6.670742788741217
 30
0.0
 10
131.2155053661416
 20
6.670742788741217
 30
0.0
 10
131.2155053661416
 20
6.670742788741217
 30
0.0
 10
131.1076738063174
 20
4.68946706813745
 30
0.0
 10
131.1076738063174
 20
4.68946706813745
 30
0.0
 10
131.1076738063174
 20
4.68946706813745
 30
0.0
 10
130.8923551964448
 20
4.668107462038088
 30
0.0
 10
130.8923551964448
 20
4.668107462038088
 30
0.0
 10
130.8923551964448
 20
4.668107462038088
 30
0.0
 10
130.5662766936537
 20
4.360804742027906
 30
0.0
 10
130.5662766936537
 20
4.360804742027906
 30
0.0
 10
130.5662766936537
 20
4.360804742027906
 30
0.0
 10
130.4367410179544
 20
2.814300358478903
 30
0.0
 10
130.4367410179544
 20
2.814300358478903
 30
0.0
 10
130.4367410179544
 20
2.814300358478903
 30
0.0
 10
130.5693772816359
 20
2.492872737661078
 30
0.0
 10
130.3542309266512
 20
2.492872737661078
 30
0.0
 10
130.1385678070028
 20
2.492872737661078
 30
0.0
 10
121.8860083826935
 20
2.492872737661078
 30
0.0
 10
121.8860083826935
 20
2.492872737661078
 30
0.0
 10
121.8860083826935
 20
2.492872737661078
 30
0.0
 10
121.6922216338081
 20
2.751255069508205
 30
0.0
 10
121.6922216338081
 20
2.751255069508205
 30
0.0
 10
121.6922216338081
 20
2.751255069508205
 30
0.0
 10
121.7463096686081
 20
3.303159730333667
 30
0.0
 10
121.7463096686081
 20
3.303159730333667
 30
0.0
 10
121.7463096686081
 20
3.303159730333667
 30
0.0
 10
121.5366754700361
 20
3.532603241013915
 30
0.0
 10
121.5366754700361
 20
3.532603241013915
 30
0.0
 10
121.5366754700361
 20
3.532603241013915
 30
0.0
 10
121.2658907862604
 20
3.52674657482538
 30
0.0
 10
121.2658907862604
 20
3.52674657482538
 30
0.0
 10
121.2658907862604
 20
3.52674657482538
 30
0.0
 10
121.0719317824871
 20
3.612529508998627
 30
0.0
 10
121.0719317824871
 20
3.612529508998627
 30
0.0
 10
121.0719317824871
 20
3.612529508998627
 30
0.0
 10
120.8998491494769
 20
6.649383182641855
 30
0.0
 10
120.8998491494769
 20
6.649383182641855
 30
0.0
 10
120.8998491494769
 20
6.649383182641855
 30
0.0
 10
120.9644447324387
 20
7.230571174409992
 30
0.0
 10
120.9644447324387
 20
7.230571174409992
 30
0.0
 10
120.9644447324387
 20
7.230571174409992
 30
0.0
 10
120.985976593426
 20
7.725976232004882
 30
0.0
 10
120.985976593426
 20
7.725976232004882
 30
0.0
 10
120.985976593426
 20
7.725976232004882
 30
0.0
 10
120.7920175896527
 20
8.243085405474933
 30
0.0
 10
120.7920175896527
 20
8.243085405474933
 30
0.0
 10
120.7920175896527
 20
8.243085405474933
 30
0.0
 10
120.8567854275024
 20
8.88904123509275
 30
0.0
 10
120.8567854275024
 20
8.88904123509275
 30
0.0
 10
120.8567854275024
 20
8.88904123509275
 30
0.0
 10
120.985976593426
 20
9.405805898787001
 30
0.0
 10
120.985976593426
 20
9.405805898787001
 30
0.0
 10
120.985976593426
 20
9.405805898787001
 30
0.0
 10
121.0290403154005
 20
9.75031567458317
 30
0.0
 10
121.0290403154005
 20
9.75031567458317
 30
0.0
 10
121.0290403154005
 20
9.75031567458317
 30
0.0
 10
119.1983153668196
 20
9.685892346509288
 30
0.0
 10
119.1983153668196
 20
9.685892346509288
 30
0.0
 10
119.1983153668196
 20
9.685892346509288
 30
0.0
 10
119.1769557607203
 20
32.23509070169592
 30
0.0
 10
119.1769557607203
 20
32.23509070169592
 30
0.0
 10
119.1769557607203
 20
32.23509070169592
 30
0.0
 10
119.8087866895305
 20
32.79078497005515
 30
0.0
 10
119.8087866895305
 20
32.79078497005515
 30
0.0
 10
119.8087866895305
 20
32.79078497005515
 30
0.0
 10
132.3909727211581
 20
32.79078497005515
 30
0.0
 10
132.3909727211581
 20
32.79078497005515
 30
0.0
 10
132.3909727211581
 20
32.79078497005515
 30
0.0
 10
132.981117967097
 20
32.17101188339784
 30
0.0
 10
132.981117967097
 20
32.17101188339784
 30
0.0
  0
HATCH
  5
3D
330
1F
100
AcDbEntity
  8
GRAU_10_
 62
   255
100
AcDbHatch
 10
0.0
 20
0.0
 30
0.0
210
0.0
220
0.0
230
1.0
  2
SOLID
 70
     1
 71
     0
 91
        1
 92
        1
 93
        1
 72
     4
 94
        3
 73
     0
 74
     1
 95
       95
 96
       91
 40
0.0
 40
0.0
 40
0.0
 40
0.0
 40
1.0
 40
1.0
 40
1.0
 40
2.0
 40
2.0
 40
2.0
 40
3.0
 40
3.0
 40
3.0
 40
4.0
 40
4.0
 40
4.0
 40
5.0
 40
5.0
 40
5.0
 40
6.0
 40
6.0
 40
6.0
 40
7.0
 40
7.0
 40
7.0
 40
8.0
 40
8.0
 40
8.0
 40
9.0
 40
9.0
 40
9.0
 40
10.0
 40
10.0
 40
10.0
 40
11.0
 40
11.0
 40
11.0
 40
12.0
 40
12.0
 40
12.0
 40
13.0
 40
13.0
 40
13.0
 40
14.0
 40
14.0
 40
14.0
 40
15.0
 40
15.0
 40
15.0
 40
16.0
 40
16.0
 40
16.0
 40
17.0
 40
17.0
 40
17.0
 40
18.0
 40
18.0
 40
18.0
 40
19.0
 40
19.0
 40
19.0
 40
20.0
 40
20.0
 40
20.0
 40
21.0
 40
21.0
 40
21.0
 40
22.0
 40
22.0
 40
22.0
 40
23.0
 40
23.0
 40
23.0
 40
24.0
 40
24.0
 40
24.0
 40
25.0
 40
25.0
 40
25.0
 40
26.0
 40
26.0
 40
26.0
 40
27.0
 40
27.0
 40
27.0
 40
28.0
 40
28.0
 40
28.0
 40
29.0
 40
29.0
 40
29.0
 40
30.0
 40
30.0
 40
30.0
 40
30.0
 10
132.981117967097
 20
32.17101188339784
 10
132.981117967097
 20
32.17101188339784
 10
132.9166946390231
 20
9.685892346509288
 10
132.9166946390231
 20
9.685892346509288
 10
132.9166946390231
 20
9.685892346509288
 10
131.1076738063174
 20
9.642828624534767
 10
131.1076738063174
 20
9.642828624534767
 10
131.1076738063174
 20
9.642828624534767
 10
131.1076738063174
 20
9.491933342736043
 10
131.1076738063174
 20
9.491933342736043
 10
131.1076738063174
 20
9.491933342736043
 10
131.3016328100906
 20
8.88904123509275
 10
131.3016328100906
 20
8.88904123509275
 10
131.3016328100906
 20
8.88904123509275
 10
131.2799286942155
 20
8.221381289599773
 10
131.2799286942155
 20
8.221381289599773
 10
131.2799286942155
 20
8.221381289599773
 10
131.1938012502665
 20
7.639848788055841
 10
131.1938012502665
 20
7.639848788055841
 10
131.1938012502665
 20
7.639848788055841
 10
131.2155053661416
 20
6.670742788741217
 10
131.2155053661416
 20
6.670742788741217
 10
131.2155053661416
 20
6.670742788741217
 10
131.1076738063174
 20
4.68946706813745
 10
131.1076738063174
 20
4.68946706813745
 10
131.1076738063174
 20
4.68946706813745
 10
130.8923551964448
 20
4.668107462038088
 10
130.8923551964448
 20
4.668107462038088
 10
130.8923551964448
 20
4.668107462038088
 10
130.5662766936537
 20
4.360804742027906
 10
130.5662766936537
 20
4.360804742027906
 10
130.5662766936537
 20
4.360804742027906
 10
130.4367410179544
 20
2.814300358478903
 10
130.4367410179544
 20
2.814300358478903
 10
130.4367410179544
 20
2.814300358478903
 10
130.5693772816359
 20
2.492872737661078
 10
130.3542309266512
 20
2.492872737661078
 10
130.1385678070028
 20
2.492872737661078
 10
121.8860083826935
 20
2.492872737661078
 10
121.8860083826935
 20
2.492872737661078
 10
121.8860083826935
 20
2.492872737661078
 10
121.6922216338081
 20
2.751255069508205
 10
121.6922216338081
 20
2.751255069508205
 10
121.6922216338081
 20
2.751255069508205
 10
121.7463096686081
 20
3.303159730333667
 10
121.7463096686081
 20
3.303159730333667
 10
121.7463096686081
 20
3.303159730333667
 10
121.5366754700361
 20
3.532603241013915
 10
121.5366754700361
 20
3.532603241013915
 10
121.5366754700361
 20
3.532603241013915
 10
121.2658907862604
 20
3.52674657482538
 10
121.2658907862604
 20
3.52674657482538
 10
121.2658907862604
 20
3.52674657482538
 10
121.0719317824871
 20
3.612529508998627
 10
121.0719317824871
 20
3.612529508998627
 10
121.0719317824871
 20
3.612529508998627
 10
120.8998491494769
 20
6.649383182641855
 10
120.8998491494769
 20
6.649383182641855
 10
120.8998491494769
 20
6.649383182641855
 10
120.9644447324387
 20
7.230571174409992
 10
120.9644447324387
 20
7.230571174409992
 10
120.9644447324387
 20
7.230571174409992
 10
120.985976593426
 20
7.725976232004882
 10
120.985976593426
 20
7.725976232004882
 10
120.985976593426
 20
7.725976232004882
 10
120.7920175896527
 20
8.243085405474933
 10
120.7920175896527
 20
8.243085405474933
 10
120.7920175896527
 20
8.243085405474933
 10
120.8567854275024
 20
8.88904123509275
 10
120.8567854275024
 20
8.88904123509275
 10
120.8567854275024
 20
8.88904123509275
 10
120.985976593426
 20
9.405805898787001
 10
120.985976593426
 20
9.405805898787001
 10
120.985976593426
 20
9.405805898787001
 10
121.0290403154005
 20
9.75031567458317
 10
121.0290403154005
 20
9.75031567458317
 10
121.0290403154005
 20
9.75031567458317
 10
119.1983153668196
 20
9.685892346509288
 10
119.1983153668196
 20
9.685892346509288
 10
119.1983153668196
 20
9.685892346509288
 10
119.1769557607203
 20
32.23509070169592
 10
119.1769557607203
 20
32.23509070169592
 10
119.1769557607203
 20
32.23509070169592
 10
119.8087866895305
 20
32.79078497005515
 10
119.8087866895305
 20
32.79078497005515
 10
119.8087866895305
 20
32.79078497005515
 10
132.3909727211581
 20
32.79078497005515
 10
132.3909727211581
 20
32.79078497005515
 10
132.3909727211581
 20
32.79078497005515
 10
132.981117967097
 20
32.17101188339784
 10
132.981117967097
 20
32.17101188339784
 97
        0
 75
     0
 76
     1
 98
        0
  0
SPLINE
  5
3E
330
1F
100
AcDbEntity
  8
GRAU_10_
100
AcDbSpline
210
0.0
220
0.0
230
1.0
 70
    11
 71
     3
 72
   137
 73
   133
 74
     0
 42
0.0000000001
 43
0.0000000001
 40
0.0
 40
0.0
 40
0.0
 40
0.0
 40
1.0
 40
1.0
 40
1.0
 40
2.0
 40
2.0
 40
2.0
 40
3.0
 40
3.0
 40
3.0
 40
4.0
 40
4.0
 40
4.0
 40
5.0
 40
5.0
 40
5.0
 40
6.0
 40
6.0
 40
6.0
 40
7.0
 40
7.0
 40
7.0
 40
8.0
 40
8.0
 40
8.0
 40
9.0
 40
9.0
 40
9.0
 40
10.0
 40
10.0
 40
10.0
 40
11.0
 40
11.0
 40
11.0
 40
12.0
 40
12.0
 40
12.0
 40
13.0
 40
13.0
 40
13.0
 40
14.0
 40
14.0
 40
14.0
 40
15.0
 40
15.0
 40
15.0
 40
16.0
 40
16.0
 40
16.0
 40
17.0
 40
17.0
 40
17.0
 40
18.0
 40
18.0
 40
18.0
 40
19.0
 40
19.0
 40
19.0
 40
20.0
 40
20.0
 40
20.0
 40
21.0
 40
21.0
 40
21.0
 40
22.0
 40
22.0
 40
22.0
 40
23.0
 40
23.0
 40
23.0
 40
24.0
 40
24.0
 40
24.0
 40
25.0
 40
25.0
 40
25.0
 40
26.0
 40
26.0
 40
26.0
 40
27.0
 40
27.0
 40
27.0
 40
28.0
 40
28.0
 40
28.0
 40
29.0
 40
29.0
 40
29.0
 40
30.0
 40
30.0
 40
30.0
 40
31.0
 40
31.0
 40
31.0
 40
32.0
 40
32.0
 40
32.0
 40
33.0
 40
33.0
 40
33.0
 40
34.0
 40
34.0
 40
34.0
 40
35.0
 40
35.0
 40
35.0
 40
36.0
 40
36.0
 40
36.0
 40
37.0
 40
37.0
 40
37.0
 40
38.0
 40
38.0
 40
38.0
 40
39.0
 40
39.0
 40
39.0
 40
40.0
 40
40.0
 40
40.0
 40
41.0
 40
41.0
 40
41.0
 40
42.0
 40
42.0
 40
42.0
 40
43.0
 40
43.0
 40
43.0
 40
44.0
 40
44.0
 40
44.0
 40
44.0
 10
168.7539795564438
 20
21.30827414276884
 30
0.0
 10
168.7539795564438
 20
21.30827414276884
 30
0.0
 10
168.8018664152794
 20
9.688648424715657
 30
0.0
 10
168.8018664152794
 20
9.688648424715657
 30
0.0
 10
168.8018664152794
 20
9.688648424715657
 30
0.0
 10
166.9322118620336
 20
9.650063329826486
 30
0.0
 10
166.9322118620336
 20
9.650063329826486
 30
0.0
 10
166.9322118620336
 20
9.650063329826486
 30
0.0
 10
166.9515044094782
 20
9.418897270267257
 30
0.0
 10
166.9515044094782
 20
9.418897270267257
 30
0.0
 10
166.9515044094782
 20
9.418897270267257
 30
0.0
 10
167.183359488589
 20
8.87905045159466
 30
0.0
 10
167.1440853741483
 20
8.802224771592114
 30
0.0
 10
167.1055002792591
 20
8.725054581813772
 30
0.0
 10
166.912919314589
 20
2.942457995075078
 30
0.0
 10
166.912919314589
 20
2.942457995075078
 30
0.0
 10
166.912919314589
 20
2.942457995075078
 30
0.0
 10
166.8746787294756
 20
2.653069783406296
 30
0.0
 10
166.8746787294756
 20
2.653069783406296
 30
0.0
 10
166.8746787294756
 20
2.653069783406296
 30
0.0
 10
166.5277573852489
 20
2.518021951294198
 30
0.0
 10
166.5277573852489
 20
2.518021951294198
 30
0.0
 10
166.5277573852489
 20
2.518021951294198
 30
0.0
 10
163.9056934816643
 20
2.53765900851458
 30
0.0
 10
163.9056934816643
 20
2.53765900851458
 30
0.0
 10
163.9056934816643
 20
2.53765900851458
 30
0.0
 10
163.5585998825496
 20
2.884580352741322
 30
0.0
 10
163.5585998825496
 20
2.884580352741322
 30
0.0
 10
163.5585998825496
 20
2.884580352741322
 30
0.0
 10
163.5396518448808
 20
3.250794244412649
 30
0.0
 10
163.5396518448808
 20
3.250794244412649
 30
0.0
 10
163.5396518448808
 20
3.250794244412649
 30
0.0
 10
163.4631706746541
 20
3.462667756527293
 30
0.0
 10
163.4631706746541
 20
3.462667756527293
 30
0.0
 10
163.4631706746541
 20
3.462667756527293
 30
0.0
 10
163.1159048206516
 20
3.617008136083977
 30
0.0
 10
163.1159048206516
 20
3.617008136083977
 30
0.0
 10
163.1159048206516
 20
3.617008136083977
 30
0.0
 10
160.7062311938452
 20
3.617008136083977
 30
0.0
 10
160.7062311938452
 20
3.617008136083977
 30
0.0
 10
160.7062311938452
 20
3.617008136083977
 30
0.0
 10
160.4748928793981
 20
3.539837946305635
 30
0.0
 10
160.4748928793981
 20
3.539837946305635
 30
0.0
 10
160.4748928793981
 20
3.539837946305635
 30
0.0
 10
160.2630193672835
 20
3.327619924415195
 30
0.0
 10
160.2630193672835
 20
3.327619924415195
 30
0.0
 10
160.2630193672835
 20
3.327619924415195
 30
0.0
 10
160.3205524998414
 20
2.80741016296298
 30
0.0
 10
160.3205524998414
 20
2.80741016296298
 30
0.0
 10
160.3205524998414
 20
2.80741016296298
 30
0.0
 10
159.8780296928313
 20
2.499073913625409
 30
0.0
 10
159.8780296928313
 20
2.499073913625409
 30
0.0
 10
159.8780296928313
 20
2.499073913625409
 30
0.0
 10
157.2752583366912
 20
2.499073913625409
 30
0.0
 10
157.2752583366912
 20
2.499073913625409
 30
0.0
 10
157.2752583366912
 20
2.499073913625409
 30
0.0
 10
157.0821606073575
 20
2.556951555959165
 30
0.0
 10
157.0821606073575
 20
2.556951555959165
 30
0.0
 10
157.0821606073575
 20
2.556951555959165
 30
0.0
 10
156.9867313994619
 20
2.788117615518395
 30
0.0
 10
156.9867313994619
 20
2.788117615518395
 30
0.0
 10
156.9867313994619
 20
2.788117615518395
 30
0.0
 10
156.6969986780173
 20
8.223792858030347
 30
0.0
 10
156.6969986780173
 20
8.223792858030347
 30
0.0
 10
156.6969986780173
 20
8.223792858030347
 30
0.0
 10
156.7162912254619
 20
8.898342999039246
 30
0.0
 10
156.7162912254619
 20
8.898342999039246
 30
0.0
 10
156.7162912254619
 20
8.898342999039246
 30
0.0
 10
156.851339057574
 20
9.53465255493477
 30
0.0
 10
156.851339057574
 20
9.53465255493477
 30
0.0
 10
156.851339057574
 20
9.53465255493477
 30
0.0
 10
156.851339057574
 20
9.707940972160243
 30
0.0
 10
156.851339057574
 20
9.707940972160243
 30
0.0
 10
156.851339057574
 20
9.707940972160243
 30
0.0
 10
155.058165674555
 20
9.650063329826486
 30
0.0
 10
155.058165674555
 20
9.650063329826486
 30
0.0
 10
155.058165674555
 20
9.650063329826486
 30
0.0
 10
154.9713492110543
 20
21.25694218617521
 30
0.0
 10
154.9713492110543
 20
21.25694218617521
 30
0.0
 10
154.9713492110543
 20
21.25694218617521
 30
0.0
 10
155.2779629115129
 20
21.95526350171404
 30
0.0
 10
155.2779629115129
 20
21.95526350171404
 30
0.0
 10
155.2779629115129
 20
21.95526350171404
 30
0.0
 10
155.3661574141167
 20
23.16035869744904
 30
0.0
 10
155.3661574141167
 20
23.16035869744904
 30
0.0
 10
155.3661574141167
 20
23.16035869744904
 30
0.0
 10
155.2192239947397
 20
24.13049822609105
 30
0.0
 10
155.2192239947397
 20
24.13049822609105
 30
0.0
 10
155.2192239947397
 20
24.13049822609105
 30
0.0
 10
154.9840960727588
 20
25.01244325212925
 30
0.0
 10
154.9840960727588
 20
25.01244325212925
 30
0.0
 10
154.9840960727588
 20
25.01244325212925
 30
0.0
 10
154.9546404869282
 20
27.86429517616993
 30
0.0
 10
154.9546404869282
 20
27.86429517616993
 30
0.0
 10
154.9546404869282
 20
27.86429517616993
 30
0.0
 10
155.2779629115129
 20
28.98119586930111
 30
0.0
 10
155.2779629115129
 20
28.98119586930111
 30
0.0
 10
155.2779629115129
 20
28.98119586930111
 30
0.0
 10
155.3956129999473
 20
30.03952990054694
 30
0.0
 10
155.3956129999473
 20
30.03952990054694
 30
0.0
 10
155.3956129999473
 20
30.03952990054694
 30
0.0
 10
155.1604850779664
 20
31.09786393179277
 30
0.0
 10
155.1604850779664
 20
31.09786393179277
 30
0.0
 10
155.1604850779664
 20
31.09786393179277
 30
0.0
 10
154.9840960727588
 20
31.80341995262333
 30
0.0
 10
154.9840960727588
 20
31.80341995262333
 30
0.0
 10
154.9840960727588
 20
31.80341995262333
 30
0.0
 10
155.042834989532
 20
32.21510913469975
 30
0.0
 10
155.042834989532
 20
32.21510913469975
 30
0.0
 10
155.042834989532
 20
32.21510913469975
 30
0.0
 10
155.5132630883817
 20
32.74427615032266
 30
0.0
 10
155.5132630883817
 20
32.74427615032266
 30
0.0
 10
155.5132630883817
 20
32.74427615032266
 30
0.0
 10
168.2130992084438
 20
32.86175398386916
 30
0.0
 10
168.2130992084438
 20
32.86175398386916
 30
0.0
 10
168.2130992084438
 20
32.86175398386916
 30
0.0
 10
168.7422662240667
 20
32.2740203063609
 30
0.0
 10
168.7422662240667
 20
32.2740203063609
 30
0.0
 10
168.7422662240667
 20
32.2740203063609
 30
0.0
 10
168.7422662240667
 20
26.51174979639417
 30
0.0
 10
168.7422662240667
 20
26.51174979639417
 30
0.0
 10
168.7422662240667
 20
26.51174979639417
 30
0.0
 10
168.5069660471979
 20
25.45341576514834
 30
0.0
 10
168.5069660471979
 20
25.45341576514834
 30
0.0
 10
168.5069660471979
 20
25.45341576514834
 30
0.0
 10
168.4776827162552
 20
24.33651507201716
 30
0.0
 10
168.4776827162552
 20
24.33651507201716
 30
0.0
 10
168.4776827162552
 20
24.33651507201716
 30
0.0
 10
168.7422662240667
 20
22.60190835088345
 30
0.0
 10
168.7422662240667
 20
22.60190835088345
 30
0.0
 10
168.7422662240667
 20
22.60190835088345
 30
0.0
 10
168.7539795564438
 20
21.30827414276884
 30
0.0
 10
168.7539795564438
 20
21.30827414276884
 30
0.0
  0
HATCH
  5
3F
330
1F
100
AcDbEntity
  8
GRAU_10_
 62
   255
100
AcDbHatch
 10
0.0
 20
0.0
 30
0.0
210
0.0
220
0.0
230
1.0
  2
SOLID
 70
     1
 71
     0
 91
        1
 92
        1
 93
        1
 72
     4
 94
        3
 73
     0
 74
     1
 95
      137
 96
      133
 40
0.0
 40
0.0
 40
0.0
 40
0.0
 40
1.0
 40
1.0
 40
1.0
 40
2.0
 40
2.0
 40
2.0
 40
3.0
 40
3.0
 40
3.0
 40
4.0
 40
4.0
 40
4.0
 40
5.0
 40
5.0
 40
5.0
 40
6.0
 40
6.0
 40
6.0
 40
7.0
 40
7.0
 40
7.0
 40
8.0
 40
8.0
 40
8.0
 40
9.0
 40
9.0
 40
9.0
 40
10.0
 40
10.0
 40
10.0
 40
11.0
 40
11.0
 40
11.0
 40
12.0
 40
12.0
 40
12.0
 40
13.0
 40
13.0
 40
13.0
 40
14.0
 40
14.0
 40
14.0
 40
15.0
 40
15.0
 40
15.0
 40
16.0
 40
16.0
 40
16.0
 40
17.0
 40
17.0
 40
17.0
 40
18.0
 40
18.0
 40
18.0
 40
19.0
 40
19.0
 40
19.0
 40
20.0
 40
20.0
 40
20.0
 40
21.0
 40
21.0
 40
21.0
 40
22.0
 40
22.0
 40
22.0
 40
23.0
 40
23.0
 40
23.0
 40
24.0
 40
24.0
 40
24.0
 40
25.0
 40
25.0
 40
25.0
 40
26.0
 40
26.0
 40
26.0
 40
27.0
 40
27.0
 40
27.0
 40
28.0
 40
28.0
 40
28.0
 40
29.0
 40
29.0
 40
29.0
 40
30.0
 40
30.0
 40
30.0
 40
31.0
 40
31.0
 40
31.0
 40
32.0
 40
32.0
 40
32.0
 40
33.0
 40
33.0
 40
33.0
 40
34.0
 40
34.0
 40
34.0
 40
35.0
 40
35.0
 40
35.0
 40
36.0
 40
36.0
 40
36.0
 40
37.0
 40
37.0
 40
37.0
 40
38.0
 40
38.0
 40
38.0
 40
39.0
 40
39.0
 40
39.0
 40
40.0
 40
40.0
 40
40.0
 40
41.0
 40
41.0
 40
41.0
 40
42.0
 40
42.0
 40
42.0
 40
43.0
 40
43.0
 40
43.0
 40
44.0
 40
44.0
 40
44.0
 40
44.0
 10
168.7539795564438
 20
21.30827414276884
 10
168.7539795564438
 20
21.30827414276884
 10
168.8018664152794
 20
9.688648424715657
 10
168.8018664152794
 20
9.688648424715657
 10
168.8018664152794
 20
9.688648424715657
 10
166.9322118620336
 20
9.650063329826486
 10
166.9322118620336
 20
9.650063329826486
 10
166.9322118620336
 20
9.650063329826486
 10
166.9515044094782
 20
9.418897270267257
 10
166.9515044094782
 20
9.418897270267257
 10
166.9515044094782
 20
9.418897270267257
 10
167.183359488589
 20
8.87905045159466
 10
167.1440853741483
 20
8.802224771592114
 10
167.1055002792591
 20
8.725054581813772
 10
166.912919314589
 20
2.942457995075078
 10
166.912919314589
 20
2.942457995075078
 10
166.912919314589
 20
2.942457995075078
 10
166.8746787294756
 20
2.653069783406296
 10
166.8746787294756
 20
2.653069783406296
 10
166.8746787294756
 20
2.653069783406296
 10
166.5277573852489
 20
2.518021951294198
 10
166.5277573852489
 20
2.518021951294198
 10
166.5277573852489
 20
2.518021951294198
 10
163.9056934816643
 20
2.53765900851458
 10
163.9056934816643
 20
2.53765900851458
 10
163.9056934816643
 20
2.53765900851458
 10
163.5585998825496
 20
2.884580352741322
 10
163.5585998825496
 20
2.884580352741322
 10
163.5585998825496
 20
2.884580352741322
 10
163.5396518448808
 20
3.250794244412649
 10
163.5396518448808
 20
3.250794244412649
 10
163.5396518448808
 20
3.250794244412649
 10
163.4631706746541
 20
3.462667756527293
 10
163.4631706746541
 20
3.462667756527293
 10
163.4631706746541
 20
3.462667756527293
 10
163.1159048206516
 20
3.617008136083977
 10
163.1159048206516
 20
3.617008136083977
 10
163.1159048206516
 20
3.617008136083977
 10
160.7062311938452
 20
3.617008136083977
 10
160.7062311938452
 20
3.617008136083977
 10
160.7062311938452
 20
3.617008136083977
 10
160.4748928793981
 20
3.539837946305635
 10
160.4748928793981
 20
3.539837946305635
 10
160.4748928793981
 20
3.539837946305635
 10
160.2630193672835
 20
3.327619924415195
 10
160.2630193672835
 20
3.327619924415195
 10
160.2630193672835
 20
3.327619924415195
 10
160.3205524998414
 20
2.80741016296298
 10
160.3205524998414
 20
2.80741016296298
 10
160.3205524998414
 20
2.80741016296298
 10
159.8780296928313
 20
2.499073913625409
 10
159.8780296928313
 20
2.499073913625409
 10
159.8780296928313
 20
2.499073913625409
 10
157.2752583366912
 20
2.499073913625409
 10
157.2752583366912
 20
2.499073913625409
 10
157.2752583366912
 20
2.499073913625409
 10
157.0821606073575
 20
2.556951555959165
 10
157.0821606073575
 20
2.556951555959165
 10
157.0821606073575
 20
2.556951555959165
 10
156.9867313994619
 20
2.788117615518395
 10
156.9867313994619
 20
2.788117615518395
 10
156.9867313994619
 20
2.788117615518395
 10
156.6969986780173
 20
8.223792858030347
 10
156.6969986780173
 20
8.223792858030347
 10
156.6969986780173
 20
8.223792858030347
 10
156.7162912254619
 20
8.898342999039246
 10
156.7162912254619
 20
8.898342999039246
 10
156.7162912254619
 20
8.898342999039246
 10
156.851339057574
 20
9.53465255493477
 10
156.851339057574
 20
9.53465255493477
 10
156.851339057574
 20
9.53465255493477
 10
156.851339057574
 20
9.707940972160243
 10
156.851339057574
 20
9.707940972160243
 10
156.851339057574
 20
9.707940972160243
 10
155.058165674555
 20
9.650063329826486
 10
155.058165674555
 20
9.650063329826486
 10
155.058165674555
 20
9.650063329826486
 10
154.9713492110543
 20
21.25694218617521
 10
154.9713492110543
 20
21.25694218617521
 10
154.9713492110543
 20
21.25694218617521
 10
155.2779629115129
 20
21.95526350171404
 10
155.2779629115129
 20
21.95526350171404
 10
155.2779629115129
 20
21.95526350171404
 10
155.3661574141167
 20
23.16035869744904
 10
155.3661574141167
 20
23.16035869744904
 10
155.3661574141167
 20
23.16035869744904
 10
155.2192239947397
 20
24.13049822609105
 10
155.2192239947397
 20
24.13049822609105
 10
155.2192239947397
 20
24.13049822609105
 10
154.9840960727588
 20
25.01244325212925
 10
154.9840960727588
 20
25.01244325212925
 10
154.9840960727588
 20
25.01244325212925
 10
154.9546404869282
 20
27.86429517616993
 10
154.9546404869282
 20
27.86429517616993
 10
154.9546404869282
 20
27.86429517616993
 10
155.2779629115129
 20
28.98119586930111
 10
155.2779629115129
 20
28.98119586930111
 10
155.2779629115129
 20
28.98119586930111
 10
155.3956129999473
 20
30.03952990054694
 10
155.3956129999473
 20
30.03952990054694
 10
155.3956129999473
 20
30.03952990054694
 10
155.1604850779664
 20
31.09786393179277
 10
155.1604850779664
 20
31.09786393179277
 10
155.1604850779664
 20
31.09786393179277
 10
154.9840960727588
 20
31.80341995262333
 10
154.9840960727588
 20
31.80341995262333
 10
154.9840960727588
 20
31.80341995262333
 10
155.042834989532
 20
32.21510913469975
 10
155.042834989532
 20
32.21510913469975
 10
155.042834989532
 20
32.21510913469975
 10
155.5132630883817
 20
32.74427615032266
 10
155.5132630883817
 20
32.74427615032266
 10
155.5132630883817
 20
32.74427615032266
 10
168.2130992084438
 20
32.86175398386916
 10
168.2130992084438
 20
32.86175398386916
 10
168.2130992084438
 20
32.86175398386916
 10
168.7422662240667
 20
32.2740203063609
 10
168.7422662240667
 20
32.2740203063609
 10
168.7422662240667
 20
32.2740203063609
 10
168.7422662240667
 20
26.51174979639417
 10
168.7422662240667
 20
26.51174979639417
 10
168.7422662240667
 20
26.51174979639417
 10
168.5069660471979
 20
25.45341576514834
 10
168.5069660471979
 20
25.45341576514834
 10
168.5069660471979
 20
25.45341576514834
 10
168.4776827162552
 20
24.33651507201716
 10
168.4776827162552
 20
24.33651507201716
 10
168.4776827162552
 20
24.33651507201716
 10
168.7422662240667
 20
22.60190835088345
 10
168.7422662240667
 20
22.60190835088345
 10
168.7422662240667
 20
22.60190835088345
 10
168.7539795564438
 20
21.30827414276884
 10
168.7539795564438
 20
21.30827414276884
 97
        0
 75
     0
 76
     1
 98
        0
  0
SPLINE
  5
40
330
1F
100
AcDbEntity
  8
GRAU_10_
100
AcDbSpline
210
0.0
220
0.0
230
1.0
 70
    11
 71
     3
 72
    17
 73
    13
 74
     0
 42
0.0000000001
 43
0.0000000001
 40
0.0
 40
0.0
 40
0.0
 40
0.0
 40
1.0
 40
1.0
 40
1.0
 40
2.0
 40
2.0
 40
2.0
 40
3.0
 40
3.0
 40
3.0
 40
4.0
 40
4.0
 40
4.0
 40
4.0
 10
132.9003304246728
 20
-20.95997475943891
 30
0.0
 10
132.9003304246728
 20
-24.69945612081843
 30
0.0
 10
129.8693334172181
 20
-27.73045312827312
 30
0.0
 10
126.1298520558386
 20
-27.73045312827312
 30
0.0
 10
122.390542949347
 20
-27.73045312827312
 30
0.0
 10
119.3595459418923
 20
-24.69945612081843
 30
0.0
 10
119.3595459418923
 20
-20.95997475943891
 30
0.0
 10
119.3595459418923
 20
-17.22101016272309
 30
0.0
 10
122.390542949347
 20
-14.18932413571681
 30
0.0
 10
126.1298520558386
 20
-14.18932413571681
 30
0.0
 10
129.8693334172181
 20
-14.18932413571681
 30
0.0
 10
132.9003304246728
 20
-17.22101016272309
 30
0.0
 10
132.9003304246728
 20
-20.95997475943891
 30
0.0
  0
HATCH
  5
41
330
1F
100
AcDbEntity
  8
GRAU_10_
 62
   255
100
AcDbHatch
 10
0.0
 20
0.0
 30
0.0
210
0.0
220
0.0
230
1.0
  2
SOLID
 70
     1
 71
     0
 91
        1
 92
        1
 93
        1
 72
     4
 94
        3
 73
     0
 74
     1
 95
       17
 96
       13
 40
0.0
 40
0.0
 40
0.0
 40
0.0
 40
1.0
 40
1.0
 40
1.0
 40
2.0
 40
2.0
 40
2.0
 40
3.0
 40
3.0
 40
3.0
 40
4.0
 40
4.0
 40
4.0
 40
4.0
 10
132.9003304246728
 20
-20.95997475943891
 10
132.9003304246728
 20
-24.69945612081843
 10
129.8693334172181
 20
-27.73045312827312
 10
126.1298520558386
 20
-27.73045312827312
 10
122.390542949347
 20
-27.73045312827312
 10
119.3595459418923
 20
-24.69945612081843
 10
119.3595459418923
 20
-20.95997475943891
 10
119.3595459418923
 20
-17.22101016272309
 10
122.390542949347
 20
-14.18932413571681
 10
126.1298520558386
 20
-14.18932413571681
 10
129.8693334172181
 20
-14.18932413571681
 10
132.9003304246728
 20
-17.22101016272309
 10
132.9003304246728
 20
-20.95997475943891
 97
        0
 75
     0
 76
     1
 98
        0
  0
POLYLINE
  5
43
330
1F
100
AcDbEntity
  8
STANDARDEBENE
 62
     7
100
AcDb2dPolyline
 66
     1
 10
0.0
 20
0.0
 30
0.0
  0
VERTEX
  5
44
330
43
100
AcDbEntity
  8
STANDARDEBENE
 62
     7
100
AcDbVertex
100
AcDb2dVertex
 10
183.1989299458013
 20
14.55312645895756
 30
0.0
  0
VERTEX
  5
45
330
43
100
AcDbEntity
  8
STANDARDEBENE
 62
     7
100
AcDbVertex
100
AcDb2dVertex
 10
170.7883097825201
 20
14.55312645895756
 30
0.0
  0
SEQEND
  5
46
330
43
100
AcDbEntity
  8
STANDARDEBENE
  0
POLYLINE
  5
47
330
1F
100
AcDbEntity
  8
STANDARDEBENE
 62
     7
100
AcDb2dPolyline
 66
     1
 10
0.0
 20
0.0
 30
0.0
  0
VERTEX
  5
48
330
47
100
AcDbEntity
  8
STANDARDEBENE
 62
     7
100
AcDbVertex
100
AcDb2dVertex
 10
107.8437899212416
 20
57.4340859974188
 30
0.0
  0
VERTEX
  5
49
330
47
100
AcDbEntity
  8
STANDARDEBENE
 62
     7
100
AcDbVertex
100
AcDb2dVertex
 10
107.8437899212416
 20
56.93368554807486
 30
0.0
  0
SEQEND
  5
4A
330
47
100
AcDbEntity
  8
STANDARDEBENE
  0
POLYLINE
  5
4B
330
1F
100
AcDbEntity
  8
STANDARDEBENE
 62
     7
100
AcDb2dPolyline
 66
     1
 10
0.0
 20
0.0
 30
0.0
  0
VERTEX
  5
4C
330
4B
100
AcDbEntity
  8
STANDARDEBENE
 62
     7
100
AcDbVertex
100
AcDb2dVertex
 10
107.8437899212416
 20
55.93374592382649
 30
0.0
  0
VERTEX
  5
4D
330
4B
100
AcDbEntity
  8
STANDARDEBENE
 62
     7
100
AcDbVertex
100
AcDb2dVertex
 10
107.8437899212416
 20
54.933978554466
 30
0.0
  0
SEQEND
  5
4E
330
4B
100
AcDbEntity
  8
STANDARDEBENE
  0
POLYLINE
  5
4F
330
1F
100
AcDbEntity
  8
STANDARDEBENE
 62
     7
100
AcDb2dPolyline
 66
     1
 10
0.0
 20
0.0
 30
0.0
  0
VERTEX
  5
50
330
4F
100
AcDbEntity
  8
STANDARDEBENE
 62
     7
100
AcDbVertex
100
AcDb2dVertex
 10
107.8437899212416
 20
53.93369442044182
 30
0.0
  0
VERTEX
  5
51
330
4F
100
AcDbEntity
  8
STANDARDEBENE
 62
     7
100
AcDbVertex
100
AcDb2dVertex
 10
107.8437899212416
 20
52.93392705108134
 30
0.0
  0
SEQEND
  5
52
330
4F
100
AcDbEntity
  8
STANDARDEBENE
  0
POLYLINE
  5
53
330
1F
100
AcDbEntity
  8
STANDARDEBENE
 62
     7
100
AcDb2dPolyline
 66
     1
 10
0.0
 20
0.0
 30
0.0
  0
VERTEX
  5
54
330
53
100
AcDbEntity
  8
STANDARDEBENE
 62
     7
100
AcDbVertex
100
AcDb2dVertex
 10
107.8437899212416
 20
51.93398742683296
 30
0.0
  0
VERTEX
  5
55
330
53
100
AcDbEntity
  8
STANDARDEBENE
 62
     7
100
AcDbVertex
100
AcDb2dVertex
 10
107.8437899212416
 20
50.93353103792089
 30
0.0
  0
SEQEND
  5
56
330
53
100
AcDbEntity
  8
STANDARDEBENE
  0
POLYLINE
  5
57
330
1F
100
AcDbEntity
  8
STANDARDEBENE
 62
     7
100
AcDb2dPolyline
 66
     1
 10
0.0
 20
0.0
 30
0.0
  0
VERTEX
  5
58
330
57
100
AcDbEntity
  8
STANDARDEBENE
 62
     7
100
AcDbVertex
100
AcDb2dVertex
 10
107.8437899212416
 20
49.9339359234483
 30
0.0
  0
VERTEX
  5
59
330
57
100
AcDbEntity
  8
STANDARDEBENE
 62
     7
100
AcDbVertex
100
AcDb2dVertex
 10
107.8437899212416
 20
48.93382404431203
 30
0.0
  0
SEQEND
  5
5A
330
57
100
AcDbEntity
  8
STANDARDEBENE
  0
POLYLINE
  5
5B
330
1F
100
AcDbEntity
  8
STANDARDEBENE
 62
     7
100
AcDb2dPolyline
 66
     1
 10
0.0
 20
0.0
 30
0.0
  0
VERTEX
  5
5C
330
5B
100
AcDbEntity
  8
STANDARDEBENE
 62
     7
100
AcDbVertex
100
AcDb2dVertex
 10
107.8437899212416
 20
47.93388442006365
 30
0.0
  0
VERTEX
  5
5D
330
5B
100
AcDbEntity
  8
STANDARDEBENE
 62
     7
100
AcDbVertex
100
AcDb2dVertex
 10
107.8437899212416
 20
46.93377254092737
 30
0.0
  0
SEQEND
  5
5E
330
5B
100
AcDbEntity
  8
STANDARDEBENE
  0
POLYLINE
  5
5F
330
1F
100
AcDbEntity
  8
STANDARDEBENE
 62
     7
100
AcDb2dPolyline
 66
     1
 10
0.0
 20
0.0
 30
0.0
  0
VERTEX
  5
60
330
5F
100
AcDbEntity
  8
STANDARDEBENE
 62
     7
100
AcDbVertex
100
AcDb2dVertex
 10
107.8437899212416
 20
45.93383291667899
 30
0.0
  0
VERTEX
  5
61
330
5F
100
AcDbEntity
  8
STANDARDEBENE
 62
     7
100
AcDbVertex
100
AcDb2dVertex
 10
107.8437899212416
 20
44.9340655473185
 30
0.0
  0
SEQEND
  5
62
330
5F
100
AcDbEntity
  8
STANDARDEBENE
  0
POLYLINE
  5
63
330
1F
100
AcDbEntity
  8
STANDARDEBENE
 62
     7
100
AcDb2dPolyline
 66
     1
 10
0.0
 20
0.0
 30
0.0
  0
VERTEX
  5
64
330
63
100
AcDbEntity
  8
STANDARDEBENE
 62
     7
100
AcDbVertex
100
AcDb2dVertex
 10
107.8437899212416
 20
43.93343690351853
 30
0.0
  0
VERTEX
  5
65
330
63
100
AcDbEntity
  8
STANDARDEBENE
 62
     7
100
AcDbVertex
100
AcDb2dVertex
 10
107.8437899212416
 20
42.93401404393385
 30
0.0
  0
SEQEND
  5
66
330
63
100
AcDbEntity
  8
STANDARDEBENE
  0
POLYLINE
  5
67
330
1F
100
AcDbEntity
  8
STANDARDEBENE
 62
     7
100
AcDb2dPolyline
 66
     1
 10
0.0
 20
0.0
 30
0.0
  0
VERTEX
  5
68
330
67
100
AcDbEntity
  8
STANDARDEBENE
 62
     7
100
AcDbVertex
100
AcDb2dVertex
 10
107.8437899212416
 20
41.93407441968547
 30
0.0
  0
VERTEX
  5
69
330
67
100
AcDbEntity
  8
STANDARDEBENE
 62
     7
100
AcDbVertex
100
AcDb2dVertex
 10
107.8437899212416
 20
40.9334457758855
 30
0.0
  0
SEQEND
  5
6A
330
67
100
AcDbEntity
  8
STANDARDEBENE
  0
POLYLINE
  5
6B
330
1F
100
AcDbEntity
  8
STANDARDEBENE
 62
     7
100
AcDb2dPolyline
 66
     1
 10
0.0
 20
0.0
 30
0.0
  0
VERTEX
  5
6C
330
6B
100
AcDbEntity
  8
STANDARDEBENE
 62
     7
100
AcDbVertex
100
AcDb2dVertex
 10
107.8437899212416
 20
39.93402291630081
 30
0.0
  0
VERTEX
  5
6D
330
6B
100
AcDbEntity
  8
STANDARDEBENE
 62
     7
100
AcDbVertex
100
AcDb2dVertex
 10
107.8437899212416
 20
38.93373878227663
 30
0.0
  0
SEQEND
  5
6E
330
6B
100
AcDbEntity
  8
STANDARDEBENE
  0
POLYLINE
  5
6F
330
1F
100
AcDbEntity
  8
STANDARDEBENE
 62
     7
100
AcDb2dPolyline
 66
     1
 10
0.0
 20
0.0
 30
0.0
  0
VERTEX
  5
70
330
6F
100
AcDbEntity
  8
STANDARDEBENE
 62
     7
100
AcDbVertex
100
AcDb2dVertex
 10
107.8437899212416
 20
37.93362690314036
 30
0.0
  0
VERTEX
  5
71
330
6F
100
AcDbEntity
  8
STANDARDEBENE
 62
     7
100
AcDbVertex
100
AcDb2dVertex
 10
107.8437899212416
 20
36.93403178866777
 30
0.0
  0
SEQEND
  5
72
330
6F
100
AcDbEntity
  8
STANDARDEBENE
  0
POLYLINE
  5
73
330
1F
100
AcDbEntity
  8
STANDARDEBENE
 62
     7
100
AcDb2dPolyline
 66
     1
 10
0.0
 20
0.0
 30
0.0
  0
VERTEX
  5
74
330
73
100
AcDbEntity
  8
STANDARDEBENE
 62
     7
100
AcDbVertex
100
AcDb2dVertex
 10
107.8437899212416
 20
35.9335753997557
 30
0.0
  0
VERTEX
  5
75
330
73
100
AcDbEntity
  8
STANDARDEBENE
 62
     7
100
AcDbVertex
100
AcDb2dVertex
 10
107.8437899212416
 20
34.93432479505891
 30
0.0
  0
SEQEND
  5
76
330
73
100
AcDbEntity
  8
STANDARDEBENE
  0
POLYLINE
  5
77
330
1F
100
AcDbEntity
  8
STANDARDEBENE
 62
     7
100
AcDb2dPolyline
 66
     1
 10
0.0
 20
0.0
 30
0.0
  0
VERTEX
  5
78
330
77
100
AcDbEntity
  8
STANDARDEBENE
 62
     7
100
AcDbVertex
100
AcDb2dVertex
 10
107.8437899212416
 20
33.93386840614684
 30
0.0
  0
VERTEX
  5
79
330
77
100
AcDbEntity
  8
STANDARDEBENE
 62
     7
100
AcDbVertex
100
AcDb2dVertex
 10
107.8437899212416
 20
32.93358427212266
 30
0.0
  0
SEQEND
  5
7A
330
77
100
AcDbEntity
  8
STANDARDEBENE
  0
POLYLINE
  5
7B
330
1F
100
AcDbEntity
  8
STANDARDEBENE
 62
     7
100
AcDb2dPolyline
 66
     1
 10
0.0
 20
0.0
 30
0.0
  0
VERTEX
  5
7C
330
7B
100
AcDbEntity
  8
STANDARDEBENE
 62
     7
100
AcDbVertex
100
AcDb2dVertex
 10
107.8437899212416
 20
31.93416141253797
 30
0.0
  0
VERTEX
  5
7D
330
7B
100
AcDbEntity
  8
STANDARDEBENE
 62
     7
100
AcDbVertex
100
AcDb2dVertex
 10
107.8437899212416
 20
30.9338772785138
 30
0.0
  0
SEQEND
  5
7E
330
7B
100
AcDbEntity
  8
STANDARDEBENE
  0
POLYLINE
  5
7F
330
1F
100
AcDbEntity
  8
STANDARDEBENE
 62
     7
100
AcDb2dPolyline
 66
     1
 10
0.0
 20
0.0
 30
0.0
  0
VERTEX
  5
80
330
7F
100
AcDbEntity
  8
STANDARDEBENE
 62
     7
100
AcDbVertex
100
AcDb2dVertex
 10
107.8437899212416
 20
29.93410990915331
 30
0.0
  0
VERTEX
  5
81
330
7F
100
AcDbEntity
  8
STANDARDEBENE
 62
     7
100
AcDbVertex
100
AcDb2dVertex
 10
107.8437899212416
 20
28.93382577512914
 30
0.0
  0
SEQEND
  5
82
330
7F
100
AcDbEntity
  8
STANDARDEBENE
  0
POLYLINE
  5
83
330
1F
100
AcDbEntity
  8
STANDARDEBENE
 62
     7
100
AcDb2dPolyline
 66
     1
 10
0.0
 20
0.0
 30
0.0
  0
VERTEX
  5
84
330
83
100
AcDbEntity
  8
STANDARDEBENE
 62
     7
100
AcDbVertex
100
AcDb2dVertex
 10
107.8437899212416
 20
27.93388615088076
 30
0.0
  0
VERTEX
  5
85
330
83
100
AcDbEntity
  8
STANDARDEBENE
 62
     7
100
AcDbVertex
100
AcDb2dVertex
 10
107.8437899212416
 20
26.93411878152028
 30
0.0
  0
SEQEND
  5
86
330
83
100
AcDbEntity
  8
STANDARDEBENE
  0
POLYLINE
  5
87
330
1F
100
AcDbEntity
  8
STANDARDEBENE
 62
     7
100
AcDb2dPolyline
 66
     1
 10
0.0
 20
0.0
 30
0.0
  0
VERTEX
  5
88
330
87
100
AcDbEntity
  8
STANDARDEBENE
 62
     7
100
AcDbVertex
100
AcDb2dVertex
 10
107.8437899212416
 20
25.9338346474961
 30
0.0
  0
VERTEX
  5
89
330
87
100
AcDbEntity
  8
STANDARDEBENE
 62
     7
100
AcDbVertex
100
AcDb2dVertex
 10
107.8437899212416
 20
25.43360645304006
 30
0.0
  0
SEQEND
  5
8A
330
87
100
AcDbEntity
  8
STANDARDEBENE
  0
POLYLINE
  5
8B
330
1F
100
AcDbEntity
  8
STANDARDEBENE
 62
     7
100
AcDb2dPolyline
 66
     1
 10
0.0
 20
0.0
 30
0.0
  0
VERTEX
  5
8C
330
8B
100
AcDbEntity
  8
STANDARDEBENE
 62
     7
100
AcDbVertex
100
AcDb2dVertex
 10
115.8434791701166
 20
57.4340859974188
 30
0.0
  0
VERTEX
  5
8D
330
8B
100
AcDbEntity
  8
STANDARDEBENE
 62
     7
100
AcDbVertex
100
AcDb2dVertex
 10
115.8434791701166
 20
56.93368554807486
 30
0.0
  0
SEQEND
  5
8E
330
8B
100
AcDbEntity
  8
STANDARDEBENE
  0
POLYLINE
  5
8F
330
1F
100
AcDbEntity
  8
STANDARDEBENE
 62
     7
100
AcDb2dPolyline
 66
     1
 10
0.0
 20
0.0
 30
0.0
  0
VERTEX
  5
90
330
8F
100
AcDbEntity
  8
STANDARDEBENE
 62
     7
100
AcDbVertex
100
AcDb2dVertex
 10
115.8434791701166
 20
55.93374592382649
 30
0.0
  0
VERTEX
  5
91
330
8F
100
AcDbEntity
  8
STANDARDEBENE
 62
     7
100
AcDbVertex
100
AcDb2dVertex
 10
115.8434791701166
 20
54.933978554466
 30
0.0
  0
SEQEND
  5
92
330
8F
100
AcDbEntity
  8
STANDARDEBENE
  0
POLYLINE
  5
93
330
1F
100
AcDbEntity
  8
STANDARDEBENE
 62
     7
100
AcDb2dPolyline
 66
     1
 10
0.0
 20
0.0
 30
0.0
  0
VERTEX
  5
94
330
93
100
AcDbEntity
  8
STANDARDEBENE
 62
     7
100
AcDbVertex
100
AcDb2dVertex
 10
115.8434791701166
 20
53.93369442044182
 30
0.0
  0
VERTEX
  5
95
330
93
100
AcDbEntity
  8
STANDARDEBENE
 62
     7
100
AcDbVertex
100
AcDb2dVertex
 10
115.8434791701166
 20
52.93392705108134
 30
0.0
  0
SEQEND
  5
96
330
93
100
AcDbEntity
  8
STANDARDEBENE
  0
POLYLINE
  5
97
330
1F
100
AcDbEntity
  8
STANDARDEBENE
 62
     7
100
AcDb2dPolyline
 66
     1
 10
0.0
 20
0.0
 30
0.0
  0
VERTEX
  5
98
330
97
100
AcDbEntity
  8
STANDARDEBENE
 62
     7
100
AcDbVertex
100
AcDb2dVertex
 10
115.8434791701166
 20
51.93398742683296
 30
0.0
  0
VERTEX
  5
99
330
97
100
AcDbEntity
  8
STANDARDEBENE
 62
     7
100
AcDbVertex
100
AcDb2dVertex
 10
115.8434791701166
 20
50.93353103792089
 30
0.0
  0
SEQEND
  5
9A
330
97
100
AcDbEntity
  8
STANDARDEBENE
  0
POLYLINE
  5
9B
330
1F
100
AcDbEntity
  8
STANDARDEBENE
 62
     7
100
AcDb2dPolyline
 66
     1
 10
0.0
 20
0.0
 30
0.0
  0
VERTEX
  5
9C
330
9B
100
AcDbEntity
  8
STANDARDEBENE
 62
     7
100
AcDbVertex
100
AcDb2dVertex
 10
115.8434791701166
 20
49.9339359234483
 30
0.0
  0
VERTEX
  5
9D
330
9B
100
AcDbEntity
  8
STANDARDEBENE
 62
     7
100
AcDbVertex
100
AcDb2dVertex
 10
115.8434791701166
 20
48.93382404431203
 30
0.0
  0
SEQEND
  5
9E
330
9B
100
AcDbEntity
  8
STANDARDEBENE
  0
POLYLINE
  5
9F
330
1F
100
AcDbEntity
  8
STANDARDEBENE
 62
     7
100
AcDb2dPolyline
 66
     1
 10
0.0
 20
0.0
 30
0.0
  0
VERTEX
  5
A0
330
9F
100
AcDbEntity
  8
STANDARDEBENE
 62
     7
100
AcDbVertex
100
AcDb2dVertex
 10
115.8434791701166
 20
47.93388442006365
 30
0.0
  0
VERTEX
  5
A1
330
9F
100
AcDbEntity
  8
STANDARDEBENE
 62
     7
100
AcDbVertex
100
AcDb2dVertex
 10
115.8434791701166
 20
46.93377254092737
 30
0.0
  0
SEQEND
  5
A2
330
9F
100
AcDbEntity
  8
STANDARDEBENE
  0
POLYLINE
  5
A3
330
1F
100
AcDbEntity
  8
STANDARDEBENE
 62
     7
100
AcDb2dPolyline
 66
     1
 10
0.0
 20
0.0
 30
0.0
  0
VERTEX
  5
A4
330
A3
100
AcDbEntity
  8
STANDARDEBENE
 62
     7
100
AcDbVertex
100
AcDb2dVertex
 10
115.8434791701166
 20
45.93383291667899
 30
0.0
  0
VERTEX
  5
A5
330
A3
100
AcDbEntity
  8
STANDARDEBENE
 62
     7
100
AcDbVertex
100
AcDb2dVertex
 10
115.8434791701166
 20
44.9340655473185
 30
0.0
  0
SEQEND
  5
A6
330
A3
100
AcDbEntity
  8
STANDARDEBENE
  0
POLYLINE
  5
A7
330
1F
100
AcDbEntity
  8
STANDARDEBENE
 62
     7
100
AcDb2dPolyline
 66
     1
 10
0.0
 20
0.0
 30
0.0
  0
VERTEX
  5
A8
330
A7
100
AcDbEntity
  8
STANDARDEBENE
 62
     7
100
AcDbVertex
100
AcDb2dVertex
 10
115.8434791701166
 20
43.93343690351853
 30
0.0
  0
VERTEX
  5
A9
330
A7
100
AcDbEntity
  8
STANDARDEBENE
 62
     7
100
AcDbVertex
100
AcDb2dVertex
 10
115.8434791701166
 20
42.93401404393385
 30
0.0
  0
SEQEND
  5
AA
330
A7
100
AcDbEntity
  8
STANDARDEBENE
  0
POLYLINE
  5
AB
330
1F
100
AcDbEntity
  8
STANDARDEBENE
 62
     7
100
AcDb2dPolyline
 66
     1
 10
0.0
 20
0.0
 30
0.0
  0
VERTEX
  5
AC
330
AB
100
AcDbEntity
  8
STANDARDEBENE
 62
     7
100
AcDbVertex
100
AcDb2dVertex
 10
115.8434791701166
 20
41.93407441968547
 30
0.0
  0
VERTEX
  5
AD
330
AB
100
AcDbEntity
  8
STANDARDEBENE
 62
     7
100
AcDbVertex
100
AcDb2dVertex
 10
115.8434791701166
 20
40.9334457758855
 30
0.0
  0
SEQEND
  5
AE
330
AB
100
AcDbEntity
  8
STANDARDEBENE
  0
POLYLINE
  5
AF
330
1F
100
AcDbEntity
  8
STANDARDEBENE
 62
     7
100
AcDb2dPolyline
 66
     1
 10
0.0
 20
0.0
 30
0.0
  0
VERTEX
  5
B0
330
AF
100
AcDbEntity
  8
STANDARDEBENE
 62
     7
100
AcDbVertex
100
AcDb2dVertex
 10
115.8434791701166
 20
39.93402291630081
 30
0.0
  0
VERTEX
  5
B1
330
AF
100
AcDbEntity
  8
STANDARDEBENE
 62
     7
100
AcDbVertex
100
AcDb2dVertex
 10
115.8434791701166
 20
38.93373878227663
 30
0.0
  0
SEQEND
  5
B2
330
AF
100
AcDbEntity
  8
STANDARDEBENE
  0
POLYLINE
  5
B3
330
1F
100
AcDbEntity
  8
STANDARDEBENE
 62
     7
100
AcDb2dPolyline
 66
     1
 10
0.0
 20
0.0
 30
0.0
  0
VERTEX
  5
B4
330
B3
100
AcDbEntity
  8
STANDARDEBENE
 62
     7
100
AcDbVertex
100
AcDb2dVertex
 10
115.8434791701166
 20
37.93362690314036
 30
0.0
  0
VERTEX
  5
B5
330
B3
100
AcDbEntity
  8
STANDARDEBENE
 62
     7
100
AcDbVertex
100
AcDb2dVertex
 10
115.8434791701166
 20
36.93403178866777
 30
0.0
  0
SEQEND
  5
B6
330
B3
100
AcDbEntity
  8
STANDARDEBENE
  0
POLYLINE
  5
B7
330
1F
100
AcDbEntity
  8
STANDARDEBENE
 62
     7
100
AcDb2dPolyline
 66
     1
 10
0.0
 20
0.0
 30
0.0
  0
VERTEX
  5
B8
330
B7
100
AcDbEntity
  8
STANDARDEBENE
 62
     7
100
AcDbVertex
100
AcDb2dVertex
 10
115.8434791701166
 20
35.9335753997557
 30
0.0
  0
VERTEX
  5
B9
330
B7
100
AcDbEntity
  8
STANDARDEBENE
 62
     7
100
AcDbVertex
100
AcDb2dVertex
 10
115.8434791701166
 20
34.93432479505891
 30
0.0
  0
SEQEND
  5
BA
330
B7
100
AcDbEntity
  8
STANDARDEBENE
  0
POLYLINE
  5
BB
330
1F
100
AcDbEntity
  8
STANDARDEBENE
 62
     7
100
AcDb2dPolyline
 66
     1
 10
0.0
 20
0.0
 30
0.0
  0
VERTEX
  5
BC
330
BB
100
AcDbEntity
  8
STANDARDEBENE
 62
     7
100
AcDbVertex
100
AcDb2dVertex
 10
115.8434791701166
 20
33.93386840614684
 30
0.0
  0
VERTEX
  5
BD
330
BB
100
AcDbEntity
  8
STANDARDEBENE
 62
     7
100
AcDbVertex
100
AcDb2dVertex
 10
115.8434791701166
 20
32.93358427212266
 30
0.0
  0
SEQEND
  5
BE
330
BB
100
AcDbEntity
  8
STANDARDEBENE
  0
POLYLINE
  5
BF
330
1F
100
AcDbEntity
  8
STANDARDEBENE
 62
     7
100
AcDb2dPolyline
 66
     1
 10
0.0
 20
0.0
 30
0.0
  0
VERTEX
  5
C0
330
BF
100
AcDbEntity
  8
STANDARDEBENE
 62
     7
100
AcDbVertex
100
AcDb2dVertex
 10
115.8434791701166
 20
31.93416141253797
 30
0.0
  0
VERTEX
  5
C1
330
BF
100
AcDbEntity
  8
STANDARDEBENE
 62
     7
100
AcDbVertex
100
AcDb2dVertex
 10
115.8434791701166
 20
30.9338772785138
 30
0.0
  0
SEQEND
  5
C2
330
BF
100
AcDbEntity
  8
STANDARDEBENE
  0
POLYLINE
  5
C3
330
1F
100
AcDbEntity
  8
STANDARDEBENE
 62
     7
100
AcDb2dPolyline
 66
     1
 10
0.0
 20
0.0
 30
0.0
  0
VERTEX
  5
C4
330
C3
100
AcDbEntity
  8
STANDARDEBENE
 62
     7
100
AcDbVertex
100
AcDb2dVertex
 10
115.8434791701166
 20
29.93410990915331
 30
0.0
  0
VERTEX
  5
C5
330
C3
100
AcDbEntity
  8
STANDARDEBENE
 62
     7
100
AcDbVertex
100
AcDb2dVertex
 10
115.8434791701166
 20
28.93382577512914
 30
0.0
  0
SEQEND
  5
C6
330
C3
100
AcDbEntity
  8
STANDARDEBENE
  0
POLYLINE
  5
C7
330
1F
100
AcDbEntity
  8
STANDARDEBENE
 62
     7
100
AcDb2dPolyline
 66
     1
 10
0.0
 20
0.0
 30
0.0
  0
VERTEX
  5
C8
330
C7
100
AcDbEntity
  8
STANDARDEBENE
 62
     7
100
AcDbVertex
100
AcDb2dVertex
 10
115.8434791701166
 20
27.93388615088076
 30
0.0
  0
VERTEX
  5
C9
330
C7
100
AcDbEntity
  8
STANDARDEBENE
 62
     7
100
AcDbVertex
100
AcDb2dVertex
 10
115.8434791701166
 20
26.93411878152028
 30
0.0
  0
SEQEND
  5
CA
330
C7
100
AcDbEntity
  8
STANDARDEBENE
  0
POLYLINE
  5
CB
330
1F
100
AcDbEntity
  8
STANDARDEBENE
 62
     7
100
AcDb2dPolyline
 66
     1
 10
0.0
 20
0.0
 30
0.0
  0
VERTEX
  5
CC
330
CB
100
AcDbEntity
  8
STANDARDEBENE
 62
     7
100
AcDbVertex
100
AcDb2dVertex
 10
115.8434791701166
 20
25.9338346474961
 30
0.0
  0
VERTEX
  5
CD
330
CB
100
AcDbEntity
  8
STANDARDEBENE
 62
     7
100
AcDbVertex
100
AcDb2dVertex
 10
115.8434791701166
 20
25.43360645304006
 30
0.0
  0
VERTEX
  5
CE
330
CB
100
AcDbEntity
  8
STANDARDEBENE
 62
     7
100
AcDbVertex
100
AcDb2dVertex
 10
115.3442845049879
 20
25.43360645304006
 30
0.0
  0
SEQEND
  5
CF
330
CB
100
AcDbEntity
  8
STANDARDEBENE
  0
POLYLINE
  5
D0
330
1F
100
AcDbEntity
  8
STANDARDEBENE
 62
     7
100
AcDb2dPolyline
 66
     1
 10
0.0
 20
0.0
 30
0.0
  0
VERTEX
  5
D1
330
D0
100
AcDbEntity
  8
STANDARDEBENE
 62
     7
100
AcDbVertex
100
AcDb2dVertex
 10
114.3440003709637
 20
25.43360645304006
 30
0.0
  0
VERTEX
  5
D2
330
D0
100
AcDbEntity
  8
STANDARDEBENE
 62
     7
100
AcDbVertex
100
AcDb2dVertex
 10
113.3438884918274
 20
25.43360645304006
 30
0.0
  0
SEQEND
  5
D3
330
D0
100
AcDbEntity
  8
STANDARDEBENE
  0
POLYLINE
  5
D4
330
1F
100
AcDbEntity
  8
STANDARDEBENE
 62
     7
100
AcDb2dPolyline
 66
     1
 10
0.0
 20
0.0
 30
0.0
  0
VERTEX
  5
D5
330
D4
100
AcDbEntity
  8
STANDARDEBENE
 62
     7
100
AcDbVertex
100
AcDb2dVertex
 10
112.3439488675791
 20
25.43360645304006
 30
0.0
  0
VERTEX
  5
D6
330
D4
100
AcDbEntity
  8
STANDARDEBENE
 62
     7
100
AcDbVertex
100
AcDb2dVertex
 10
111.3440092433307
 20
25.43360645304006
 30
0.0
  0
SEQEND
  5
D7
330
D4
100
AcDbEntity
  8
STANDARDEBENE
  0
POLYLINE
  5
D8
330
1F
100
AcDbEntity
  8
STANDARDEBENE
 62
     7
100
AcDb2dPolyline
 66
     1
 10
0.0
 20
0.0
 30
0.0
  0
VERTEX
  5
D9
330
D8
100
AcDbEntity
  8
STANDARDEBENE
 62
     7
100
AcDbVertex
100
AcDb2dVertex
 10
110.3442418739702
 20
25.43360645304006
 30
0.0
  0
VERTEX
  5
DA
330
D8
100
AcDbEntity
  8
STANDARDEBENE
 62
     7
100
AcDbVertex
100
AcDb2dVertex
 10
109.3436132301702
 20
25.43360645304006
 30
0.0
  0
SEQEND
  5
DB
330
D8
100
AcDbEntity
  8
STANDARDEBENE
  0
POLYLINE
  5
DC
330
1F
100
AcDbEntity
  8
STANDARDEBENE
 62
     7
100
AcDb2dPolyline
 66
     1
 10
0.0
 20
0.0
 30
0.0
  0
VERTEX
  5
DD
330
DC
100
AcDbEntity
  8
STANDARDEBENE
 62
     7
100
AcDbVertex
100
AcDb2dVertex
 10
108.3438458608098
 20
25.43360645304006
 30
0.0
  0
VERTEX
  5
DE
330
DC
100
AcDbEntity
  8
STANDARDEBENE
 62
     7
100
AcDbVertex
100
AcDb2dVertex
 10
107.8437899212416
 20
25.43360645304006
 30
0.0
  0
SEQEND
  5
DF
330
DC
100
AcDbEntity
  8
STANDARDEBENE
  0
POLYLINE
  5
E0
330
1F
100
AcDbEntity
  8
STANDARDEBENE
 62
     7
100
AcDb2dPolyline
 66
     1
 10
0.0
 20
0.0
 30
0.0
  0
VERTEX
  5
E1
330
E0
100
AcDbEntity
  8
STANDARDEBENE
 62
     7
100
AcDbVertex
100
AcDb2dVertex
 10
118.0493752645394
 20
14.55312645895756
 30
0.0
  0
VERTEX
  5
E2
330
E0
100
AcDbEntity
  8
STANDARDEBENE
 62
     7
100
AcDbVertex
100
AcDb2dVertex
 10
105.6382383365945
 20
14.55312645895756
 30
0.0
  0
SEQEND
  5
E3
330
E0
100
AcDbEntity
  8
STANDARDEBENE
  0
POLYLINE
  5
E4
330
1F
100
AcDbEntity
  8
STANDARDEBENE
 62
     7
100
AcDb2dPolyline
 66
     1
 10
0.0
 20
0.0
 30
0.0
  0
VERTEX
  5
E5
330
E4
100
AcDbEntity
  8
STANDARDEBENE
 62
     7
100
AcDbVertex
100
AcDb2dVertex
 10
114.230312144951
 20
42.38159261844469
 30
0.0
  0
VERTEX
  5
E6
330
E4
100
AcDbEntity
  8
STANDARDEBENE
 62
     7
100
AcDbVertex
100
AcDb2dVertex
 10
114.1243753888937
 20
43.08439256106887
 30
0.0
  0
VERTEX
  5
E7
330
E4
100
AcDbEntity
  8
STANDARDEBENE
 62
     7
100
AcDbVertex
100
AcDb2dVertex
 10
113.8158668846682
 20
43.72518074404975
 30
0.0
  0
VERTEX
  5
E8
330
E4
100
AcDbEntity
  8
STANDARDEBENE
 62
     7
100
AcDbVertex
100
AcDb2dVertex
 10
113.3320029045625
 20
44.24607952505356
 30
0.0
  0
VERTEX
  5
E9
330
E4
100
AcDbEntity
  8
STANDARDEBENE
 62
     7
100
AcDbVertex
100
AcDb2dVertex
 10
112.7153304058873
 20
44.6017858685631
 30
0.0
  0
VERTEX
  5
EA
330
E4
100
AcDbEntity
  8
STANDARDEBENE
 62
     7
100
AcDbVertex
100
AcDb2dVertex
 10
112.0220044820975
 20
44.75974360076565
 30
0.0
  0
VERTEX
  5
EB
330
E4
100
AcDbEntity
  8
STANDARDEBENE
 62
     7
100
AcDbVertex
100
AcDb2dVertex
 10
111.3126588537332
 20
44.70703360506883
 30
0.0
  0
VERTEX
  5
EC
330
E4
100
AcDbEntity
  8
STANDARDEBENE
 62
     7
100
AcDbVertex
100
AcDb2dVertex
 10
110.6501665548772
 20
44.44710097923062
 30
0.0
  0
VERTEX
  5
ED
330
E4
100
AcDbEntity
  8
STANDARDEBENE
 62
     7
100
AcDbVertex
100
AcDb2dVertex
 10
110.0946445414059
 20
44.00388915266885
 30
0.0
  0
VERTEX
  5
EE
330
E4
100
AcDbEntity
  8
STANDARDEBENE
 62
     7
100
AcDbVertex
100
AcDb2dVertex
 10
109.693807417267
 20
43.41632773004849
 30
0.0
  0
VERTEX
  5
EF
330
E4
100
AcDbEntity
  8
STANDARDEBENE
 62
     7
100
AcDbVertex
100
AcDb2dVertex
 10
109.4838287089193
 20
42.73747121684213
 30
0.0
  0
VERTEX
  5
F0
330
E4
100
AcDbEntity
  8
STANDARDEBENE
 62
     7
100
AcDbVertex
100
AcDb2dVertex
 10
109.4838287089193
 20
42.02554176515935
 30
0.0
  0
VERTEX
  5
F1
330
E4
100
AcDbEntity
  8
STANDARDEBENE
 62
     7
100
AcDbVertex
100
AcDb2dVertex
 10
109.693807417267
 20
41.3465129970651
 30
0.0
  0
VERTEX
  5
F2
330
E4
100
AcDbEntity
  8
STANDARDEBENE
 62
     7
100
AcDbVertex
100
AcDb2dVertex
 10
110.0946445414059
 20
40.75895157444474
 30
0.0
  0
VERTEX
  5
F3
330
E4
100
AcDbEntity
  8
STANDARDEBENE
 62
     7
100
AcDbVertex
100
AcDb2dVertex
 10
110.6501665548772
 20
40.31573974788297
 30
0.0
  0
VERTEX
  5
F4
330
E4
100
AcDbEntity
  8
STANDARDEBENE
 62
     7
100
AcDbVertex
100
AcDb2dVertex
 10
111.3126588537332
 20
40.05649614159635
 30
0.0
  0
VERTEX
  5
F5
330
E4
100
AcDbEntity
  8
STANDARDEBENE
 62
     7
100
AcDbVertex
100
AcDb2dVertex
 10
112.0220044820975
 20
40.00326938123584
 30
0.0
  0
VERTEX
  5
F6
330
E4
100
AcDbEntity
  8
STANDARDEBENE
 62
     7
100
AcDbVertex
100
AcDb2dVertex
 10
112.7153304058873
 20
40.16139936832628
 30
0.0
  0
VERTEX
  5
F7
330
E4
100
AcDbEntity
  8
STANDARDEBENE
 62
     7
100
AcDbVertex
100
AcDb2dVertex
 10
113.3320029045625
 20
40.51658894717213
 30
0.0
  0
VERTEX
  5
F8
330
E4
100
AcDbEntity
  8
STANDARDEBENE
 62
     7
100
AcDbVertex
100
AcDb2dVertex
 10
113.8158668846682
 20
41.03800449283963
 30
0.0
  0
VERTEX
  5
F9
330
E4
100
AcDbEntity
  8
STANDARDEBENE
 62
     7
100
AcDbVertex
100
AcDb2dVertex
 10
114.1243753888937
 20
41.67844816604471
 30
0.0
  0
VERTEX
  5
FA
330
E4
100
AcDbEntity
  8
STANDARDEBENE
 62
     7
100
AcDbVertex
100
AcDb2dVertex
 10
114.230312144951
 20
42.38159261844469
 30
0.0
  0
SEQEND
  5
FB
330
E4
100
AcDbEntity
  8
STANDARDEBENE
  0
POLYLINE
  5
FC
330
1F
100
AcDbEntity
  8
STANDARDEBENE
 62
     7
100
AcDb2dPolyline
 66
     1
 10
0.0
 20
0.0
 30
0.0
  0
VERTEX
  5
FD
330
FC
100
AcDbEntity
  8
STANDARDEBENE
 62
     7
100
AcDbVertex
100
AcDb2dVertex
 10
111.2515083685294
 20
41.00424253481161
 30
0.0
  0
VERTEX
  5
FE
330
FC
100
AcDbEntity
  8
STANDARDEBENE
 62
     7
100
AcDbVertex
100
AcDb2dVertex
 10
111.0944119107664
 20
41.08313527346893
 30
0.0
  0
VERTEX
  5
FF
330
FC
100
AcDbEntity
  8
STANDARDEBENE
 62
     7
100
AcDbVertex
100
AcDb2dVertex
 10
110.946272707174
 20
41.18080379490714
 30
0.0
  0
VERTEX
  5
100
330
FC
100
AcDbEntity
  8
STANDARDEBENE
 62
     7
100
AcDbVertex
100
AcDb2dVertex
 10
110.3545771672441
 20
41.52186847294535
 30
0.0
  0
VERTEX
  5
101
330
FC
100
AcDbEntity
  8
STANDARDEBENE
 62
     7
100
AcDbVertex
100
AcDb2dVertex
 10
110.3545771672441
 20
42.20520361323705
 30
0.0
  0
VERTEX
  5
102
330
FC
100
AcDbEntity
  8
STANDARDEBENE
 62
     7
100
AcDbVertex
100
AcDb2dVertex
 10
110.3442418739702
 20
42.38159261844469
 30
0.0
  0
VERTEX
  5
103
330
FC
100
AcDbEntity
  8
STANDARDEBENE
 62
     7
100
AcDbVertex
100
AcDb2dVertex
 10
110.3545771672441
 20
42.55798162365233
 30
0.0
  0
VERTEX
  5
104
330
FC
100
AcDbEntity
  8
STANDARDEBENE
 62
     7
100
AcDbVertex
100
AcDb2dVertex
 10
110.3545771672441
 20
43.253202351209
 30
0.0
  0
VERTEX
  5
105
330
FC
100
AcDbEntity
  8
STANDARDEBENE
 62
     7
100
AcDbVertex
100
AcDb2dVertex
 10
111.8544004761727
 20
44.11861090800898
 30
0.0
  0
SEQEND
  5
106
330
FC
100
AcDbEntity
  8
STANDARDEBENE
  0
POLYLINE
  5
107
330
1F
100
AcDbEntity
  8
STANDARDEBENE
 62
     7
100
AcDb2dPolyline
 66
     1
 10
0.0
 20
0.0
 30
0.0
  0
VERTEX
  5
108
330
107
100
AcDbEntity
  8
STANDARDEBENE
 62
     7
100
AcDbVertex
100
AcDb2dVertex
 10
113.3542237851013
 20
43.253202351209
 30
0.0
  0
VERTEX
  5
109
330
107
100
AcDbEntity
  8
STANDARDEBENE
 62
     7
100
AcDbVertex
100
AcDb2dVertex
 10
111.8544004761727
 20
44.11861090800898
 30
0.0
  0
SEQEND
  5
10A
330
107
100
AcDbEntity
  8
STANDARDEBENE
  0
POLYLINE
  5
10B
330
1F
100
AcDbEntity
  8
STANDARDEBENE
 62
     7
100
AcDb2dPolyline
 66
     1
 10
0.0
 20
0.0
 30
0.0
  0
VERTEX
  5
10C
330
10B
100
AcDbEntity
  8
STANDARDEBENE
 62
     7
100
AcDbVertex
100
AcDb2dVertex
 10
113.3542237851013
 20
41.52186847294535
 30
0.0
  0
VERTEX
  5
10D
330
10B
100
AcDbEntity
  8
STANDARDEBENE
 62
     7
100
AcDbVertex
100
AcDb2dVertex
 10
113.3542237851013
 20
43.253202351209
 30
0.0
  0
SEQEND
  5
10E
330
10B
100
AcDbEntity
  8
STANDARDEBENE
  0
POLYLINE
  5
10F
330
1F
100
AcDbEntity
  8
STANDARDEBENE
 62
     7
100
AcDb2dPolyline
 66
     1
 10
0.0
 20
0.0
 30
0.0
  0
VERTEX
  5
110
330
10F
100
AcDbEntity
  8
STANDARDEBENE
 62
     7
100
AcDbVertex
100
AcDb2dVertex
 10
111.8544004761727
 20
40.65663217103327
 30
0.0
  0
VERTEX
  5
111
330
10F
100
AcDbEntity
  8
STANDARDEBENE
 62
     7
100
AcDbVertex
100
AcDb2dVertex
 10
113.3542237851013
 20
41.52186847294535
 30
0.0
  0
SEQEND
  5
112
330
10F
100
AcDbEntity
  8
STANDARDEBENE
  0
POLYLINE
  5
113
330
1F
100
AcDbEntity
  8
STANDARDEBENE
 62
     7
100
AcDb2dPolyline
 66
     1
 10
0.0
 20
0.0
 30
0.0
  0
VERTEX
  5
114
330
113
100
AcDbEntity
  8
STANDARDEBENE
 62
     7
100
AcDbVertex
100
AcDb2dVertex
 10
111.8544004761727
 20
40.65663217103327
 30
0.0
  0
VERTEX
  5
115
330
113
100
AcDbEntity
  8
STANDARDEBENE
 62
     7
100
AcDbVertex
100
AcDb2dVertex
 10
111.2515083685294
 20
41.00424253481161
 30
0.0
  0
SEQEND
  5
116
330
113
100
AcDbEntity
  8
STANDARDEBENE
  0
POLYLINE
  5
117
330
1F
100
AcDbEntity
  8
STANDARDEBENE
 62
     7
100
AcDb2dPolyline
 66
     1
 10
0.0
 20
0.0
 30
0.0
  0
VERTEX
  5
118
330
117
100
AcDbEntity
  8
STANDARDEBENE
 62
     7
100
AcDbVertex
100
AcDb2dVertex
 10
110.3454476581855
 20
42.31337968283705
 30
0.0
  0
VERTEX
  5
119
330
117
100
AcDbEntity
  8
STANDARDEBENE
 62
     7
100
AcDbVertex
100
AcDb2dVertex
 10
110.4817012745129
 20
42.87303581361792
 30
0.0
  0
VERTEX
  5
11A
330
117
100
AcDbEntity
  8
STANDARDEBENE
 62
     7
100
AcDbVertex
100
AcDb2dVertex
 10
110.8205266390084
 20
43.34036332448543
 30
0.0
  0
VERTEX
  5
11B
330
117
100
AcDbEntity
  8
STANDARDEBENE
 62
     7
100
AcDbVertex
100
AcDb2dVertex
 10
111.3095582657511
 20
43.64508222117714
 30
0.0
  0
VERTEX
  5
11C
330
117
100
AcDbEntity
  8
STANDARDEBENE
 62
     7
100
AcDbVertex
100
AcDb2dVertex
 10
111.8785161604784
 20
43.74309525239115
 30
0.0
  0
VERTEX
  5
11D
330
117
100
AcDbEntity
  8
STANDARDEBENE
 62
     7
100
AcDbVertex
100
AcDb2dVertex
 10
112.4416173890173
 20
43.61941624288033
 30
0.0
  0
VERTEX
  5
11E
330
117
100
AcDbEntity
  8
STANDARDEBENE
 62
     7
100
AcDbVertex
100
AcDb2dVertex
 10
112.917040879616
 20
43.29178744609817
 30
0.0
  0
VERTEX
  5
11F
330
117
100
AcDbEntity
  8
STANDARDEBENE
 62
     7
100
AcDbVertex
100
AcDb2dVertex
 10
113.2327840891332
 20
42.80981826975933
 30
0.0
  0
VERTEX
  5
120
330
117
100
AcDbEntity
  8
STANDARDEBENE
 62
     7
100
AcDbVertex
100
AcDb2dVertex
 10
113.3438884918274
 20
42.24413321790202
 30
0.0
  0
SEQEND
  5
121
330
117
100
AcDbEntity
  8
STANDARDEBENE
  0
POLYLINE
  5
122
330
1F
100
AcDbEntity
  8
STANDARDEBENE
 62
     7
100
AcDb2dPolyline
 66
     1
 10
0.0
 20
0.0
 30
0.0
  0
VERTEX
  5
123
330
122
100
AcDbEntity
  8
STANDARDEBENE
 62
     7
100
AcDbVertex
100
AcDb2dVertex
 10
111.6540680415472
 20
40.77238745570079
 30
0.0
  0
VERTEX
  5
124
330
122
100
AcDbEntity
  8
STANDARDEBENE
 62
     7
100
AcDbVertex
100
AcDb2dVertex
 10
111.8578455739307
 20
40.76015735866002
 30
0.0
  0
VERTEX
  5
125
330
122
100
AcDbEntity
  8
STANDARDEBENE
 62
     7
100
AcDbVertex
100
AcDb2dVertex
 10
112.0611063416504
 20
40.77583255345875
 30
0.0
  0
SEQEND
  5
126
330
122
100
AcDbEntity
  8
STANDARDEBENE
  0
POLYLINE
  5
127
330
1F
100
AcDbEntity
  8
STANDARDEBENE
 62
     7
100
AcDb2dPolyline
 66
     1
 10
0.0
 20
0.0
 30
0.0
  0
VERTEX
  5
128
330
127
100
AcDbEntity
  8
STANDARDEBENE
 62
     7
100
AcDbVertex
100
AcDb2dVertex
 10
113.0203938123548
 20
41.3289429984995
 30
0.0
  0
VERTEX
  5
129
330
127
100
AcDbEntity
  8
STANDARDEBENE
 62
     7
100
AcDbVertex
100
AcDb2dVertex
 10
113.2875611434848
 20
41.85294236748547
 30
0.0
  0
VERTEX
  5
12A
330
127
100
AcDbEntity
  8
STANDARDEBENE
 62
     7
100
AcDbVertex
100
AcDb2dVertex
 10
113.3326919241141
 20
42.43947026077845
 30
0.0
  0
VERTEX
  5
12B
330
127
100
AcDbEntity
  8
STANDARDEBENE
 62
     7
100
AcDbVertex
100
AcDb2dVertex
 10
113.1494127233905
 20
42.99757609756824
 30
0.0
  0
VERTEX
  5
12C
330
127
100
AcDbEntity
  8
STANDARDEBENE
 62
     7
100
AcDbVertex
100
AcDb2dVertex
 10
112.764939813602
 20
43.44337174744848
 30
0.0
  0
VERTEX
  5
12D
330
127
100
AcDbEntity
  8
STANDARDEBENE
 62
     7
100
AcDbVertex
100
AcDb2dVertex
 10
112.2387011310733
 20
43.70606045149307
 30
0.0
  0
VERTEX
  5
12E
330
127
100
AcDbEntity
  8
STANDARDEBENE
 62
     7
100
AcDbVertex
100
AcDb2dVertex
 10
111.6514842182288
 20
43.74585133059752
 30
0.0
  0
VERTEX
  5
12F
330
127
100
AcDbEntity
  8
STANDARDEBENE
 62
     7
100
AcDbVertex
100
AcDb2dVertex
 10
111.0944119107664
 20
43.55740448323701
 30
0.0
  0
VERTEX
  5
130
330
127
100
AcDbEntity
  8
STANDARDEBENE
 62
     7
100
AcDbVertex
100
AcDb2dVertex
 10
110.591427638104
 20
43.08404805129308
 30
0.0
  0
VERTEX
  5
131
330
127
100
AcDbEntity
  8
STANDARDEBENE
 62
     7
100
AcDbVertex
100
AcDb2dVertex
 10
110.3545771672441
 20
42.43585290813259
 30
0.0
  0
SEQEND
  5
132
330
127
100
AcDbEntity
  8
STANDARDEBENE
  0
POLYLINE
  5
133
330
1F
100
AcDbEntity
  8
STANDARDEBENE
 62
     7
100
AcDb2dPolyline
 66
     1
 10
0.0
 20
0.0
 30
0.0
  0
VERTEX
  5
134
330
133
100
AcDbEntity
  8
STANDARDEBENE
 62
     7
100
AcDbVertex
100
AcDb2dVertex
 10
110.3545771672441
 20
42.55798162365233
 30
0.0
  0
VERTEX
  5
135
330
133
100
AcDbEntity
  8
STANDARDEBENE
 62
     7
100
AcDbVertex
100
AcDb2dVertex
 10
110.3545771672441
 20
42.43585290813259
 30
0.0
  0
SEQEND
  5
136
330
133
100
AcDbEntity
  8
STANDARDEBENE
  0
POLYLINE
  5
137
330
1F
100
AcDbEntity
  8
STANDARDEBENE
 62
     7
100
AcDb2dPolyline
 66
     1
 10
0.0
 20
0.0
 30
0.0
  0
VERTEX
  5
138
330
137
100
AcDbEntity
  8
STANDARDEBENE
 62
     7
100
AcDbVertex
100
AcDb2dVertex
 10
110.3545771672441
 20
42.08290264282941
 30
0.0
  0
VERTEX
  5
139
330
137
100
AcDbEntity
  8
STANDARDEBENE
 62
     7
100
AcDbVertex
100
AcDb2dVertex
 10
110.4529347082339
 20
41.6970516939377
 30
0.0
  0
VERTEX
  5
13A
330
137
100
AcDbEntity
  8
STANDARDEBENE
 62
     7
100
AcDbVertex
100
AcDb2dVertex
 10
110.6501665548772
 20
41.35081936926255
 30
0.0
  0
SEQEND
  5
13B
330
137
100
AcDbEntity
  8
STANDARDEBENE
  0
POLYLINE
  5
13C
330
1F
100
AcDbEntity
  8
STANDARDEBENE
 62
     7
100
AcDb2dPolyline
 66
     1
 10
0.0
 20
0.0
 30
0.0
  0
VERTEX
  5
13D
330
13C
100
AcDbEntity
  8
STANDARDEBENE
 62
     7
100
AcDbVertex
100
AcDb2dVertex
 10
111.0944119107664
 20
43.55740448323701
 30
0.0
  0
VERTEX
  5
13E
330
13C
100
AcDbEntity
  8
STANDARDEBENE
 62
     7
100
AcDbVertex
100
AcDb2dVertex
 10
110.3545771672441
 20
43.13107363568925
 30
0.0
  0
SEQEND
  5
13F
330
13C
100
AcDbEntity
  8
STANDARDEBENE
  0
POLYLINE
  5
140
330
1F
100
AcDbEntity
  8
STANDARDEBENE
 62
     7
100
AcDb2dPolyline
 66
     1
 10
0.0
 20
0.0
 30
0.0
  0
VERTEX
  5
141
330
140
100
AcDbEntity
  8
STANDARDEBENE
 62
     7
100
AcDbVertex
100
AcDb2dVertex
 10
111.8544004761727
 20
43.99648219248923
 30
0.0
  0
VERTEX
  5
142
330
140
100
AcDbEntity
  8
STANDARDEBENE
 62
     7
100
AcDbVertex
100
AcDb2dVertex
 10
113.3542237851013
 20
43.13107363568925
 30
0.0
  0
SEQEND
  5
143
330
140
100
AcDbEntity
  8
STANDARDEBENE
  0
POLYLINE
  5
144
330
1F
100
AcDbEntity
  8
STANDARDEBENE
 62
     7
100
AcDb2dPolyline
 66
     1
 10
0.0
 20
0.0
 30
0.0
  0
VERTEX
  5
145
330
144
100
AcDbEntity
  8
STANDARDEBENE
 62
     7
100
AcDbVertex
100
AcDb2dVertex
 10
111.8544004761727
 20
43.99648219248923
 30
0.0
  0
VERTEX
  5
146
330
144
100
AcDbEntity
  8
STANDARDEBENE
 62
     7
100
AcDbVertex
100
AcDb2dVertex
 10
111.0944119107664
 20
43.55740448323701
 30
0.0
  0
SEQEND
  5
147
330
144
100
AcDbEntity
  8
STANDARDEBENE
  0
POLYLINE
  5
148
330
1F
100
AcDbEntity
  8
STANDARDEBENE
 62
     7
100
AcDb2dPolyline
 66
     1
 10
0.0
 20
0.0
 30
0.0
  0
VERTEX
  5
149
330
148
100
AcDbEntity
  8
STANDARDEBENE
 62
     7
100
AcDbVertex
100
AcDb2dVertex
 10
111.8544004761727
 20
44.11861090800898
 30
0.0
  0
VERTEX
  5
14A
330
148
100
AcDbEntity
  8
STANDARDEBENE
 62
     7
100
AcDbVertex
100
AcDb2dVertex
 10
111.8544004761727
 20
43.99648219248923
 30
0.0
  0
SEQEND
  5
14B
330
148
100
AcDbEntity
  8
STANDARDEBENE
  0
POLYLINE
  5
14C
330
1F
100
AcDbEntity
  8
STANDARDEBENE
 62
     7
100
AcDb2dPolyline
 66
     1
 10
0.0
 20
0.0
 30
0.0
  0
VERTEX
  5
14D
330
14C
100
AcDbEntity
  8
STANDARDEBENE
 62
     7
100
AcDbVertex
100
AcDb2dVertex
 10
109.560309879146
 20
-36.92576355404866
 30
0.0
  0
VERTEX
  5
14E
330
14C
100
AcDbEntity
  8
STANDARDEBENE
 62
     7
100
AcDbVertex
100
AcDb2dVertex
 10
109.84435818929
 20
-37.20929509952891
 30
0.0
  0
SEQEND
  5
14F
330
14C
100
AcDbEntity
  8
STANDARDEBENE
  0
POLYLINE
  5
150
330
1F
100
AcDbEntity
  8
STANDARDEBENE
 62
     7
100
AcDb2dPolyline
 66
     1
 10
0.0
 20
0.0
 30
0.0
  0
VERTEX
  5
151
330
150
100
AcDbEntity
  8
STANDARDEBENE
 62
     7
100
AcDbVertex
100
AcDb2dVertex
 10
113.8434276667319
 20
-37.20929509952891
 30
0.0
  0
VERTEX
  5
152
330
150
100
AcDbEntity
  8
STANDARDEBENE
 62
     7
100
AcDbVertex
100
AcDb2dVertex
 10
114.1278204866516
 20
-36.92576355404866
 30
0.0
  0
SEQEND
  5
153
330
150
100
AcDbEntity
  8
STANDARDEBENE
  0
POLYLINE
  5
154
330
1F
100
AcDbEntity
  8
STANDARDEBENE
 62
     7
100
AcDb2dPolyline
 66
     1
 10
0.0
 20
0.0
 30
0.0
  0
VERTEX
  5
155
330
154
100
AcDbEntity
  8
STANDARDEBENE
 62
     7
100
AcDbVertex
100
AcDb2dVertex
 10
114.1254089182211
 20
-43.49522046870581
 30
0.0
  0
VERTEX
  5
156
330
154
100
AcDbEntity
  8
STANDARDEBENE
 62
     7
100
AcDbVertex
100
AcDb2dVertex
 10
113.8429109020682
 20
-43.21306696232875
 30
0.0
  0
SEQEND
  5
157
330
154
100
AcDbEntity
  8
STANDARDEBENE
  0
POLYLINE
  5
158
330
1F
100
AcDbEntity
  8
STANDARDEBENE
 62
     7
100
AcDb2dPolyline
 66
     1
 10
0.0
 20
0.0
 30
0.0
  0
VERTEX
  5
159
330
158
100
AcDbEntity
  8
STANDARDEBENE
 62
     7
100
AcDbVertex
100
AcDb2dVertex
 10
109.8453917186173
 20
-43.21306696232875
 30
0.0
  0
VERTEX
  5
15A
330
158
100
AcDbEntity
  8
STANDARDEBENE
 62
     7
100
AcDbVertex
100
AcDb2dVertex
 10
109.5628937024645
 20
-43.49522046870581
 30
0.0
  0
SEQEND
  5
15B
330
158
100
AcDbEntity
  8
STANDARDEBENE
  0
POLYLINE
  5
15C
330
1F
100
AcDbEntity
  8
STANDARDEBENE
 62
     7
100
AcDb2dPolyline
 66
     1
 10
0.0
 20
0.0
 30
0.0
  0
VERTEX
  5
15D
330
15C
100
AcDbEntity
  8
STANDARDEBENE
 62
     7
100
AcDbVertex
100
AcDb2dVertex
 10
113.8434276667319
 20
-37.20929509952891
 30
0.0
  0
VERTEX
  5
15E
330
15C
100
AcDbEntity
  8
STANDARDEBENE
 62
     7
100
AcDbVertex
100
AcDb2dVertex
 10
113.7228492452032
 20
-37.20929509952891
 30
0.0
  0
VERTEX
  5
15F
330
15C
100
AcDbEntity
  8
STANDARDEBENE
 62
     7
100
AcDbVertex
100
AcDb2dVertex
 10
113.3755833912007
 20
-37.20929509952891
 30
0.0
  0
VERTEX
  5
160
330
15C
100
AcDbEntity
  8
STANDARDEBENE
 62
     7
100
AcDbVertex
100
AcDb2dVertex
 10
112.8441770620351
 20
-37.20929509952891
 30
0.0
  0
VERTEX
  5
161
330
15C
100
AcDbEntity
  8
STANDARDEBENE
 62
     7
100
AcDbVertex
100
AcDb2dVertex
 10
112.1911587820135
 20
-37.20929509952891
 30
0.0
  0
VERTEX
  5
162
330
15C
100
AcDbEntity
  8
STANDARDEBENE
 62
     7
100
AcDbVertex
100
AcDb2dVertex
 10
111.4964548191205
 20
-37.20929509952891
 30
0.0
  0
VERTEX
  5
163
330
15C
100
AcDbEntity
  8
STANDARDEBENE
 62
     7
100
AcDbVertex
100
AcDb2dVertex
 10
110.8437810488746
 20
-37.20929509952891
 30
0.0
  0
VERTEX
  5
164
330
15C
100
AcDbEntity
  8
STANDARDEBENE
 62
     7
100
AcDbVertex
100
AcDb2dVertex
 10
110.3123747197091
 20
-37.20929509952891
 30
0.0
  0
VERTEX
  5
165
330
15C
100
AcDbEntity
  8
STANDARDEBENE
 62
     7
100
AcDbVertex
100
AcDb2dVertex
 10
109.9645921010428
 20
-37.20929509952891
 30
0.0
  0
VERTEX
  5
166
330
15C
100
AcDbEntity
  8
STANDARDEBENE
 62
     7
100
AcDbVertex
100
AcDb2dVertex
 10
109.84435818929
 20
-37.20929509952891
 30
0.0
  0
SEQEND
  5
167
330
15C
100
AcDbEntity
  8
STANDARDEBENE
  0
POLYLINE
  5
168
330
1F
100
AcDbEntity
  8
STANDARDEBENE
 62
     7
100
AcDb2dPolyline
 66
     1
 10
0.0
 20
0.0
 30
0.0
  0
VERTEX
  5
169
330
168
100
AcDbEntity
  8
STANDARDEBENE
 62
     7
100
AcDbVertex
100
AcDb2dVertex
 10
109.8453917186173
 20
-43.21306696232875
 30
0.0
  0
VERTEX
  5
16A
330
168
100
AcDbEntity
  8
STANDARDEBENE
 62
     7
100
AcDbVertex
100
AcDb2dVertex
 10
109.9837123935995
 20
-43.1899848073504
 30
0.0
  0
VERTEX
  5
16B
330
168
100
AcDbEntity
  8
STANDARDEBENE
 62
     7
100
AcDbVertex
100
AcDb2dVertex
 10
110.3370071686785
 20
-43.16931422080263
 30
0.0
  0
VERTEX
  5
16C
330
168
100
AcDbEntity
  8
STANDARDEBENE
 62
     7
100
AcDbVertex
100
AcDb2dVertex
 10
110.8644516354224
 20
-43.1545003004434
 30
0.0
  0
VERTEX
  5
16D
330
168
100
AcDbEntity
  8
STANDARDEBENE
 62
     7
100
AcDbVertex
100
AcDb2dVertex
 10
111.5043785439638
 20
-43.14623206582429
 30
0.0
  0
VERTEX
  5
16E
330
168
100
AcDbEntity
  8
STANDARDEBENE
 62
     7
100
AcDbVertex
100
AcDb2dVertex
 10
112.1832350571702
 20
-43.14623206582429
 30
0.0
  0
VERTEX
  5
16F
330
168
100
AcDbEntity
  8
STANDARDEBENE
 62
     7
100
AcDbVertex
100
AcDb2dVertex
 10
112.8236787303752
 20
-43.1545003004434
 30
0.0
  0
VERTEX
  5
170
330
168
100
AcDbEntity
  8
STANDARDEBENE
 62
     7
100
AcDbVertex
100
AcDb2dVertex
 10
113.3511231971192
 20
-43.16931422080263
 30
0.0
  0
VERTEX
  5
171
330
168
100
AcDbEntity
  8
STANDARDEBENE
 62
     7
100
AcDbVertex
100
AcDb2dVertex
 10
113.7040734624223
 20
-43.1899848073504
 30
0.0
  0
VERTEX
  5
172
330
168
100
AcDbEntity
  8
STANDARDEBENE
 62
     7
100
AcDbVertex
100
AcDb2dVertex
 10
113.8429109020682
 20
-43.21306696232875
 30
0.0
  0
SEQEND
  5
173
330
168
100
AcDbEntity
  8
STANDARDEBENE
  0
POLYLINE
  5
174
330
1F
100
AcDbEntity
  8
STANDARDEBENE
 62
     7
100
AcDb2dPolyline
 66
     1
 10
0.0
 20
0.0
 30
0.0
  0
VERTEX
  5
175
330
174
100
AcDbEntity
  8
STANDARDEBENE
 62
     7
100
AcDbVertex
100
AcDb2dVertex
 10
112.7103350141383
 20
-44.11396002603573
 30
0.0
  0
VERTEX
  5
176
330
174
100
AcDbEntity
  8
STANDARDEBENE
 62
     7
100
AcDbVertex
100
AcDb2dVertex
 10
111.843720673123
 20
-44.10982590872617
 30
0.0
  0
VERTEX
  5
177
330
174
100
AcDbEntity
  8
STANDARDEBENE
 62
     7
100
AcDbVertex
100
AcDb2dVertex
 10
110.9772785869957
 20
-44.11396002603573
 30
0.0
  0
SEQEND
  5
178
330
174
100
AcDbEntity
  8
STANDARDEBENE
  0
POLYLINE
  5
179
330
1F
100
AcDbEntity
  8
STANDARDEBENE
 62
     7
100
AcDb2dPolyline
 66
     1
 10
0.0
 20
0.0
 30
0.0
  0
VERTEX
  5
17A
330
179
100
AcDbEntity
  8
STANDARDEBENE
 62
     7
100
AcDbVertex
100
AcDb2dVertex
 10
189.4941570789247
 20
56.43345735361883
 30
0.0
  0
VERTEX
  5
17B
330
179
100
AcDbEntity
  8
STANDARDEBENE
 62
     7
100
AcDbVertex
100
AcDb2dVertex
 10
188.4937006900126
 20
57.4340859974188
 30
0.0
  0
SEQEND
  5
17C
330
179
100
AcDbEntity
  8
STANDARDEBENE
  0
POLYLINE
  5
17D
330
1F
100
AcDbEntity
  8
STANDARDEBENE
 62
     7
100
AcDb2dPolyline
 66
     1
 10
0.0
 20
0.0
 30
0.0
  0
VERTEX
  5
17E
330
17D
100
AcDbEntity
  8
STANDARDEBENE
 62
     7
100
AcDbVertex
100
AcDb2dVertex
 10
165.4935390383088
 20
57.4340859974188
 30
0.0
  0
VERTEX
  5
17F
330
17D
100
AcDbEntity
  8
STANDARDEBENE
 62
     7
100
AcDbVertex
100
AcDb2dVertex
 10
164.4932549042846
 20
56.43345735361883
 30
0.0
  0
SEQEND
  5
180
330
17D
100
AcDbEntity
  8
STANDARDEBENE
  0
POLYLINE
  5
181
330
1F
100
AcDbEntity
  8
STANDARDEBENE
 62
     7
100
AcDb2dPolyline
 66
     1
 10
0.0
 20
0.0
 30
0.0
  0
VERTEX
  5
182
330
181
100
AcDbEntity
  8
STANDARDEBENE
 62
     7
100
AcDbVertex
100
AcDb2dVertex
 10
189.4941570789247
 20
45.92504791739618
 30
0.0
  0
VERTEX
  5
183
330
181
100
AcDbEntity
  8
STANDARDEBENE
 62
     7
100
AcDbVertex
100
AcDb2dVertex
 10
189.4941570789247
 20
56.43345735361883
 30
0.0
  0
SEQEND
  5
184
330
181
100
AcDbEntity
  8
STANDARDEBENE
  0
POLYLINE
  5
185
330
1F
100
AcDbEntity
  8
STANDARDEBENE
 62
     7
100
AcDb2dPolyline
 66
     1
 10
0.0
 20
0.0
 30
0.0
  0
VERTEX
  5
186
330
185
100
AcDbEntity
  8
STANDARDEBENE
 62
     7
100
AcDbVertex
100
AcDb2dVertex
 10
189.4941570789247
 20
15.43369344589257
 30
0.0
  0
VERTEX
  5
187
330
185
100
AcDbEntity
  8
STANDARDEBENE
 62
     7
100
AcDbVertex
100
AcDb2dVertex
 10
189.4941570789247
 20
38.93184397850975
 30
0.0
  0
SEQEND
  5
188
330
185
100
AcDbEntity
  8
STANDARDEBENE
  0
POLYLINE
  5
189
330
1F
100
AcDbEntity
  8
STANDARDEBENE
 62
     7
100
AcDb2dPolyline
 66
     1
 10
0.0
 20
0.0
 30
0.0
  0
VERTEX
  5
18A
330
189
100
AcDbEntity
  8
STANDARDEBENE
 62
     7
100
AcDbVertex
100
AcDb2dVertex
 10
164.4932549042846
 20
36.43380359421173
 30
0.0
  0
VERTEX
  5
18B
330
189
100
AcDbEntity
  8
STANDARDEBENE
 62
     7
100
AcDbVertex
100
AcDb2dVertex
 10
164.4932549042846
 20
15.43369344589257
 30
0.0
  0
SEQEND
  5
18C
330
189
100
AcDbEntity
  8
STANDARDEBENE
  0
POLYLINE
  5
18D
330
1F
100
AcDbEntity
  8
STANDARDEBENE
 62
     7
100
AcDb2dPolyline
 66
     1
 10
0.0
 20
0.0
 30
0.0
  0
VERTEX
  5
18E
330
18D
100
AcDbEntity
  8
STANDARDEBENE
 62
     7
100
AcDbVertex
100
AcDb2dVertex
 10
164.4932549042846
 20
48.43342359496809
 30
0.0
  0
VERTEX
  5
18F
330
18D
100
AcDbEntity
  8
STANDARDEBENE
 62
     7
100
AcDbVertex
100
AcDb2dVertex
 10
164.4932549042846
 20
43.42270116090071
 30
0.0
  0
SEQEND
  5
190
330
18D
100
AcDbEntity
  8
STANDARDEBENE
  0
POLYLINE
  5
191
330
1F
100
AcDbEntity
  8
STANDARDEBENE
 62
     7
100
AcDb2dPolyline
 66
     1
 10
0.0
 20
0.0
 30
0.0
  0
VERTEX
  5
192
330
191
100
AcDbEntity
  8
STANDARDEBENE
 62
     7
100
AcDbVertex
100
AcDb2dVertex
 10
164.4932549042846
 20
56.43345735361883
 30
0.0
  0
VERTEX
  5
193
330
191
100
AcDbEntity
  8
STANDARDEBENE
 62
     7
100
AcDbVertex
100
AcDb2dVertex
 10
164.4932549042846
 20
55.42283792632077
 30
0.0
  0
SEQEND
  5
194
330
191
100
AcDbEntity
  8
STANDARDEBENE
  0
POLYLINE
  5
195
330
1F
100
AcDbEntity
  8
STANDARDEBENE
 62
     7
100
AcDb2dPolyline
 66
     1
 10
0.0
 20
0.0
 30
0.0
  0
VERTEX
  5
196
330
195
100
AcDbEntity
  8
STANDARDEBENE
 62
     7
100
AcDbVertex
100
AcDb2dVertex
 10
186.4938214415159
 20
13.43381419739581
 30
0.0
  0
VERTEX
  5
197
330
195
100
AcDbEntity
  8
STANDARDEBENE
 62
     7
100
AcDbVertex
100
AcDb2dVertex
 10
186.2144240133452
 20
14.47698979850661
 30
0.0
  0
SEQEND
  5
198
330
195
100
AcDbEntity
  8
STANDARDEBENE
  0
POLYLINE
  5
199
330
1F
100
AcDbEntity
  8
STANDARDEBENE
 62
     7
100
AcDb2dPolyline
 66
     1
 10
0.0
 20
0.0
 30
0.0
  0
VERTEX
  5
19A
330
199
100
AcDbEntity
  8
STANDARDEBENE
 62
     7
100
AcDbVertex
100
AcDb2dVertex
 10
167.7731602247521
 20
14.47698979850661
 30
0.0
  0
VERTEX
  5
19B
330
199
100
AcDbEntity
  8
STANDARDEBENE
 62
     7
100
AcDbVertex
100
AcDb2dVertex
 10
167.4930737770298
 20
13.43381419739581
 30
0.0
  0
SEQEND
  5
19C
330
199
100
AcDbEntity
  8
STANDARDEBENE
  0
POLYLINE
  5
19D
330
1F
100
AcDbEntity
  8
STANDARDEBENE
 62
     7
100
AcDb2dPolyline
 66
     1
 10
0.0
 20
0.0
 30
0.0
  0
VERTEX
  5
19E
330
19D
100
AcDbEntity
  8
STANDARDEBENE
 62
     7
100
AcDbVertex
100
AcDb2dVertex
 10
186.4938214415159
 20
12.93358600293977
 30
0.0
  0
VERTEX
  5
19F
330
19D
100
AcDbEntity
  8
STANDARDEBENE
 62
     7
100
AcDbVertex
100
AcDb2dVertex
 10
186.4938214415159
 20
13.43381419739581
 30
0.0
  0
SEQEND
  5
1A0
330
19D
100
AcDbEntity
  8
STANDARDEBENE
  0
POLYLINE
  5
1A1
330
1F
100
AcDbEntity
  8
STANDARDEBENE
 62
     7
100
AcDb2dPolyline
 66
     1
 10
0.0
 20
0.0
 30
0.0
  0
VERTEX
  5
1A2
330
1A1
100
AcDbEntity
  8
STANDARDEBENE
 62
     7
100
AcDbVertex
100
AcDb2dVertex
 10
167.4930737770298
 20
13.43381419739581
 30
0.0
  0
VERTEX
  5
1A3
330
1A1
100
AcDbEntity
  8
STANDARDEBENE
 62
     7
100
AcDbVertex
100
AcDb2dVertex
 10
167.4930737770298
 20
12.93358600293977
 30
0.0
  0
VERTEX
  5
1A4
330
1A1
100
AcDbEntity
  8
STANDARDEBENE
 62
     7
100
AcDbVertex
100
AcDb2dVertex
 10
167.9957135399164
 20
2.90904054682285
 30
0.0
  0
SEQEND
  5
1A5
330
1A1
100
AcDbEntity
  8
STANDARDEBENE
  0
POLYLINE
  5
1A6
330
1F
100
AcDbEntity
  8
STANDARDEBENE
 62
     7
100
AcDb2dPolyline
 66
     1
 10
0.0
 20
0.0
 30
0.0
  0
VERTEX
  5
1A7
330
1A6
100
AcDbEntity
  8
STANDARDEBENE
 62
     7
100
AcDbVertex
100
AcDb2dVertex
 10
185.9911816786293
 20
2.90904054682285
 30
0.0
  0
VERTEX
  5
1A8
330
1A6
100
AcDbEntity
  8
STANDARDEBENE
 62
     7
100
AcDbVertex
100
AcDb2dVertex
 10
186.4938214415159
 20
12.93358600293977
 30
0.0
  0
SEQEND
  5
1A9
330
1A6
100
AcDbEntity
  8
STANDARDEBENE
  0
POLYLINE
  5
1AA
330
1F
100
AcDbEntity
  8
STANDARDEBENE
 62
     7
100
AcDb2dPolyline
 66
     1
 10
0.0
 20
0.0
 30
0.0
  0
VERTEX
  5
1AB
330
1AA
100
AcDbEntity
  8
STANDARDEBENE
 62
     7
100
AcDbVertex
100
AcDb2dVertex
 10
167.7938308112998
 20
15.18754121108621
 30
0.0
  0
VERTEX
  5
1AC
330
1AA
100
AcDbEntity
  8
STANDARDEBENE
 62
     7
100
AcDbVertex
100
AcDb2dVertex
 10
167.7938308112998
 20
14.63270821716648
 30
0.0
  0
SEQEND
  5
1AD
330
1AA
100
AcDbEntity
  8
STANDARDEBENE
  0
POLYLINE
  5
1AE
330
1F
100
AcDbEntity
  8
STANDARDEBENE
 62
     7
100
AcDb2dPolyline
 66
     1
 10
0.0
 20
0.0
 30
0.0
  0
VERTEX
  5
1AF
330
1AE
100
AcDbEntity
  8
STANDARDEBENE
 62
     7
100
AcDbVertex
100
AcDb2dVertex
 10
186.1937534267974
 20
14.63270821716648
 30
0.0
  0
VERTEX
  5
1B0
330
1AE
100
AcDbEntity
  8
STANDARDEBENE
 62
     7
100
AcDbVertex
100
AcDb2dVertex
 10
186.1937534267974
 20
15.18754121108621
 30
0.0
  0
SEQEND
  5
1B1
330
1AE
100
AcDbEntity
  8
STANDARDEBENE
  0
SPLINE
  5
1B2
330
1F
100
AcDbEntity
  8
STANDARDEBENE
 62
     7
100
AcDbSpline
210
0.0
220
0.0
230
1.0
 70
     8
 71
     3
 72
     8
 73
     4
 74
     0
 42
0.0000000001
 43
0.0000000001
 40
0.0
 40
0.0
 40
0.0
 40
0.0
 40
1.0
 40
1.0
 40
1.0
 40
1.0
 10
186.2461189127184
 20
15.43369344589257
 30
0.0
 10
186.2092563667082
 20
15.35238913880467
 30
0.0
 10
186.1923753876942
 20
15.26712296929512
 30
0.0
 10
186.1937534267974
 20
15.18754121108621
 30
0.0
  0
SPLINE
  5
1B3
330
1F
100
AcDbEntity
  8
STANDARDEBENE
 62
     7
100
AcDbSpline
210
0.0
220
0.0
230
1.0
 70
     8
 71
     3
 72
     8
 73
     4
 74
     0
 42
0.0000000001
 43
0.0000000001
 40
0.0
 40
0.0
 40
0.0
 40
0.0
 40
1.0
 40
1.0
 40
1.0
 40
1.0
 10
167.7938308112998
 20
15.18754121108621
 30
0.0
 10
167.7938308112998
 20
15.27711375279321
 30
0.0
 10
167.7741937540794
 20
15.36169090275117
 30
0.0
 10
167.7407763058272
 20
15.43369344589257
 30
0.0
  0
SPLINE
  5
1B4
330
1F
100
AcDbEntity
  8
STANDARDEBENE
 62
     7
100
AcDbSpline
210
0.0
220
0.0
230
1.0
 70
     8
 71
     3
 72
     8
 73
     4
 74
     0
 42
0.0000000001
 43
0.0000000001
 40
0.0
 40
0.0
 40
0.0
 40
0.0
 40
1.0
 40
1.0
 40
1.0
 40
1.0
 10
186.1937534267974
 20
14.63270821716648
 30
0.0
 10
186.1937534267974
 20
14.57724214326329
 30
0.0
 10
186.2006436223134
 20
14.52367087312699
 30
0.0
 10
186.2144240133452
 20
14.47698979850661
 30
0.0
  0
SPLINE
  5
1B5
330
1F
100
AcDbEntity
  8
STANDARDEBENE
 62
     7
100
AcDbSpline
210
0.0
220
0.0
230
1.0
 70
     8
 71
     3
 72
     8
 73
     4
 74
     0
 42
0.0000000001
 43
0.0000000001
 40
0.0
 40
0.0
 40
0.0
 40
0.0
 40
1.0
 40
1.0
 40
1.0
 40
1.0
 10
167.7731602247521
 20
14.47698979850661
 30
0.0
 10
167.7869406157839
 20
14.53056106864291
 30
0.0
 10
167.7938308112998
 20
14.58378782900342
 30
0.0
 10
167.7938308112998
 20
14.63270821716648
 30
0.0
  0
SPLINE
  5
1B6
330
1F
100
AcDbEntity
  8
STANDARDEBENE
 62
     7
100
AcDbSpline
210
0.0
220
0.0
230
1.0
 70
     8
 71
     3
 72
     8
 73
     4
 74
     0
 42
0.0000000001
 43
0.0000000001
 40
0.0
 40
0.0
 40
0.0
 40
0.0
 40
1.0
 40
1.0
 40
1.0
 40
1.0
 10
185.4919870135006
 20
2.434133820887831
 30
0.0
 10
185.7596711092942
 20
2.434133820887831
 30
0.0
 10
185.9774012875974
 20
2.643423509684004
 30
0.0
 10
185.9911816786293
 20
2.90904054682285
 30
0.0
  0
SPLINE
  5
1B7
330
1F
100
AcDbEntity
  8
STANDARDEBENE
 62
     7
100
AcDbSpline
210
0.0
220
0.0
230
1.0
 70
     8
 71
     3
 72
     8
 73
     4
 74
     0
 42
0.0000000001
 43
0.0000000001
 40
0.0
 40
0.0
 40
0.0
 40
0.0
 40
1.0
 40
1.0
 40
1.0
 40
1.0
 10
167.9957135399164
 20
2.90904054682285
 30
0.0
 10
168.0091494211725
 20
2.641528705917125
 30
0.0
 10
168.2292911679062
 20
2.434478330663627
 30
0.0
 10
168.4952527148208
 20
2.434133820887831
 30
0.0
  0
POLYLINE
  5
1B8
330
1F
100
AcDbEntity
  8
STANDARDEBENE
 62
     7
100
AcDb2dPolyline
 66
     1
 10
0.0
 20
0.0
 30
0.0
  0
VERTEX
  5
1B9
330
1B8
100
AcDbEntity
  8
STANDARDEBENE
 62
     7
100
AcDbVertex
100
AcDb2dVertex
 10
185.4919870135006
 20
2.434133820887831
 30
0.0
  0
VERTEX
  5
1BA
330
1B8
100
AcDbEntity
  8
STANDARDEBENE
 62
     7
100
AcDbVertex
100
AcDb2dVertex
 10
185.3631403573528
 20
2.434133820887831
 30
0.0
  0
VERTEX
  5
1BB
330
1B8
100
AcDbEntity
  8
STANDARDEBENE
 62
     7
100
AcDbVertex
100
AcDb2dVertex
 10
184.9797009768917
 20
2.434133820887831
 30
0.0
  0
VERTEX
  5
1BC
330
1B8
100
AcDbEntity
  8
STANDARDEBENE
 62
     7
100
AcDbVertex
100
AcDb2dVertex
 10
184.3540712240459
 20
2.434133820887831
 30
0.0
  0
VERTEX
  5
1BD
330
1B8
100
AcDbEntity
  8
STANDARDEBENE
 62
     7
100
AcDbVertex
100
AcDb2dVertex
 10
183.5038210973809
 20
2.434133820887831
 30
0.0
  0
VERTEX
  5
1BE
330
1B8
100
AcDbEntity
  8
STANDARDEBENE
 62
     7
100
AcDbVertex
100
AcDb2dVertex
 10
182.4561668691848
 20
2.434133820887831
 30
0.0
  0
VERTEX
  5
1BF
330
1B8
100
AcDbEntity
  8
STANDARDEBENE
 62
     7
100
AcDbVertex
100
AcDb2dVertex
 10
181.2431479486065
 20
2.434133820887831
 30
0.0
  0
VERTEX
  5
1C0
330
1B8
100
AcDbEntity
  8
STANDARDEBENE
 62
     7
100
AcDbVertex
100
AcDb2dVertex
 10
181.1473742309351
 20
2.434133820887831
 30
0.0
  0
VERTEX
  5
1C1
330
1B8
100
AcDbEntity
  8
STANDARDEBENE
 62
     7
100
AcDbVertex
100
AcDb2dVertex
 10
180.982009538553
 20
2.434133820887831
 30
0.0
  0
VERTEX
  5
1C2
330
1B8
100
AcDbEntity
  8
STANDARDEBENE
 62
     7
100
AcDbVertex
100
AcDb2dVertex
 10
180.8169893559466
 20
2.434133820887831
 30
0.0
  0
VERTEX
  5
1C3
330
1B8
100
AcDbEntity
  8
STANDARDEBENE
 62
     7
100
AcDbVertex
100
AcDb2dVertex
 10
180.6719507403364
 20
2.434133820887831
 30
0.0
  0
VERTEX
  5
1C4
330
1B8
100
AcDbEntity
  8
STANDARDEBENE
 62
     7
100
AcDbVertex
100
AcDb2dVertex
 10
180.5934025114549
 20
2.434133820887831
 30
0.0
  0
SEQEND
  5
1C5
330
1B8
100
AcDbEntity
  8
STANDARDEBENE
  0
POLYLINE
  5
1C6
330
1F
100
AcDbEntity
  8
STANDARDEBENE
 62
     7
100
AcDb2dPolyline
 66
     1
 10
0.0
 20
0.0
 30
0.0
  0
VERTEX
  5
1C7
330
1C6
100
AcDbEntity
  8
STANDARDEBENE
 62
     7
100
AcDbVertex
100
AcDb2dVertex
 10
186.4938214415159
 20
12.93358600293977
 30
0.0
  0
VERTEX
  5
1C8
330
1C6
100
AcDbEntity
  8
STANDARDEBENE
 62
     7
100
AcDbVertex
100
AcDb2dVertex
 10
186.3766881177452
 20
12.93358600293977
 30
0.0
  0
VERTEX
  5
1C9
330
1C6
100
AcDbEntity
  8
STANDARDEBENE
 62
     7
100
AcDbVertex
100
AcDb2dVertex
 10
186.028733244191
 20
12.93358600293977
 30
0.0
  0
VERTEX
  5
1CA
330
1C6
100
AcDbEntity
  8
STANDARDEBENE
 62
     7
100
AcDbVertex
100
AcDb2dVertex
 10
185.4582250554726
 20
12.93358600293977
 30
0.0
  0
VERTEX
  5
1CB
330
1C6
100
AcDbEntity
  8
STANDARDEBENE
 62
     7
100
AcDbVertex
100
AcDb2dVertex
 10
184.6796329621733
 20
12.93358600293977
 30
0.0
  0
VERTEX
  5
1CC
330
1C6
100
AcDbEntity
  8
STANDARDEBENE
 62
     7
100
AcDbVertex
100
AcDb2dVertex
 10
183.7112159824102
 20
12.93358600293977
 30
0.0
  0
VERTEX
  5
1CD
330
1C6
100
AcDbEntity
  8
STANDARDEBENE
 62
     7
100
AcDbVertex
100
AcDb2dVertex
 10
182.577434310265
 20
12.93358600293977
 30
0.0
  0
VERTEX
  5
1CE
330
1C6
100
AcDbEntity
  8
STANDARDEBENE
 62
     7
100
AcDbVertex
100
AcDb2dVertex
 10
181.3061932375772
 20
12.93358600293977
 30
0.0
  0
VERTEX
  5
1CF
330
1C6
100
AcDbEntity
  8
STANDARDEBENE
 62
     7
100
AcDbVertex
100
AcDb2dVertex
 10
179.9291876637199
 20
12.93358600293977
 30
0.0
  0
VERTEX
  5
1D0
330
1C6
100
AcDbEntity
  8
STANDARDEBENE
 62
     7
100
AcDbVertex
100
AcDb2dVertex
 10
178.4798350369454
 20
12.93358600293977
 30
0.0
  0
VERTEX
  5
1D1
330
1C6
100
AcDbEntity
  8
STANDARDEBENE
 62
     7
100
AcDbVertex
100
AcDb2dVertex
 10
176.9932753543849
 20
12.93358600293977
 30
0.0
  0
VERTEX
  5
1D2
330
1C6
100
AcDbEntity
  8
STANDARDEBENE
 62
     7
100
AcDbVertex
100
AcDb2dVertex
 10
175.5074046913761
 20
12.93358600293977
 30
0.0
  0
VERTEX
  5
1D3
330
1C6
100
AcDbEntity
  8
STANDARDEBENE
 62
     7
100
AcDbVertex
100
AcDb2dVertex
 10
174.05736304505
 20
12.93358600293977
 30
0.0
  0
VERTEX
  5
1D4
330
1C6
100
AcDbEntity
  8
STANDARDEBENE
 62
     7
100
AcDbVertex
100
AcDb2dVertex
 10
172.6807019809685
 20
12.93358600293977
 30
0.0
  0
VERTEX
  5
1D5
330
1C6
100
AcDbEntity
  8
STANDARDEBENE
 62
     7
100
AcDbVertex
100
AcDb2dVertex
 10
171.4094609082806
 20
12.93358600293977
 30
0.0
  0
VERTEX
  5
1D6
330
1C6
100
AcDbEntity
  8
STANDARDEBENE
 62
     7
100
AcDbVertex
100
AcDb2dVertex
 10
170.276368255687
 20
12.93358600293977
 30
0.0
  0
VERTEX
  5
1D7
330
1C6
100
AcDbEntity
  8
STANDARDEBENE
 62
     7
100
AcDbVertex
100
AcDb2dVertex
 10
169.3076067661482
 20
12.93358600293977
 30
0.0
  0
VERTEX
  5
1D8
330
1C6
100
AcDbEntity
  8
STANDARDEBENE
 62
     7
100
AcDbVertex
100
AcDb2dVertex
 10
168.5286701630731
 20
12.93358600293977
 30
0.0
  0
VERTEX
  5
1D9
330
1C6
100
AcDbEntity
  8
STANDARDEBENE
 62
     7
100
AcDbVertex
100
AcDb2dVertex
 10
167.9585064841304
 20
12.93358600293977
 30
0.0
  0
VERTEX
  5
1DA
330
1C6
100
AcDbEntity
  8
STANDARDEBENE
 62
     7
100
AcDbVertex
100
AcDb2dVertex
 10
167.6102071008005
 20
12.93358600293977
 30
0.0
  0
VERTEX
  5
1DB
330
1C6
100
AcDbEntity
  8
STANDARDEBENE
 62
     7
100
AcDbVertex
100
AcDb2dVertex
 10
167.4930737770298
 20
12.93358600293977
 30
0.0
  0
SEQEND
  5
1DC
330
1C6
100
AcDbEntity
  8
STANDARDEBENE
  0
POLYLINE
  5
1DD
330
1F
100
AcDbEntity
  8
STANDARDEBENE
 62
     7
100
AcDb2dPolyline
 66
     1
 10
0.0
 20
0.0
 30
0.0
  0
VERTEX
  5
1DE
330
1DD
100
AcDbEntity
  8
STANDARDEBENE
 62
     7
100
AcDbVertex
100
AcDb2dVertex
 10
176.9932753543849
 20
13.43381419739581
 30
0.0
  0
VERTEX
  5
1DF
330
1DD
100
AcDbEntity
  8
STANDARDEBENE
 62
     7
100
AcDbVertex
100
AcDb2dVertex
 10
178.4798350369454
 20
13.43381419739581
 30
0.0
  0
VERTEX
  5
1E0
330
1DD
100
AcDbEntity
  8
STANDARDEBENE
 62
     7
100
AcDbVertex
100
AcDb2dVertex
 10
179.9291876637199
 20
13.43381419739581
 30
0.0
  0
VERTEX
  5
1E1
330
1DD
100
AcDbEntity
  8
STANDARDEBENE
 62
     7
100
AcDbVertex
100
AcDb2dVertex
 10
181.3061932375772
 20
13.43381419739581
 30
0.0
  0
VERTEX
  5
1E2
330
1DD
100
AcDbEntity
  8
STANDARDEBENE
 62
     7
100
AcDbVertex
100
AcDb2dVertex
 10
182.577434310265
 20
13.43381419739581
 30
0.0
  0
VERTEX
  5
1E3
330
1DD
100
AcDbEntity
  8
STANDARDEBENE
 62
     7
100
AcDbVertex
100
AcDb2dVertex
 10
183.7112159824102
 20
13.43381419739581
 30
0.0
  0
VERTEX
  5
1E4
330
1DD
100
AcDbEntity
  8
STANDARDEBENE
 62
     7
100
AcDbVertex
100
AcDb2dVertex
 10
184.6796329621733
 20
13.43381419739581
 30
0.0
  0
VERTEX
  5
1E5
330
1DD
100
AcDbEntity
  8
STANDARDEBENE
 62
     7
100
AcDbVertex
100
AcDb2dVertex
 10
185.4582250554726
 20
13.43381419739581
 30
0.0
  0
VERTEX
  5
1E6
330
1DD
100
AcDbEntity
  8
STANDARDEBENE
 62
     7
100
AcDbVertex
100
AcDb2dVertex
 10
186.028733244191
 20
13.43381419739581
 30
0.0
  0
VERTEX
  5
1E7
330
1DD
100
AcDbEntity
  8
STANDARDEBENE
 62
     7
100
AcDbVertex
100
AcDb2dVertex
 10
186.3766881177452
 20
13.43381419739581
 30
0.0
  0
VERTEX
  5
1E8
330
1DD
100
AcDbEntity
  8
STANDARDEBENE
 62
     7
100
AcDbVertex
100
AcDb2dVertex
 10
186.4938214415159
 20
13.43381419739581
 30
0.0
  0
SEQEND
  5
1E9
330
1DD
100
AcDbEntity
  8
STANDARDEBENE
  0
POLYLINE
  5
1EA
330
1F
100
AcDbEntity
  8
STANDARDEBENE
 62
     7
100
AcDb2dPolyline
 66
     1
 10
0.0
 20
0.0
 30
0.0
  0
VERTEX
  5
1EB
330
1EA
100
AcDbEntity
  8
STANDARDEBENE
 62
     7
100
AcDbVertex
100
AcDb2dVertex
 10
167.4930737770298
 20
13.43381419739581
 30
0.0
  0
VERTEX
  5
1EC
330
1EA
100
AcDbEntity
  8
STANDARDEBENE
 62
     7
100
AcDbVertex
100
AcDb2dVertex
 10
167.6102071008005
 20
13.43381419739581
 30
0.0
  0
VERTEX
  5
1ED
330
1EA
100
AcDbEntity
  8
STANDARDEBENE
 62
     7
100
AcDbVertex
100
AcDb2dVertex
 10
167.9585064841304
 20
13.43381419739581
 30
0.0
  0
VERTEX
  5
1EE
330
1EA
100
AcDbEntity
  8
STANDARDEBENE
 62
     7
100
AcDbVertex
100
AcDb2dVertex
 10
168.5286701630731
 20
13.43381419739581
 30
0.0
  0
VERTEX
  5
1EF
330
1EA
100
AcDbEntity
  8
STANDARDEBENE
 62
     7
100
AcDbVertex
100
AcDb2dVertex
 10
169.3076067661482
 20
13.43381419739581
 30
0.0
  0
VERTEX
  5
1F0
330
1EA
100
AcDbEntity
  8
STANDARDEBENE
 62
     7
100
AcDbVertex
100
AcDb2dVertex
 10
170.276368255687
 20
13.43381419739581
 30
0.0
  0
VERTEX
  5
1F1
330
1EA
100
AcDbEntity
  8
STANDARDEBENE
 62
     7
100
AcDbVertex
100
AcDb2dVertex
 10
171.4094609082806
 20
13.43381419739581
 30
0.0
  0
VERTEX
  5
1F2
330
1EA
100
AcDbEntity
  8
STANDARDEBENE
 62
     7
100
AcDbVertex
100
AcDb2dVertex
 10
172.6807019809685
 20
13.43381419739581
 30
0.0
  0
VERTEX
  5
1F3
330
1EA
100
AcDbEntity
  8
STANDARDEBENE
 62
     7
100
AcDbVertex
100
AcDb2dVertex
 10
174.05736304505
 20
13.43381419739581
 30
0.0
  0
VERTEX
  5
1F4
330
1EA
100
AcDbEntity
  8
STANDARDEBENE
 62
     7
100
AcDbVertex
100
AcDb2dVertex
 10
175.5074046913761
 20
13.43381419739581
 30
0.0
  0
VERTEX
  5
1F5
330
1EA
100
AcDbEntity
  8
STANDARDEBENE
 62
     7
100
AcDbVertex
100
AcDb2dVertex
 10
176.9932753543849
 20
13.43381419739581
 30
0.0
  0
SEQEND
  5
1F6
330
1EA
100
AcDbEntity
  8
STANDARDEBENE
  0
POLYLINE
  5
1F7
330
1F
100
AcDbEntity
  8
STANDARDEBENE
 62
     7
100
AcDb2dPolyline
 66
     1
 10
0.0
 20
0.0
 30
0.0
  0
VERTEX
  5
1F8
330
1F7
100
AcDbEntity
  8
STANDARDEBENE
 62
     7
100
AcDbVertex
100
AcDb2dVertex
 10
173.3934927070908
 20
2.434133820887831
 30
0.0
  0
VERTEX
  5
1F9
330
1F7
100
AcDbEntity
  8
STANDARDEBENE
 62
     7
100
AcDbVertex
100
AcDb2dVertex
 10
173.3607642783901
 20
2.434133820887831
 30
0.0
  0
VERTEX
  5
1FA
330
1F7
100
AcDbEntity
  8
STANDARDEBENE
 62
     7
100
AcDbVertex
100
AcDb2dVertex
 10
173.227438995157
 20
2.434133820887831
 30
0.0
  0
VERTEX
  5
1FB
330
1F7
100
AcDbEntity
  8
STANDARDEBENE
 62
     7
100
AcDbVertex
100
AcDb2dVertex
 10
173.0682754787392
 20
2.434133820887831
 30
0.0
  0
VERTEX
  5
1FC
330
1F7
100
AcDbEntity
  8
STANDARDEBENE
 62
     7
100
AcDbVertex
100
AcDb2dVertex
 10
172.901188237478
 20
2.434133820887831
 30
0.0
  0
VERTEX
  5
1FD
330
1F7
100
AcDbEntity
  8
STANDARDEBENE
 62
     7
100
AcDbVertex
100
AcDb2dVertex
 10
172.744091779715
 20
2.434133820887831
 30
0.0
  0
VERTEX
  5
1FE
330
1F7
100
AcDbEntity
  8
STANDARDEBENE
 62
     7
100
AcDbVertex
100
AcDb2dVertex
 10
171.5303838395851
 20
2.434133820887831
 30
0.0
  0
VERTEX
  5
1FF
330
1F7
100
AcDbEntity
  8
STANDARDEBENE
 62
     7
100
AcDbVertex
100
AcDb2dVertex
 10
170.4830741211647
 20
2.434133820887831
 30
0.0
  0
VERTEX
  5
200
330
1F7
100
AcDbEntity
  8
STANDARDEBENE
 62
     7
100
AcDbVertex
100
AcDb2dVertex
 10
169.6338575238272
 20
2.434133820887831
 30
0.0
  0
VERTEX
  5
201
330
1F7
100
AcDbEntity
  8
STANDARDEBENE
 62
     7
100
AcDbVertex
100
AcDb2dVertex
 10
169.0075387514297
 20
2.434133820887831
 30
0.0
  0
VERTEX
  5
202
330
1F7
100
AcDbEntity
  8
STANDARDEBENE
 62
     7
100
AcDbVertex
100
AcDb2dVertex
 10
168.6240993709686
 20
2.434133820887831
 30
0.0
  0
VERTEX
  5
203
330
1F7
100
AcDbEntity
  8
STANDARDEBENE
 62
     7
100
AcDbVertex
100
AcDb2dVertex
 10
168.4952527148208
 20
2.434133820887831
 30
0.0
  0
SEQEND
  5
204
330
1F7
100
AcDbEntity
  8
STANDARDEBENE
  0
POLYLINE
  5
205
330
1F
100
AcDbEntity
  8
STANDARDEBENE
 62
     7
100
AcDb2dPolyline
 66
     1
 10
0.0
 20
0.0
 30
0.0
  0
VERTEX
  5
206
330
205
100
AcDbEntity
  8
STANDARDEBENE
 62
     7
100
AcDbVertex
100
AcDb2dVertex
 10
172.4963892509175
 20
3.674024503978243
 30
0.0
  0
VERTEX
  5
207
330
205
100
AcDbEntity
  8
STANDARDEBENE
 62
     7
100
AcDbVertex
100
AcDb2dVertex
 10
172.5001788584513
 20
3.678158621287797
 30
0.0
  0
VERTEX
  5
208
330
205
100
AcDbEntity
  8
STANDARDEBENE
 62
     7
100
AcDbVertex
100
AcDb2dVertex
 10
172.6789794320895
 20
3.849724489634289
 30
0.0
  0
VERTEX
  5
209
330
205
100
AcDbEntity
  8
STANDARDEBENE
 62
     7
100
AcDbVertex
100
AcDb2dVertex
 10
172.8650147110194
 20
4.01233310381008
 30
0.0
  0
VERTEX
  5
20A
330
205
100
AcDbEntity
  8
STANDARDEBENE
 62
     7
100
AcDbVertex
100
AcDb2dVertex
 10
173.4365564290653
 20
4.349952684090326
 30
0.0
  0
VERTEX
  5
20B
330
205
100
AcDbEntity
  8
STANDARDEBENE
 62
     7
100
AcDbVertex
100
AcDb2dVertex
 10
173.8923428624436
 20
4.434185324272489
 30
0.0
  0
VERTEX
  5
20C
330
205
100
AcDbEntity
  8
STANDARDEBENE
 62
     7
100
AcDbVertex
100
AcDb2dVertex
 10
175.4188656789964
 20
4.434185324272489
 30
0.0
  0
VERTEX
  5
20D
330
205
100
AcDbEntity
  8
STANDARDEBENE
 62
     7
100
AcDbVertex
100
AcDb2dVertex
 10
176.9932753543849
 20
4.434185324272489
 30
0.0
  0
VERTEX
  5
20E
330
205
100
AcDbEntity
  8
STANDARDEBENE
 62
     7
100
AcDbVertex
100
AcDb2dVertex
 10
178.5676850297734
 20
4.434185324272489
 30
0.0
  0
VERTEX
  5
20F
330
205
100
AcDbEntity
  8
STANDARDEBENE
 62
     7
100
AcDbVertex
100
AcDb2dVertex
 10
180.094552356102
 20
4.434185324272489
 30
0.0
  0
VERTEX
  5
210
330
205
100
AcDbEntity
  8
STANDARDEBENE
 62
     7
100
AcDbVertex
100
AcDb2dVertex
 10
180.551027809032
 20
4.349952684090326
 30
0.0
  0
VERTEX
  5
211
330
205
100
AcDbEntity
  8
STANDARDEBENE
 62
     7
100
AcDbVertex
100
AcDb2dVertex
 10
181.1218805075262
 20
4.01233310381008
 30
0.0
  0
VERTEX
  5
212
330
205
100
AcDbEntity
  8
STANDARDEBENE
 62
     7
100
AcDbVertex
100
AcDb2dVertex
 10
181.3079157864561
 20
3.849724489634289
 30
0.0
  0
VERTEX
  5
213
330
205
100
AcDbEntity
  8
STANDARDEBENE
 62
     7
100
AcDbVertex
100
AcDb2dVertex
 10
181.4860273405428
 20
3.678158621287797
 30
0.0
  0
VERTEX
  5
214
330
205
100
AcDbEntity
  8
STANDARDEBENE
 62
     7
100
AcDbVertex
100
AcDb2dVertex
 10
181.4908504774039
 20
3.674024503978243
 30
0.0
  0
SEQEND
  5
215
330
205
100
AcDbEntity
  8
STANDARDEBENE
  0
POLYLINE
  5
216
330
1F
100
AcDbEntity
  8
STANDARDEBENE
 62
     7
100
AcDb2dPolyline
 66
     1
 10
0.0
 20
0.0
 30
0.0
  0
VERTEX
  5
217
330
216
100
AcDbEntity
  8
STANDARDEBENE
 62
     7
100
AcDbVertex
100
AcDb2dVertex
 10
176.9932753543849
 20
12.93358600293977
 30
0.0
  0
VERTEX
  5
218
330
216
100
AcDbEntity
  8
STANDARDEBENE
 62
     7
100
AcDbVertex
100
AcDb2dVertex
 10
177.2802519976231
 20
12.90602522087608
 30
0.0
  0
VERTEX
  5
219
330
216
100
AcDbEntity
  8
STANDARDEBENE
 62
     7
100
AcDbVertex
100
AcDb2dVertex
 10
177.7408615678626
 20
12.73445935252959
 30
0.0
  0
VERTEX
  5
21A
330
216
100
AcDbEntity
  8
STANDARDEBENE
 62
     7
100
AcDbVertex
100
AcDb2dVertex
 10
178.1243009483238
 20
12.41923290767609
 30
0.0
  0
VERTEX
  5
21B
330
216
100
AcDbEntity
  8
STANDARDEBENE
 62
     7
100
AcDbVertex
100
AcDb2dVertex
 10
178.387506417032
 20
11.98807892326719
 30
0.0
  0
VERTEX
  5
21C
330
216
100
AcDbEntity
  8
STANDARDEBENE
 62
     7
100
AcDbVertex
100
AcDb2dVertex
 10
178.4918928790983
 20
11.49129582656911
 30
0.0
  0
VERTEX
  5
21D
330
216
100
AcDbEntity
  8
STANDARDEBENE
 62
     7
100
AcDbVertex
100
AcDb2dVertex
 10
178.4278140608002
 20
10.99296243587995
 30
0.0
  0
VERTEX
  5
21E
330
216
100
AcDbEntity
  8
STANDARDEBENE
 62
     7
100
AcDbVertex
100
AcDb2dVertex
 10
178.2038827065327
 20
10.5480280604392
 30
0.0
  0
VERTEX
  5
21F
330
216
100
AcDbEntity
  8
STANDARDEBENE
 62
     7
100
AcDbVertex
100
AcDb2dVertex
 10
177.8459370494805
 20
10.19903965755768
 30
0.0
  0
VERTEX
  5
220
330
216
100
AcDbEntity
  8
STANDARDEBENE
 62
     7
100
AcDbVertex
100
AcDb2dVertex
 10
177.3884280672231
 20
9.987338400330934
 30
0.0
  0
VERTEX
  5
221
330
216
100
AcDbEntity
  8
STANDARDEBENE
 62
     7
100
AcDbVertex
100
AcDb2dVertex
 10
176.8875108532155
 20
9.93755673772839
 30
0.0
  0
VERTEX
  5
222
330
216
100
AcDbEntity
  8
STANDARDEBENE
 62
     7
100
AcDbVertex
100
AcDb2dVertex
 10
176.4007185400155
 20
10.05537908105068
 30
0.0
  0
VERTEX
  5
223
330
216
100
AcDbEntity
  8
STANDARDEBENE
 62
     7
100
AcDbVertex
100
AcDb2dVertex
 10
175.9800721037684
 20
10.32840307836914
 30
0.0
  0
VERTEX
  5
224
330
216
100
AcDbEntity
  8
STANDARDEBENE
 62
     7
100
AcDbVertex
100
AcDb2dVertex
 10
175.6703578153276
 20
10.72648412430162
 30
0.0
  0
VERTEX
  5
225
330
216
100
AcDbEntity
  8
STANDARDEBENE
 62
     7
100
AcDbVertex
100
AcDb2dVertex
 10
175.5111942989098
 20
11.20311339911562
 30
0.0
  0
VERTEX
  5
226
330
216
100
AcDbEntity
  8
STANDARDEBENE
 62
     7
100
AcDbVertex
100
AcDb2dVertex
 10
175.5177399846499
 20
11.70144678980477
 30
0.0
  0
VERTEX
  5
227
330
216
100
AcDbEntity
  8
STANDARDEBENE
 62
     7
100
AcDbVertex
100
AcDb2dVertex
 10
175.6858607552385
 20
12.16842979089648
 30
0.0
  0
VERTEX
  5
228
330
216
100
AcDbEntity
  8
STANDARDEBENE
 62
     7
100
AcDbVertex
100
AcDb2dVertex
 10
175.9004903455595
 20
12.46195211987482
 30
0.0
  0
VERTEX
  5
229
330
216
100
AcDbEntity
  8
STANDARDEBENE
 62
     7
100
AcDbVertex
100
AcDb2dVertex
 10
176.301844234362
 20
12.76512072257544
 30
0.0
  0
VERTEX
  5
22A
330
216
100
AcDbEntity
  8
STANDARDEBENE
 62
     7
100
AcDbVertex
100
AcDb2dVertex
 10
176.7820908618219
 20
12.91911659235633
 30
0.0
  0
VERTEX
  5
22B
330
216
100
AcDbEntity
  8
STANDARDEBENE
 62
     7
100
AcDbVertex
100
AcDb2dVertex
 10
176.9932753543849
 20
12.93358600293977
 30
0.0
  0
SEQEND
  5
22C
330
216
100
AcDbEntity
  8
STANDARDEBENE
  0
POLYLINE
  5
22D
330
1F
100
AcDbEntity
  8
STANDARDEBENE
 62
     7
100
AcDb2dPolyline
 66
     1
 10
0.0
 20
0.0
 30
0.0
  0
VERTEX
  5
22E
330
22D
100
AcDbEntity
  8
STANDARDEBENE
 62
     7
100
AcDbVertex
100
AcDb2dVertex
 10
176.9932753543849
 20
57.4340859974188
 30
0.0
  0
VERTEX
  5
22F
330
22D
100
AcDbEntity
  8
STANDARDEBENE
 62
     7
100
AcDbVertex
100
AcDb2dVertex
 10
178.6300412991925
 20
57.4340859974188
 30
0.0
  0
VERTEX
  5
230
330
22D
100
AcDbEntity
  8
STANDARDEBENE
 62
     7
100
AcDbVertex
100
AcDb2dVertex
 10
180.2337343055237
 20
57.4340859974188
 30
0.0
  0
VERTEX
  5
231
330
22D
100
AcDbEntity
  8
STANDARDEBENE
 62
     7
100
AcDbVertex
100
AcDb2dVertex
 10
181.7705924153504
 20
57.4340859974188
 30
0.0
  0
VERTEX
  5
232
330
22D
100
AcDbEntity
  8
STANDARDEBENE
 62
     7
100
AcDbVertex
100
AcDb2dVertex
 10
183.2106432781784
 20
57.4340859974188
 30
0.0
  0
VERTEX
  5
233
330
22D
100
AcDbEntity
  8
STANDARDEBENE
 62
     7
100
AcDbVertex
100
AcDb2dVertex
 10
184.5249480728408
 20
57.4340859974188
 30
0.0
  0
VERTEX
  5
234
330
22D
100
AcDbEntity
  8
STANDARDEBENE
 62
     7
100
AcDbVertex
100
AcDb2dVertex
 10
185.6849124879465
 20
57.4340859974188
 30
0.0
  0
VERTEX
  5
235
330
22D
100
AcDbEntity
  8
STANDARDEBENE
 62
     7
100
AcDbVertex
100
AcDb2dVertex
 10
186.667798878293
 20
57.4340859974188
 30
0.0
  0
VERTEX
  5
236
330
22D
100
AcDbEntity
  8
STANDARDEBENE
 62
     7
100
AcDbVertex
100
AcDb2dVertex
 10
187.4539701866598
 20
57.4340859974188
 30
0.0
  0
VERTEX
  5
237
330
22D
100
AcDbEntity
  8
STANDARDEBENE
 62
     7
100
AcDbVertex
100
AcDb2dVertex
 10
188.0268899438088
 20
57.4340859974188
 30
0.0
  0
VERTEX
  5
238
330
22D
100
AcDbEntity
  8
STANDARDEBENE
 62
     7
100
AcDbVertex
100
AcDb2dVertex
 10
188.3765673662419
 20
57.4340859974188
 30
0.0
  0
VERTEX
  5
239
330
22D
100
AcDbEntity
  8
STANDARDEBENE
 62
     7
100
AcDbVertex
100
AcDb2dVertex
 10
188.4937006900126
 20
57.4340859974188
 30
0.0
  0
SEQEND
  5
23A
330
22D
100
AcDbEntity
  8
STANDARDEBENE
  0
POLYLINE
  5
23B
330
1F
100
AcDbEntity
  8
STANDARDEBENE
 62
     7
100
AcDb2dPolyline
 66
     1
 10
0.0
 20
0.0
 30
0.0
  0
VERTEX
  5
23C
330
23B
100
AcDbEntity
  8
STANDARDEBENE
 62
     7
100
AcDbVertex
100
AcDb2dVertex
 10
165.4935390383088
 20
57.4340859974188
 30
0.0
  0
VERTEX
  5
23D
330
23B
100
AcDbEntity
  8
STANDARDEBENE
 62
     7
100
AcDbVertex
100
AcDb2dVertex
 10
165.6106723620795
 20
57.4340859974188
 30
0.0
  0
VERTEX
  5
23E
330
23B
100
AcDbEntity
  8
STANDARDEBENE
 62
     7
100
AcDbVertex
100
AcDb2dVertex
 10
165.959660764961
 20
57.4340859974188
 30
0.0
  0
VERTEX
  5
23F
330
23B
100
AcDbEntity
  8
STANDARDEBENE
 62
     7
100
AcDbVertex
100
AcDb2dVertex
 10
166.5329250318859
 20
57.4340859974188
 30
0.0
  0
VERTEX
  5
240
330
23B
100
AcDbEntity
  8
STANDARDEBENE
 62
     7
100
AcDbVertex
100
AcDb2dVertex
 10
167.3187518304769
 20
57.4340859974188
 30
0.0
  0
VERTEX
  5
241
330
23B
100
AcDbEntity
  8
STANDARDEBENE
 62
     7
100
AcDbVertex
100
AcDb2dVertex
 10
168.302327240375
 20
57.4340859974188
 30
0.0
  0
VERTEX
  5
242
330
23B
100
AcDbEntity
  8
STANDARDEBENE
 62
     7
100
AcDbVertex
100
AcDb2dVertex
 10
169.4622916554807
 20
57.4340859974188
 30
0.0
  0
VERTEX
  5
243
330
23B
100
AcDbEntity
  8
STANDARDEBENE
 62
     7
100
AcDbVertex
100
AcDb2dVertex
 10
170.7759074305915
 20
57.4340859974188
 30
0.0
  0
VERTEX
  5
244
330
23B
100
AcDbEntity
  8
STANDARDEBENE
 62
     7
100
AcDbVertex
100
AcDb2dVertex
 10
172.2169918227468
 20
57.4340859974188
 30
0.0
  0
VERTEX
  5
245
330
23B
100
AcDbEntity
  8
STANDARDEBENE
 62
     7
100
AcDbVertex
100
AcDb2dVertex
 10
173.7538499325736
 20
57.4340859974188
 30
0.0
  0
VERTEX
  5
246
330
23B
100
AcDbEntity
  8
STANDARDEBENE
 62
     7
100
AcDbVertex
100
AcDb2dVertex
 10
175.3565094095773
 20
57.4340859974188
 30
0.0
  0
VERTEX
  5
247
330
23B
100
AcDbEntity
  8
STANDARDEBENE
 62
     7
100
AcDbVertex
100
AcDb2dVertex
 10
176.9932753543849
 20
57.4340859974188
 30
0.0
  0
SEQEND
  5
248
330
23B
100
AcDbEntity
  8
STANDARDEBENE
  0
POLYLINE
  5
249
330
1F
100
AcDbEntity
  8
STANDARDEBENE
 62
     7
100
AcDb2dPolyline
 66
     1
 10
0.0
 20
0.0
 30
0.0
  0
VERTEX
  5
24A
330
249
100
AcDbEntity
  8
STANDARDEBENE
 62
     7
100
AcDbVertex
100
AcDb2dVertex
 10
164.4932549042846
 20
36.43380359421173
 30
0.0
  0
VERTEX
  5
24B
330
249
100
AcDbEntity
  8
STANDARDEBENE
 62
     7
100
AcDbVertex
100
AcDb2dVertex
 10
164.5065185306528
 20
36.48134594327161
 30
0.0
  0
VERTEX
  5
24C
330
249
100
AcDbEntity
  8
STANDARDEBENE
 62
     7
100
AcDbVertex
100
AcDb2dVertex
 10
164.5452758804299
 20
36.62242269646013
 30
0.0
  0
VERTEX
  5
24D
330
249
100
AcDbEntity
  8
STANDARDEBENE
 62
     7
100
AcDbVertex
100
AcDb2dVertex
 10
164.6777398892235
 20
37.16295853468433
 30
0.0
  0
VERTEX
  5
24E
330
249
100
AcDbEntity
  8
STANDARDEBENE
 62
     7
100
AcDbVertex
100
AcDb2dVertex
 10
164.8413820327267
 20
38.01785954332252
 30
0.0
  0
VERTEX
  5
24F
330
249
100
AcDbEntity
  8
STANDARDEBENE
 62
     7
100
AcDbVertex
100
AcDb2dVertex
 10
164.9133845758681
 20
38.54375371607537
 30
0.0
  0
VERTEX
  5
250
330
249
100
AcDbEntity
  8
STANDARDEBENE
 62
     7
100
AcDbVertex
100
AcDb2dVertex
 10
164.9657500617891
 20
39.11185033636325
 30
0.0
  0
VERTEX
  5
251
330
249
100
AcDbEntity
  8
STANDARDEBENE
 62
     7
100
AcDbVertex
100
AcDb2dVertex
 10
164.9905547656464
 20
39.69010999503712
 30
0.0
  0
VERTEX
  5
252
330
249
100
AcDbEntity
  8
STANDARDEBENE
 62
     7
100
AcDbVertex
100
AcDb2dVertex
 10
164.9888322167674
 20
40.27629337855431
 30
0.0
  0
VERTEX
  5
253
330
249
100
AcDbEntity
  8
STANDARDEBENE
 62
     7
100
AcDbVertex
100
AcDb2dVertex
 10
164.9085614390069
 20
41.36752809338867
 30
0.0
  0
VERTEX
  5
254
330
249
100
AcDbEntity
  8
STANDARDEBENE
 62
     7
100
AcDbVertex
100
AcDb2dVertex
 10
164.7593887060872
 20
42.31492997682813
 30
0.0
  0
VERTEX
  5
255
330
249
100
AcDbEntity
  8
STANDARDEBENE
 62
     7
100
AcDbVertex
100
AcDb2dVertex
 10
164.6763618501203
 20
42.71197749343322
 30
0.0
  0
VERTEX
  5
256
330
249
100
AcDbEntity
  8
STANDARDEBENE
 62
     7
100
AcDbVertex
100
AcDb2dVertex
 10
164.6002251896693
 20
43.03082129093257
 30
0.0
  0
VERTEX
  5
257
330
249
100
AcDbEntity
  8
STANDARDEBENE
 62
     7
100
AcDbVertex
100
AcDb2dVertex
 10
164.5402804886808
 20
43.2619873504918
 30
0.0
  0
VERTEX
  5
258
330
249
100
AcDbEntity
  8
STANDARDEBENE
 62
     7
100
AcDbVertex
100
AcDb2dVertex
 10
164.4954942178273
 20
43.42804106242556
 30
0.0
  0
SEQEND
  5
259
330
249
100
AcDbEntity
  8
STANDARDEBENE
  0
POLYLINE
  5
25A
330
1F
100
AcDbEntity
  8
STANDARDEBENE
 62
     7
100
AcDb2dPolyline
 66
     1
 10
0.0
 20
0.0
 30
0.0
  0
VERTEX
  5
25B
330
25A
100
AcDbEntity
  8
STANDARDEBENE
 62
     7
100
AcDbVertex
100
AcDb2dVertex
 10
164.4932549042846
 20
48.43342359496809
 30
0.0
  0
VERTEX
  5
25C
330
25A
100
AcDbEntity
  8
STANDARDEBENE
 62
     7
100
AcDbVertex
100
AcDb2dVertex
 10
164.5065185306528
 20
48.48199947335535
 30
0.0
  0
VERTEX
  5
25D
330
25A
100
AcDbEntity
  8
STANDARDEBENE
 62
     7
100
AcDbVertex
100
AcDb2dVertex
 10
164.5452758804299
 20
48.62255946188019
 30
0.0
  0
VERTEX
  5
25E
330
25A
100
AcDbEntity
  8
STANDARDEBENE
 62
     7
100
AcDbVertex
100
AcDb2dVertex
 10
164.6777398892235
 20
49.16309530010438
 30
0.0
  0
VERTEX
  5
25F
330
25A
100
AcDbEntity
  8
STANDARDEBENE
 62
     7
100
AcDbVertex
100
AcDb2dVertex
 10
164.8413820327267
 20
50.01782405385467
 30
0.0
  0
VERTEX
  5
260
330
25A
100
AcDbEntity
  8
STANDARDEBENE
 62
     7
100
AcDbVertex
100
AcDb2dVertex
 10
164.9133845758681
 20
50.54371822660752
 30
0.0
  0
VERTEX
  5
261
330
25A
100
AcDbEntity
  8
STANDARDEBENE
 62
     7
100
AcDbVertex
100
AcDb2dVertex
 10
164.9657500617891
 20
51.11112582734381
 30
0.0
  0
VERTEX
  5
262
330
25A
100
AcDbEntity
  8
STANDARDEBENE
 62
     7
100
AcDbVertex
100
AcDb2dVertex
 10
164.9905547656464
 20
51.69024676045717
 30
0.0
  0
VERTEX
  5
263
330
25A
100
AcDbEntity
  8
STANDARDEBENE
 62
     7
100
AcDbVertex
100
AcDb2dVertex
 10
164.9888322167674
 20
52.27660239886225
 30
0.0
  0
VERTEX
  5
264
330
25A
100
AcDbEntity
  8
STANDARDEBENE
 62
     7
100
AcDbVertex
100
AcDb2dVertex
 10
164.9085614390069
 20
53.36714809414502
 30
0.0
  0
VERTEX
  5
265
330
25A
100
AcDbEntity
  8
STANDARDEBENE
 62
     7
100
AcDbVertex
100
AcDb2dVertex
 10
164.7593887060872
 20
54.31506674224818
 30
0.0
  0
VERTEX
  5
266
330
25A
100
AcDbEntity
  8
STANDARDEBENE
 62
     7
100
AcDbVertex
100
AcDb2dVertex
 10
164.6763618501203
 20
54.71194200396537
 30
0.0
  0
VERTEX
  5
267
330
25A
100
AcDbEntity
  8
STANDARDEBENE
 62
     7
100
AcDbVertex
100
AcDb2dVertex
 10
164.6002251896693
 20
55.03044129168893
 30
0.0
  0
VERTEX
  5
268
330
25A
100
AcDbEntity
  8
STANDARDEBENE
 62
     7
100
AcDbVertex
100
AcDb2dVertex
 10
164.5402804886808
 20
55.26160735124816
 30
0.0
  0
VERTEX
  5
269
330
25A
100
AcDbEntity
  8
STANDARDEBENE
 62
     7
100
AcDbVertex
100
AcDb2dVertex
 10
164.4954942178273
 20
55.42783331806981
 30
0.0
  0
SEQEND
  5
26A
330
25A
100
AcDbEntity
  8
STANDARDEBENE
  0
POLYLINE
  5
26B
330
1F
100
AcDbEntity
  8
STANDARDEBENE
 62
     7
100
AcDb2dPolyline
 66
     1
 10
0.0
 20
0.0
 30
0.0
  0
VERTEX
  5
26C
330
26B
100
AcDbEntity
  8
STANDARDEBENE
 62
     7
100
AcDbVertex
100
AcDb2dVertex
 10
189.4914010007184
 20
45.92918203470574
 30
0.0
  0
VERTEX
  5
26D
330
26B
100
AcDbEntity
  8
STANDARDEBENE
 62
     7
100
AcDbVertex
100
AcDb2dVertex
 10
189.4927790398215
 20
45.93452193623058
 30
0.0
  0
VERTEX
  5
26E
330
26B
100
AcDbEntity
  8
STANDARDEBENE
 62
     7
100
AcDbVertex
100
AcDb2dVertex
 10
189.4758980608075
 20
45.87182115703568
 30
0.0
  0
VERTEX
  5
26F
330
26B
100
AcDbEntity
  8
STANDARDEBENE
 62
     7
100
AcDbVertex
100
AcDb2dVertex
 10
189.3756457160508
 20
45.48373089460129
 30
0.0
  0
VERTEX
  5
270
330
26B
100
AcDbEntity
  8
STANDARDEBENE
 62
     7
100
AcDbVertex
100
AcDb2dVertex
 10
189.2195827876152
 20
44.76680605116947
 30
0.0
  0
VERTEX
  5
271
330
26B
100
AcDbEntity
  8
STANDARDEBENE
 62
     7
100
AcDbVertex
100
AcDb2dVertex
 10
189.1382784805273
 20
44.29017677635547
 30
0.0
  0
VERTEX
  5
272
330
26B
100
AcDbEntity
  8
STANDARDEBENE
 62
     7
100
AcDbVertex
100
AcDb2dVertex
 10
189.0686875058165
 20
43.75997623140516
 30
0.0
  0
VERTEX
  5
273
330
26B
100
AcDbEntity
  8
STANDARDEBENE
 62
     7
100
AcDbVertex
100
AcDb2dVertex
 10
189.018733588326
 20
43.18774549380772
 30
0.0
  0
VERTEX
  5
274
330
26B
100
AcDbEntity
  8
STANDARDEBENE
 62
     7
100
AcDbVertex
100
AcDb2dVertex
 10
188.9949624137961
 20
42.59243260123195
 30
0.0
  0
VERTEX
  5
275
330
26B
100
AcDbEntity
  8
STANDARDEBENE
 62
     7
100
AcDbVertex
100
AcDb2dVertex
 10
189.0004745702088
 20
42.01486196210967
 30
0.0
  0
VERTEX
  5
276
330
26B
100
AcDbEntity
  8
STANDARDEBENE
 62
     7
100
AcDbVertex
100
AcDb2dVertex
 10
189.0328584891336
 20
41.44866014558867
 30
0.0
  0
VERTEX
  5
277
330
26B
100
AcDbEntity
  8
STANDARDEBENE
 62
     7
100
AcDbVertex
100
AcDb2dVertex
 10
189.1568820084203
 20
40.43287307165366
 30
0.0
  0
VERTEX
  5
278
330
26B
100
AcDbEntity
  8
STANDARDEBENE
 62
     7
100
AcDbVertex
100
AcDb2dVertex
 10
189.3191461128202
 20
39.61018372705241
 30
0.0
  0
VERTEX
  5
279
330
26B
100
AcDbEntity
  8
STANDARDEBENE
 62
     7
100
AcDbVertex
100
AcDb2dVertex
 10
189.393904734168
 20
39.30201973260274
 30
0.0
  0
VERTEX
  5
27A
330
26B
100
AcDbEntity
  8
STANDARDEBENE
 62
     7
100
AcDbVertex
100
AcDb2dVertex
 10
189.4521268862776
 20
39.08239475053268
 30
0.0
  0
VERTEX
  5
27B
330
26B
100
AcDbEntity
  8
STANDARDEBENE
 62
     7
100
AcDbVertex
100
AcDb2dVertex
 10
189.4941570789247
 20
38.93184397850975
 30
0.0
  0
SEQEND
  5
27C
330
26B
100
AcDbEntity
  8
STANDARDEBENE
  0
POLYLINE
  5
27D
330
1F
100
AcDbEntity
  8
STANDARDEBENE
 62
     7
100
AcDb2dPolyline
 66
     1
 10
0.0
 20
0.0
 30
0.0
  0
VERTEX
  5
27E
330
27D
100
AcDbEntity
  8
STANDARDEBENE
 62
     7
100
AcDbVertex
100
AcDb2dVertex
 10
189.4941570789247
 20
56.43345735361883
 30
0.0
  0
VERTEX
  5
27F
330
27D
100
AcDbEntity
  8
STANDARDEBENE
 62
     7
100
AcDbVertex
100
AcDb2dVertex
 10
189.3870145386521
 20
56.43345735361883
 30
0.0
  0
VERTEX
  5
280
330
27D
100
AcDbEntity
  8
STANDARDEBENE
 62
     7
100
AcDbVertex
100
AcDb2dVertex
 10
189.0673094667133
 20
56.43345735361883
 30
0.0
  0
VERTEX
  5
281
330
27D
100
AcDbEntity
  8
STANDARDEBENE
 62
     7
100
AcDbVertex
100
AcDb2dVertex
 10
188.5419320586241
 20
56.43345735361883
 30
0.0
  0
VERTEX
  5
282
330
27D
100
AcDbEntity
  8
STANDARDEBENE
 62
     7
100
AcDbVertex
100
AcDb2dVertex
 10
187.8191505490038
 20
56.43345735361883
 30
0.0
  0
VERTEX
  5
283
330
27D
100
AcDbEntity
  8
STANDARDEBENE
 62
     7
100
AcDbVertex
100
AcDb2dVertex
 10
186.9103337604535
 20
56.43345735361883
 30
0.0
  0
VERTEX
  5
284
330
27D
100
AcDbEntity
  8
STANDARDEBENE
 62
     7
100
AcDbVertex
100
AcDb2dVertex
 10
185.8323626719872
 20
56.43345735361883
 30
0.0
  0
VERTEX
  5
285
330
27D
100
AcDbEntity
  8
STANDARDEBENE
 62
     7
100
AcDbVertex
100
AcDb2dVertex
 10
184.6024627723949
 20
56.43345735361883
 30
0.0
  0
VERTEX
  5
286
330
27D
100
AcDbEntity
  8
STANDARDEBENE
 62
     7
100
AcDbVertex
100
AcDb2dVertex
 10
183.243371706879
 20
56.43345735361883
 30
0.0
  0
VERTEX
  5
287
330
27D
100
AcDbEntity
  8
STANDARDEBENE
 62
     7
100
AcDbVertex
100
AcDb2dVertex
 10
181.7771381010905
 20
56.43345735361883
 30
0.0
  0
VERTEX
  5
288
330
27D
100
AcDbEntity
  8
STANDARDEBENE
 62
     7
100
AcDbVertex
100
AcDb2dVertex
 10
180.2289111686625
 20
56.43345735361883
 30
0.0
  0
VERTEX
  5
289
330
27D
100
AcDbEntity
  8
STANDARDEBENE
 62
     7
100
AcDbVertex
100
AcDb2dVertex
 10
178.6252181623314
 20
56.43345735361883
 30
0.0
  0
VERTEX
  5
28A
330
27D
100
AcDbEntity
  8
STANDARDEBENE
 62
     7
100
AcDbVertex
100
AcDb2dVertex
 10
176.9932753543849
 20
56.43345735361883
 30
0.0
  0
VERTEX
  5
28B
330
27D
100
AcDbEntity
  8
STANDARDEBENE
 62
     7
100
AcDbVertex
100
AcDb2dVertex
 10
175.3623660757659
 20
56.43345735361883
 30
0.0
  0
VERTEX
  5
28C
330
27D
100
AcDbEntity
  8
STANDARDEBENE
 62
     7
100
AcDbVertex
100
AcDb2dVertex
 10
173.7586730694347
 20
56.43345735361883
 30
0.0
  0
VERTEX
  5
28D
330
27D
100
AcDbEntity
  8
STANDARDEBENE
 62
     7
100
AcDbVertex
100
AcDb2dVertex
 10
172.2104461370067
 20
56.43345735361883
 30
0.0
  0
VERTEX
  5
28E
330
27D
100
AcDbEntity
  8
STANDARDEBENE
 62
     7
100
AcDbVertex
100
AcDb2dVertex
 10
170.7431790018908
 20
56.43345735361883
 30
0.0
  0
VERTEX
  5
28F
330
27D
100
AcDbEntity
  8
STANDARDEBENE
 62
     7
100
AcDbVertex
100
AcDb2dVertex
 10
169.384087936375
 20
56.43345735361883
 30
0.0
  0
VERTEX
  5
290
330
27D
100
AcDbEntity
  8
STANDARDEBENE
 62
     7
100
AcDbVertex
100
AcDb2dVertex
 10
168.1545325465584
 20
56.43345735361883
 30
0.0
  0
VERTEX
  5
291
330
27D
100
AcDbEntity
  8
STANDARDEBENE
 62
     7
100
AcDbVertex
100
AcDb2dVertex
 10
167.0765614580922
 20
56.43345735361883
 30
0.0
  0
VERTEX
  5
292
330
27D
100
AcDbEntity
  8
STANDARDEBENE
 62
     7
100
AcDbVertex
100
AcDb2dVertex
 10
166.1684336890935
 20
56.43345735361883
 30
0.0
  0
VERTEX
  5
293
330
27D
100
AcDbEntity
  8
STANDARDEBENE
 62
     7
100
AcDbVertex
100
AcDb2dVertex
 10
165.4446186501458
 20
56.43345735361883
 30
0.0
  0
VERTEX
  5
294
330
27D
100
AcDbEntity
  8
STANDARDEBENE
 62
     7
100
AcDbVertex
100
AcDb2dVertex
 10
164.9192412420566
 20
56.43345735361883
 30
0.0
  0
VERTEX
  5
295
330
27D
100
AcDbEntity
  8
STANDARDEBENE
 62
     7
100
AcDbVertex
100
AcDb2dVertex
 10
164.6005696994451
 20
56.43345735361883
 30
0.0
  0
VERTEX
  5
296
330
27D
100
AcDbEntity
  8
STANDARDEBENE
 62
     7
100
AcDbVertex
100
AcDb2dVertex
 10
164.4932549042846
 20
56.43345735361883
 30
0.0
  0
SEQEND
  5
297
330
27D
100
AcDbEntity
  8
STANDARDEBENE
  0
POLYLINE
  5
298
330
1F
100
AcDbEntity
  8
STANDARDEBENE
 62
     7
100
AcDb2dPolyline
 66
     1
 10
0.0
 20
0.0
 30
0.0
  0
VERTEX
  5
299
330
298
100
AcDbEntity
  8
STANDARDEBENE
 62
     7
100
AcDbVertex
100
AcDb2dVertex
 10
189.4941570789247
 20
15.43369344589257
 30
0.0
  0
VERTEX
  5
29A
330
298
100
AcDbEntity
  8
STANDARDEBENE
 62
     7
100
AcDbVertex
100
AcDb2dVertex
 10
189.3870145386521
 20
15.43369344589257
 30
0.0
  0
VERTEX
  5
29B
330
298
100
AcDbEntity
  8
STANDARDEBENE
 62
     7
100
AcDbVertex
100
AcDb2dVertex
 10
189.0673094667133
 20
15.43369344589257
 30
0.0
  0
VERTEX
  5
29C
330
298
100
AcDbEntity
  8
STANDARDEBENE
 62
     7
100
AcDbVertex
100
AcDb2dVertex
 10
188.5419320586241
 20
15.43369344589257
 30
0.0
  0
VERTEX
  5
29D
330
298
100
AcDbEntity
  8
STANDARDEBENE
 62
     7
100
AcDbVertex
100
AcDb2dVertex
 10
187.8191505490038
 20
15.43369344589257
 30
0.0
  0
VERTEX
  5
29E
330
298
100
AcDbEntity
  8
STANDARDEBENE
 62
     7
100
AcDbVertex
100
AcDb2dVertex
 10
186.9103337604535
 20
15.43369344589257
 30
0.0
  0
VERTEX
  5
29F
330
298
100
AcDbEntity
  8
STANDARDEBENE
 62
     7
100
AcDbVertex
100
AcDb2dVertex
 10
185.8323626719872
 20
15.43369344589257
 30
0.0
  0
VERTEX
  5
2A0
330
298
100
AcDbEntity
  8
STANDARDEBENE
 62
     7
100
AcDbVertex
100
AcDb2dVertex
 10
184.6024627723949
 20
15.43369344589257
 30
0.0
  0
VERTEX
  5
2A1
330
298
100
AcDbEntity
  8
STANDARDEBENE
 62
     7
100
AcDbVertex
100
AcDb2dVertex
 10
183.243371706879
 20
15.43369344589257
 30
0.0
  0
VERTEX
  5
2A2
330
298
100
AcDbEntity
  8
STANDARDEBENE
 62
     7
100
AcDbVertex
100
AcDb2dVertex
 10
181.7771381010905
 20
15.43369344589257
 30
0.0
  0
VERTEX
  5
2A3
330
298
100
AcDbEntity
  8
STANDARDEBENE
 62
     7
100
AcDbVertex
100
AcDb2dVertex
 10
180.2289111686625
 20
15.43369344589257
 30
0.0
  0
VERTEX
  5
2A4
330
298
100
AcDbEntity
  8
STANDARDEBENE
 62
     7
100
AcDbVertex
100
AcDb2dVertex
 10
178.6252181623314
 20
15.43369344589257
 30
0.0
  0
VERTEX
  5
2A5
330
298
100
AcDbEntity
  8
STANDARDEBENE
 62
     7
100
AcDbVertex
100
AcDb2dVertex
 10
176.9932753543849
 20
15.43369344589257
 30
0.0
  0
VERTEX
  5
2A6
330
298
100
AcDbEntity
  8
STANDARDEBENE
 62
     7
100
AcDbVertex
100
AcDb2dVertex
 10
175.3623660757659
 20
15.43369344589257
 30
0.0
  0
VERTEX
  5
2A7
330
298
100
AcDbEntity
  8
STANDARDEBENE
 62
     7
100
AcDbVertex
100
AcDb2dVertex
 10
173.7586730694347
 20
15.43369344589257
 30
0.0
  0
VERTEX
  5
2A8
330
298
100
AcDbEntity
  8
STANDARDEBENE
 62
     7
100
AcDbVertex
100
AcDb2dVertex
 10
172.2104461370067
 20
15.43369344589257
 30
0.0
  0
VERTEX
  5
2A9
330
298
100
AcDbEntity
  8
STANDARDEBENE
 62
     7
100
AcDbVertex
100
AcDb2dVertex
 10
170.7431790018908
 20
15.43369344589257
 30
0.0
  0
VERTEX
  5
2AA
330
298
100
AcDbEntity
  8
STANDARDEBENE
 62
     7
100
AcDbVertex
100
AcDb2dVertex
 10
169.384087936375
 20
15.43369344589257
 30
0.0
  0
VERTEX
  5
2AB
330
298
100
AcDbEntity
  8
STANDARDEBENE
 62
     7
100
AcDbVertex
100
AcDb2dVertex
 10
168.1545325465584
 20
15.43369344589257
 30
0.0
  0
VERTEX
  5
2AC
330
298
100
AcDbEntity
  8
STANDARDEBENE
 62
     7
100
AcDbVertex
100
AcDb2dVertex
 10
167.0765614580922
 20
15.43369344589257
 30
0.0
  0
VERTEX
  5
2AD
330
298
100
AcDbEntity
  8
STANDARDEBENE
 62
     7
100
AcDbVertex
100
AcDb2dVertex
 10
166.1684336890935
 20
15.43369344589257
 30
0.0
  0
VERTEX
  5
2AE
330
298
100
AcDbEntity
  8
STANDARDEBENE
 62
     7
100
AcDbVertex
100
AcDb2dVertex
 10
165.4446186501458
 20
15.43369344589257
 30
0.0
  0
VERTEX
  5
2AF
330
298
100
AcDbEntity
  8
STANDARDEBENE
 62
     7
100
AcDbVertex
100
AcDb2dVertex
 10
164.9192412420566
 20
15.43369344589257
 30
0.0
  0
VERTEX
  5
2B0
330
298
100
AcDbEntity
  8
STANDARDEBENE
 62
     7
100
AcDbVertex
100
AcDb2dVertex
 10
164.6005696994451
 20
15.43369344589257
 30
0.0
  0
VERTEX
  5
2B1
330
298
100
AcDbEntity
  8
STANDARDEBENE
 62
     7
100
AcDbVertex
100
AcDb2dVertex
 10
164.4932549042846
 20
15.43369344589257
 30
0.0
  0
SEQEND
  5
2B2
330
298
100
AcDbEntity
  8
STANDARDEBENE
  0
POLYLINE
  5
2B3
330
1F
100
AcDbEntity
  8
STANDARDEBENE
 62
     7
100
AcDb2dPolyline
 66
     1
 10
0.0
 20
0.0
 30
0.0
  0
VERTEX
  5
2B4
330
2B3
100
AcDbEntity
  8
STANDARDEBENE
 62
     7
100
AcDbVertex
100
AcDb2dVertex
 10
179.9929219722422
 20
3.033580830773165
 30
0.0
  0
VERTEX
  5
2B5
330
2B3
100
AcDbEntity
  8
STANDARDEBENE
 62
     7
100
AcDbVertex
100
AcDb2dVertex
 10
179.9929219722422
 20
3.634405879761683
 30
0.0
  0
SEQEND
  5
2B6
330
2B3
100
AcDbEntity
  8
STANDARDEBENE
  0
POLYLINE
  5
2B7
330
1F
100
AcDbEntity
  8
STANDARDEBENE
 62
     7
100
AcDb2dPolyline
 66
     1
 10
0.0
 20
0.0
 30
0.0
  0
VERTEX
  5
2B8
330
2B7
100
AcDbEntity
  8
STANDARDEBENE
 62
     7
100
AcDbVertex
100
AcDb2dVertex
 10
173.9939732463035
 20
3.634405879761683
 30
0.0
  0
VERTEX
  5
2B9
330
2B7
100
AcDbEntity
  8
STANDARDEBENE
 62
     7
100
AcDbVertex
100
AcDb2dVertex
 10
173.9939732463035
 20
3.033580830773165
 30
0.0
  0
VERTEX
  5
2BA
330
2B7
100
AcDbEntity
  8
STANDARDEBENE
 62
     7
100
AcDbVertex
100
AcDb2dVertex
 10
173.9602112882754
 20
3.000680147184631
 30
0.0
  0
VERTEX
  5
2BB
330
2B7
100
AcDbEntity
  8
STANDARDEBENE
 62
     7
100
AcDbVertex
100
AcDb2dVertex
 10
173.879940510515
 20
2.920237114536225
 30
0.0
  0
VERTEX
  5
2BC
330
2B7
100
AcDbEntity
  8
STANDARDEBENE
 62
     7
100
AcDbVertex
100
AcDb2dVertex
 10
173.7841667928436
 20
2.824807906640686
 30
0.0
  0
VERTEX
  5
2BD
330
2B7
100
AcDbEntity
  8
STANDARDEBENE
 62
     7
100
AcDbVertex
100
AcDb2dVertex
 10
173.6859815067417
 20
2.726622620538778
 30
0.0
  0
VERTEX
  5
2BE
330
2B7
100
AcDbEntity
  8
STANDARDEBENE
 62
     7
100
AcDbVertex
100
AcDb2dVertex
 10
173.5988205334653
 20
2.638772627710755
 30
0.0
  0
VERTEX
  5
2BF
330
2B7
100
AcDbEntity
  8
STANDARDEBENE
 62
     7
100
AcDbVertex
100
AcDb2dVertex
 10
173.5264734805481
 20
2.566597829681458
 30
0.0
  0
VERTEX
  5
2C0
330
2B7
100
AcDbEntity
  8
STANDARDEBENE
 62
     7
100
AcDbVertex
100
AcDb2dVertex
 10
173.4630836818016
 20
2.503724795598657
 30
0.0
  0
VERTEX
  5
2C1
330
2B7
100
AcDbEntity
  8
STANDARDEBENE
 62
     7
100
AcDbVertex
100
AcDb2dVertex
 10
173.423465057585
 20
2.463589406718403
 30
0.0
  0
VERTEX
  5
2C2
330
2B7
100
AcDbEntity
  8
STANDARDEBENE
 62
     7
100
AcDbVertex
100
AcDb2dVertex
 10
173.3983158439519
 20
2.438267938197385
 30
0.0
  0
VERTEX
  5
2C3
330
2B7
100
AcDbEntity
  8
STANDARDEBENE
 62
     7
100
AcDbVertex
100
AcDb2dVertex
 10
173.3934927070908
 20
2.434133820887831
 30
0.0
  0
SEQEND
  5
2C4
330
2B7
100
AcDbEntity
  8
STANDARDEBENE
  0
POLYLINE
  5
2C5
330
1F
100
AcDbEntity
  8
STANDARDEBENE
 62
     7
100
AcDb2dPolyline
 66
     1
 10
0.0
 20
0.0
 30
0.0
  0
VERTEX
  5
2C6
330
2C5
100
AcDbEntity
  8
STANDARDEBENE
 62
     7
100
AcDbVertex
100
AcDb2dVertex
 10
180.5934025114549
 20
2.434133820887831
 30
0.0
  0
VERTEX
  5
2C7
330
2C5
100
AcDbEntity
  8
STANDARDEBENE
 62
     7
100
AcDbVertex
100
AcDb2dVertex
 10
180.5820336888536
 20
2.444813623937512
 30
0.0
  0
VERTEX
  5
2C8
330
2C5
100
AcDbEntity
  8
STANDARDEBENE
 62
     7
100
AcDbVertex
100
AcDb2dVertex
 10
180.552750357911
 20
2.475130484207575
 30
0.0
  0
VERTEX
  5
2C9
330
2C5
100
AcDbEntity
  8
STANDARDEBENE
 62
     7
100
AcDbVertex
100
AcDb2dVertex
 10
180.4996958524384
 20
2.527495970128593
 30
0.0
  0
VERTEX
  5
2CA
330
2C5
100
AcDbEntity
  8
STANDARDEBENE
 62
     7
100
AcDbVertex
100
AcDb2dVertex
 10
180.4397511514498
 20
2.587612926005024
 30
0.0
  0
VERTEX
  5
2CB
330
2C5
100
AcDbEntity
  8
STANDARDEBENE
 62
     7
100
AcDbVertex
100
AcDb2dVertex
 10
180.3715382158422
 20
2.655998116500564
 30
0.0
  0
VERTEX
  5
2CC
330
2C5
100
AcDbEntity
  8
STANDARDEBENE
 62
     7
100
AcDbVertex
100
AcDb2dVertex
 10
180.2936790065122
 20
2.733340561166804
 30
0.0
  0
VERTEX
  5
2CD
330
2C5
100
AcDbEntity
  8
STANDARDEBENE
 62
     7
100
AcDbVertex
100
AcDb2dVertex
 10
180.2103076407695
 20
2.817917711124763
 30
0.0
  0
VERTEX
  5
2CE
330
2C5
100
AcDbEntity
  8
STANDARDEBENE
 62
     7
100
AcDbVertex
100
AcDb2dVertex
 10
180.1255582359237
 20
2.901461331755334
 30
0.0
  0
VERTEX
  5
2CF
330
2C5
100
AcDbEntity
  8
STANDARDEBENE
 62
     7
100
AcDbVertex
100
AcDb2dVertex
 10
180.1066101982549
 20
2.920237114536225
 30
0.0
  0
VERTEX
  5
2D0
330
2C5
100
AcDbEntity
  8
STANDARDEBENE
 62
     7
100
AcDbVertex
100
AcDb2dVertex
 10
180.1004090222906
 20
2.926438290500556
 30
0.0
  0
VERTEX
  5
2D1
330
2C5
100
AcDbEntity
  8
STANDARDEBENE
 62
     7
100
AcDbVertex
100
AcDb2dVertex
 10
180.0163486369963
 20
3.011359950234312
 30
0.0
  0
VERTEX
  5
2D2
330
2C5
100
AcDbEntity
  8
STANDARDEBENE
 62
     7
100
AcDbVertex
100
AcDb2dVertex
 10
179.9929219722422
 20
3.033580830773165
 30
0.0
  0
SEQEND
  5
2D3
330
2C5
100
AcDbEntity
  8
STANDARDEBENE
  0
SPLINE
  5
2D4
330
1F
100
AcDbEntity
  8
STANDARDEBENE
 62
     7
100
AcDbSpline
210
0.0
220
0.0
230
1.0
 70
     8
 71
     3
 72
     8
 73
     4
 74
     0
 42
0.0000000001
 43
0.0000000001
 40
0.0
 40
0.0
 40
0.0
 40
0.0
 40
1.0
 40
1.0
 40
1.0
 40
1.0
 10
179.9929219722422
 20
3.634405879761683
 30
0.0
 10
179.9929219722422
 20
4.075550647668678
 30
0.0
 10
179.6356653347415
 20
4.434185324272489
 30
0.0
 10
179.1936592923951
 20
4.434185324272489
 30
0.0
  0
SPLINE
  5
2D5
330
1F
100
AcDbEntity
  8
STANDARDEBENE
 62
     7
100
AcDbSpline
210
0.0
220
0.0
230
1.0
 70
     8
 71
     3
 72
     8
 73
     4
 74
     0
 42
0.0000000001
 43
0.0000000001
 40
0.0
 40
0.0
 40
0.0
 40
0.0
 40
1.0
 40
1.0
 40
1.0
 40
1.0
 10
174.7932359261506
 20
4.434185324272489
 30
0.0
 10
174.3522634131315
 20
4.434185324272489
 30
0.0
 10
173.9939732463035
 20
4.075550647668678
 30
0.0
 10
173.9939732463035
 20
3.634405879761683
 30
0.0
  0
POLYLINE
  5
2D6
330
1F
100
AcDbEntity
  8
STANDARDEBENE
 62
     7
100
AcDb2dPolyline
 66
     1
 10
0.0
 20
0.0
 30
0.0
  0
VERTEX
  5
2D7
330
2D6
100
AcDbEntity
  8
STANDARDEBENE
 62
     7
100
AcDbVertex
100
AcDb2dVertex
 10
124.3435688683354
 20
15.43369344589257
 30
0.0
  0
VERTEX
  5
2D8
330
2D6
100
AcDbEntity
  8
STANDARDEBENE
 62
     7
100
AcDbVertex
100
AcDb2dVertex
 10
124.3435688683354
 20
56.43345735361883
 30
0.0
  0
SEQEND
  5
2D9
330
2D6
100
AcDbEntity
  8
STANDARDEBENE
  0
POLYLINE
  5
2DA
330
1F
100
AcDbEntity
  8
STANDARDEBENE
 62
     7
100
AcDb2dPolyline
 66
     1
 10
0.0
 20
0.0
 30
0.0
  0
VERTEX
  5
2DB
330
2DA
100
AcDbEntity
  8
STANDARDEBENE
 62
     7
100
AcDbVertex
100
AcDb2dVertex
 10
99.34404473279854
 20
56.43345735361883
 30
0.0
  0
VERTEX
  5
2DC
330
2DA
100
AcDbEntity
  8
STANDARDEBENE
 62
     7
100
AcDbVertex
100
AcDb2dVertex
 10
99.34404473279854
 20
15.43369344589257
 30
0.0
  0
SEQEND
  5
2DD
330
2DA
100
AcDbEntity
  8
STANDARDEBENE
  0
POLYLINE
  5
2DE
330
1F
100
AcDbEntity
  8
STANDARDEBENE
 62
     7
100
AcDb2dPolyline
 66
     1
 10
0.0
 20
0.0
 30
0.0
  0
VERTEX
  5
2DF
330
2DE
100
AcDbEntity
  8
STANDARDEBENE
 62
     7
100
AcDbVertex
100
AcDb2dVertex
 10
124.3435688683354
 20
56.43345735361883
 30
0.0
  0
VERTEX
  5
2E0
330
2DE
100
AcDbEntity
  8
STANDARDEBENE
 62
     7
100
AcDbVertex
100
AcDb2dVertex
 10
123.3438014989749
 20
57.4340859974188
 30
0.0
  0
SEQEND
  5
2E1
330
2DE
100
AcDbEntity
  8
STANDARDEBENE
  0
POLYLINE
  5
2E2
330
1F
100
AcDbEntity
  8
STANDARDEBENE
 62
     7
100
AcDb2dPolyline
 66
     1
 10
0.0
 20
0.0
 30
0.0
  0
VERTEX
  5
2E3
330
2E2
100
AcDbEntity
  8
STANDARDEBENE
 62
     7
100
AcDbVertex
100
AcDb2dVertex
 10
100.343812102159
 20
57.4340859974188
 30
0.0
  0
VERTEX
  5
2E4
330
2E2
100
AcDbEntity
  8
STANDARDEBENE
 62
     7
100
AcDbVertex
100
AcDb2dVertex
 10
99.34404473279854
 20
56.43345735361883
 30
0.0
  0
SEQEND
  5
2E5
330
2E2
100
AcDbEntity
  8
STANDARDEBENE
  0
POLYLINE
  5
2E6
330
1F
100
AcDbEntity
  8
STANDARDEBENE
 62
     7
100
AcDb2dPolyline
 66
     1
 10
0.0
 20
0.0
 30
0.0
  0
VERTEX
  5
2E7
330
2E6
100
AcDbEntity
  8
STANDARDEBENE
 62
     7
100
AcDbVertex
100
AcDb2dVertex
 10
102.4935531031271
 20
9.939107031719471
 30
0.0
  0
VERTEX
  5
2E8
330
2E6
100
AcDbEntity
  8
STANDARDEBENE
 62
     7
100
AcDbVertex
100
AcDb2dVertex
 10
102.7700221982035
 20
4.434185324272489
 30
0.0
  0
SEQEND
  5
2E9
330
2E6
100
AcDbEntity
  8
STANDARDEBENE
  0
POLYLINE
  5
2EA
330
1F
100
AcDbEntity
  8
STANDARDEBENE
 62
     7
100
AcDb2dPolyline
 66
     1
 10
0.0
 20
0.0
 30
0.0
  0
VERTEX
  5
2EB
330
2EA
100
AcDbEntity
  8
STANDARDEBENE
 62
     7
100
AcDbVertex
100
AcDb2dVertex
 10
121.0183605123508
 20
6.433892317881352
 30
0.0
  0
VERTEX
  5
2EC
330
2EA
100
AcDbEntity
  8
STANDARDEBENE
 62
     7
100
AcDbVertex
100
AcDb2dVertex
 10
121.1940604980068
 20
9.937212227952593
 30
0.0
  0
SEQEND
  5
2ED
330
2EA
100
AcDbEntity
  8
STANDARDEBENE
  0
POLYLINE
  5
2EE
330
1F
100
AcDbEntity
  8
STANDARDEBENE
 62
     7
100
AcDb2dPolyline
 66
     1
 10
0.0
 20
0.0
 30
0.0
  0
VERTEX
  5
2EF
330
2EE
100
AcDbEntity
  8
STANDARDEBENE
 62
     7
100
AcDbVertex
100
AcDb2dVertex
 10
121.3437499955903
 20
12.93358600293977
 30
0.0
  0
VERTEX
  5
2F0
330
2EE
100
AcDbEntity
  8
STANDARDEBENE
 62
     7
100
AcDbVertex
100
AcDb2dVertex
 10
121.3437499955903
 20
13.43381419739581
 30
0.0
  0
SEQEND
  5
2F1
330
2EE
100
AcDbEntity
  8
STANDARDEBENE
  0
POLYLINE
  5
2F2
330
1F
100
AcDbEntity
  8
STANDARDEBENE
 62
     7
100
AcDb2dPolyline
 66
     1
 10
0.0
 20
0.0
 30
0.0
  0
VERTEX
  5
2F3
330
2F2
100
AcDbEntity
  8
STANDARDEBENE
 62
     7
100
AcDbVertex
100
AcDb2dVertex
 10
102.3443803702074
 20
13.43381419739581
 30
0.0
  0
VERTEX
  5
2F4
330
2F2
100
AcDbEntity
  8
STANDARDEBENE
 62
     7
100
AcDbVertex
100
AcDb2dVertex
 10
102.3443803702074
 20
12.93358600293977
 30
0.0
  0
SEQEND
  5
2F5
330
2F2
100
AcDbEntity
  8
STANDARDEBENE
  0
POLYLINE
  5
2F6
330
1F
100
AcDbEntity
  8
STANDARDEBENE
 62
     7
100
AcDb2dPolyline
 66
     1
 10
0.0
 20
0.0
 30
0.0
  0
VERTEX
  5
2F7
330
2F6
100
AcDbEntity
  8
STANDARDEBENE
 62
     7
100
AcDbVertex
100
AcDb2dVertex
 10
121.3437499955903
 20
13.43381419739581
 30
0.0
  0
VERTEX
  5
2F8
330
2F6
100
AcDbEntity
  8
STANDARDEBENE
 62
     7
100
AcDbVertex
100
AcDb2dVertex
 10
121.0643525674196
 20
14.47698979850661
 30
0.0
  0
SEQEND
  5
2F9
330
2F6
100
AcDbEntity
  8
STANDARDEBENE
  0
POLYLINE
  5
2FA
330
1F
100
AcDbEntity
  8
STANDARDEBENE
 62
     7
100
AcDb2dPolyline
 66
     1
 10
0.0
 20
0.0
 30
0.0
  0
VERTEX
  5
2FB
330
2FA
100
AcDbEntity
  8
STANDARDEBENE
 62
     7
100
AcDbVertex
100
AcDb2dVertex
 10
102.6234332886023
 20
14.47698979850661
 30
0.0
  0
VERTEX
  5
2FC
330
2FA
100
AcDbEntity
  8
STANDARDEBENE
 62
     7
100
AcDbVertex
100
AcDb2dVertex
 10
102.3443803702074
 20
13.43381419739581
 30
0.0
  0
SEQEND
  5
2FD
330
2FA
100
AcDbEntity
  8
STANDARDEBENE
  0
POLYLINE
  5
2FE
330
1F
100
AcDbEntity
  8
STANDARDEBENE
 62
     7
100
AcDb2dPolyline
 66
     1
 10
0.0
 20
0.0
 30
0.0
  0
VERTEX
  5
2FF
330
2FE
100
AcDbEntity
  8
STANDARDEBENE
 62
     7
100
AcDbVertex
100
AcDb2dVertex
 10
102.6437593653742
 20
15.18754121108621
 30
0.0
  0
VERTEX
  5
300
330
2FE
100
AcDbEntity
  8
STANDARDEBENE
 62
     7
100
AcDbVertex
100
AcDb2dVertex
 10
102.6437593653742
 20
14.63270821716648
 30
0.0
  0
SEQEND
  5
301
330
2FE
100
AcDbEntity
  8
STANDARDEBENE
  0
POLYLINE
  5
302
330
1F
100
AcDbEntity
  8
STANDARDEBENE
 62
     7
100
AcDb2dPolyline
 66
     1
 10
0.0
 20
0.0
 30
0.0
  0
VERTEX
  5
303
330
302
100
AcDbEntity
  8
STANDARDEBENE
 62
     7
100
AcDbVertex
100
AcDb2dVertex
 10
121.0443710004234
 20
14.63270821716648
 30
0.0
  0
VERTEX
  5
304
330
302
100
AcDbEntity
  8
STANDARDEBENE
 62
     7
100
AcDbVertex
100
AcDb2dVertex
 10
121.0443710004234
 20
15.18754121108621
 30
0.0
  0
SEQEND
  5
305
330
302
100
AcDbEntity
  8
STANDARDEBENE
  0
SPLINE
  5
306
330
1F
100
AcDbEntity
  8
STANDARDEBENE
 62
     7
100
AcDbSpline
210
0.0
220
0.0
230
1.0
 70
     8
 71
     3
 72
     8
 73
     4
 74
     0
 42
0.0000000001
 43
0.0000000001
 40
0.0
 40
0.0
 40
0.0
 40
0.0
 40
1.0
 40
1.0
 40
1.0
 40
1.0
 10
121.0967364863444
 20
15.43369344589257
 30
0.0
 10
121.0600461952221
 20
15.35238913880467
 30
0.0
 10
121.0431652162081
 20
15.26712296929512
 30
0.0
 10
121.0443710004234
 20
15.18754121108621
 30
0.0
  0
SPLINE
  5
307
330
1F
100
AcDbEntity
  8
STANDARDEBENE
 62
     7
100
AcDbSpline
210
0.0
220
0.0
230
1.0
 70
     8
 71
     3
 72
     8
 73
     4
 74
     0
 42
0.0000000001
 43
0.0000000001
 40
0.0
 40
0.0
 40
0.0
 40
0.0
 40
1.0
 40
1.0
 40
1.0
 40
1.0
 10
102.6437593653742
 20
15.18754121108621
 30
0.0
 10
102.6437593653742
 20
15.27711375279321
 30
0.0
 10
102.6241223081539
 20
15.36169090275117
 30
0.0
 10
102.5915661343411
 20
15.43369344589257
 30
0.0
  0
SPLINE
  5
308
330
1F
100
AcDbEntity
  8
STANDARDEBENE
 62
     7
100
AcDbSpline
210
0.0
220
0.0
230
1.0
 70
     8
 71
     3
 72
     8
 73
     4
 74
     0
 42
0.0000000001
 43
0.0000000001
 40
0.0
 40
0.0
 40
0.0
 40
0.0
 40
1.0
 40
1.0
 40
1.0
 40
1.0
 10
121.0443710004234
 20
14.63270821716648
 30
0.0
 10
121.0443710004234
 20
14.57724214326329
 30
0.0
 10
121.0512611959393
 20
14.52367087312699
 30
0.0
 10
121.0643525674196
 20
14.47698979850661
 30
0.0
  0
SPLINE
  5
309
330
1F
100
AcDbEntity
  8
STANDARDEBENE
 62
     7
100
AcDbSpline
210
0.0
220
0.0
230
1.0
 70
     8
 71
     3
 72
     8
 73
     4
 74
     0
 42
0.0000000001
 43
0.0000000001
 40
0.0
 40
0.0
 40
0.0
 40
0.0
 40
1.0
 40
1.0
 40
1.0
 40
1.0
 10
102.6234332886023
 20
14.47698979850661
 30
0.0
 10
102.6375581894099
 20
14.53056106864291
 30
0.0
 10
102.6444483849258
 20
14.58378782900342
 30
0.0
 10
102.6437593653742
 20
14.63270821716648
 30
0.0
  0
POLYLINE
  5
30A
330
1F
100
AcDbEntity
  8
STANDARDEBENE
 62
     7
100
AcDb2dPolyline
 66
     1
 10
0.0
 20
0.0
 30
0.0
  0
VERTEX
  5
30B
330
30A
100
AcDbEntity
  8
STANDARDEBENE
 62
     7
100
AcDbVertex
100
AcDb2dVertex
 10
103.8740037747424
 20
3.679364405503083
 30
0.0
  0
VERTEX
  5
30C
330
30A
100
AcDbEntity
  8
STANDARDEBENE
 62
     7
100
AcDbVertex
100
AcDb2dVertex
 10
103.8287007392252
 20
3.903295759770593
 30
0.0
  0
VERTEX
  5
30D
330
30A
100
AcDbEntity
  8
STANDARDEBENE
 62
     7
100
AcDbVertex
100
AcDb2dVertex
 10
103.7215581989526
 20
4.10500623349925
 30
0.0
  0
SEQEND
  5
30E
330
30A
100
AcDbEntity
  8
STANDARDEBENE
  0
POLYLINE
  5
30F
330
1F
100
AcDbEntity
  8
STANDARDEBENE
 62
     7
100
AcDb2dPolyline
 66
     1
 10
0.0
 20
0.0
 30
0.0
  0
VERTEX
  5
310
330
30F
100
AcDbEntity
  8
STANDARDEBENE
 62
     7
100
AcDbVertex
100
AcDb2dVertex
 10
120.0785378439789
 20
6.10126812935015
 30
0.0
  0
VERTEX
  5
311
330
30F
100
AcDbEntity
  8
STANDARDEBENE
 62
     7
100
AcDbVertex
100
AcDb2dVertex
 10
119.9741513819126
 20
5.901280204500474
 30
0.0
  0
VERTEX
  5
312
330
30F
100
AcDbEntity
  8
STANDARDEBENE
 62
     7
100
AcDbVertex
100
AcDb2dVertex
 10
119.9293651110591
 20
5.679415908887742
 30
0.0
  0
SEQEND
  5
313
330
30F
100
AcDbEntity
  8
STANDARDEBENE
  0
POLYLINE
  5
314
330
1F
100
AcDbEntity
  8
STANDARDEBENE
 62
     7
100
AcDb2dPolyline
 66
     1
 10
0.0
 20
0.0
 30
0.0
  0
VERTEX
  5
315
330
314
100
AcDbEntity
  8
STANDARDEBENE
 62
     7
100
AcDbVertex
100
AcDb2dVertex
 10
104.4178124558366
 20
2.434133820887831
 30
0.0
  0
VERTEX
  5
316
330
314
100
AcDbEntity
  8
STANDARDEBENE
 62
     7
100
AcDbVertex
100
AcDb2dVertex
 10
104.0741639544799
 20
2.570387437215216
 30
0.0
  0
VERTEX
  5
317
330
314
100
AcDbEntity
  8
STANDARDEBENE
 62
     7
100
AcDbVertex
100
AcDb2dVertex
 10
103.9184455358201
 20
2.9045619197375
 30
0.0
  0
SEQEND
  5
318
330
314
100
AcDbEntity
  8
STANDARDEBENE
  0
POLYLINE
  5
319
330
1F
100
AcDbEntity
  8
STANDARDEBENE
 62
     7
100
AcDb2dPolyline
 66
     1
 10
0.0
 20
0.0
 30
0.0
  0
VERTEX
  5
31A
330
319
100
AcDbEntity
  8
STANDARDEBENE
 62
     7
100
AcDbVertex
100
AcDb2dVertex
 10
119.768995810426
 20
2.9045619197375
 30
0.0
  0
VERTEX
  5
31B
330
319
100
AcDbEntity
  8
STANDARDEBENE
 62
     7
100
AcDbVertex
100
AcDb2dVertex
 10
119.613449646654
 20
2.570387437215216
 30
0.0
  0
VERTEX
  5
31C
330
319
100
AcDbEntity
  8
STANDARDEBENE
 62
     7
100
AcDbVertex
100
AcDb2dVertex
 10
119.2704901648489
 20
2.434133820887831
 30
0.0
  0
SEQEND
  5
31D
330
319
100
AcDbEntity
  8
STANDARDEBENE
  0
POLYLINE
  5
31E
330
1F
100
AcDbEntity
  8
STANDARDEBENE
 62
     7
100
AcDb2dPolyline
 66
     1
 10
0.0
 20
0.0
 30
0.0
  0
VERTEX
  5
31F
330
31E
100
AcDbEntity
  8
STANDARDEBENE
 62
     7
100
AcDbVertex
100
AcDb2dVertex
 10
120.0778488244273
 20
6.099717835359067
 30
0.0
  0
VERTEX
  5
320
330
31E
100
AcDbEntity
  8
STANDARDEBENE
 62
     7
100
AcDbVertex
100
AcDb2dVertex
 10
119.9736346172489
 20
5.89990216539729
 30
0.0
  0
VERTEX
  5
321
330
31E
100
AcDbEntity
  8
STANDARDEBENE
 62
     7
100
AcDbVertex
100
AcDb2dVertex
 10
119.9293651110591
 20
5.679071399111946
 30
0.0
  0
SEQEND
  5
322
330
31E
100
AcDbEntity
  8
STANDARDEBENE
  0
POLYLINE
  5
323
330
1F
100
AcDbEntity
  8
STANDARDEBENE
 62
     7
100
AcDb2dPolyline
 66
     1
 10
0.0
 20
0.0
 30
0.0
  0
VERTEX
  5
324
330
323
100
AcDbEntity
  8
STANDARDEBENE
 62
     7
100
AcDbVertex
100
AcDb2dVertex
 10
103.8740037747424
 20
3.67970891527888
 30
0.0
  0
VERTEX
  5
325
330
323
100
AcDbEntity
  8
STANDARDEBENE
 62
     7
100
AcDbVertex
100
AcDb2dVertex
 10
103.8283562294494
 20
3.903640269546389
 30
0.0
  0
VERTEX
  5
326
330
323
100
AcDbEntity
  8
STANDARDEBENE
 62
     7
100
AcDbVertex
100
AcDb2dVertex
 10
103.720869179401
 20
4.105695253050842
 30
0.0
  0
SEQEND
  5
327
330
323
100
AcDbEntity
  8
STANDARDEBENE
  0
POLYLINE
  5
328
330
1F
100
AcDbEntity
  8
STANDARDEBENE
 62
     7
100
AcDb2dPolyline
 66
     1
 10
0.0
 20
0.0
 30
0.0
  0
VERTEX
  5
329
330
328
100
AcDbEntity
  8
STANDARDEBENE
 62
     7
100
AcDbVertex
100
AcDb2dVertex
 10
104.4178124558366
 20
2.434133820887831
 30
0.0
  0
VERTEX
  5
32A
330
328
100
AcDbEntity
  8
STANDARDEBENE
 62
     7
100
AcDbVertex
100
AcDb2dVertex
 10
104.0750252289194
 20
2.569181652999929
 30
0.0
  0
VERTEX
  5
32B
330
328
100
AcDbEntity
  8
STANDARDEBENE
 62
     7
100
AcDbVertex
100
AcDb2dVertex
 10
103.9184455358201
 20
2.903011625746417
 30
0.0
  0
SEQEND
  5
32C
330
328
100
AcDbEntity
  8
STANDARDEBENE
  0
POLYLINE
  5
32D
330
1F
100
AcDbEntity
  8
STANDARDEBENE
 62
     7
100
AcDb2dPolyline
 66
     1
 10
0.0
 20
0.0
 30
0.0
  0
VERTEX
  5
32E
330
32D
100
AcDbEntity
  8
STANDARDEBENE
 62
     7
100
AcDbVertex
100
AcDb2dVertex
 10
119.768995810426
 20
2.9045619197375
 30
0.0
  0
VERTEX
  5
32F
330
32D
100
AcDbEntity
  8
STANDARDEBENE
 62
     7
100
AcDbVertex
100
AcDb2dVertex
 10
119.613449646654
 20
2.570387437215216
 30
0.0
  0
VERTEX
  5
330
330
32D
100
AcDbEntity
  8
STANDARDEBENE
 62
     7
100
AcDbVertex
100
AcDb2dVertex
 10
119.2704901648489
 20
2.434133820887831
 30
0.0
  0
SEQEND
  5
331
330
32D
100
AcDbEntity
  8
STANDARDEBENE
  0
POLYLINE
  5
332
330
1F
100
AcDbEntity
  8
STANDARDEBENE
 62
     7
100
AcDb2dPolyline
 66
     1
 10
0.0
 20
0.0
 30
0.0
  0
VERTEX
  5
333
330
332
100
AcDbEntity
  8
STANDARDEBENE
 62
     7
100
AcDbVertex
100
AcDb2dVertex
 10
103.8740037747424
 20
3.67970891527888
 30
0.0
  0
VERTEX
  5
334
330
332
100
AcDbEntity
  8
STANDARDEBENE
 62
     7
100
AcDbVertex
100
AcDb2dVertex
 10
103.8958801455054
 20
3.292307672396088
 30
0.0
  0
VERTEX
  5
335
330
332
100
AcDbEntity
  8
STANDARDEBENE
 62
     7
100
AcDbVertex
100
AcDb2dVertex
 10
103.9184455358201
 20
2.904906429513296
 30
0.0
  0
SEQEND
  5
336
330
332
100
AcDbEntity
  8
STANDARDEBENE
  0
POLYLINE
  5
337
330
1F
100
AcDbEntity
  8
STANDARDEBENE
 62
     7
100
AcDb2dPolyline
 66
     1
 10
0.0
 20
0.0
 30
0.0
  0
VERTEX
  5
338
330
337
100
AcDbEntity
  8
STANDARDEBENE
 62
     7
100
AcDbVertex
100
AcDb2dVertex
 10
119.7653784577801
 20
2.905250939289092
 30
0.0
  0
VERTEX
  5
339
330
337
100
AcDbEntity
  8
STANDARDEBENE
 62
     7
100
AcDbVertex
100
AcDb2dVertex
 10
119.8454769806527
 20
4.292419551532365
 30
0.0
  0
VERTEX
  5
33A
330
337
100
AcDbEntity
  8
STANDARDEBENE
 62
     7
100
AcDbVertex
100
AcDb2dVertex
 10
119.9254032486375
 20
5.679760418663538
 30
0.0
  0
SEQEND
  5
33B
330
337
100
AcDbEntity
  8
STANDARDEBENE
  0
POLYLINE
  5
33C
330
1F
100
AcDbEntity
  8
STANDARDEBENE
 62
     7
100
AcDb2dPolyline
 66
     1
 10
0.0
 20
0.0
 30
0.0
  0
VERTEX
  5
33D
330
33C
100
AcDbEntity
  8
STANDARDEBENE
 62
     7
100
AcDbVertex
100
AcDb2dVertex
 10
119.2038275232324
 20
2.434133820887831
 30
0.0
  0
VERTEX
  5
33E
330
33C
100
AcDbEntity
  8
STANDARDEBENE
 62
     7
100
AcDbVertex
100
AcDb2dVertex
 10
118.4264412141483
 20
2.434133820887831
 30
0.0
  0
VERTEX
  5
33F
330
33C
100
AcDbEntity
  8
STANDARDEBENE
 62
     7
100
AcDbVertex
100
AcDb2dVertex
 10
117.4797283502605
 20
2.434133820887831
 30
0.0
  0
VERTEX
  5
340
330
33C
100
AcDbEntity
  8
STANDARDEBENE
 62
     7
100
AcDbVertex
100
AcDb2dVertex
 10
116.3859098121076
 20
2.434133820887831
 30
0.0
  0
VERTEX
  5
341
330
33C
100
AcDbEntity
  8
STANDARDEBENE
 62
     7
100
AcDbVertex
100
AcDb2dVertex
 10
115.1746134404083
 20
2.434133820887831
 30
0.0
  0
VERTEX
  5
342
330
33C
100
AcDbEntity
  8
STANDARDEBENE
 62
     7
100
AcDbVertex
100
AcDb2dVertex
 10
113.8777063894236
 20
2.434133820887831
 30
0.0
  0
VERTEX
  5
343
330
33C
100
AcDbEntity
  8
STANDARDEBENE
 62
     7
100
AcDbVertex
100
AcDb2dVertex
 10
112.5277448329663
 20
2.434133820887831
 30
0.0
  0
VERTEX
  5
344
330
33C
100
AcDbEntity
  8
STANDARDEBENE
 62
     7
100
AcDbVertex
100
AcDb2dVertex
 10
111.1598687681676
 20
2.434133820887831
 30
0.0
  0
VERTEX
  5
345
330
33C
100
AcDbEntity
  8
STANDARDEBENE
 62
     7
100
AcDbVertex
100
AcDb2dVertex
 10
109.8099072117104
 20
2.434133820887831
 30
0.0
  0
VERTEX
  5
346
330
33C
100
AcDbEntity
  8
STANDARDEBENE
 62
     7
100
AcDbVertex
100
AcDb2dVertex
 10
108.5130001607257
 20
2.434133820887831
 30
0.0
  0
VERTEX
  5
347
330
33C
100
AcDbEntity
  8
STANDARDEBENE
 62
     7
100
AcDbVertex
100
AcDb2dVertex
 10
107.3015315341384
 20
2.434133820887831
 30
0.0
  0
VERTEX
  5
348
330
33C
100
AcDbEntity
  8
STANDARDEBENE
 62
     7
100
AcDbVertex
100
AcDb2dVertex
 10
106.2092632899767
 20
2.434133820887831
 30
0.0
  0
VERTEX
  5
349
330
33C
100
AcDbEntity
  8
STANDARDEBENE
 62
     7
100
AcDbVertex
100
AcDb2dVertex
 10
105.2611723869856
 20
2.434133820887831
 30
0.0
  0
VERTEX
  5
34A
330
33C
100
AcDbEntity
  8
STANDARDEBENE
 62
     7
100
AcDbVertex
100
AcDb2dVertex
 10
104.4844750974532
 20
2.434133820887831
 30
0.0
  0
SEQEND
  5
34B
330
33C
100
AcDbEntity
  8
STANDARDEBENE
  0
POLYLINE
  5
34C
330
1F
100
AcDbEntity
  8
STANDARDEBENE
 62
     7
100
AcDb2dPolyline
 66
     1
 10
0.0
 20
0.0
 30
0.0
  0
VERTEX
  5
34D
330
34C
100
AcDbEntity
  8
STANDARDEBENE
 62
     7
100
AcDbVertex
100
AcDb2dVertex
 10
104.5411469555716
 20
2.434133820887831
 30
0.0
  0
VERTEX
  5
34E
330
34C
100
AcDbEntity
  8
STANDARDEBENE
 62
     7
100
AcDbVertex
100
AcDb2dVertex
 10
104.6172836160226
 20
2.434133820887831
 30
0.0
  0
SEQEND
  5
34F
330
34C
100
AcDbEntity
  8
STANDARDEBENE
  0
POLYLINE
  5
350
330
1F
100
AcDbEntity
  8
STANDARDEBENE
 62
     7
100
AcDb2dPolyline
 66
     1
 10
0.0
 20
0.0
 30
0.0
  0
VERTEX
  5
351
330
350
100
AcDbEntity
  8
STANDARDEBENE
 62
     7
100
AcDbVertex
100
AcDb2dVertex
 10
119.2632554595572
 20
2.434133820887831
 30
0.0
  0
VERTEX
  5
352
330
350
100
AcDbEntity
  8
STANDARDEBENE
 62
     7
100
AcDbVertex
100
AcDb2dVertex
 10
119.2623941851177
 20
2.434133820887831
 30
0.0
  0
VERTEX
  5
353
330
350
100
AcDbEntity
  8
STANDARDEBENE
 62
     7
100
AcDbVertex
100
AcDb2dVertex
 10
119.2038275232324
 20
2.434133820887831
 30
0.0
  0
SEQEND
  5
354
330
350
100
AcDbEntity
  8
STANDARDEBENE
  0
POLYLINE
  5
355
330
1F
100
AcDbEntity
  8
STANDARDEBENE
 62
     7
100
AcDb2dPolyline
 66
     1
 10
0.0
 20
0.0
 30
0.0
  0
VERTEX
  5
356
330
355
100
AcDbEntity
  8
STANDARDEBENE
 62
     7
100
AcDbVertex
100
AcDb2dVertex
 10
121.3437499955903
 20
12.93358600293977
 30
0.0
  0
VERTEX
  5
357
330
355
100
AcDbEntity
  8
STANDARDEBENE
 62
     7
100
AcDbVertex
100
AcDb2dVertex
 10
121.2379854944209
 20
12.93358600293977
 30
0.0
  0
VERTEX
  5
358
330
355
100
AcDbEntity
  8
STANDARDEBENE
 62
     7
100
AcDbVertex
100
AcDb2dVertex
 10
120.9222422849037
 20
12.93358600293977
 30
0.0
  0
VERTEX
  5
359
330
355
100
AcDbEntity
  8
STANDARDEBENE
 62
     7
100
AcDbVertex
100
AcDb2dVertex
 10
120.402893797891
 20
12.93358600293977
 30
0.0
  0
VERTEX
  5
35A
330
355
100
AcDbEntity
  8
STANDARDEBENE
 62
     7
100
AcDbVertex
100
AcDb2dVertex
 10
119.6930314048629
 20
12.93358600293977
 30
0.0
  0
VERTEX
  5
35B
330
355
100
AcDbEntity
  8
STANDARDEBENE
 62
     7
100
AcDbVertex
100
AcDb2dVertex
 10
118.8076412810668
 20
12.93358600293977
 30
0.0
  0
VERTEX
  5
35C
330
355
100
AcDbEntity
  8
STANDARDEBENE
 62
     7
100
AcDbVertex
100
AcDb2dVertex
 10
117.7668772483866
 20
12.93358600293977
 30
0.0
  0
VERTEX
  5
35D
330
355
100
AcDbEntity
  8
STANDARDEBENE
 62
     7
100
AcDbVertex
100
AcDb2dVertex
 10
116.5939937166885
 20
12.93358600293977
 30
0.0
  0
VERTEX
  5
35E
330
355
100
AcDbEntity
  8
STANDARDEBENE
 62
     7
100
AcDbVertex
100
AcDb2dVertex
 10
115.3143121544936
 20
12.93358600293977
 30
0.0
  0
VERTEX
  5
35F
330
355
100
AcDbEntity
  8
STANDARDEBENE
 62
     7
100
AcDbVertex
100
AcDb2dVertex
 10
113.9578049122962
 20
12.93358600293977
 30
0.0
  0
VERTEX
  5
360
330
355
100
AcDbEntity
  8
STANDARDEBENE
 62
     7
100
AcDbVertex
100
AcDb2dVertex
 10
112.5537553210389
 20
12.93358600293977
 30
0.0
  0
VERTEX
  5
361
330
355
100
AcDbEntity
  8
STANDARDEBENE
 62
     7
100
AcDbVertex
100
AcDb2dVertex
 10
111.1343750447587
 20
12.93358600293977
 30
0.0
  0
VERTEX
  5
362
330
355
100
AcDbEntity
  8
STANDARDEBENE
 62
     7
100
AcDbVertex
100
AcDb2dVertex
 10
109.7301531986135
 20
12.93358600293977
 30
0.0
  0
VERTEX
  5
363
330
355
100
AcDbEntity
  8
STANDARDEBENE
 62
     7
100
AcDbVertex
100
AcDb2dVertex
 10
108.3733014466403
 20
12.93358600293977
 30
0.0
  0
VERTEX
  5
364
330
355
100
AcDbEntity
  8
STANDARDEBENE
 62
     7
100
AcDbVertex
100
AcDb2dVertex
 10
107.0936198844455
 20
12.93358600293977
 30
0.0
  0
VERTEX
  5
365
330
355
100
AcDbEntity
  8
STANDARDEBENE
 62
     7
100
AcDbVertex
100
AcDb2dVertex
 10
105.921425372299
 20
12.93358600293977
 30
0.0
  0
VERTEX
  5
366
330
355
100
AcDbEntity
  8
STANDARDEBENE
 62
     7
100
AcDbVertex
100
AcDb2dVertex
 10
104.8796278102914
 20
12.93358600293977
 30
0.0
  0
VERTEX
  5
367
330
355
100
AcDbEntity
  8
STANDARDEBENE
 62
     7
100
AcDbVertex
100
AcDb2dVertex
 10
103.994582196271
 20
12.93358600293977
 30
0.0
  0
VERTEX
  5
368
330
355
100
AcDbEntity
  8
STANDARDEBENE
 62
     7
100
AcDbVertex
100
AcDb2dVertex
 10
103.2852365679067
 20
12.93358600293977
 30
0.0
  0
VERTEX
  5
369
330
355
100
AcDbEntity
  8
STANDARDEBENE
 62
     7
100
AcDbVertex
100
AcDb2dVertex
 10
102.765888080894
 20
12.93358600293977
 30
0.0
  0
VERTEX
  5
36A
330
355
100
AcDbEntity
  8
STANDARDEBENE
 62
     7
100
AcDbVertex
100
AcDb2dVertex
 10
102.4496281067131
 20
12.93358600293977
 30
0.0
  0
VERTEX
  5
36B
330
355
100
AcDbEntity
  8
STANDARDEBENE
 62
     7
100
AcDbVertex
100
AcDb2dVertex
 10
102.3443803702074
 20
12.93358600293977
 30
0.0
  0
SEQEND
  5
36C
330
355
100
AcDbEntity
  8
STANDARDEBENE
  0
POLYLINE
  5
36D
330
1F
100
AcDbEntity
  8
STANDARDEBENE
 62
     7
100
AcDb2dPolyline
 66
     1
 10
0.0
 20
0.0
 30
0.0
  0
VERTEX
  5
36E
330
36D
100
AcDbEntity
  8
STANDARDEBENE
 62
     7
100
AcDbVertex
100
AcDb2dVertex
 10
102.3443803702074
 20
13.43381419739581
 30
0.0
  0
VERTEX
  5
36F
330
36D
100
AcDbEntity
  8
STANDARDEBENE
 62
     7
100
AcDbVertex
100
AcDb2dVertex
 10
102.4496281067131
 20
13.43381419739581
 30
0.0
  0
VERTEX
  5
370
330
36D
100
AcDbEntity
  8
STANDARDEBENE
 62
     7
100
AcDbVertex
100
AcDb2dVertex
 10
102.765888080894
 20
13.43381419739581
 30
0.0
  0
VERTEX
  5
371
330
36D
100
AcDbEntity
  8
STANDARDEBENE
 62
     7
100
AcDbVertex
100
AcDb2dVertex
 10
103.2852365679067
 20
13.43381419739581
 30
0.0
  0
VERTEX
  5
372
330
36D
100
AcDbEntity
  8
STANDARDEBENE
 62
     7
100
AcDbVertex
100
AcDb2dVertex
 10
103.994582196271
 20
13.43381419739581
 30
0.0
  0
VERTEX
  5
373
330
36D
100
AcDbEntity
  8
STANDARDEBENE
 62
     7
100
AcDbVertex
100
AcDb2dVertex
 10
104.8796278102914
 20
13.43381419739581
 30
0.0
  0
VERTEX
  5
374
330
36D
100
AcDbEntity
  8
STANDARDEBENE
 62
     7
100
AcDbVertex
100
AcDb2dVertex
 10
105.921425372299
 20
13.43381419739581
 30
0.0
  0
VERTEX
  5
375
330
36D
100
AcDbEntity
  8
STANDARDEBENE
 62
     7
100
AcDbVertex
100
AcDb2dVertex
 10
107.0936198844455
 20
13.43381419739581
 30
0.0
  0
VERTEX
  5
376
330
36D
100
AcDbEntity
  8
STANDARDEBENE
 62
     7
100
AcDbVertex
100
AcDb2dVertex
 10
108.3733014466403
 20
13.43381419739581
 30
0.0
  0
VERTEX
  5
377
330
36D
100
AcDbEntity
  8
STANDARDEBENE
 62
     7
100
AcDbVertex
100
AcDb2dVertex
 10
109.7301531986135
 20
13.43381419739581
 30
0.0
  0
VERTEX
  5
378
330
36D
100
AcDbEntity
  8
STANDARDEBENE
 62
     7
100
AcDbVertex
100
AcDb2dVertex
 10
111.1343750447587
 20
13.43381419739581
 30
0.0
  0
VERTEX
  5
379
330
36D
100
AcDbEntity
  8
STANDARDEBENE
 62
     7
100
AcDbVertex
100
AcDb2dVertex
 10
112.5537553210389
 20
13.43381419739581
 30
0.0
  0
VERTEX
  5
37A
330
36D
100
AcDbEntity
  8
STANDARDEBENE
 62
     7
100
AcDbVertex
100
AcDb2dVertex
 10
113.9578049122962
 20
13.43381419739581
 30
0.0
  0
VERTEX
  5
37B
330
36D
100
AcDbEntity
  8
STANDARDEBENE
 62
     7
100
AcDbVertex
100
AcDb2dVertex
 10
115.3143121544936
 20
13.43381419739581
 30
0.0
  0
VERTEX
  5
37C
330
36D
100
AcDbEntity
  8
STANDARDEBENE
 62
     7
100
AcDbVertex
100
AcDb2dVertex
 10
116.5939937166885
 20
13.43381419739581
 30
0.0
  0
VERTEX
  5
37D
330
36D
100
AcDbEntity
  8
STANDARDEBENE
 62
     7
100
AcDbVertex
100
AcDb2dVertex
 10
117.7668772483866
 20
13.43381419739581
 30
0.0
  0
VERTEX
  5
37E
330
36D
100
AcDbEntity
  8
STANDARDEBENE
 62
     7
100
AcDbVertex
100
AcDb2dVertex
 10
118.8076412810668
 20
13.43381419739581
 30
0.0
  0
VERTEX
  5
37F
330
36D
100
AcDbEntity
  8
STANDARDEBENE
 62
     7
100
AcDbVertex
100
AcDb2dVertex
 10
119.6930314048629
 20
13.43381419739581
 30
0.0
  0
VERTEX
  5
380
330
36D
100
AcDbEntity
  8
STANDARDEBENE
 62
     7
100
AcDbVertex
100
AcDb2dVertex
 10
120.402893797891
 20
13.43381419739581
 30
0.0
  0
VERTEX
  5
381
330
36D
100
AcDbEntity
  8
STANDARDEBENE
 62
     7
100
AcDbVertex
100
AcDb2dVertex
 10
120.9222422849037
 20
13.43381419739581
 30
0.0
  0
VERTEX
  5
382
330
36D
100
AcDbEntity
  8
STANDARDEBENE
 62
     7
100
AcDbVertex
100
AcDb2dVertex
 10
121.2379854944209
 20
13.43381419739581
 30
0.0
  0
VERTEX
  5
383
330
36D
100
AcDbEntity
  8
STANDARDEBENE
 62
     7
100
AcDbVertex
100
AcDb2dVertex
 10
121.3437499955903
 20
13.43381419739581
 30
0.0
  0
SEQEND
  5
384
330
36D
100
AcDbEntity
  8
STANDARDEBENE
  0
POLYLINE
  5
385
330
1F
100
AcDbEntity
  8
STANDARDEBENE
 62
     7
100
AcDb2dPolyline
 66
     1
 10
0.0
 20
0.0
 30
0.0
  0
VERTEX
  5
386
330
385
100
AcDbEntity
  8
STANDARDEBENE
 62
     7
100
AcDbVertex
100
AcDb2dVertex
 10
119.8000016902477
 20
5.674076007362901
 30
0.0
  0
VERTEX
  5
387
330
385
100
AcDbEntity
  8
STANDARDEBENE
 62
     7
100
AcDbVertex
100
AcDb2dVertex
 10
119.8029300233419
 20
5.678210124672455
 30
0.0
  0
VERTEX
  5
388
330
385
100
AcDbEntity
  8
STANDARDEBENE
 62
     7
100
AcDbVertex
100
AcDb2dVertex
 10
119.9105893282782
 20
5.850120502794743
 30
0.0
  0
VERTEX
  5
389
330
385
100
AcDbEntity
  8
STANDARDEBENE
 62
     7
100
AcDbVertex
100
AcDb2dVertex
 10
120.0168705941113
 20
6.013073626746331
 30
0.0
  0
VERTEX
  5
38A
330
385
100
AcDbEntity
  8
STANDARDEBENE
 62
     7
100
AcDbVertex
100
AcDb2dVertex
 10
120.2998853749279
 20
6.35034869725078
 30
0.0
  0
VERTEX
  5
38B
330
385
100
AcDbEntity
  8
STANDARDEBENE
 62
     7
100
AcDbVertex
100
AcDb2dVertex
 10
120.4816142816604
 20
6.433892317881352
 30
0.0
  0
VERTEX
  5
38C
330
385
100
AcDbEntity
  8
STANDARDEBENE
 62
     7
100
AcDbVertex
100
AcDb2dVertex
 10
120.8834849351266
 20
6.433892317881352
 30
0.0
  0
VERTEX
  5
38D
330
385
100
AcDbEntity
  8
STANDARDEBENE
 62
     7
100
AcDbVertex
100
AcDb2dVertex
 10
121.0183605123508
 20
6.433892317881352
 30
0.0
  0
SEQEND
  5
38E
330
385
100
AcDbEntity
  8
STANDARDEBENE
  0
POLYLINE
  5
38F
330
1F
100
AcDbEntity
  8
STANDARDEBENE
 62
     7
100
AcDb2dPolyline
 66
     1
 10
0.0
 20
0.0
 30
0.0
  0
VERTEX
  5
390
330
38F
100
AcDbEntity
  8
STANDARDEBENE
 62
     7
100
AcDbVertex
100
AcDb2dVertex
 10
102.7700221982035
 20
4.434185324272489
 30
0.0
  0
VERTEX
  5
391
330
38F
100
AcDbEntity
  8
STANDARDEBENE
 62
     7
100
AcDbVertex
100
AcDb2dVertex
 10
102.9071370889704
 20
4.434185324272489
 30
0.0
  0
VERTEX
  5
392
330
38F
100
AcDbEntity
  8
STANDARDEBENE
 62
     7
100
AcDbVertex
100
AcDb2dVertex
 10
103.3158979379526
 20
4.434185324272489
 30
0.0
  0
VERTEX
  5
393
330
38F
100
AcDbEntity
  8
STANDARDEBENE
 62
     7
100
AcDbVertex
100
AcDb2dVertex
 10
103.5007274326672
 20
4.349952684090326
 30
0.0
  0
VERTEX
  5
394
330
38F
100
AcDbEntity
  8
STANDARDEBENE
 62
     7
100
AcDbVertex
100
AcDb2dVertex
 10
103.7870150563538
 20
4.01233310381008
 30
0.0
  0
VERTEX
  5
395
330
38F
100
AcDbEntity
  8
STANDARDEBENE
 62
     7
100
AcDbVertex
100
AcDb2dVertex
 10
103.8941575966264
 20
3.849724489634289
 30
0.0
  0
VERTEX
  5
396
330
38F
100
AcDbEntity
  8
STANDARDEBENE
 62
     7
100
AcDbVertex
100
AcDb2dVertex
 10
104.003022685778
 20
3.678158621287797
 30
0.0
  0
VERTEX
  5
397
330
38F
100
AcDbEntity
  8
STANDARDEBENE
 62
     7
100
AcDbVertex
100
AcDb2dVertex
 10
104.0061232737602
 20
3.674024503978243
 30
0.0
  0
SEQEND
  5
398
330
38F
100
AcDbEntity
  8
STANDARDEBENE
  0
POLYLINE
  5
399
330
1F
100
AcDbEntity
  8
STANDARDEBENE
 62
     7
100
AcDb2dPolyline
 66
     1
 10
0.0
 20
0.0
 30
0.0
  0
VERTEX
  5
39A
330
399
100
AcDbEntity
  8
STANDARDEBENE
 62
     7
100
AcDbVertex
100
AcDb2dVertex
 10
121.1925102040158
 20
9.941346345262147
 30
0.0
  0
VERTEX
  5
39B
330
399
100
AcDbEntity
  8
STANDARDEBENE
 62
     7
100
AcDbVertex
100
AcDb2dVertex
 10
121.1940604980068
 20
9.934456149746223
 30
0.0
  0
VERTEX
  5
39C
330
399
100
AcDbEntity
  8
STANDARDEBENE
 62
     7
100
AcDbVertex
100
AcDb2dVertex
 10
121.1833806949572
 20
10.03401947495132
 30
0.0
  0
VERTEX
  5
39D
330
399
100
AcDbEntity
  8
STANDARDEBENE
 62
     7
100
AcDbVertex
100
AcDb2dVertex
 10
121.1611598144183
 20
10.28895670904048
 30
0.0
  0
VERTEX
  5
39E
330
399
100
AcDbEntity
  8
STANDARDEBENE
 62
     7
100
AcDbVertex
100
AcDb2dVertex
 10
121.1415227571979
 20
10.67549667748378
 30
0.0
  0
VERTEX
  5
39F
330
399
100
AcDbEntity
  8
STANDARDEBENE
 62
     7
100
AcDbVertex
100
AcDb2dVertex
 10
121.1385944241037
 20
11.14626928610925
 30
0.0
  0
VERTEX
  5
3A0
330
399
100
AcDbEntity
  8
STANDARDEBENE
 62
     7
100
AcDbVertex
100
AcDb2dVertex
 10
121.1615043241941
 20
11.6447749316863
 30
0.0
  0
VERTEX
  5
3A1
330
399
100
AcDbEntity
  8
STANDARDEBENE
 62
     7
100
AcDbVertex
100
AcDb2dVertex
 10
121.2085299085903
 20
12.11778685385444
 30
0.0
  0
VERTEX
  5
3A2
330
399
100
AcDbEntity
  8
STANDARDEBENE
 62
     7
100
AcDbVertex
100
AcDb2dVertex
 10
121.2667520606998
 20
12.51948525243278
 30
0.0
  0
VERTEX
  5
3A3
330
399
100
AcDbEntity
  8
STANDARDEBENE
 62
     7
100
AcDbVertex
100
AcDb2dVertex
 10
121.3177395075177
 20
12.80267228813723
 30
0.0
  0
VERTEX
  5
3A4
330
399
100
AcDbEntity
  8
STANDARDEBENE
 62
     7
100
AcDbVertex
100
AcDb2dVertex
 10
121.3437499955903
 20
12.93358600293977
 30
0.0
  0
SEQEND
  5
3A5
330
399
100
AcDbEntity
  8
STANDARDEBENE
  0
POLYLINE
  5
3A6
330
1F
100
AcDbEntity
  8
STANDARDEBENE
 62
     7
100
AcDb2dPolyline
 66
     1
 10
0.0
 20
0.0
 30
0.0
  0
VERTEX
  5
3A7
330
3A6
100
AcDbEntity
  8
STANDARDEBENE
 62
     7
100
AcDbVertex
100
AcDb2dVertex
 10
102.3443803702074
 20
12.93358600293977
 30
0.0
  0
VERTEX
  5
3A8
330
3A6
100
AcDbEntity
  8
STANDARDEBENE
 62
     7
100
AcDbVertex
100
AcDb2dVertex
 10
102.3455861544227
 20
12.92256169011429
 30
0.0
  0
VERTEX
  5
3A9
330
3A6
100
AcDbEntity
  8
STANDARDEBENE
 62
     7
100
AcDbVertex
100
AcDb2dVertex
 10
102.3493757619564
 20
12.90602522087608
 30
0.0
  0
VERTEX
  5
3AA
330
3A6
100
AcDbEntity
  8
STANDARDEBENE
 62
     7
100
AcDbVertex
100
AcDb2dVertex
 10
102.3833099748723
 20
12.73445935252959
 30
0.0
  0
VERTEX
  5
3AB
330
3A6
100
AcDbEntity
  8
STANDARDEBENE
 62
     7
100
AcDbVertex
100
AcDb2dVertex
 10
102.4370534998965
 20
12.41923290767609
 30
0.0
  0
VERTEX
  5
3AC
330
3A6
100
AcDbEntity
  8
STANDARDEBENE
 62
     7
100
AcDbVertex
100
AcDb2dVertex
 10
102.4951033971182
 20
11.98807892326719
 30
0.0
  0
VERTEX
  5
3AD
330
3A6
100
AcDbEntity
  8
STANDARDEBENE
 62
     7
100
AcDbVertex
100
AcDb2dVertex
 10
102.5361000604379
 20
11.49129582656911
 30
0.0
  0
VERTEX
  5
3AE
330
3A6
100
AcDbEntity
  8
STANDARDEBENE
 62
     7
100
AcDbVertex
100
AcDb2dVertex
 10
102.5514307454609
 20
10.99296243587995
 30
0.0
  0
VERTEX
  5
3AF
330
3A6
100
AcDbEntity
  8
STANDARDEBENE
 62
     7
100
AcDbVertex
100
AcDb2dVertex
 10
102.5423012364023
 20
10.5480280604392
 30
0.0
  0
VERTEX
  5
3B0
330
3A6
100
AcDbEntity
  8
STANDARDEBENE
 62
     7
100
AcDbVertex
100
AcDb2dVertex
 10
102.5195635911997
 20
10.19903965755768
 30
0.0
  0
VERTEX
  5
3B1
330
3A6
100
AcDbEntity
  8
STANDARDEBENE
 62
     7
100
AcDbVertex
100
AcDb2dVertex
 10
102.495447906894
 20
9.947892031002274
 30
0.0
  0
SEQEND
  5
3B2
330
3A6
100
AcDbEntity
  8
STANDARDEBENE
  0
POLYLINE
  5
3B3
330
1F
100
AcDbEntity
  8
STANDARDEBENE
 62
     7
100
AcDb2dPolyline
 66
     1
 10
0.0
 20
0.0
 30
0.0
  0
VERTEX
  5
3B4
330
3B3
100
AcDbEntity
  8
STANDARDEBENE
 62
     7
100
AcDbVertex
100
AcDb2dVertex
 10
100.343812102159
 20
57.4340859974188
 30
0.0
  0
VERTEX
  5
3B5
330
3B3
100
AcDbEntity
  8
STANDARDEBENE
 62
     7
100
AcDbVertex
100
AcDb2dVertex
 10
100.4511268973195
 20
57.4340859974188
 30
0.0
  0
VERTEX
  5
3B6
330
3B3
100
AcDbEntity
  8
STANDARDEBENE
 62
     7
100
AcDbVertex
100
AcDb2dVertex
 10
100.7703152045947
 20
57.4340859974188
 30
0.0
  0
VERTEX
  5
3B7
330
3B3
100
AcDbEntity
  8
STANDARDEBENE
 62
     7
100
AcDbVertex
100
AcDb2dVertex
 10
101.2958648675717
 20
57.4340859974188
 30
0.0
  0
VERTEX
  5
3B8
330
3B3
100
AcDbEntity
  8
STANDARDEBENE
 62
     7
100
AcDbVertex
100
AcDb2dVertex
 10
102.0181296125284
 20
57.4340859974188
 30
0.0
  0
VERTEX
  5
3B9
330
3B3
100
AcDbEntity
  8
STANDARDEBENE
 62
     7
100
AcDbVertex
100
AcDb2dVertex
 10
102.9228122837691
 20
57.4340859974188
 30
0.0
  0
VERTEX
  5
3BA
330
3B3
100
AcDbEntity
  8
STANDARDEBENE
 62
     7
100
AcDbVertex
100
AcDb2dVertex
 10
103.994582196271
 20
57.4340859974188
 30
0.0
  0
VERTEX
  5
3BB
330
3B3
100
AcDbEntity
  8
STANDARDEBENE
 62
     7
100
AcDbVertex
100
AcDb2dVertex
 10
105.2119074890468
 20
57.4340859974188
 30
0.0
  0
VERTEX
  5
3BC
330
3B3
100
AcDbEntity
  8
STANDARDEBENE
 62
     7
100
AcDbVertex
100
AcDb2dVertex
 10
106.5530840462213
 20
57.4340859974188
 30
0.0
  0
VERTEX
  5
3BD
330
3B3
100
AcDbEntity
  8
STANDARDEBENE
 62
     7
100
AcDbVertex
100
AcDb2dVertex
 10
107.9927903992735
 20
57.4340859974188
 30
0.0
  0
VERTEX
  5
3BE
330
3B3
100
AcDbEntity
  8
STANDARDEBENE
 62
     7
100
AcDbVertex
100
AcDb2dVertex
 10
109.504499295467
 20
57.4340859974188
 30
0.0
  0
VERTEX
  5
3BF
330
3B3
100
AcDbEntity
  8
STANDARDEBENE
 62
     7
100
AcDbVertex
100
AcDb2dVertex
 10
111.0585828940836
 20
57.4340859974188
 30
0.0
  0
VERTEX
  5
3C0
330
3B3
100
AcDbEntity
  8
STANDARDEBENE
 62
     7
100
AcDbVertex
100
AcDb2dVertex
 10
112.6292029619383
 20
57.4340859974188
 30
0.0
  0
VERTEX
  5
3C1
330
3B3
100
AcDbEntity
  8
STANDARDEBENE
 62
     7
100
AcDbVertex
100
AcDb2dVertex
 10
114.1836310703306
 20
57.4340859974188
 30
0.0
  0
VERTEX
  5
3C2
330
3B3
100
AcDbEntity
  8
STANDARDEBENE
 62
     7
100
AcDbVertex
100
AcDb2dVertex
 10
115.6951677116363
 20
57.4340859974188
 30
0.0
  0
VERTEX
  5
3C3
330
3B3
100
AcDbEntity
  8
STANDARDEBENE
 62
     7
100
AcDbVertex
100
AcDb2dVertex
 10
117.1352185744643
 20
57.4340859974188
 30
0.0
  0
VERTEX
  5
3C4
330
3B3
100
AcDbEntity
  8
STANDARDEBENE
 62
     7
100
AcDbVertex
100
AcDb2dVertex
 10
118.4755338571993
 20
57.4340859974188
 30
0.0
  0
VERTEX
  5
3C5
330
3B3
100
AcDbEntity
  8
STANDARDEBENE
 62
     7
100
AcDbVertex
100
AcDb2dVertex
 10
119.6930314048629
 20
57.4340859974188
 30
0.0
  0
VERTEX
  5
3C6
330
3B3
100
AcDbEntity
  8
STANDARDEBENE
 62
     7
100
AcDbVertex
100
AcDb2dVertex
 10
120.7646290624769
 20
57.4340859974188
 30
0.0
  0
VERTEX
  5
3C7
330
3B3
100
AcDbEntity
  8
STANDARDEBENE
 62
     7
100
AcDbVertex
100
AcDb2dVertex
 10
121.670517517933
 20
57.4340859974188
 30
0.0
  0
VERTEX
  5
3C8
330
3B3
100
AcDbEntity
  8
STANDARDEBENE
 62
     7
100
AcDbVertex
100
AcDb2dVertex
 10
122.392093243338
 20
57.4340859974188
 30
0.0
  0
VERTEX
  5
3C9
330
3B3
100
AcDbEntity
  8
STANDARDEBENE
 62
     7
100
AcDbVertex
100
AcDb2dVertex
 10
122.9169538867635
 20
57.4340859974188
 30
0.0
  0
VERTEX
  5
3CA
330
3B3
100
AcDbEntity
  8
STANDARDEBENE
 62
     7
100
AcDbVertex
100
AcDb2dVertex
 10
123.2370034684781
 20
57.4340859974188
 30
0.0
  0
VERTEX
  5
3CB
330
3B3
100
AcDbEntity
  8
STANDARDEBENE
 62
     7
100
AcDbVertex
100
AcDb2dVertex
 10
123.3438014989749
 20
57.4340859974188
 30
0.0
  0
SEQEND
  5
3CC
330
3B3
100
AcDbEntity
  8
STANDARDEBENE
  0
POLYLINE
  5
3CD
330
1F
100
AcDbEntity
  8
STANDARDEBENE
 62
     7
100
AcDb2dPolyline
 66
     1
 10
0.0
 20
0.0
 30
0.0
  0
VERTEX
  5
3CE
330
3CD
100
AcDbEntity
  8
STANDARDEBENE
 62
     7
100
AcDbVertex
100
AcDb2dVertex
 10
111.843720673123
 20
38.93184397850975
 30
0.0
  0
VERTEX
  5
3CF
330
3CD
100
AcDbEntity
  8
STANDARDEBENE
 62
     7
100
AcDbVertex
100
AcDb2dVertex
 10
112.4219803317969
 20
38.97938632756963
 30
0.0
  0
VERTEX
  5
3D0
330
3CD
100
AcDbEntity
  8
STANDARDEBENE
 62
     7
100
AcDbVertex
100
AcDb2dVertex
 10
112.9835312663447
 20
39.12063533564606
 30
0.0
  0
VERTEX
  5
3D1
330
3CD
100
AcDbEntity
  8
STANDARDEBENE
 62
     7
100
AcDbVertex
100
AcDb2dVertex
 10
113.9948397131943
 20
39.6646162716282
 30
0.0
  0
VERTEX
  5
3D2
330
3CD
100
AcDbEntity
  8
STANDARDEBENE
 62
     7
100
AcDbVertex
100
AcDb2dVertex
 10
114.7842838644312
 20
40.52158433892117
 30
0.0
  0
VERTEX
  5
3D3
330
3CD
100
AcDbEntity
  8
STANDARDEBENE
 62
     7
100
AcDbVertex
100
AcDb2dVertex
 10
115.0629922730503
 20
41.04558370790715
 30
0.0
  0
VERTEX
  5
3D4
330
3CD
100
AcDbEntity
  8
STANDARDEBENE
 62
     7
100
AcDbVertex
100
AcDb2dVertex
 10
115.2493720617561
 20
41.60989072066128
 30
0.0
  0
VERTEX
  5
3D5
330
3CD
100
AcDbEntity
  8
STANDARDEBENE
 62
     7
100
AcDbVertex
100
AcDb2dVertex
 10
115.3361885252567
 20
42.18332724247399
 30
0.0
  0
VERTEX
  5
3D6
330
3CD
100
AcDbEntity
  8
STANDARDEBENE
 62
     7
100
AcDbVertex
100
AcDb2dVertex
 10
115.3267145064223
 20
42.76468748913003
 30
0.0
  0
VERTEX
  5
3D7
330
3CD
100
AcDbEntity
  8
STANDARDEBENE
 62
     7
100
AcDbVertex
100
AcDb2dVertex
 10
115.0371540398656
 20
43.85419965508542
 30
0.0
  0
VERTEX
  5
3D8
330
3CD
100
AcDbEntity
  8
STANDARDEBENE
 62
     7
100
AcDbVertex
100
AcDb2dVertex
 10
114.4067011501586
 20
44.81073104758348
 30
0.0
  0
VERTEX
  5
3D9
330
3CD
100
AcDbEntity
  8
STANDARDEBENE
 62
     7
100
AcDbVertex
100
AcDb2dVertex
 10
113.9659008920274
 20
45.21225719127391
 30
0.0
  0
VERTEX
  5
3DA
330
3CD
100
AcDbEntity
  8
STANDARDEBENE
 62
     7
100
AcDbVertex
100
AcDb2dVertex
 10
113.4632611291408
 20
45.53489059630702
 30
0.0
  0
VERTEX
  5
3DB
330
3CD
100
AcDbEntity
  8
STANDARDEBENE
 62
     7
100
AcDbVertex
100
AcDb2dVertex
 10
112.9123899976427
 20
45.76691793030574
 30
0.0
  0
VERTEX
  5
3DC
330
3CD
100
AcDbEntity
  8
STANDARDEBENE
 62
     7
100
AcDbVertex
100
AcDb2dVertex
 10
112.3277569081167
 20
45.90162125264204
 30
0.0
  0
VERTEX
  5
3DD
330
3CD
100
AcDbEntity
  8
STANDARDEBENE
 62
     7
100
AcDbVertex
100
AcDb2dVertex
 10
111.7520810727613
 20
45.93452193623058
 30
0.0
  0
VERTEX
  5
3DE
330
3CD
100
AcDbEntity
  8
STANDARDEBENE
 62
     7
100
AcDbVertex
100
AcDb2dVertex
 10
111.1791613156122
 20
45.87182115703568
 30
0.0
  0
VERTEX
  5
3DF
330
3CD
100
AcDbEntity
  8
STANDARDEBENE
 62
     7
100
AcDbVertex
100
AcDb2dVertex
 10
110.1306458129766
 20
45.48373089460129
 30
0.0
  0
VERTEX
  5
3E0
330
3CD
100
AcDbEntity
  8
STANDARDEBENE
 62
     7
100
AcDbVertex
100
AcDb2dVertex
 10
109.2421551011983
 20
44.76680605116947
 30
0.0
  0
VERTEX
  5
3E1
330
3CD
100
AcDbEntity
  8
STANDARDEBENE
 62
     7
100
AcDbVertex
100
AcDb2dVertex
 10
108.8843816990339
 20
44.29017677635547
 30
0.0
  0
VERTEX
  5
3E2
330
3CD
100
AcDbEntity
  8
STANDARDEBENE
 62
     7
100
AcDbVertex
100
AcDb2dVertex
 10
108.6106686821639
 20
43.75997623140516
 30
0.0
  0
VERTEX
  5
3E3
330
3CD
100
AcDbEntity
  8
STANDARDEBENE
 62
     7
100
AcDbVertex
100
AcDb2dVertex
 10
108.429628794983
 20
43.18774549380772
 30
0.0
  0
VERTEX
  5
3E4
330
3CD
100
AcDbEntity
  8
STANDARDEBENE
 62
     7
100
AcDbVertex
100
AcDb2dVertex
 10
108.3479799781193
 20
42.59243260123195
 30
0.0
  0
VERTEX
  5
3E5
330
3CD
100
AcDbEntity
  8
STANDARDEBENE
 62
     7
100
AcDbVertex
100
AcDb2dVertex
 10
108.367100270676
 20
42.01486196210967
 30
0.0
  0
VERTEX
  5
3E6
330
3CD
100
AcDbEntity
  8
STANDARDEBENE
 62
     7
100
AcDbVertex
100
AcDb2dVertex
 10
108.4804439869129
 20
41.44866014558867
 30
0.0
  0
VERTEX
  5
3E7
330
3CD
100
AcDbEntity
  8
STANDARDEBENE
 62
     7
100
AcDbVertex
100
AcDb2dVertex
 10
108.9634466925792
 20
40.43287307165366
 30
0.0
  0
VERTEX
  5
3E8
330
3CD
100
AcDbEntity
  8
STANDARDEBENE
 62
     7
100
AcDbVertex
100
AcDb2dVertex
 10
109.764776431081
 20
39.61018372705241
 30
0.0
  0
VERTEX
  5
3E9
330
3CD
100
AcDbEntity
  8
STANDARDEBENE
 62
     7
100
AcDbVertex
100
AcDb2dVertex
 10
110.2712058015014
 20
39.30201973260274
 30
0.0
  0
VERTEX
  5
3EA
330
3CD
100
AcDbEntity
  8
STANDARDEBENE
 62
     7
100
AcDbVertex
100
AcDb2dVertex
 10
110.8227659525511
 20
39.08239475053268
 30
0.0
  0
VERTEX
  5
3EB
330
3CD
100
AcDbEntity
  8
STANDARDEBENE
 62
     7
100
AcDbVertex
100
AcDb2dVertex
 10
111.843720673123
 20
38.93184397850975
 30
0.0
  0
SEQEND
  5
3EC
330
3CD
100
AcDbEntity
  8
STANDARDEBENE
  0
POLYLINE
  5
3ED
330
1F
100
AcDbEntity
  8
STANDARDEBENE
 62
     7
100
AcDb2dPolyline
 66
     1
 10
0.0
 20
0.0
 30
0.0
  0
VERTEX
  5
3EE
330
3ED
100
AcDbEntity
  8
STANDARDEBENE
 62
     7
100
AcDbVertex
100
AcDb2dVertex
 10
124.3435688683354
 20
56.43345735361883
 30
0.0
  0
VERTEX
  5
3EF
330
3ED
100
AcDbEntity
  8
STANDARDEBENE
 62
     7
100
AcDbVertex
100
AcDb2dVertex
 10
124.2367708378386
 20
56.43345735361883
 30
0.0
  0
VERTEX
  5
3F0
330
3ED
100
AcDbEntity
  8
STANDARDEBENE
 62
     7
100
AcDbVertex
100
AcDb2dVertex
 10
123.9175825305635
 20
56.43345735361883
 30
0.0
  0
VERTEX
  5
3F1
330
3ED
100
AcDbEntity
  8
STANDARDEBENE
 62
     7
100
AcDbVertex
100
AcDb2dVertex
 10
123.3920328675864
 20
56.43345735361883
 30
0.0
  0
VERTEX
  5
3F2
330
3ED
100
AcDbEntity
  8
STANDARDEBENE
 62
     7
100
AcDbVertex
100
AcDb2dVertex
 10
122.6697681226297
 20
56.43345735361883
 30
0.0
  0
VERTEX
  5
3F3
330
3ED
100
AcDbEntity
  8
STANDARDEBENE
 62
     7
100
AcDbVertex
100
AcDb2dVertex
 10
121.7609513340795
 20
56.43345735361883
 30
0.0
  0
VERTEX
  5
3F4
330
3ED
100
AcDbEntity
  8
STANDARDEBENE
 62
     7
100
AcDbVertex
100
AcDb2dVertex
 10
120.6826357358374
 20
56.43345735361883
 30
0.0
  0
VERTEX
  5
3F5
330
3ED
100
AcDbEntity
  8
STANDARDEBENE
 62
     7
100
AcDbVertex
100
AcDb2dVertex
 10
119.4534248557967
 20
56.43345735361883
 30
0.0
  0
VERTEX
  5
3F6
330
3ED
100
AcDbEntity
  8
STANDARDEBENE
 62
     7
100
AcDbVertex
100
AcDb2dVertex
 10
118.0934725158413
 20
56.43345735361883
 30
0.0
  0
VERTEX
  5
3F7
330
3ED
100
AcDbEntity
  8
STANDARDEBENE
 62
     7
100
AcDbVertex
100
AcDb2dVertex
 10
116.6270666551649
 20
56.43345735361883
 30
0.0
  0
VERTEX
  5
3F8
330
3ED
100
AcDbEntity
  8
STANDARDEBENE
 62
     7
100
AcDbVertex
100
AcDb2dVertex
 10
115.0797009971764
 20
56.43345735361883
 30
0.0
  0
VERTEX
  5
3F9
330
3ED
100
AcDbEntity
  8
STANDARDEBENE
 62
     7
100
AcDbVertex
100
AcDb2dVertex
 10
113.4751467164058
 20
56.43345735361883
 30
0.0
  0
VERTEX
  5
3FA
330
3ED
100
AcDbEntity
  8
STANDARDEBENE
 62
     7
100
AcDbVertex
100
AcDb2dVertex
 10
111.843720673123
 20
56.43345735361883
 30
0.0
  0
VERTEX
  5
3FB
330
3ED
100
AcDbEntity
  8
STANDARDEBENE
 62
     7
100
AcDbVertex
100
AcDb2dVertex
 10
110.2124668847282
 20
56.43345735361883
 30
0.0
  0
VERTEX
  5
3FC
330
3ED
100
AcDbEntity
  8
STANDARDEBENE
 62
     7
100
AcDbVertex
100
AcDb2dVertex
 10
108.608773878397
 20
56.43345735361883
 30
0.0
  0
VERTEX
  5
3FD
330
3ED
100
AcDbEntity
  8
STANDARDEBENE
 62
     7
100
AcDbVertex
100
AcDb2dVertex
 10
107.0603746910811
 20
56.43345735361883
 30
0.0
  0
VERTEX
  5
3FE
330
3ED
100
AcDbEntity
  8
STANDARDEBENE
 62
     7
100
AcDbVertex
100
AcDb2dVertex
 10
105.5941410852926
 20
56.43345735361883
 30
0.0
  0
VERTEX
  5
3FF
330
3ED
100
AcDbEntity
  8
STANDARDEBENE
 62
     7
100
AcDbVertex
100
AcDb2dVertex
 10
104.2348777648889
 20
56.43345735361883
 30
0.0
  0
VERTEX
  5
400
330
3ED
100
AcDbEntity
  8
STANDARDEBENE
 62
     7
100
AcDbVertex
100
AcDb2dVertex
 10
103.0054946299602
 20
56.43345735361883
 30
0.0
  0
VERTEX
  5
401
330
3ED
100
AcDbEntity
  8
STANDARDEBENE
 62
     7
100
AcDbVertex
100
AcDb2dVertex
 10
101.9266622670545
 20
56.43345735361883
 30
0.0
  0
VERTEX
  5
402
330
3ED
100
AcDbEntity
  8
STANDARDEBENE
 62
     7
100
AcDbVertex
100
AcDb2dVertex
 10
101.0183622431679
 20
56.43345735361883
 30
0.0
  0
VERTEX
  5
403
330
3ED
100
AcDbEntity
  8
STANDARDEBENE
 62
     7
100
AcDbVertex
100
AcDb2dVertex
 10
100.2955807335476
 20
56.43345735361883
 30
0.0
  0
VERTEX
  5
404
330
3ED
100
AcDbEntity
  8
STANDARDEBENE
 62
     7
100
AcDbVertex
100
AcDb2dVertex
 10
99.7696865607947
 20
56.43345735361883
 30
0.0
  0
VERTEX
  5
405
330
3ED
100
AcDbEntity
  8
STANDARDEBENE
 62
     7
100
AcDbVertex
100
AcDb2dVertex
 10
99.45084276329534
 20
56.43345735361883
 30
0.0
  0
VERTEX
  5
406
330
3ED
100
AcDbEntity
  8
STANDARDEBENE
 62
     7
100
AcDbVertex
100
AcDb2dVertex
 10
99.34404473279854
 20
56.43345735361883
 30
0.0
  0
SEQEND
  5
407
330
3ED
100
AcDbEntity
  8
STANDARDEBENE
  0
POLYLINE
  5
408
330
1F
100
AcDbEntity
  8
STANDARDEBENE
 62
     7
100
AcDb2dPolyline
 66
     1
 10
0.0
 20
0.0
 30
0.0
  0
VERTEX
  5
409
330
408
100
AcDbEntity
  8
STANDARDEBENE
 62
     7
100
AcDbVertex
100
AcDb2dVertex
 10
124.3435688683354
 20
15.43369344589257
 30
0.0
  0
VERTEX
  5
40A
330
408
100
AcDbEntity
  8
STANDARDEBENE
 62
     7
100
AcDbVertex
100
AcDb2dVertex
 10
124.2367708378386
 20
15.43369344589257
 30
0.0
  0
VERTEX
  5
40B
330
408
100
AcDbEntity
  8
STANDARDEBENE
 62
     7
100
AcDbVertex
100
AcDb2dVertex
 10
123.9175825305635
 20
15.43369344589257
 30
0.0
  0
VERTEX
  5
40C
330
408
100
AcDbEntity
  8
STANDARDEBENE
 62
     7
100
AcDbVertex
100
AcDb2dVertex
 10
123.3920328675864
 20
15.43369344589257
 30
0.0
  0
VERTEX
  5
40D
330
408
100
AcDbEntity
  8
STANDARDEBENE
 62
     7
100
AcDbVertex
100
AcDb2dVertex
 10
122.6697681226297
 20
15.43369344589257
 30
0.0
  0
VERTEX
  5
40E
330
408
100
AcDbEntity
  8
STANDARDEBENE
 62
     7
100
AcDbVertex
100
AcDb2dVertex
 10
121.7609513340795
 20
15.43369344589257
 30
0.0
  0
VERTEX
  5
40F
330
408
100
AcDbEntity
  8
STANDARDEBENE
 62
     7
100
AcDbVertex
100
AcDb2dVertex
 10
120.6826357358374
 20
15.43369344589257
 30
0.0
  0
VERTEX
  5
410
330
408
100
AcDbEntity
  8
STANDARDEBENE
 62
     7
100
AcDbVertex
100
AcDb2dVertex
 10
119.4534248557967
 20
15.43369344589257
 30
0.0
  0
VERTEX
  5
411
330
408
100
AcDbEntity
  8
STANDARDEBENE
 62
     7
100
AcDbVertex
100
AcDb2dVertex
 10
118.0934725158413
 20
15.43369344589257
 30
0.0
  0
VERTEX
  5
412
330
408
100
AcDbEntity
  8
STANDARDEBENE
 62
     7
100
AcDbVertex
100
AcDb2dVertex
 10
116.6270666551649
 20
15.43369344589257
 30
0.0
  0
VERTEX
  5
413
330
408
100
AcDbEntity
  8
STANDARDEBENE
 62
     7
100
AcDbVertex
100
AcDb2dVertex
 10
115.0797009971764
 20
15.43369344589257
 30
0.0
  0
VERTEX
  5
414
330
408
100
AcDbEntity
  8
STANDARDEBENE
 62
     7
100
AcDbVertex
100
AcDb2dVertex
 10
113.4751467164058
 20
15.43369344589257
 30
0.0
  0
VERTEX
  5
415
330
408
100
AcDbEntity
  8
STANDARDEBENE
 62
     7
100
AcDbVertex
100
AcDb2dVertex
 10
111.843720673123
 20
15.43369344589257
 30
0.0
  0
VERTEX
  5
416
330
408
100
AcDbEntity
  8
STANDARDEBENE
 62
     7
100
AcDbVertex
100
AcDb2dVertex
 10
110.2124668847282
 20
15.43369344589257
 30
0.0
  0
VERTEX
  5
417
330
408
100
AcDbEntity
  8
STANDARDEBENE
 62
     7
100
AcDbVertex
100
AcDb2dVertex
 10
108.608773878397
 20
15.43369344589257
 30
0.0
  0
VERTEX
  5
418
330
408
100
AcDbEntity
  8
STANDARDEBENE
 62
     7
100
AcDbVertex
100
AcDb2dVertex
 10
107.0603746910811
 20
15.43369344589257
 30
0.0
  0
VERTEX
  5
419
330
408
100
AcDbEntity
  8
STANDARDEBENE
 62
     7
100
AcDbVertex
100
AcDb2dVertex
 10
105.5941410852926
 20
15.43369344589257
 30
0.0
  0
VERTEX
  5
41A
330
408
100
AcDbEntity
  8
STANDARDEBENE
 62
     7
100
AcDbVertex
100
AcDb2dVertex
 10
104.2348777648889
 20
15.43369344589257
 30
0.0
  0
VERTEX
  5
41B
330
408
100
AcDbEntity
  8
STANDARDEBENE
 62
     7
100
AcDbVertex
100
AcDb2dVertex
 10
103.0054946299602
 20
15.43369344589257
 30
0.0
  0
VERTEX
  5
41C
330
408
100
AcDbEntity
  8
STANDARDEBENE
 62
     7
100
AcDbVertex
100
AcDb2dVertex
 10
101.9266622670545
 20
15.43369344589257
 30
0.0
  0
VERTEX
  5
41D
330
408
100
AcDbEntity
  8
STANDARDEBENE
 62
     7
100
AcDbVertex
100
AcDb2dVertex
 10
101.0183622431679
 20
15.43369344589257
 30
0.0
  0
VERTEX
  5
41E
330
408
100
AcDbEntity
  8
STANDARDEBENE
 62
     7
100
AcDbVertex
100
AcDb2dVertex
 10
100.2955807335476
 20
15.43369344589257
 30
0.0
  0
VERTEX
  5
41F
330
408
100
AcDbEntity
  8
STANDARDEBENE
 62
     7
100
AcDbVertex
100
AcDb2dVertex
 10
99.7696865607947
 20
15.43369344589257
 30
0.0
  0
VERTEX
  5
420
330
408
100
AcDbEntity
  8
STANDARDEBENE
 62
     7
100
AcDbVertex
100
AcDb2dVertex
 10
99.45084276329534
 20
15.43369344589257
 30
0.0
  0
VERTEX
  5
421
330
408
100
AcDbEntity
  8
STANDARDEBENE
 62
     7
100
AcDbVertex
100
AcDb2dVertex
 10
99.34404473279854
 20
15.43369344589257
 30
0.0
  0
SEQEND
  5
422
330
408
100
AcDbEntity
  8
STANDARDEBENE
  0
POLYLINE
  5
423
330
1F
100
AcDbEntity
  8
STANDARDEBENE
 62
     7
100
AcDb2dPolyline
 66
     1
 10
0.0
 20
0.0
 30
0.0
  0
VERTEX
  5
424
330
423
100
AcDbEntity
  8
STANDARDEBENE
 62
     7
100
AcDbVertex
100
AcDb2dVertex
 10
109.3436132301702
 20
42.38159261844469
 30
0.0
  0
VERTEX
  5
425
330
423
100
AcDbEntity
  8
STANDARDEBENE
 62
     7
100
AcDbVertex
100
AcDb2dVertex
 10
109.4450713591422
 20
43.08542609039626
 30
0.0
  0
VERTEX
  5
426
330
423
100
AcDbEntity
  8
STANDARDEBENE
 62
     7
100
AcDbVertex
100
AcDb2dVertex
 10
109.7404884918874
 20
43.73207093956567
 30
0.0
  0
VERTEX
  5
427
330
423
100
AcDbEntity
  8
STANDARDEBENE
 62
     7
100
AcDbVertex
100
AcDb2dVertex
 10
110.2067824734275
 20
44.2695061898077
 30
0.0
  0
VERTEX
  5
428
330
423
100
AcDbEntity
  8
STANDARDEBENE
 62
     7
100
AcDbVertex
100
AcDb2dVertex
 10
110.8055404637613
 20
44.65415135448412
 30
0.0
  0
VERTEX
  5
429
330
423
100
AcDbEntity
  8
STANDARDEBENE
 62
     7
100
AcDbVertex
100
AcDb2dVertex
 10
111.4880143296135
 20
44.85482829888539
 30
0.0
  0
VERTEX
  5
42A
330
423
100
AcDbEntity
  8
STANDARDEBENE
 62
     7
100
AcDbVertex
100
AcDb2dVertex
 10
112.1995992715205
 20
44.85482829888539
 30
0.0
  0
VERTEX
  5
42B
330
423
100
AcDbEntity
  8
STANDARDEBENE
 62
     7
100
AcDbVertex
100
AcDb2dVertex
 10
112.8825899020364
 20
44.65415135448412
 30
0.0
  0
VERTEX
  5
42C
330
423
100
AcDbEntity
  8
STANDARDEBENE
 62
     7
100
AcDbVertex
100
AcDb2dVertex
 10
113.4808311277064
 20
44.2695061898077
 30
0.0
  0
VERTEX
  5
42D
330
423
100
AcDbEntity
  8
STANDARDEBENE
 62
     7
100
AcDbVertex
100
AcDb2dVertex
 10
113.9471251092465
 20
43.73207093956567
 30
0.0
  0
VERTEX
  5
42E
330
423
100
AcDbEntity
  8
STANDARDEBENE
 62
     7
100
AcDbVertex
100
AcDb2dVertex
 10
114.2425422419918
 20
43.08542609039626
 30
0.0
  0
VERTEX
  5
42F
330
423
100
AcDbEntity
  8
STANDARDEBENE
 62
     7
100
AcDbVertex
100
AcDb2dVertex
 10
114.3440003709637
 20
42.38159261844469
 30
0.0
  0
VERTEX
  5
430
330
423
100
AcDbEntity
  8
STANDARDEBENE
 62
     7
100
AcDbVertex
100
AcDb2dVertex
 10
114.2425422419918
 20
41.67793140138102
 30
0.0
  0
VERTEX
  5
431
330
423
100
AcDbEntity
  8
STANDARDEBENE
 62
     7
100
AcDbVertex
100
AcDb2dVertex
 10
113.9471251092465
 20
41.03076978754791
 30
0.0
  0
VERTEX
  5
432
330
423
100
AcDbEntity
  8
STANDARDEBENE
 62
     7
100
AcDbVertex
100
AcDb2dVertex
 10
113.4808311277064
 20
40.4928177726422
 30
0.0
  0
VERTEX
  5
433
330
423
100
AcDbEntity
  8
STANDARDEBENE
 62
     7
100
AcDbVertex
100
AcDb2dVertex
 10
112.8825899020364
 20
40.10903388240526
 30
0.0
  0
VERTEX
  5
434
330
423
100
AcDbEntity
  8
STANDARDEBENE
 62
     7
100
AcDbVertex
100
AcDb2dVertex
 10
112.1995992715205
 20
39.90870144777979
 30
0.0
  0
VERTEX
  5
435
330
423
100
AcDbEntity
  8
STANDARDEBENE
 62
     7
100
AcDbVertex
100
AcDb2dVertex
 10
111.4880143296135
 20
39.90870144777979
 30
0.0
  0
VERTEX
  5
436
330
423
100
AcDbEntity
  8
STANDARDEBENE
 62
     7
100
AcDbVertex
100
AcDb2dVertex
 10
110.8055404637613
 20
40.10903388240526
 30
0.0
  0
VERTEX
  5
437
330
423
100
AcDbEntity
  8
STANDARDEBENE
 62
     7
100
AcDbVertex
100
AcDb2dVertex
 10
110.2067824734275
 20
40.4928177726422
 30
0.0
  0
VERTEX
  5
438
330
423
100
AcDbEntity
  8
STANDARDEBENE
 62
     7
100
AcDbVertex
100
AcDb2dVertex
 10
109.7404884918874
 20
41.03076978754791
 30
0.0
  0
VERTEX
  5
439
330
423
100
AcDbEntity
  8
STANDARDEBENE
 62
     7
100
AcDbVertex
100
AcDb2dVertex
 10
109.4450713591422
 20
41.67793140138102
 30
0.0
  0
VERTEX
  5
43A
330
423
100
AcDbEntity
  8
STANDARDEBENE
 62
     7
100
AcDbVertex
100
AcDb2dVertex
 10
109.3436132301702
 20
42.38159261844469
 30
0.0
  0
SEQEND
  5
43B
330
423
100
AcDbEntity
  8
STANDARDEBENE
  0
POLYLINE
  5
43C
330
1F
100
AcDbEntity
  8
STANDARDEBENE
 62
     7
100
AcDb2dPolyline
 66
     1
 10
0.0
 20
0.0
 30
0.0
  0
VERTEX
  5
43D
330
43C
100
AcDbEntity
  8
STANDARDEBENE
 62
     7
100
AcDbVertex
100
AcDb2dVertex
 10
108.3438458608098
 20
42.38159261844469
 30
0.0
  0
VERTEX
  5
43E
330
43C
100
AcDbEntity
  8
STANDARDEBENE
 62
     7
100
AcDbVertex
100
AcDb2dVertex
 10
108.4453039897817
 20
43.21840686385359
 30
0.0
  0
VERTEX
  5
43F
330
43C
100
AcDbEntity
  8
STANDARDEBENE
 62
     7
100
AcDbVertex
100
AcDb2dVertex
 10
108.7448552398365
 20
44.00681748576311
 30
0.0
  0
VERTEX
  5
440
330
43C
100
AcDbEntity
  8
STANDARDEBENE
 62
     7
100
AcDbVertex
100
AcDb2dVertex
 10
109.2245851026327
 20
44.7008324291045
 30
0.0
  0
VERTEX
  5
441
330
43C
100
AcDbEntity
  8
STANDARDEBENE
 62
     7
100
AcDbVertex
100
AcDb2dVertex
 10
109.8557270118912
 20
45.25979954033379
 30
0.0
  0
VERTEX
  5
442
330
43C
100
AcDbEntity
  8
STANDARDEBENE
 62
     7
100
AcDbVertex
100
AcDb2dVertex
 10
110.6026242058173
 20
45.65202392007772
 30
0.0
  0
VERTEX
  5
443
330
43C
100
AcDbEntity
  8
STANDARDEBENE
 62
     7
100
AcDbVertex
100
AcDb2dVertex
 10
111.4216961977727
 20
45.85390664869428
 30
0.0
  0
VERTEX
  5
444
330
43C
100
AcDbEntity
  8
STANDARDEBENE
 62
     7
100
AcDbVertex
100
AcDb2dVertex
 10
112.2659174033612
 20
45.85390664869428
 30
0.0
  0
VERTEX
  5
445
330
43C
100
AcDbEntity
  8
STANDARDEBENE
 62
     7
100
AcDbVertex
100
AcDb2dVertex
 10
113.0849893953166
 20
45.65202392007772
 30
0.0
  0
VERTEX
  5
446
330
43C
100
AcDbEntity
  8
STANDARDEBENE
 62
     7
100
AcDbVertex
100
AcDb2dVertex
 10
113.8322310990185
 20
45.25979954033379
 30
0.0
  0
VERTEX
  5
447
330
43C
100
AcDbEntity
  8
STANDARDEBENE
 62
     7
100
AcDbVertex
100
AcDb2dVertex
 10
114.463545263165
 20
44.7008324291045
 30
0.0
  0
VERTEX
  5
448
330
43C
100
AcDbEntity
  8
STANDARDEBENE
 62
     7
100
AcDbVertex
100
AcDb2dVertex
 10
114.9427583612975
 20
44.00681748576311
 30
0.0
  0
VERTEX
  5
449
330
43C
100
AcDbEntity
  8
STANDARDEBENE
 62
     7
100
AcDbVertex
100
AcDb2dVertex
 10
115.2421373564643
 20
43.21840686385359
 30
0.0
  0
VERTEX
  5
44A
330
43C
100
AcDbEntity
  8
STANDARDEBENE
 62
     7
100
AcDbVertex
100
AcDb2dVertex
 10
115.3442845049879
 20
42.38159261844469
 30
0.0
  0
SEQEND
  5
44B
330
43C
100
AcDbEntity
  8
STANDARDEBENE
  0
SPLINE
  5
44C
330
1F
100
AcDbEntity
  8
STANDARDEBENE
 62
     7
100
AcDbSpline
210
0.0
220
0.0
230
1.0
 70
    11
 71
     3
 72
    17
 73
    13
 74
     0
 42
0.0000000001
 43
0.0000000001
 40
0.0
 40
0.0
 40
0.0
 40
0.0
 40
1.0
 40
1.0
 40
1.0
 40
2.0
 40
2.0
 40
2.0
 40
3.0
 40
3.0
 40
3.0
 40
4.0
 40
4.0
 40
4.0
 40
4.0
 10
116.1328673817853
 20
-40.20963073693775
 30
0.0
 10
116.1328673817853
 20
-37.84078151856329
 30
0.0
 10
114.2123976366096
 20
-35.92048402827545
 30
0.0
 10
111.843720673123
 20
-35.92048402827545
 30
0.0
 10
109.4757327291881
 20
-35.92048402827545
 30
0.0
 10
107.5552629840123
 20
-37.84078151856329
 30
0.0
 10
107.5552629840123
 20
-40.20963073693775
 30
0.0
 10
107.5552629840123
 20
-42.57779093576061
 30
0.0
 10
109.4757327291881
 20
-44.49843293582425
 30
0.0
 10
111.843720673123
 20
-44.49843293582425
 30
0.0
 10
114.2123976366096
 20
-44.49843293582425
 30
0.0
 10
116.1328673817853
 20
-42.57779093576061
 30
0.0
 10
116.1328673817853
 20
-40.20963073693775
 30
0.0
  0
SPLINE
  5
44D
330
1F
100
AcDbEntity
  8
STANDARDEBENE
 62
     7
100
AcDbSpline
210
0.0
220
0.0
230
1.0
 70
    11
 71
     3
 72
    17
 73
    13
 74
     0
 42
0.0000000001
 43
0.0000000001
 40
0.0
 40
0.0
 40
0.0
 40
0.0
 40
1.0
 40
1.0
 40
1.0
 40
2.0
 40
2.0
 40
2.0
 40
3.0
 40
3.0
 40
3.0
 40
4.0
 40
4.0
 40
4.0
 40
4.0
 10
123.3438014989749
 20
-40.20963073693775
 30
0.0
 10
123.3438014989749
 20
-33.85790400058378
 30
0.0
 10
118.1949306448133
 20
-28.70989442086163
 30
0.0
 10
111.843720673123
 20
-28.70989442086163
 30
0.0
 10
105.4931997209844
 20
-28.70989442086163
 30
0.0
 10
100.343812102159
 20
-33.85790400058378
 30
0.0
 10
100.343812102159
 20
-40.20963073693775
 30
0.0
 10
100.343812102159
 20
-46.56032394396432
 30
0.0
 10
105.4931997209844
 20
-51.70971156278966
 30
0.0
 10
111.843720673123
 20
-51.70971156278966
 30
0.0
 10
118.1949306448133
 20
-51.70971156278966
 30
0.0
 10
123.3438014989749
 20
-46.56032394396432
 30
0.0
 10
123.3438014989749
 20
-40.20963073693775
 30
0.0
  0
SPLINE
  5
44E
330
1F
100
AcDbEntity
  8
STANDARDEBENE
 62
     7
100
AcDbSpline
210
0.0
220
0.0
230
1.0
 70
    11
 71
     3
 72
    17
 73
    13
 74
     0
 42
0.0000000001
 43
0.0000000001
 40
0.0
 40
0.0
 40
0.0
 40
0.0
 40
1.0
 40
1.0
 40
1.0
 40
2.0
 40
2.0
 40
2.0
 40
3.0
 40
3.0
 40
3.0
 40
4.0
 40
4.0
 40
4.0
 40
4.0
 10
124.3435688683354
 20
-40.20963073693775
 30
0.0
 10
124.3435688683354
 20
-33.30599933975832
 30
0.0
 10
118.7471798154146
 20
-27.70909352217376
 30
0.0
 10
111.843720673123
 20
-27.70909352217376
 30
0.0
 10
104.9404337857194
 20
-27.70909352217376
 30
0.0
 10
99.34404473279854
 20
-33.30599933975832
 30
0.0
 10
99.34404473279854
 20
-40.20963073693775
 30
0.0
 10
99.34404473279854
 20
-47.11291762434138
 30
0.0
 10
104.9404337857194
 20
-52.70947893215014
 30
0.0
 10
111.843720673123
 20
-52.70947893215014
 30
0.0
 10
118.7471798154146
 20
-52.70947893215014
 30
0.0
 10
124.3435688683354
 20
-47.11291762434138
 30
0.0
 10
124.3435688683354
 20
-40.20963073693775
 30
0.0
  0
SPLINE
  5
44F
330
1F
100
AcDbEntity
  8
STANDARDEBENE
 62
     7
100
AcDbSpline
210
0.0
220
0.0
230
1.0
 70
    11
 71
     3
 72
    17
 73
    13
 74
     0
 42
0.0000000001
 43
0.0000000001
 40
0.0
 40
0.0
 40
0.0
 40
0.0
 40
1.0
 40
1.0
 40
1.0
 40
2.0
 40
2.0
 40
2.0
 40
3.0
 40
3.0
 40
3.0
 40
4.0
 40
4.0
 40
4.0
 40
4.0
 10
113.3438884918274
 20
-40.20963073693775
 30
0.0
 10
113.3438884918274
 20
-39.38108472614796
 30
0.0
 10
112.6720944290249
 20
-38.70929066334543
 30
0.0
 10
111.843720673123
 20
-38.70929066334543
 30
0.0
 10
111.0156914269969
 20
-38.70929066334543
 30
0.0
 10
110.3442418739702
 20
-39.38108472614796
 30
0.0
 10
110.3442418739702
 20
-40.20963073693775
 30
0.0
 10
110.3442418739702
 20
-41.03817674772753
 30
0.0
 10
111.0156914269969
 20
-41.70893728120267
 30
0.0
 10
111.843720673123
 20
-41.70893728120267
 30
0.0
 10
112.6720944290249
 20
-41.70893728120267
 30
0.0
 10
113.3438884918274
 20
-41.03817674772753
 30
0.0
 10
113.3438884918274
 20
-40.20963073693775
 30
0.0
  0
SPLINE
  5
450
330
1F
100
AcDbEntity
  8
STANDARDEBENE
 62
     7
100
AcDbSpline
210
0.0
220
0.0
230
1.0
 70
    11
 71
     3
 72
    17
 73
    13
 74
     0
 42
0.0000000001
 43
0.0000000001
 40
0.0
 40
0.0
 40
0.0
 40
0.0
 40
1.0
 40
1.0
 40
1.0
 40
2.0
 40
2.0
 40
2.0
 40
3.0
 40
3.0
 40
3.0
 40
4.0
 40
4.0
 40
4.0
 40
4.0
 10
115.8434791701166
 20
-40.20963073693775
 30
0.0
 10
115.8434791701166
 20
-38.00063405453271
 30
0.0
 10
114.0534063750797
 20
-36.20987223994423
 30
0.0
 10
111.843720673123
 20
-36.20987223994423
 30
0.0
 10
109.6348962456059
 20
-36.20987223994423
 30
0.0
 10
107.8437899212416
 20
-38.00063405453271
 30
0.0
 10
107.8437899212416
 20
-40.20963073693775
 30
0.0
 10
107.8437899212416
 20
-42.41862741934278
 30
0.0
 10
109.6348962456059
 20
-44.20973374370706
 30
0.0
 10
111.843720673123
 20
-44.20973374370706
 30
0.0
 10
114.0534063750797
 20
-44.20973374370706
 30
0.0
 10
115.8434791701166
 20
-42.41862741934278
 30
0.0
 10
115.8434791701166
 20
-40.20963073693775
 30
0.0
  0
POLYLINE
  5
451
330
1F
100
AcDbEntity
  8
STANDARDEBENE
  6
AI-LINETYPE-1
 62
     7
100
AcDb2dPolyline
 66
     1
 10
0.0
 20
0.0
 30
0.0
  0
VERTEX
  5
452
330
451
100
AcDbEntity
  8
STANDARDEBENE
  6
AI-LINETYPE-1
 62
     7
100
AcDbVertex
100
AcDb2dVertex
 10
111.843720673123
 20
1.337042439864931
 30
0.0
  0
VERTEX
  5
453
330
451
100
AcDbEntity
  8
STANDARDEBENE
  6
AI-LINETYPE-1
 62
     7
100
AcDbVertex
100
AcDb2dVertex
 10
111.843720673123
 20
58.77250647638692
 30
0.0
  0
SEQEND
  5
454
330
451
100
AcDbEntity
  8
STANDARDEBENE
  6
AI-LINETYPE-1
  0
POLYLINE
  5
456
330
1F
100
AcDbEntity
  8
STANDARDEBENE
  6
AI-LINETYPE-2
 62
     7
100
AcDb2dPolyline
 66
     1
 10
0.0
 20
0.0
 30
0.0
  0
VERTEX
  5
457
330
456
100
AcDbEntity
  8
STANDARDEBENE
  6
AI-LINETYPE-2
 62
     7
100
AcDbVertex
100
AcDb2dVertex
 10
176.9932753543849
 20
2.107538553433063
 30
0.0
  0
VERTEX
  5
458
330
456
100
AcDbEntity
  8
STANDARDEBENE
  6
AI-LINETYPE-2
 62
     7
100
AcDbVertex
100
AcDb2dVertex
 10
176.9932753543849
 20
58.46399797216144
 30
0.0
  0
SEQEND
  5
459
330
456
100
AcDbEntity
  8
STANDARDEBENE
  6
AI-LINETYPE-2
  0
POLYLINE
  5
45B
330
1F
100
AcDbEntity
  8
STANDARDEBENE
  6
AI-LINETYPE-3
 62
     7
100
AcDb2dPolyline
 66
     1
 10
0.0
 20
0.0
 30
0.0
  0
VERTEX
  5
45C
330
45B
100
AcDbEntity
  8
STANDARDEBENE
  6
AI-LINETYPE-3
 62
     7
100
AcDbVertex
100
AcDb2dVertex
 10
111.843720673123
 20
-53.66928316751827
 30
0.0
  0
VERTEX
  5
45D
330
45B
100
AcDbEntity
  8
STANDARDEBENE
  6
AI-LINETYPE-3
 62
     7
100
AcDbVertex
100
AcDb2dVertex
 10
111.843720673123
 20
-26.20944246813303
 30
0.0
  0
SEQEND
  5
45E
330
45B
100
AcDbEntity
  8
STANDARDEBENE
  6
AI-LINETYPE-3
  0
POLYLINE
  5
460
330
1F
100
AcDbEntity
  8
STANDARDEBENE
  6
AI-LINETYPE-4
 62
     7
100
AcDb2dPolyline
 66
     1
 10
0.0
 20
0.0
 30
0.0
  0
VERTEX
  5
461
330
460
100
AcDbEntity
  8
STANDARDEBENE
  6
AI-LINETYPE-4
 62
     7
100
AcDbVertex
100
AcDb2dVertex
 10
125.7178183639863
 20
-40.20963073693775
 30
0.0
  0
VERTEX
  5
462
330
460
100
AcDbEntity
  8
STANDARDEBENE
  6
AI-LINETYPE-4
 62
     7
100
AcDbVertex
100
AcDb2dVertex
 10
97.84456593364571
 20
-40.20963073693775
 30
0.0
  0
SEQEND
  5
463
330
460
100
AcDbEntity
  8
STANDARDEBENE
  6
AI-LINETYPE-4
  0
MTEXT
  5
466
330
1F
100
AcDbEntity
  8
TEXT
 62
     7
100
AcDbMText
 10
130.0107546801824
 20
39.00022916900529
 30
0.0
 40
2.398890470823883
 41
0.0
 71
     7
 72
     1
  1
\fINDEX Univers 45 Light|b0|i0|c0|p34;\W1;\U+00F88H5
  0
MTEXT
  5
467
330
1F
100
AcDbEntity
  8
TEXT
 62
     7
100
AcDbMText
 10
159.7676143096886
 20
38.93132721384606
 30
0.0
 40
2.398890470823883
 41
0.0
 71
     7
 72
     1
  1
\fINDEX Univers 45 Light|b0|i0|c0|p34;\W1;\U+00F825
  0
MTEXT
  5
468
330
1F
100
AcDbEntity
  8
TEXT
 62
     7
100
AcDbMText
 10
113.0760321411459
 20
22.00125555678283
 30
0.0
 40
2.398890470823883
 41
0.0
 71
     7
 72
     1
  1
\fINDEX Univers 45 Light|b0|i0|c0|p34;\W1;32
 11
-4.371139000186241E-8
 21
0.999999999999999
 31
0.0
  0
MTEXT
  5
469
330
1F
100
AcDbEntity
  8
TEXT
 62
     7
100
AcDbMText
 10
182.2477384548281
 20
17.3374544669422
 30
0.0
 40
2.398890470823883
 41
0.0
 71
     7
 72
     1
  1
\fINDEX Univers 45 Light|b0|i0|c0|p34;\W1;55
 11
-4.371139000186241E-8
 21
0.999999999999999
 31
0.0
  0
MTEXT
  5
46A
330
1F
100
AcDbEntity
  8
TEXT
 62
     7
100
AcDbMText
 10
176.38969422719
 20
19.90112396352939
 30
0.0
 40
2.398890470823883
 41
0.0
 71
     7
 72
     1
  1
\fINDEX Univers 45 Light|b0|i0|c0|p34;\W1;42
 11
-4.371139000186241E-8
 21
0.999999999999999
 31
0.0
  0
MTEXT
  5
46B
330
1F
100
AcDbEntity
  8
TEXT
 62
     7
100
AcDbMText
 10
96.52440447279479
 20
-6.475578000752687
 30
0.0
 40
2.398890470823883
 41
0.0
 71
     7
 72
     1
  1
\fINDEX Univers 45 Light|b0|i0|c0|p34;\W1;HSK 25 C
  0
MTEXT
  5
46C
330
1F
100
AcDbEntity
  8
TEXT
 62
     7
100
AcDbMText
 10
96.52440447279479
 20
-2.142678550564272
 30
0.0
 40
2.398890470823883
 41
0.0
 71
     7
 72
     1
  1
\fINDEX Univers 45 Light|b0|i0|c0|p34;\W1;DIN 69893
  0
MTEXT
  5
46D
330
1F
100
AcDbEntity
  8
TEXT
 62
     7
100
AcDbMText
 10
140.5491364668993
 20
26.10402247673941
 30
0.0
 40
2.398890470823883
 41
0.0
 71
     7
 72
     1
  1
\fINDEX Univers 45 Light|b0|i0|c0|p34;\W1;15
 11
-4.371139000186241E-8
 21
0.999999999999999
 31
0.0
  0
POLYLINE
  5
46F
330
1F
100
AcDbEntity
  8
BEMA_UNG
 62
     7
100
AcDb2dPolyline
 66
     1
 10
0.0
 20
0.0
 30
0.0
  0
VERTEX
  5
470
330
46F
100
AcDbEntity
  8
BEMA_UNG
 62
     7
100
AcDbVertex
100
AcDb2dVertex
 10
123.9651248796233
 20
32.73704144503095
 30
0.0
  0
VERTEX
  5
471
330
46F
100
AcDbEntity
  8
BEMA_UNG
 62
     7
100
AcDbVertex
100
AcDb2dVertex
 10
123.9651248796233
 20
39.41536344883968
 30
0.0
  0
SEQEND
  5
472
330
46F
100
AcDbEntity
  8
BEMA_UNG
  0
POLYLINE
  5
473
330
1F
100
AcDbEntity
  8
BEMA_UNG
 62
     7
100
AcDb2dPolyline
 66
     1
 10
0.0
 20
0.0
 30
0.0
  0
VERTEX
  5
474
330
473
100
AcDbEntity
  8
BEMA_UNG
 62
     7
100
AcDbVertex
100
AcDb2dVertex
 10
128.3650314812041
 20
32.73704144503095
 30
0.0
  0
VERTEX
  5
475
330
473
100
AcDbEntity
  8
BEMA_UNG
 62
     7
100
AcDbVertex
100
AcDb2dVertex
 10
128.3650314812041
 20
39.41536344883968
 30
0.0
  0
SEQEND
  5
476
330
473
100
AcDbEntity
  8
BEMA_UNG
  0
POLYLINE
  5
477
330
1F
100
AcDbEntity
  8
BEMA_UNG
 62
     7
100
AcDb2dPolyline
 66
     1
 10
0.0
 20
0.0
 30
0.0
  0
VERTEX
  5
478
330
477
100
AcDbEntity
  8
BEMA_UNG
 62
     7
100
AcDbVertex
100
AcDb2dVertex
 10
118.5072287565725
 20
38.31465471517092
 30
0.0
  0
VERTEX
  5
479
330
477
100
AcDbEntity
  8
BEMA_UNG
 62
     7
100
AcDbVertex
100
AcDb2dVertex
 10
138.4653690879962
 20
38.31465471517092
 30
0.0
  0
SEQEND
  5
47A
330
477
100
AcDbEntity
  8
BEMA_UNG
  0
POLYLINE
  5
47B
330
1F
100
AcDbEntity
  8
BEMA_UNG
 62
     7
100
AcDb2dPolyline
 66
     1
 10
0.0
 20
0.0
 30
0.0
  0
VERTEX
  5
47C
330
47B
100
AcDbEntity
  8
BEMA_UNG
 62
     7
100
AcDbVertex
100
AcDb2dVertex
 10
128.4423739258704
 20
38.31465471517092
 30
0.0
  0
VERTEX
  5
47D
330
47B
100
AcDbEntity
  8
BEMA_UNG
 62
     7
100
AcDbVertex
100
AcDb2dVertex
 10
129.8185182252881
 20
38.13344257310214
 30
0.0
  0
VERTEX
  5
47E
330
47B
100
AcDbEntity
  8
BEMA_UNG
 62
     7
100
AcDbVertex
100
AcDb2dVertex
 10
129.8185182252881
 20
38.4956946023518
 30
0.0
  0
VERTEX
  5
47F
330
47B
100
AcDbEntity
  8
BEMA_UNG
 62
     7
100
AcDbVertex
100
AcDb2dVertex
 10
128.4423739258704
 20
38.31465471517092
 30
0.0
  0
SEQEND
  5
480
330
47B
100
AcDbEntity
  8
BEMA_UNG
  0
POLYLINE
  5
481
330
1F
100
AcDbEntity
  8
BEMA_UNG
 62
     7
100
AcDb2dPolyline
 66
     1
 10
0.0
 20
0.0
 30
0.0
  0
VERTEX
  5
482
330
481
100
AcDbEntity
  8
BEMA_UNG
 62
     7
100
AcDbVertex
100
AcDb2dVertex
 10
129.8185182252881
 20
38.14722296413398
 30
0.0
  0
VERTEX
  5
483
330
481
100
AcDbEntity
  8
BEMA_UNG
 62
     7
100
AcDbVertex
100
AcDb2dVertex
 10
129.7158543121009
 20
38.14722296413398
 30
0.0
  0
SEQEND
  5
484
330
481
100
AcDbEntity
  8
BEMA_UNG
  0
POLYLINE
  5
485
330
1F
100
AcDbEntity
  8
BEMA_UNG
 62
     7
100
AcDb2dPolyline
 66
     1
 10
0.0
 20
0.0
 30
0.0
  0
VERTEX
  5
486
330
485
100
AcDbEntity
  8
BEMA_UNG
 62
     7
100
AcDbVertex
100
AcDb2dVertex
 10
129.8185182252881
 20
38.14722296413398
 30
0.0
  0
VERTEX
  5
487
330
485
100
AcDbEntity
  8
BEMA_UNG
 62
     7
100
AcDbVertex
100
AcDb2dVertex
 10
129.7158543121009
 20
38.14722296413398
 30
0.0
  0
SEQEND
  5
488
330
485
100
AcDbEntity
  8
BEMA_UNG
  0
POLYLINE
  5
489
330
1F
100
AcDbEntity
  8
BEMA_UNG
 62
     7
100
AcDb2dPolyline
 66
     1
 10
0.0
 20
0.0
 30
0.0
  0
VERTEX
  5
48A
330
489
100
AcDbEntity
  8
BEMA_UNG
 62
     7
100
AcDbVertex
100
AcDb2dVertex
 10
129.8185182252881
 20
38.17512825597347
 30
0.0
  0
VERTEX
  5
48B
330
489
100
AcDbEntity
  8
BEMA_UNG
 62
     7
100
AcDbVertex
100
AcDb2dVertex
 10
129.5034640353225
 20
38.17512825597347
 30
0.0
  0
SEQEND
  5
48C
330
489
100
AcDbEntity
  8
BEMA_UNG
  0
POLYLINE
  5
48D
330
1F
100
AcDbEntity
  8
BEMA_UNG
 62
     7
100
AcDb2dPolyline
 66
     1
 10
0.0
 20
0.0
 30
0.0
  0
VERTEX
  5
48E
330
48D
100
AcDbEntity
  8
BEMA_UNG
 62
     7
100
AcDbVertex
100
AcDb2dVertex
 10
129.8185182252881
 20
38.20303354781296
 30
0.0
  0
VERTEX
  5
48F
330
48D
100
AcDbEntity
  8
BEMA_UNG
 62
     7
100
AcDbVertex
100
AcDb2dVertex
 10
129.29141826832
 20
38.20303354781296
 30
0.0
  0
SEQEND
  5
490
330
48D
100
AcDbEntity
  8
BEMA_UNG
  0
POLYLINE
  5
491
330
1F
100
AcDbEntity
  8
BEMA_UNG
 62
     7
100
AcDb2dPolyline
 66
     1
 10
0.0
 20
0.0
 30
0.0
  0
VERTEX
  5
492
330
491
100
AcDbEntity
  8
BEMA_UNG
 62
     7
100
AcDbVertex
100
AcDb2dVertex
 10
129.8185182252881
 20
38.23111109454035
 30
0.0
  0
VERTEX
  5
493
330
491
100
AcDbEntity
  8
BEMA_UNG
 62
     7
100
AcDbVertex
100
AcDb2dVertex
 10
129.0790279915417
 20
38.23111109454035
 30
0.0
  0
SEQEND
  5
494
330
491
100
AcDbEntity
  8
BEMA_UNG
  0
POLYLINE
  5
495
330
1F
100
AcDbEntity
  8
BEMA_UNG
 62
     7
100
AcDb2dPolyline
 66
     1
 10
0.0
 20
0.0
 30
0.0
  0
VERTEX
  5
496
330
495
100
AcDbEntity
  8
BEMA_UNG
 62
     7
100
AcDbVertex
100
AcDb2dVertex
 10
129.8185182252881
 20
38.25884413149194
 30
0.0
  0
VERTEX
  5
497
330
495
100
AcDbEntity
  8
BEMA_UNG
 62
     7
100
AcDbVertex
100
AcDb2dVertex
 10
128.8669822245391
 20
38.25884413149194
 30
0.0
  0
SEQEND
  5
498
330
495
100
AcDbEntity
  8
BEMA_UNG
  0
POLYLINE
  5
499
330
1F
100
AcDbEntity
  8
BEMA_UNG
 62
     7
100
AcDb2dPolyline
 66
     1
 10
0.0
 20
0.0
 30
0.0
  0
VERTEX
  5
49A
330
499
100
AcDbEntity
  8
BEMA_UNG
 62
     7
100
AcDbVertex
100
AcDb2dVertex
 10
129.8185182252881
 20
38.28674942333143
 30
0.0
  0
VERTEX
  5
49B
330
499
100
AcDbEntity
  8
BEMA_UNG
 62
     7
100
AcDbVertex
100
AcDb2dVertex
 10
128.6547642026487
 20
38.28674942333143
 30
0.0
  0
SEQEND
  5
49C
330
499
100
AcDbEntity
  8
BEMA_UNG
  0
POLYLINE
  5
49D
330
1F
100
AcDbEntity
  8
BEMA_UNG
 62
     7
100
AcDb2dPolyline
 66
     1
 10
0.0
 20
0.0
 30
0.0
  0
VERTEX
  5
49E
330
49D
100
AcDbEntity
  8
BEMA_UNG
 62
     7
100
AcDbVertex
100
AcDb2dVertex
 10
129.8185182252881
 20
38.31465471517092
 30
0.0
  0
VERTEX
  5
49F
330
49D
100
AcDbEntity
  8
BEMA_UNG
 62
     7
100
AcDbVertex
100
AcDb2dVertex
 10
128.4423739258704
 20
38.31465471517092
 30
0.0
  0
SEQEND
  5
4A0
330
49D
100
AcDbEntity
  8
BEMA_UNG
  0
POLYLINE
  5
4A1
330
1F
100
AcDbEntity
  8
BEMA_UNG
 62
     7
100
AcDb2dPolyline
 66
     1
 10
0.0
 20
0.0
 30
0.0
  0
VERTEX
  5
4A2
330
4A1
100
AcDbEntity
  8
BEMA_UNG
 62
     7
100
AcDbVertex
100
AcDb2dVertex
 10
129.8185182252881
 20
38.48225872109575
 30
0.0
  0
VERTEX
  5
4A3
330
4A1
100
AcDbEntity
  8
BEMA_UNG
 62
     7
100
AcDbVertex
100
AcDb2dVertex
 10
129.7158543121009
 20
38.48225872109575
 30
0.0
  0
SEQEND
  5
4A4
330
4A1
100
AcDbEntity
  8
BEMA_UNG
  0
POLYLINE
  5
4A5
330
1F
100
AcDbEntity
  8
BEMA_UNG
 62
     7
100
AcDb2dPolyline
 66
     1
 10
0.0
 20
0.0
 30
0.0
  0
VERTEX
  5
4A6
330
4A5
100
AcDbEntity
  8
BEMA_UNG
 62
     7
100
AcDbVertex
100
AcDb2dVertex
 10
129.8185182252881
 20
38.48225872109575
 30
0.0
  0
VERTEX
  5
4A7
330
4A5
100
AcDbEntity
  8
BEMA_UNG
 62
     7
100
AcDbVertex
100
AcDb2dVertex
 10
129.7158543121009
 20
38.48225872109575
 30
0.0
  0
SEQEND
  5
4A8
330
4A5
100
AcDbEntity
  8
BEMA_UNG
  0
POLYLINE
  5
4A9
330
1F
100
AcDbEntity
  8
BEMA_UNG
 62
     7
100
AcDb2dPolyline
 66
     1
 10
0.0
 20
0.0
 30
0.0
  0
VERTEX
  5
4AA
330
4A9
100
AcDbEntity
  8
BEMA_UNG
 62
     7
100
AcDbVertex
100
AcDb2dVertex
 10
129.8185182252881
 20
38.45435342925627
 30
0.0
  0
VERTEX
  5
4AB
330
4A9
100
AcDbEntity
  8
BEMA_UNG
 62
     7
100
AcDbVertex
100
AcDb2dVertex
 10
129.5034640353225
 20
38.45435342925627
 30
0.0
  0
SEQEND
  5
4AC
330
4A9
100
AcDbEntity
  8
BEMA_UNG
  0
POLYLINE
  5
4AD
330
1F
100
AcDbEntity
  8
BEMA_UNG
 62
     7
100
AcDb2dPolyline
 66
     1
 10
0.0
 20
0.0
 30
0.0
  0
VERTEX
  5
4AE
330
4AD
100
AcDbEntity
  8
BEMA_UNG
 62
     7
100
AcDbVertex
100
AcDb2dVertex
 10
129.8185182252881
 20
38.42644813741678
 30
0.0
  0
VERTEX
  5
4AF
330
4AD
100
AcDbEntity
  8
BEMA_UNG
 62
     7
100
AcDbVertex
100
AcDb2dVertex
 10
129.29141826832
 20
38.42644813741678
 30
0.0
  0
SEQEND
  5
4B0
330
4AD
100
AcDbEntity
  8
BEMA_UNG
  0
POLYLINE
  5
4B1
330
1F
100
AcDbEntity
  8
BEMA_UNG
 62
     7
100
AcDb2dPolyline
 66
     1
 10
0.0
 20
0.0
 30
0.0
  0
VERTEX
  5
4B2
330
4B1
100
AcDbEntity
  8
BEMA_UNG
 62
     7
100
AcDbVertex
100
AcDb2dVertex
 10
129.8185182252881
 20
38.39854284557728
 30
0.0
  0
VERTEX
  5
4B3
330
4B1
100
AcDbEntity
  8
BEMA_UNG
 62
     7
100
AcDbVertex
100
AcDb2dVertex
 10
129.0790279915417
 20
38.39854284557728
 30
0.0
  0
SEQEND
  5
4B4
330
4B1
100
AcDbEntity
  8
BEMA_UNG
  0
POLYLINE
  5
4B5
330
1F
100
AcDbEntity
  8
BEMA_UNG
 62
     7
100
AcDb2dPolyline
 66
     1
 10
0.0
 20
0.0
 30
0.0
  0
VERTEX
  5
4B6
330
4B5
100
AcDbEntity
  8
BEMA_UNG
 62
     7
100
AcDbVertex
100
AcDb2dVertex
 10
129.8185182252881
 20
38.37063755373779
 30
0.0
  0
VERTEX
  5
4B7
330
4B5
100
AcDbEntity
  8
BEMA_UNG
 62
     7
100
AcDbVertex
100
AcDb2dVertex
 10
128.8669822245391
 20
38.37063755373779
 30
0.0
  0
SEQEND
  5
4B8
330
4B5
100
AcDbEntity
  8
BEMA_UNG
  0
POLYLINE
  5
4B9
330
1F
100
AcDbEntity
  8
BEMA_UNG
 62
     7
100
AcDb2dPolyline
 66
     1
 10
0.0
 20
0.0
 30
0.0
  0
VERTEX
  5
4BA
330
4B9
100
AcDbEntity
  8
BEMA_UNG
 62
     7
100
AcDbVertex
100
AcDb2dVertex
 10
129.8185182252881
 20
38.34256000701041
 30
0.0
  0
VERTEX
  5
4BB
330
4B9
100
AcDbEntity
  8
BEMA_UNG
 62
     7
100
AcDbVertex
100
AcDb2dVertex
 10
128.6547642026487
 20
38.34256000701041
 30
0.0
  0
SEQEND
  5
4BC
330
4B9
100
AcDbEntity
  8
BEMA_UNG
  0
POLYLINE
  5
4BD
330
1F
100
AcDbEntity
  8
BEMA_UNG
 62
     7
100
AcDb2dPolyline
 66
     1
 10
0.0
 20
0.0
 30
0.0
  0
VERTEX
  5
4BE
330
4BD
100
AcDbEntity
  8
BEMA_UNG
 62
     7
100
AcDbVertex
100
AcDb2dVertex
 10
129.8185182252881
 20
38.31465471517092
 30
0.0
  0
VERTEX
  5
4BF
330
4BD
100
AcDbEntity
  8
BEMA_UNG
 62
     7
100
AcDbVertex
100
AcDb2dVertex
 10
128.4423739258704
 20
38.31465471517092
 30
0.0
  0
SEQEND
  5
4C0
330
4BD
100
AcDbEntity
  8
BEMA_UNG
  0
POLYLINE
  5
4C1
330
1F
100
AcDbEntity
  8
BEMA_UNG
 62
     7
100
AcDb2dPolyline
 66
     1
 10
0.0
 20
0.0
 30
0.0
  0
VERTEX
  5
4C2
330
4C1
100
AcDbEntity
  8
BEMA_UNG
 62
     7
100
AcDbVertex
100
AcDb2dVertex
 10
123.9117258643749
 20
38.31465471517092
 30
0.0
  0
VERTEX
  5
4C3
330
4C1
100
AcDbEntity
  8
BEMA_UNG
 62
     7
100
AcDbVertex
100
AcDb2dVertex
 10
122.5355815649571
 20
38.4956946023518
 30
0.0
  0
VERTEX
  5
4C4
330
4C1
100
AcDbEntity
  8
BEMA_UNG
 62
     7
100
AcDbVertex
100
AcDb2dVertex
 10
122.5355815649571
 20
38.13344257310214
 30
0.0
  0
VERTEX
  5
4C5
330
4C1
100
AcDbEntity
  8
BEMA_UNG
 62
     7
100
AcDbVertex
100
AcDb2dVertex
 10
123.9117258643749
 20
38.31465471517092
 30
0.0
  0
SEQEND
  5
4C6
330
4C1
100
AcDbEntity
  8
BEMA_UNG
  0
POLYLINE
  5
4C7
330
1F
100
AcDbEntity
  8
BEMA_UNG
 62
     7
100
AcDb2dPolyline
 66
     1
 10
0.0
 20
0.0
 30
0.0
  0
VERTEX
  5
4C8
330
4C7
100
AcDbEntity
  8
BEMA_UNG
 62
     7
100
AcDbVertex
100
AcDb2dVertex
 10
122.5355815649571
 20
38.48225872109575
 30
0.0
  0
VERTEX
  5
4C9
330
4C7
100
AcDbEntity
  8
BEMA_UNG
 62
     7
100
AcDbVertex
100
AcDb2dVertex
 10
122.6385899879202
 20
38.48225872109575
 30
0.0
  0
SEQEND
  5
4CA
330
4C7
100
AcDbEntity
  8
BEMA_UNG
  0
POLYLINE
  5
4CB
330
1F
100
AcDbEntity
  8
BEMA_UNG
 62
     7
100
AcDb2dPolyline
 66
     1
 10
0.0
 20
0.0
 30
0.0
  0
VERTEX
  5
4CC
330
4CB
100
AcDbEntity
  8
BEMA_UNG
 62
     7
100
AcDbVertex
100
AcDb2dVertex
 10
122.5355815649571
 20
38.48225872109575
 30
0.0
  0
VERTEX
  5
4CD
330
4CB
100
AcDbEntity
  8
BEMA_UNG
 62
     7
100
AcDbVertex
100
AcDb2dVertex
 10
122.6385899879202
 20
38.48225872109575
 30
0.0
  0
SEQEND
  5
4CE
330
4CB
100
AcDbEntity
  8
BEMA_UNG
  0
POLYLINE
  5
4CF
330
1F
100
AcDbEntity
  8
BEMA_UNG
 62
     7
100
AcDb2dPolyline
 66
     1
 10
0.0
 20
0.0
 30
0.0
  0
VERTEX
  5
4D0
330
4CF
100
AcDbEntity
  8
BEMA_UNG
 62
     7
100
AcDbVertex
100
AcDb2dVertex
 10
122.5355815649571
 20
38.45435342925627
 30
0.0
  0
VERTEX
  5
4D1
330
4CF
100
AcDbEntity
  8
BEMA_UNG
 62
     7
100
AcDbVertex
100
AcDb2dVertex
 10
122.8504635000348
 20
38.45435342925627
 30
0.0
  0
SEQEND
  5
4D2
330
4CF
100
AcDbEntity
  8
BEMA_UNG
  0
POLYLINE
  5
4D3
330
1F
100
AcDbEntity
  8
BEMA_UNG
 62
     7
100
AcDb2dPolyline
 66
     1
 10
0.0
 20
0.0
 30
0.0
  0
VERTEX
  5
4D4
330
4D3
100
AcDbEntity
  8
BEMA_UNG
 62
     7
100
AcDbVertex
100
AcDb2dVertex
 10
122.5355815649571
 20
38.42644813741678
 30
0.0
  0
VERTEX
  5
4D5
330
4D3
100
AcDbEntity
  8
BEMA_UNG
 62
     7
100
AcDbVertex
100
AcDb2dVertex
 10
123.0626815219253
 20
38.42644813741678
 30
0.0
  0
SEQEND
  5
4D6
330
4D3
100
AcDbEntity
  8
BEMA_UNG
  0
POLYLINE
  5
4D7
330
1F
100
AcDbEntity
  8
BEMA_UNG
 62
     7
100
AcDb2dPolyline
 66
     1
 10
0.0
 20
0.0
 30
0.0
  0
VERTEX
  5
4D8
330
4D7
100
AcDbEntity
  8
BEMA_UNG
 62
     7
100
AcDbVertex
100
AcDb2dVertex
 10
122.5355815649571
 20
38.39854284557728
 30
0.0
  0
VERTEX
  5
4D9
330
4D7
100
AcDbEntity
  8
BEMA_UNG
 62
     7
100
AcDbVertex
100
AcDb2dVertex
 10
123.2752440535915
 20
38.39854284557728
 30
0.0
  0
SEQEND
  5
4DA
330
4D7
100
AcDbEntity
  8
BEMA_UNG
  0
POLYLINE
  5
4DB
330
1F
100
AcDbEntity
  8
BEMA_UNG
 62
     7
100
AcDb2dPolyline
 66
     1
 10
0.0
 20
0.0
 30
0.0
  0
VERTEX
  5
4DC
330
4DB
100
AcDbEntity
  8
BEMA_UNG
 62
     7
100
AcDbVertex
100
AcDb2dVertex
 10
122.5355815649571
 20
38.37063755373779
 30
0.0
  0
VERTEX
  5
4DD
330
4DB
100
AcDbEntity
  8
BEMA_UNG
 62
     7
100
AcDbVertex
100
AcDb2dVertex
 10
123.487289820594
 20
38.37063755373779
 30
0.0
  0
SEQEND
  5
4DE
330
4DB
100
AcDbEntity
  8
BEMA_UNG
  0
POLYLINE
  5
4DF
330
1F
100
AcDbEntity
  8
BEMA_UNG
 62
     7
100
AcDb2dPolyline
 66
     1
 10
0.0
 20
0.0
 30
0.0
  0
VERTEX
  5
4E0
330
4DF
100
AcDbEntity
  8
BEMA_UNG
 62
     7
100
AcDbVertex
100
AcDb2dVertex
 10
122.5355815649571
 20
38.34256000701041
 30
0.0
  0
VERTEX
  5
4E1
330
4DF
100
AcDbEntity
  8
BEMA_UNG
 62
     7
100
AcDbVertex
100
AcDb2dVertex
 10
123.6993355875966
 20
38.34256000701041
 30
0.0
  0
SEQEND
  5
4E2
330
4DF
100
AcDbEntity
  8
BEMA_UNG
  0
POLYLINE
  5
4E3
330
1F
100
AcDbEntity
  8
BEMA_UNG
 62
     7
100
AcDb2dPolyline
 66
     1
 10
0.0
 20
0.0
 30
0.0
  0
VERTEX
  5
4E4
330
4E3
100
AcDbEntity
  8
BEMA_UNG
 62
     7
100
AcDbVertex
100
AcDb2dVertex
 10
122.5355815649571
 20
38.31465471517092
 30
0.0
  0
VERTEX
  5
4E5
330
4E3
100
AcDbEntity
  8
BEMA_UNG
 62
     7
100
AcDbVertex
100
AcDb2dVertex
 10
123.9117258643749
 20
38.31465471517092
 30
0.0
  0
SEQEND
  5
4E6
330
4E3
100
AcDbEntity
  8
BEMA_UNG
  0
POLYLINE
  5
4E7
330
1F
100
AcDbEntity
  8
BEMA_UNG
 62
     7
100
AcDb2dPolyline
 66
     1
 10
0.0
 20
0.0
 30
0.0
  0
VERTEX
  5
4E8
330
4E7
100
AcDbEntity
  8
BEMA_UNG
 62
     7
100
AcDbVertex
100
AcDb2dVertex
 10
122.5355815649571
 20
38.14722296413398
 30
0.0
  0
VERTEX
  5
4E9
330
4E7
100
AcDbEntity
  8
BEMA_UNG
 62
     7
100
AcDbVertex
100
AcDb2dVertex
 10
122.6385899879202
 20
38.14722296413398
 30
0.0
  0
SEQEND
  5
4EA
330
4E7
100
AcDbEntity
  8
BEMA_UNG
  0
POLYLINE
  5
4EB
330
1F
100
AcDbEntity
  8
BEMA_UNG
 62
     7
100
AcDb2dPolyline
 66
     1
 10
0.0
 20
0.0
 30
0.0
  0
VERTEX
  5
4EC
330
4EB
100
AcDbEntity
  8
BEMA_UNG
 62
     7
100
AcDbVertex
100
AcDb2dVertex
 10
122.5355815649571
 20
38.14722296413398
 30
0.0
  0
VERTEX
  5
4ED
330
4EB
100
AcDbEntity
  8
BEMA_UNG
 62
     7
100
AcDbVertex
100
AcDb2dVertex
 10
122.6385899879202
 20
38.14722296413398
 30
0.0
  0
SEQEND
  5
4EE
330
4EB
100
AcDbEntity
  8
BEMA_UNG
  0
POLYLINE
  5
4EF
330
1F
100
AcDbEntity
  8
BEMA_UNG
 62
     7
100
AcDb2dPolyline
 66
     1
 10
0.0
 20
0.0
 30
0.0
  0
VERTEX
  5
4F0
330
4EF
100
AcDbEntity
  8
BEMA_UNG
 62
     7
100
AcDbVertex
100
AcDb2dVertex
 10
122.5355815649571
 20
38.17512825597347
 30
0.0
  0
VERTEX
  5
4F1
330
4EF
100
AcDbEntity
  8
BEMA_UNG
 62
     7
100
AcDbVertex
100
AcDb2dVertex
 10
122.8504635000348
 20
38.17512825597347
 30
0.0
  0
SEQEND
  5
4F2
330
4EF
100
AcDbEntity
  8
BEMA_UNG
  0
POLYLINE
  5
4F3
330
1F
100
AcDbEntity
  8
BEMA_UNG
 62
     7
100
AcDb2dPolyline
 66
     1
 10
0.0
 20
0.0
 30
0.0
  0
VERTEX
  5
4F4
330
4F3
100
AcDbEntity
  8
BEMA_UNG
 62
     7
100
AcDbVertex
100
AcDb2dVertex
 10
122.5355815649571
 20
38.20303354781296
 30
0.0
  0
VERTEX
  5
4F5
330
4F3
100
AcDbEntity
  8
BEMA_UNG
 62
     7
100
AcDbVertex
100
AcDb2dVertex
 10
123.0626815219253
 20
38.20303354781296
 30
0.0
  0
SEQEND
  5
4F6
330
4F3
100
AcDbEntity
  8
BEMA_UNG
  0
POLYLINE
  5
4F7
330
1F
100
AcDbEntity
  8
BEMA_UNG
 62
     7
100
AcDb2dPolyline
 66
     1
 10
0.0
 20
0.0
 30
0.0
  0
VERTEX
  5
4F8
330
4F7
100
AcDbEntity
  8
BEMA_UNG
 62
     7
100
AcDbVertex
100
AcDb2dVertex
 10
122.5355815649571
 20
38.23111109454035
 30
0.0
  0
VERTEX
  5
4F9
330
4F7
100
AcDbEntity
  8
BEMA_UNG
 62
     7
100
AcDbVertex
100
AcDb2dVertex
 10
123.2752440535915
 20
38.23111109454035
 30
0.0
  0
SEQEND
  5
4FA
330
4F7
100
AcDbEntity
  8
BEMA_UNG
  0
POLYLINE
  5
4FB
330
1F
100
AcDbEntity
  8
BEMA_UNG
 62
     7
100
AcDb2dPolyline
 66
     1
 10
0.0
 20
0.0
 30
0.0
  0
VERTEX
  5
4FC
330
4FB
100
AcDbEntity
  8
BEMA_UNG
 62
     7
100
AcDbVertex
100
AcDb2dVertex
 10
122.5355815649571
 20
38.25884413149194
 30
0.0
  0
VERTEX
  5
4FD
330
4FB
100
AcDbEntity
  8
BEMA_UNG
 62
     7
100
AcDbVertex
100
AcDb2dVertex
 10
123.487289820594
 20
38.25884413149194
 30
0.0
  0
SEQEND
  5
4FE
330
4FB
100
AcDbEntity
  8
BEMA_UNG
  0
POLYLINE
  5
4FF
330
1F
100
AcDbEntity
  8
BEMA_UNG
 62
     7
100
AcDb2dPolyline
 66
     1
 10
0.0
 20
0.0
 30
0.0
  0
VERTEX
  5
500
330
4FF
100
AcDbEntity
  8
BEMA_UNG
 62
     7
100
AcDbVertex
100
AcDb2dVertex
 10
122.5355815649571
 20
38.28674942333143
 30
0.0
  0
VERTEX
  5
501
330
4FF
100
AcDbEntity
  8
BEMA_UNG
 62
     7
100
AcDbVertex
100
AcDb2dVertex
 10
123.6993355875966
 20
38.28674942333143
 30
0.0
  0
SEQEND
  5
502
330
4FF
100
AcDbEntity
  8
BEMA_UNG
  0
POLYLINE
  5
503
330
1F
100
AcDbEntity
  8
BEMA_UNG
 62
     7
100
AcDb2dPolyline
 66
     1
 10
0.0
 20
0.0
 30
0.0
  0
VERTEX
  5
504
330
503
100
AcDbEntity
  8
BEMA_UNG
 62
     7
100
AcDbVertex
100
AcDb2dVertex
 10
122.5355815649571
 20
38.31465471517092
 30
0.0
  0
VERTEX
  5
505
330
503
100
AcDbEntity
  8
BEMA_UNG
 62
     7
100
AcDbVertex
100
AcDb2dVertex
 10
123.9117258643749
 20
38.31465471517092
 30
0.0
  0
SEQEND
  5
506
330
503
100
AcDbEntity
  8
BEMA_UNG
  0
POLYLINE
  5
507
330
1F
100
AcDbEntity
  8
BEMA_UNG
 62
     7
100
AcDb2dPolyline
 66
     1
 10
0.0
 20
0.0
 30
0.0
  0
VERTEX
  5
508
330
507
100
AcDbEntity
  8
BEMA_UNG
 62
     7
100
AcDbVertex
100
AcDb2dVertex
 10
155.1224167477409
 20
32.18668707819656
 30
0.0
  0
VERTEX
  5
509
330
507
100
AcDbEntity
  8
BEMA_UNG
 62
     7
100
AcDbVertex
100
AcDb2dVertex
 10
155.1224167477409
 20
39.28548326336452
 30
0.0
  0
SEQEND
  5
50A
330
507
100
AcDbEntity
  8
BEMA_UNG
  0
POLYLINE
  5
50B
330
1F
100
AcDbEntity
  8
BEMA_UNG
 62
     7
100
AcDb2dPolyline
 66
     1
 10
0.0
 20
0.0
 30
0.0
  0
VERTEX
  5
50C
330
50B
100
AcDbEntity
  8
BEMA_UNG
 62
     7
100
AcDbVertex
100
AcDb2dVertex
 10
168.8728354290934
 20
32.18668707819656
 30
0.0
  0
VERTEX
  5
50D
330
50B
100
AcDbEntity
  8
BEMA_UNG
 62
     7
100
AcDbVertex
100
AcDb2dVertex
 10
168.8728354290934
 20
39.28548326336452
 30
0.0
  0
SEQEND
  5
50E
330
50B
100
AcDbEntity
  8
BEMA_UNG
  0
POLYLINE
  5
50F
330
1F
100
AcDbEntity
  8
BEMA_UNG
 62
     7
100
AcDb2dPolyline
 66
     1
 10
0.0
 20
0.0
 30
0.0
  0
VERTEX
  5
510
330
50F
100
AcDbEntity
  8
BEMA_UNG
 62
     7
100
AcDbVertex
100
AcDb2dVertex
 10
155.1224167477409
 20
38.18529129435946
 30
0.0
  0
VERTEX
  5
511
330
50F
100
AcDbEntity
  8
BEMA_UNG
 62
     7
100
AcDbVertex
100
AcDb2dVertex
 10
168.8728354290934
 20
38.18529129435946
 30
0.0
  0
SEQEND
  5
512
330
50F
100
AcDbEntity
  8
BEMA_UNG
  0
POLYLINE
  5
513
330
1F
100
AcDbEntity
  8
BEMA_UNG
 62
     7
100
AcDb2dPolyline
 66
     1
 10
0.0
 20
0.0
 30
0.0
  0
VERTEX
  5
514
330
513
100
AcDbEntity
  8
BEMA_UNG
 62
     7
100
AcDbVertex
100
AcDb2dVertex
 10
155.1224167477409
 20
38.18529129435946
 30
0.0
  0
VERTEX
  5
515
330
513
100
AcDbEntity
  8
BEMA_UNG
 62
     7
100
AcDbVertex
100
AcDb2dVertex
 10
156.4973552629434
 20
38.00442366206646
 30
0.0
  0
VERTEX
  5
516
330
513
100
AcDbEntity
  8
BEMA_UNG
 62
     7
100
AcDbVertex
100
AcDb2dVertex
 10
156.4973552629434
 20
38.36633118154035
 30
0.0
  0
VERTEX
  5
517
330
513
100
AcDbEntity
  8
BEMA_UNG
 62
     7
100
AcDbVertex
100
AcDb2dVertex
 10
155.1224167477409
 20
38.18529129435946
 30
0.0
  0
SEQEND
  5
518
330
513
100
AcDbEntity
  8
BEMA_UNG
  0
POLYLINE
  5
519
330
1F
100
AcDbEntity
  8
BEMA_UNG
 62
     7
100
AcDb2dPolyline
 66
     1
 10
0.0
 20
0.0
 30
0.0
  0
VERTEX
  5
51A
330
519
100
AcDbEntity
  8
BEMA_UNG
 62
     7
100
AcDbVertex
100
AcDb2dVertex
 10
156.4973552629434
 20
38.01785954332252
 30
0.0
  0
VERTEX
  5
51B
330
519
100
AcDbEntity
  8
BEMA_UNG
 62
     7
100
AcDbVertex
100
AcDb2dVertex
 10
156.3957248790836
 20
38.01785954332252
 30
0.0
  0
SEQEND
  5
51C
330
519
100
AcDbEntity
  8
BEMA_UNG
  0
POLYLINE
  5
51D
330
1F
100
AcDbEntity
  8
BEMA_UNG
 62
     7
100
AcDb2dPolyline
 66
     1
 10
0.0
 20
0.0
 30
0.0
  0
VERTEX
  5
51E
330
51D
100
AcDbEntity
  8
BEMA_UNG
 62
     7
100
AcDbVertex
100
AcDb2dVertex
 10
156.4973552629434
 20
38.01785954332252
 30
0.0
  0
VERTEX
  5
51F
330
51D
100
AcDbEntity
  8
BEMA_UNG
 62
     7
100
AcDbVertex
100
AcDb2dVertex
 10
156.3957248790836
 20
38.01785954332252
 30
0.0
  0
SEQEND
  5
520
330
51D
100
AcDbEntity
  8
BEMA_UNG
  0
POLYLINE
  5
521
330
1F
100
AcDbEntity
  8
BEMA_UNG
 62
     7
100
AcDb2dPolyline
 66
     1
 10
0.0
 20
0.0
 30
0.0
  0
VERTEX
  5
522
330
521
100
AcDbEntity
  8
BEMA_UNG
 62
     7
100
AcDbVertex
100
AcDb2dVertex
 10
156.4973552629434
 20
38.04576483516201
 30
0.0
  0
VERTEX
  5
523
330
521
100
AcDbEntity
  8
BEMA_UNG
 62
     7
100
AcDbVertex
100
AcDb2dVertex
 10
156.1836791120811
 20
38.04576483516201
 30
0.0
  0
SEQEND
  5
524
330
521
100
AcDbEntity
  8
BEMA_UNG
  0
POLYLINE
  5
525
330
1F
100
AcDbEntity
  8
BEMA_UNG
 62
     7
100
AcDb2dPolyline
 66
     1
 10
0.0
 20
0.0
 30
0.0
  0
VERTEX
  5
526
330
525
100
AcDbEntity
  8
BEMA_UNG
 62
     7
100
AcDbVertex
100
AcDb2dVertex
 10
156.4973552629434
 20
38.0738423818894
 30
0.0
  0
VERTEX
  5
527
330
525
100
AcDbEntity
  8
BEMA_UNG
 62
     7
100
AcDbVertex
100
AcDb2dVertex
 10
155.9712888353027
 20
38.0738423818894
 30
0.0
  0
SEQEND
  5
528
330
525
100
AcDbEntity
  8
BEMA_UNG
  0
POLYLINE
  5
529
330
1F
100
AcDbEntity
  8
BEMA_UNG
 62
     7
100
AcDb2dPolyline
 66
     1
 10
0.0
 20
0.0
 30
0.0
  0
VERTEX
  5
52A
330
529
100
AcDbEntity
  8
BEMA_UNG
 62
     7
100
AcDbVertex
100
AcDb2dVertex
 10
156.4973552629434
 20
38.10174767372889
 30
0.0
  0
VERTEX
  5
52B
330
529
100
AcDbEntity
  8
BEMA_UNG
 62
     7
100
AcDbVertex
100
AcDb2dVertex
 10
155.7592430683002
 20
38.10174767372889
 30
0.0
  0
SEQEND
  5
52C
330
529
100
AcDbEntity
  8
BEMA_UNG
  0
POLYLINE
  5
52D
330
1F
100
AcDbEntity
  8
BEMA_UNG
 62
     7
100
AcDb2dPolyline
 66
     1
 10
0.0
 20
0.0
 30
0.0
  0
VERTEX
  5
52E
330
52D
100
AcDbEntity
  8
BEMA_UNG
 62
     7
100
AcDbVertex
100
AcDb2dVertex
 10
156.4973552629434
 20
38.12948071068048
 30
0.0
  0
VERTEX
  5
52F
330
52D
100
AcDbEntity
  8
BEMA_UNG
 62
     7
100
AcDbVertex
100
AcDb2dVertex
 10
155.5470250464097
 20
38.12948071068048
 30
0.0
  0
SEQEND
  5
530
330
52D
100
AcDbEntity
  8
BEMA_UNG
  0
POLYLINE
  5
531
330
1F
100
AcDbEntity
  8
BEMA_UNG
 62
     7
100
AcDb2dPolyline
 66
     1
 10
0.0
 20
0.0
 30
0.0
  0
VERTEX
  5
532
330
531
100
AcDbEntity
  8
BEMA_UNG
 62
     7
100
AcDbVertex
100
AcDb2dVertex
 10
156.4973552629434
 20
38.15738600251997
 30
0.0
  0
VERTEX
  5
533
330
531
100
AcDbEntity
  8
BEMA_UNG
 62
     7
100
AcDbVertex
100
AcDb2dVertex
 10
155.3349792794072
 20
38.15738600251997
 30
0.0
  0
SEQEND
  5
534
330
531
100
AcDbEntity
  8
BEMA_UNG
  0
POLYLINE
  5
535
330
1F
100
AcDbEntity
  8
BEMA_UNG
 62
     7
100
AcDb2dPolyline
 66
     1
 10
0.0
 20
0.0
 30
0.0
  0
VERTEX
  5
536
330
535
100
AcDbEntity
  8
BEMA_UNG
 62
     7
100
AcDbVertex
100
AcDb2dVertex
 10
156.4973552629434
 20
38.18529129435946
 30
0.0
  0
VERTEX
  5
537
330
535
100
AcDbEntity
  8
BEMA_UNG
 62
     7
100
AcDbVertex
100
AcDb2dVertex
 10
155.1224167477409
 20
38.18529129435946
 30
0.0
  0
SEQEND
  5
538
330
535
100
AcDbEntity
  8
BEMA_UNG
  0
POLYLINE
  5
539
330
1F
100
AcDbEntity
  8
BEMA_UNG
 62
     7
100
AcDb2dPolyline
 66
     1
 10
0.0
 20
0.0
 30
0.0
  0
VERTEX
  5
53A
330
539
100
AcDbEntity
  8
BEMA_UNG
 62
     7
100
AcDbVertex
100
AcDb2dVertex
 10
156.4973552629434
 20
38.35306755517219
 30
0.0
  0
VERTEX
  5
53B
330
539
100
AcDbEntity
  8
BEMA_UNG
 62
     7
100
AcDbVertex
100
AcDb2dVertex
 10
156.3957248790836
 20
38.35306755517219
 30
0.0
  0
SEQEND
  5
53C
330
539
100
AcDbEntity
  8
BEMA_UNG
  0
POLYLINE
  5
53D
330
1F
100
AcDbEntity
  8
BEMA_UNG
 62
     7
100
AcDb2dPolyline
 66
     1
 10
0.0
 20
0.0
 30
0.0
  0
VERTEX
  5
53E
330
53D
100
AcDbEntity
  8
BEMA_UNG
 62
     7
100
AcDbVertex
100
AcDb2dVertex
 10
156.4973552629434
 20
38.35306755517219
 30
0.0
  0
VERTEX
  5
53F
330
53D
100
AcDbEntity
  8
BEMA_UNG
 62
     7
100
AcDbVertex
100
AcDb2dVertex
 10
156.3957248790836
 20
38.35306755517219
 30
0.0
  0
SEQEND
  5
540
330
53D
100
AcDbEntity
  8
BEMA_UNG
  0
POLYLINE
  5
541
330
1F
100
AcDbEntity
  8
BEMA_UNG
 62
     7
100
AcDb2dPolyline
 66
     1
 10
0.0
 20
0.0
 30
0.0
  0
VERTEX
  5
542
330
541
100
AcDbEntity
  8
BEMA_UNG
 62
     7
100
AcDbVertex
100
AcDb2dVertex
 10
156.4973552629434
 20
38.3249900084448
 30
0.0
  0
VERTEX
  5
543
330
541
100
AcDbEntity
  8
BEMA_UNG
 62
     7
100
AcDbVertex
100
AcDb2dVertex
 10
156.1836791120811
 20
38.3249900084448
 30
0.0
  0
SEQEND
  5
544
330
541
100
AcDbEntity
  8
BEMA_UNG
  0
POLYLINE
  5
545
330
1F
100
AcDbEntity
  8
BEMA_UNG
 62
     7
100
AcDb2dPolyline
 66
     1
 10
0.0
 20
0.0
 30
0.0
  0
VERTEX
  5
546
330
545
100
AcDbEntity
  8
BEMA_UNG
 62
     7
100
AcDbVertex
100
AcDb2dVertex
 10
156.4973552629434
 20
38.29708471660531
 30
0.0
  0
VERTEX
  5
547
330
545
100
AcDbEntity
  8
BEMA_UNG
 62
     7
100
AcDbVertex
100
AcDb2dVertex
 10
155.9712888353027
 20
38.29708471660531
 30
0.0
  0
SEQEND
  5
548
330
545
100
AcDbEntity
  8
BEMA_UNG
  0
POLYLINE
  5
549
330
1F
100
AcDbEntity
  8
BEMA_UNG
 62
     7
100
AcDb2dPolyline
 66
     1
 10
0.0
 20
0.0
 30
0.0
  0
VERTEX
  5
54A
330
549
100
AcDbEntity
  8
BEMA_UNG
 62
     7
100
AcDbVertex
100
AcDb2dVertex
 10
156.4973552629434
 20
38.26917942476582
 30
0.0
  0
VERTEX
  5
54B
330
549
100
AcDbEntity
  8
BEMA_UNG
 62
     7
100
AcDbVertex
100
AcDb2dVertex
 10
155.7592430683002
 20
38.26917942476582
 30
0.0
  0
SEQEND
  5
54C
330
549
100
AcDbEntity
  8
BEMA_UNG
  0
POLYLINE
  5
54D
330
1F
100
AcDbEntity
  8
BEMA_UNG
 62
     7
100
AcDb2dPolyline
 66
     1
 10
0.0
 20
0.0
 30
0.0
  0
VERTEX
  5
54E
330
54D
100
AcDbEntity
  8
BEMA_UNG
 62
     7
100
AcDbVertex
100
AcDb2dVertex
 10
156.4973552629434
 20
38.24127413292634
 30
0.0
  0
VERTEX
  5
54F
330
54D
100
AcDbEntity
  8
BEMA_UNG
 62
     7
100
AcDbVertex
100
AcDb2dVertex
 10
155.5470250464097
 20
38.24127413292634
 30
0.0
  0
SEQEND
  5
550
330
54D
100
AcDbEntity
  8
BEMA_UNG
  0
POLYLINE
  5
551
330
1F
100
AcDbEntity
  8
BEMA_UNG
 62
     7
100
AcDb2dPolyline
 66
     1
 10
0.0
 20
0.0
 30
0.0
  0
VERTEX
  5
552
330
551
100
AcDbEntity
  8
BEMA_UNG
 62
     7
100
AcDbVertex
100
AcDb2dVertex
 10
156.4973552629434
 20
38.21336884108685
 30
0.0
  0
VERTEX
  5
553
330
551
100
AcDbEntity
  8
BEMA_UNG
 62
     7
100
AcDbVertex
100
AcDb2dVertex
 10
155.3349792794072
 20
38.21336884108685
 30
0.0
  0
SEQEND
  5
554
330
551
100
AcDbEntity
  8
BEMA_UNG
  0
POLYLINE
  5
555
330
1F
100
AcDbEntity
  8
BEMA_UNG
 62
     7
100
AcDb2dPolyline
 66
     1
 10
0.0
 20
0.0
 30
0.0
  0
VERTEX
  5
556
330
555
100
AcDbEntity
  8
BEMA_UNG
 62
     7
100
AcDbVertex
100
AcDb2dVertex
 10
156.4973552629434
 20
38.18529129435946
 30
0.0
  0
VERTEX
  5
557
330
555
100
AcDbEntity
  8
BEMA_UNG
 62
     7
100
AcDbVertex
100
AcDb2dVertex
 10
155.1224167477409
 20
38.18529129435946
 30
0.0
  0
SEQEND
  5
558
330
555
100
AcDbEntity
  8
BEMA_UNG
  0
POLYLINE
  5
559
330
1F
100
AcDbEntity
  8
BEMA_UNG
 62
     7
100
AcDb2dPolyline
 66
     1
 10
0.0
 20
0.0
 30
0.0
  0
VERTEX
  5
55A
330
559
100
AcDbEntity
  8
BEMA_UNG
 62
     7
100
AcDbVertex
100
AcDb2dVertex
 10
168.8728354290934
 20
38.18529129435946
 30
0.0
  0
VERTEX
  5
55B
330
559
100
AcDbEntity
  8
BEMA_UNG
 62
     7
100
AcDbVertex
100
AcDb2dVertex
 10
167.4975524041151
 20
38.36633118154035
 30
0.0
  0
VERTEX
  5
55C
330
559
100
AcDbEntity
  8
BEMA_UNG
 62
     7
100
AcDbVertex
100
AcDb2dVertex
 10
167.4975524041151
 20
38.00442366206646
 30
0.0
  0
VERTEX
  5
55D
330
559
100
AcDbEntity
  8
BEMA_UNG
 62
     7
100
AcDbVertex
100
AcDb2dVertex
 10
168.8728354290934
 20
38.18529129435946
 30
0.0
  0
SEQEND
  5
55E
330
559
100
AcDbEntity
  8
BEMA_UNG
  0
POLYLINE
  5
55F
330
1F
100
AcDbEntity
  8
BEMA_UNG
 62
     7
100
AcDb2dPolyline
 66
     1
 10
0.0
 20
0.0
 30
0.0
  0
VERTEX
  5
560
330
55F
100
AcDbEntity
  8
BEMA_UNG
 62
     7
100
AcDbVertex
100
AcDb2dVertex
 10
167.4975524041151
 20
38.35306755517219
 30
0.0
  0
VERTEX
  5
561
330
55F
100
AcDbEntity
  8
BEMA_UNG
 62
     7
100
AcDbVertex
100
AcDb2dVertex
 10
167.599182787975
 20
38.35306755517219
 30
0.0
  0
SEQEND
  5
562
330
55F
100
AcDbEntity
  8
BEMA_UNG
  0
POLYLINE
  5
563
330
1F
100
AcDbEntity
  8
BEMA_UNG
 62
     7
100
AcDb2dPolyline
 66
     1
 10
0.0
 20
0.0
 30
0.0
  0
VERTEX
  5
564
330
563
100
AcDbEntity
  8
BEMA_UNG
 62
     7
100
AcDbVertex
100
AcDb2dVertex
 10
167.4975524041151
 20
38.35306755517219
 30
0.0
  0
VERTEX
  5
565
330
563
100
AcDbEntity
  8
BEMA_UNG
 62
     7
100
AcDbVertex
100
AcDb2dVertex
 10
167.599182787975
 20
38.35306755517219
 30
0.0
  0
SEQEND
  5
566
330
563
100
AcDbEntity
  8
BEMA_UNG
  0
POLYLINE
  5
567
330
1F
100
AcDbEntity
  8
BEMA_UNG
 62
     7
100
AcDb2dPolyline
 66
     1
 10
0.0
 20
0.0
 30
0.0
  0
VERTEX
  5
568
330
567
100
AcDbEntity
  8
BEMA_UNG
 62
     7
100
AcDbVertex
100
AcDb2dVertex
 10
167.4975524041151
 20
38.3249900084448
 30
0.0
  0
VERTEX
  5
569
330
567
100
AcDbEntity
  8
BEMA_UNG
 62
     7
100
AcDbVertex
100
AcDb2dVertex
 10
167.8117453196412
 20
38.3249900084448
 30
0.0
  0
SEQEND
  5
56A
330
567
100
AcDbEntity
  8
BEMA_UNG
  0
POLYLINE
  5
56B
330
1F
100
AcDbEntity
  8
BEMA_UNG
 62
     7
100
AcDb2dPolyline
 66
     1
 10
0.0
 20
0.0
 30
0.0
  0
VERTEX
  5
56C
330
56B
100
AcDbEntity
  8
BEMA_UNG
 62
     7
100
AcDbVertex
100
AcDb2dVertex
 10
167.4975524041151
 20
38.29708471660531
 30
0.0
  0
VERTEX
  5
56D
330
56B
100
AcDbEntity
  8
BEMA_UNG
 62
     7
100
AcDbVertex
100
AcDb2dVertex
 10
168.0236188317559
 20
38.29708471660531
 30
0.0
  0
SEQEND
  5
56E
330
56B
100
AcDbEntity
  8
BEMA_UNG
  0
POLYLINE
  5
56F
330
1F
100
AcDbEntity
  8
BEMA_UNG
 62
     7
100
AcDb2dPolyline
 66
     1
 10
0.0
 20
0.0
 30
0.0
  0
VERTEX
  5
570
330
56F
100
AcDbEntity
  8
BEMA_UNG
 62
     7
100
AcDbVertex
100
AcDb2dVertex
 10
167.4975524041151
 20
38.26917942476582
 30
0.0
  0
VERTEX
  5
571
330
56F
100
AcDbEntity
  8
BEMA_UNG
 62
     7
100
AcDbVertex
100
AcDb2dVertex
 10
168.2358368536463
 20
38.26917942476582
 30
0.0
  0
SEQEND
  5
572
330
56F
100
AcDbEntity
  8
BEMA_UNG
  0
POLYLINE
  5
573
330
1F
100
AcDbEntity
  8
BEMA_UNG
 62
     7
100
AcDb2dPolyline
 66
     1
 10
0.0
 20
0.0
 30
0.0
  0
VERTEX
  5
574
330
573
100
AcDbEntity
  8
BEMA_UNG
 62
     7
100
AcDbVertex
100
AcDb2dVertex
 10
167.4975524041151
 20
38.24127413292634
 30
0.0
  0
VERTEX
  5
575
330
573
100
AcDbEntity
  8
BEMA_UNG
 62
     7
100
AcDbVertex
100
AcDb2dVertex
 10
168.4480548755368
 20
38.24127413292634
 30
0.0
  0
SEQEND
  5
576
330
573
100
AcDbEntity
  8
BEMA_UNG
  0
POLYLINE
  5
577
330
1F
100
AcDbEntity
  8
BEMA_UNG
 62
     7
100
AcDb2dPolyline
 66
     1
 10
0.0
 20
0.0
 30
0.0
  0
VERTEX
  5
578
330
577
100
AcDbEntity
  8
BEMA_UNG
 62
     7
100
AcDbVertex
100
AcDb2dVertex
 10
167.4975524041151
 20
38.21336884108685
 30
0.0
  0
VERTEX
  5
579
330
577
100
AcDbEntity
  8
BEMA_UNG
 62
     7
100
AcDbVertex
100
AcDb2dVertex
 10
168.660617407203
 20
38.21336884108685
 30
0.0
  0
SEQEND
  5
57A
330
577
100
AcDbEntity
  8
BEMA_UNG
  0
POLYLINE
  5
57B
330
1F
100
AcDbEntity
  8
BEMA_UNG
 62
     7
100
AcDb2dPolyline
 66
     1
 10
0.0
 20
0.0
 30
0.0
  0
VERTEX
  5
57C
330
57B
100
AcDbEntity
  8
BEMA_UNG
 62
     7
100
AcDbVertex
100
AcDb2dVertex
 10
167.4975524041151
 20
38.18529129435946
 30
0.0
  0
VERTEX
  5
57D
330
57B
100
AcDbEntity
  8
BEMA_UNG
 62
     7
100
AcDbVertex
100
AcDb2dVertex
 10
168.8728354290934
 20
38.18529129435946
 30
0.0
  0
SEQEND
  5
57E
330
57B
100
AcDbEntity
  8
BEMA_UNG
  0
POLYLINE
  5
57F
330
1F
100
AcDbEntity
  8
BEMA_UNG
 62
     7
100
AcDb2dPolyline
 66
     1
 10
0.0
 20
0.0
 30
0.0
  0
VERTEX
  5
580
330
57F
100
AcDbEntity
  8
BEMA_UNG
 62
     7
100
AcDbVertex
100
AcDb2dVertex
 10
167.4975524041151
 20
38.01785954332252
 30
0.0
  0
VERTEX
  5
581
330
57F
100
AcDbEntity
  8
BEMA_UNG
 62
     7
100
AcDbVertex
100
AcDb2dVertex
 10
167.599182787975
 20
38.01785954332252
 30
0.0
  0
SEQEND
  5
582
330
57F
100
AcDbEntity
  8
BEMA_UNG
  0
POLYLINE
  5
583
330
1F
100
AcDbEntity
  8
BEMA_UNG
 62
     7
100
AcDb2dPolyline
 66
     1
 10
0.0
 20
0.0
 30
0.0
  0
VERTEX
  5
584
330
583
100
AcDbEntity
  8
BEMA_UNG
 62
     7
100
AcDbVertex
100
AcDb2dVertex
 10
167.4975524041151
 20
38.01785954332252
 30
0.0
  0
VERTEX
  5
585
330
583
100
AcDbEntity
  8
BEMA_UNG
 62
     7
100
AcDbVertex
100
AcDb2dVertex
 10
167.599182787975
 20
38.01785954332252
 30
0.0
  0
SEQEND
  5
586
330
583
100
AcDbEntity
  8
BEMA_UNG
  0
POLYLINE
  5
587
330
1F
100
AcDbEntity
  8
BEMA_UNG
 62
     7
100
AcDb2dPolyline
 66
     1
 10
0.0
 20
0.0
 30
0.0
  0
VERTEX
  5
588
330
587
100
AcDbEntity
  8
BEMA_UNG
 62
     7
100
AcDbVertex
100
AcDb2dVertex
 10
167.4975524041151
 20
38.04576483516201
 30
0.0
  0
VERTEX
  5
589
330
587
100
AcDbEntity
  8
BEMA_UNG
 62
     7
100
AcDbVertex
100
AcDb2dVertex
 10
167.8117453196412
 20
38.04576483516201
 30
0.0
  0
SEQEND
  5
58A
330
587
100
AcDbEntity
  8
BEMA_UNG
  0
POLYLINE
  5
58B
330
1F
100
AcDbEntity
  8
BEMA_UNG
 62
     7
100
AcDb2dPolyline
 66
     1
 10
0.0
 20
0.0
 30
0.0
  0
VERTEX
  5
58C
330
58B
100
AcDbEntity
  8
BEMA_UNG
 62
     7
100
AcDbVertex
100
AcDb2dVertex
 10
167.4975524041151
 20
38.0738423818894
 30
0.0
  0
VERTEX
  5
58D
330
58B
100
AcDbEntity
  8
BEMA_UNG
 62
     7
100
AcDbVertex
100
AcDb2dVertex
 10
168.0236188317559
 20
38.0738423818894
 30
0.0
  0
SEQEND
  5
58E
330
58B
100
AcDbEntity
  8
BEMA_UNG
  0
POLYLINE
  5
58F
330
1F
100
AcDbEntity
  8
BEMA_UNG
 62
     7
100
AcDb2dPolyline
 66
     1
 10
0.0
 20
0.0
 30
0.0
  0
VERTEX
  5
590
330
58F
100
AcDbEntity
  8
BEMA_UNG
 62
     7
100
AcDbVertex
100
AcDb2dVertex
 10
167.4975524041151
 20
38.10174767372889
 30
0.0
  0
VERTEX
  5
591
330
58F
100
AcDbEntity
  8
BEMA_UNG
 62
     7
100
AcDbVertex
100
AcDb2dVertex
 10
168.2358368536463
 20
38.10174767372889
 30
0.0
  0
SEQEND
  5
592
330
58F
100
AcDbEntity
  8
BEMA_UNG
  0
POLYLINE
  5
593
330
1F
100
AcDbEntity
  8
BEMA_UNG
 62
     7
100
AcDb2dPolyline
 66
     1
 10
0.0
 20
0.0
 30
0.0
  0
VERTEX
  5
594
330
593
100
AcDbEntity
  8
BEMA_UNG
 62
     7
100
AcDbVertex
100
AcDb2dVertex
 10
167.4975524041151
 20
38.12948071068048
 30
0.0
  0
VERTEX
  5
595
330
593
100
AcDbEntity
  8
BEMA_UNG
 62
     7
100
AcDbVertex
100
AcDb2dVertex
 10
168.4480548755368
 20
38.12948071068048
 30
0.0
  0
SEQEND
  5
596
330
593
100
AcDbEntity
  8
BEMA_UNG
  0
POLYLINE
  5
597
330
1F
100
AcDbEntity
  8
BEMA_UNG
 62
     7
100
AcDb2dPolyline
 66
     1
 10
0.0
 20
0.0
 30
0.0
  0
VERTEX
  5
598
330
597
100
AcDbEntity
  8
BEMA_UNG
 62
     7
100
AcDbVertex
100
AcDb2dVertex
 10
167.4975524041151
 20
38.15738600251997
 30
0.0
  0
VERTEX
  5
599
330
597
100
AcDbEntity
  8
BEMA_UNG
 62
     7
100
AcDbVertex
100
AcDb2dVertex
 10
168.660617407203
 20
38.15738600251997
 30
0.0
  0
SEQEND
  5
59A
330
597
100
AcDbEntity
  8
BEMA_UNG
  0
POLYLINE
  5
59B
330
1F
100
AcDbEntity
  8
BEMA_UNG
 62
     7
100
AcDb2dPolyline
 66
     1
 10
0.0
 20
0.0
 30
0.0
  0
VERTEX
  5
59C
330
59B
100
AcDbEntity
  8
BEMA_UNG
 62
     7
100
AcDbVertex
100
AcDb2dVertex
 10
167.4975524041151
 20
38.18529129435946
 30
0.0
  0
VERTEX
  5
59D
330
59B
100
AcDbEntity
  8
BEMA_UNG
 62
     7
100
AcDbVertex
100
AcDb2dVertex
 10
168.8728354290934
 20
38.18529129435946
 30
0.0
  0
SEQEND
  5
59E
330
59B
100
AcDbEntity
  8
BEMA_UNG
  0
POLYLINE
  5
59F
330
1F
100
AcDbEntity
  8
BEMA_UNG
 62
     7
100
AcDb2dPolyline
 66
     1
 10
0.0
 20
0.0
 30
0.0
  0
VERTEX
  5
5A0
330
59F
100
AcDbEntity
  8
BEMA_UNG
 62
     7
100
AcDbVertex
100
AcDb2dVertex
 10
119.8401370791279
 20
32.73704144503095
 30
0.0
  0
VERTEX
  5
5A1
330
59F
100
AcDbEntity
  8
BEMA_UNG
 62
     7
100
AcDbVertex
100
AcDb2dVertex
 10
112.6684770763791
 20
32.73704144503095
 30
0.0
  0
SEQEND
  5
5A2
330
59F
100
AcDbEntity
  8
BEMA_UNG
  0
POLYLINE
  5
5A3
330
1F
100
AcDbEntity
  8
BEMA_UNG
 62
     7
100
AcDb2dPolyline
 66
     1
 10
0.0
 20
0.0
 30
0.0
  0
VERTEX
  5
5A4
330
5A3
100
AcDbEntity
  8
BEMA_UNG
 62
     7
100
AcDbVertex
100
AcDb2dVertex
 10
123.9651248796233
 20
15.13672601915627
 30
0.0
  0
VERTEX
  5
5A5
330
5A3
100
AcDbEntity
  8
BEMA_UNG
 62
     7
100
AcDbVertex
100
AcDb2dVertex
 10
112.6684770763791
 20
15.13672601915627
 30
0.0
  0
SEQEND
  5
5A6
330
5A3
100
AcDbEntity
  8
BEMA_UNG
  0
POLYLINE
  5
5A7
330
1F
100
AcDbEntity
  8
BEMA_UNG
 62
     7
100
AcDb2dPolyline
 66
     1
 10
0.0
 20
0.0
 30
0.0
  0
VERTEX
  5
5A8
330
5A7
100
AcDbEntity
  8
BEMA_UNG
 62
     7
100
AcDbVertex
100
AcDb2dVertex
 10
113.7683245356083
 20
32.73704144503095
 30
0.0
  0
VERTEX
  5
5A9
330
5A7
100
AcDbEntity
  8
BEMA_UNG
 62
     7
100
AcDbVertex
100
AcDb2dVertex
 10
113.7683245356083
 20
15.13672601915627
 30
0.0
  0
SEQEND
  5
5AA
330
5A7
100
AcDbEntity
  8
BEMA_UNG
  0
POLYLINE
  5
5AB
330
1F
100
AcDbEntity
  8
BEMA_UNG
 62
     7
100
AcDb2dPolyline
 66
     1
 10
0.0
 20
0.0
 30
0.0
  0
VERTEX
  5
5AC
330
5AB
100
AcDbEntity
  8
BEMA_UNG
 62
     7
100
AcDbVertex
100
AcDb2dVertex
 10
113.7683245356083
 20
32.73704144503095
 30
0.0
  0
VERTEX
  5
5AD
330
5AB
100
AcDbEntity
  8
BEMA_UNG
 62
     7
100
AcDbVertex
100
AcDb2dVertex
 10
113.5872846484274
 20
31.36193067494054
 30
0.0
  0
VERTEX
  5
5AE
330
5AB
100
AcDbEntity
  8
BEMA_UNG
 62
     7
100
AcDbVertex
100
AcDb2dVertex
 10
113.9493644227892
 20
31.36193067494054
 30
0.0
  0
VERTEX
  5
5AF
330
5AB
100
AcDbEntity
  8
BEMA_UNG
 62
     7
100
AcDbVertex
100
AcDb2dVertex
 10
113.7683245356083
 20
32.73704144503095
 30
0.0
  0
SEQEND
  5
5B0
330
5AB
100
AcDbEntity
  8
BEMA_UNG
  0
POLYLINE
  5
5B1
330
1F
100
AcDbEntity
  8
BEMA_UNG
 62
     7
100
AcDb2dPolyline
 66
     1
 10
0.0
 20
0.0
 30
0.0
  0
VERTEX
  5
5B2
330
5B1
100
AcDbEntity
  8
BEMA_UNG
 62
     7
100
AcDbVertex
100
AcDb2dVertex
 10
113.6008927845714
 20
31.36193067494054
 30
0.0
  0
VERTEX
  5
5B3
330
5B1
100
AcDbEntity
  8
BEMA_UNG
 62
     7
100
AcDbVertex
100
AcDb2dVertex
 10
113.6008927845714
 20
31.4635610588004
 30
0.0
  0
SEQEND
  5
5B4
330
5B1
100
AcDbEntity
  8
BEMA_UNG
  0
POLYLINE
  5
5B5
330
1F
100
AcDbEntity
  8
BEMA_UNG
 62
     7
100
AcDb2dPolyline
 66
     1
 10
0.0
 20
0.0
 30
0.0
  0
VERTEX
  5
5B6
330
5B5
100
AcDbEntity
  8
BEMA_UNG
 62
     7
100
AcDbVertex
100
AcDb2dVertex
 10
113.6008927845714
 20
31.36193067494054
 30
0.0
  0
VERTEX
  5
5B7
330
5B5
100
AcDbEntity
  8
BEMA_UNG
 62
     7
100
AcDbVertex
100
AcDb2dVertex
 10
113.6008927845714
 20
31.4635610588004
 30
0.0
  0
SEQEND
  5
5B8
330
5B5
100
AcDbEntity
  8
BEMA_UNG
  0
POLYLINE
  5
5B9
330
1F
100
AcDbEntity
  8
BEMA_UNG
 62
     7
100
AcDb2dPolyline
 66
     1
 10
0.0
 20
0.0
 30
0.0
  0
VERTEX
  5
5BA
330
5B9
100
AcDbEntity
  8
BEMA_UNG
 62
     7
100
AcDbVertex
100
AcDb2dVertex
 10
113.6287980764109
 20
31.36193067494054
 30
0.0
  0
VERTEX
  5
5BB
330
5B9
100
AcDbEntity
  8
BEMA_UNG
 62
     7
100
AcDbVertex
100
AcDb2dVertex
 10
113.6287980764109
 20
31.67560682580295
 30
0.0
  0
SEQEND
  5
5BC
330
5B9
100
AcDbEntity
  8
BEMA_UNG
  0
POLYLINE
  5
5BD
330
1F
100
AcDbEntity
  8
BEMA_UNG
 62
     7
100
AcDb2dPolyline
 66
     1
 10
0.0
 20
0.0
 30
0.0
  0
VERTEX
  5
5BE
330
5BD
100
AcDbEntity
  8
BEMA_UNG
 62
     7
100
AcDbVertex
100
AcDb2dVertex
 10
113.6567033682504
 20
31.36193067494054
 30
0.0
  0
VERTEX
  5
5BF
330
5BD
100
AcDbEntity
  8
BEMA_UNG
 62
     7
100
AcDbVertex
100
AcDb2dVertex
 10
113.6567033682504
 20
31.88816935746918
 30
0.0
  0
SEQEND
  5
5C0
330
5BD
100
AcDbEntity
  8
BEMA_UNG
  0
POLYLINE
  5
5C1
330
1F
100
AcDbEntity
  8
BEMA_UNG
 62
     7
100
AcDb2dPolyline
 66
     1
 10
0.0
 20
0.0
 30
0.0
  0
VERTEX
  5
5C2
330
5C1
100
AcDbEntity
  8
BEMA_UNG
 62
     7
100
AcDbVertex
100
AcDb2dVertex
 10
113.6846086600899
 20
31.36193067494054
 30
0.0
  0
VERTEX
  5
5C3
330
5C1
100
AcDbEntity
  8
BEMA_UNG
 62
     7
100
AcDbVertex
100
AcDb2dVertex
 10
113.6846086600899
 20
32.10021512447172
 30
0.0
  0
SEQEND
  5
5C4
330
5C1
100
AcDbEntity
  8
BEMA_UNG
  0
POLYLINE
  5
5C5
330
1F
100
AcDbEntity
  8
BEMA_UNG
 62
     7
100
AcDb2dPolyline
 66
     1
 10
0.0
 20
0.0
 30
0.0
  0
VERTEX
  5
5C6
330
5C5
100
AcDbEntity
  8
BEMA_UNG
 62
     7
100
AcDbVertex
100
AcDb2dVertex
 10
113.7125139519294
 20
31.36193067494054
 30
0.0
  0
VERTEX
  5
5C7
330
5C5
100
AcDbEntity
  8
BEMA_UNG
 62
     7
100
AcDbVertex
100
AcDb2dVertex
 10
113.7125139519294
 20
32.31243314636217
 30
0.0
  0
SEQEND
  5
5C8
330
5C5
100
AcDbEntity
  8
BEMA_UNG
  0
POLYLINE
  5
5C9
330
1F
100
AcDbEntity
  8
BEMA_UNG
 62
     7
100
AcDb2dPolyline
 66
     1
 10
0.0
 20
0.0
 30
0.0
  0
VERTEX
  5
5CA
330
5C9
100
AcDbEntity
  8
BEMA_UNG
 62
     7
100
AcDbVertex
100
AcDb2dVertex
 10
113.7404192437688
 20
31.36193067494054
 30
0.0
  0
VERTEX
  5
5CB
330
5C9
100
AcDbEntity
  8
BEMA_UNG
 62
     7
100
AcDbVertex
100
AcDb2dVertex
 10
113.7404192437688
 20
32.52447891336471
 30
0.0
  0
SEQEND
  5
5CC
330
5C9
100
AcDbEntity
  8
BEMA_UNG
  0
POLYLINE
  5
5CD
330
1F
100
AcDbEntity
  8
BEMA_UNG
 62
     7
100
AcDb2dPolyline
 66
     1
 10
0.0
 20
0.0
 30
0.0
  0
VERTEX
  5
5CE
330
5CD
100
AcDbEntity
  8
BEMA_UNG
 62
     7
100
AcDbVertex
100
AcDb2dVertex
 10
113.7683245356083
 20
31.36193067494054
 30
0.0
  0
VERTEX
  5
5CF
330
5CD
100
AcDbEntity
  8
BEMA_UNG
 62
     7
100
AcDbVertex
100
AcDb2dVertex
 10
113.7683245356083
 20
32.73704144503095
 30
0.0
  0
SEQEND
  5
5D0
330
5CD
100
AcDbEntity
  8
BEMA_UNG
  0
POLYLINE
  5
5D1
330
1F
100
AcDbEntity
  8
BEMA_UNG
 62
     7
100
AcDb2dPolyline
 66
     1
 10
0.0
 20
0.0
 30
0.0
  0
VERTEX
  5
5D2
330
5D1
100
AcDbEntity
  8
BEMA_UNG
 62
     7
100
AcDbVertex
100
AcDb2dVertex
 10
113.9359285415332
 20
31.36193067494054
 30
0.0
  0
VERTEX
  5
5D3
330
5D1
100
AcDbEntity
  8
BEMA_UNG
 62
     7
100
AcDbVertex
100
AcDb2dVertex
 10
113.9359285415332
 20
31.4635610588004
 30
0.0
  0
SEQEND
  5
5D4
330
5D1
100
AcDbEntity
  8
BEMA_UNG
  0
POLYLINE
  5
5D5
330
1F
100
AcDbEntity
  8
BEMA_UNG
 62
     7
100
AcDb2dPolyline
 66
     1
 10
0.0
 20
0.0
 30
0.0
  0
VERTEX
  5
5D6
330
5D5
100
AcDbEntity
  8
BEMA_UNG
 62
     7
100
AcDbVertex
100
AcDb2dVertex
 10
113.9359285415332
 20
31.36193067494054
 30
0.0
  0
VERTEX
  5
5D7
330
5D5
100
AcDbEntity
  8
BEMA_UNG
 62
     7
100
AcDbVertex
100
AcDb2dVertex
 10
113.9359285415332
 20
31.4635610588004
 30
0.0
  0
SEQEND
  5
5D8
330
5D5
100
AcDbEntity
  8
BEMA_UNG
  0
POLYLINE
  5
5D9
330
1F
100
AcDbEntity
  8
BEMA_UNG
 62
     7
100
AcDb2dPolyline
 66
     1
 10
0.0
 20
0.0
 30
0.0
  0
VERTEX
  5
5DA
330
5D9
100
AcDbEntity
  8
BEMA_UNG
 62
     7
100
AcDbVertex
100
AcDb2dVertex
 10
113.9080232496937
 20
31.36193067494054
 30
0.0
  0
VERTEX
  5
5DB
330
5D9
100
AcDbEntity
  8
BEMA_UNG
 62
     7
100
AcDbVertex
100
AcDb2dVertex
 10
113.9080232496937
 20
31.67560682580295
 30
0.0
  0
SEQEND
  5
5DC
330
5D9
100
AcDbEntity
  8
BEMA_UNG
  0
POLYLINE
  5
5DD
330
1F
100
AcDbEntity
  8
BEMA_UNG
 62
     7
100
AcDb2dPolyline
 66
     1
 10
0.0
 20
0.0
 30
0.0
  0
VERTEX
  5
5DE
330
5DD
100
AcDbEntity
  8
BEMA_UNG
 62
     7
100
AcDbVertex
100
AcDb2dVertex
 10
113.8801179578542
 20
31.36193067494054
 30
0.0
  0
VERTEX
  5
5DF
330
5DD
100
AcDbEntity
  8
BEMA_UNG
 62
     7
100
AcDbVertex
100
AcDb2dVertex
 10
113.8801179578542
 20
31.88816935746918
 30
0.0
  0
SEQEND
  5
5E0
330
5DD
100
AcDbEntity
  8
BEMA_UNG
  0
POLYLINE
  5
5E1
330
1F
100
AcDbEntity
  8
BEMA_UNG
 62
     7
100
AcDb2dPolyline
 66
     1
 10
0.0
 20
0.0
 30
0.0
  0
VERTEX
  5
5E2
330
5E1
100
AcDbEntity
  8
BEMA_UNG
 62
     7
100
AcDbVertex
100
AcDb2dVertex
 10
113.8522126660147
 20
31.36193067494054
 30
0.0
  0
VERTEX
  5
5E3
330
5E1
100
AcDbEntity
  8
BEMA_UNG
 62
     7
100
AcDbVertex
100
AcDb2dVertex
 10
113.8522126660147
 20
32.10021512447172
 30
0.0
  0
SEQEND
  5
5E4
330
5E1
100
AcDbEntity
  8
BEMA_UNG
  0
POLYLINE
  5
5E5
330
1F
100
AcDbEntity
  8
BEMA_UNG
 62
     7
100
AcDb2dPolyline
 66
     1
 10
0.0
 20
0.0
 30
0.0
  0
VERTEX
  5
5E6
330
5E5
100
AcDbEntity
  8
BEMA_UNG
 62
     7
100
AcDbVertex
100
AcDb2dVertex
 10
113.8243073741752
 20
31.36193067494054
 30
0.0
  0
VERTEX
  5
5E7
330
5E5
100
AcDbEntity
  8
BEMA_UNG
 62
     7
100
AcDbVertex
100
AcDb2dVertex
 10
113.8243073741752
 20
32.31243314636217
 30
0.0
  0
SEQEND
  5
5E8
330
5E5
100
AcDbEntity
  8
BEMA_UNG
  0
POLYLINE
  5
5E9
330
1F
100
AcDbEntity
  8
BEMA_UNG
 62
     7
100
AcDb2dPolyline
 66
     1
 10
0.0
 20
0.0
 30
0.0
  0
VERTEX
  5
5EA
330
5E9
100
AcDbEntity
  8
BEMA_UNG
 62
     7
100
AcDbVertex
100
AcDb2dVertex
 10
113.7964020823357
 20
31.36193067494054
 30
0.0
  0
VERTEX
  5
5EB
330
5E9
100
AcDbEntity
  8
BEMA_UNG
 62
     7
100
AcDbVertex
100
AcDb2dVertex
 10
113.7964020823357
 20
32.52447891336471
 30
0.0
  0
SEQEND
  5
5EC
330
5E9
100
AcDbEntity
  8
BEMA_UNG
  0
POLYLINE
  5
5ED
330
1F
100
AcDbEntity
  8
BEMA_UNG
 62
     7
100
AcDb2dPolyline
 66
     1
 10
0.0
 20
0.0
 30
0.0
  0
VERTEX
  5
5EE
330
5ED
100
AcDbEntity
  8
BEMA_UNG
 62
     7
100
AcDbVertex
100
AcDb2dVertex
 10
113.7683245356083
 20
31.36193067494054
 30
0.0
  0
VERTEX
  5
5EF
330
5ED
100
AcDbEntity
  8
BEMA_UNG
 62
     7
100
AcDbVertex
100
AcDb2dVertex
 10
113.7683245356083
 20
32.73704144503095
 30
0.0
  0
SEQEND
  5
5F0
330
5ED
100
AcDbEntity
  8
BEMA_UNG
  0
POLYLINE
  5
5F1
330
1F
100
AcDbEntity
  8
BEMA_UNG
 62
     7
100
AcDb2dPolyline
 66
     1
 10
0.0
 20
0.0
 30
0.0
  0
VERTEX
  5
5F2
330
5F1
100
AcDbEntity
  8
BEMA_UNG
 62
     7
100
AcDbVertex
100
AcDb2dVertex
 10
113.7683245356083
 20
15.13672601915627
 30
0.0
  0
VERTEX
  5
5F3
330
5F1
100
AcDbEntity
  8
BEMA_UNG
 62
     7
100
AcDbVertex
100
AcDb2dVertex
 10
113.9493644227892
 20
16.51183678924668
 30
0.0
  0
VERTEX
  5
5F4
330
5F1
100
AcDbEntity
  8
BEMA_UNG
 62
     7
100
AcDbVertex
100
AcDb2dVertex
 10
113.5872846484274
 20
16.51183678924668
 30
0.0
  0
VERTEX
  5
5F5
330
5F1
100
AcDbEntity
  8
BEMA_UNG
 62
     7
100
AcDbVertex
100
AcDb2dVertex
 10
113.7683245356083
 20
15.13672601915627
 30
0.0
  0
SEQEND
  5
5F6
330
5F1
100
AcDbEntity
  8
BEMA_UNG
  0
POLYLINE
  5
5F7
330
1F
100
AcDbEntity
  8
BEMA_UNG
 62
     7
100
AcDb2dPolyline
 66
     1
 10
0.0
 20
0.0
 30
0.0
  0
VERTEX
  5
5F8
330
5F7
100
AcDbEntity
  8
BEMA_UNG
 62
     7
100
AcDbVertex
100
AcDb2dVertex
 10
113.9359285415332
 20
16.51183678924668
 30
0.0
  0
VERTEX
  5
5F9
330
5F7
100
AcDbEntity
  8
BEMA_UNG
 62
     7
100
AcDbVertex
100
AcDb2dVertex
 10
113.9359285415332
 20
16.41003415049891
 30
0.0
  0
SEQEND
  5
5FA
330
5F7
100
AcDbEntity
  8
BEMA_UNG
  0
POLYLINE
  5
5FB
330
1F
100
AcDbEntity
  8
BEMA_UNG
 62
     7
100
AcDb2dPolyline
 66
     1
 10
0.0
 20
0.0
 30
0.0
  0
VERTEX
  5
5FC
330
5FB
100
AcDbEntity
  8
BEMA_UNG
 62
     7
100
AcDbVertex
100
AcDb2dVertex
 10
113.9359285415332
 20
16.51183678924668
 30
0.0
  0
VERTEX
  5
5FD
330
5FB
100
AcDbEntity
  8
BEMA_UNG
 62
     7
100
AcDbVertex
100
AcDb2dVertex
 10
113.9359285415332
 20
16.41003415049891
 30
0.0
  0
SEQEND
  5
5FE
330
5FB
100
AcDbEntity
  8
BEMA_UNG
  0
POLYLINE
  5
5FF
330
1F
100
AcDbEntity
  8
BEMA_UNG
 62
     7
100
AcDb2dPolyline
 66
     1
 10
0.0
 20
0.0
 30
0.0
  0
VERTEX
  5
600
330
5FF
100
AcDbEntity
  8
BEMA_UNG
 62
     7
100
AcDbVertex
100
AcDb2dVertex
 10
113.9080232496937
 20
16.51183678924668
 30
0.0
  0
VERTEX
  5
601
330
5FF
100
AcDbEntity
  8
BEMA_UNG
 62
     7
100
AcDbVertex
100
AcDb2dVertex
 10
113.9080232496937
 20
16.19798838349637
 30
0.0
  0
SEQEND
  5
602
330
5FF
100
AcDbEntity
  8
BEMA_UNG
  0
POLYLINE
  5
603
330
1F
100
AcDbEntity
  8
BEMA_UNG
 62
     7
100
AcDb2dPolyline
 66
     1
 10
0.0
 20
0.0
 30
0.0
  0
VERTEX
  5
604
330
603
100
AcDbEntity
  8
BEMA_UNG
 62
     7
100
AcDbVertex
100
AcDb2dVertex
 10
113.8801179578542
 20
16.51183678924668
 30
0.0
  0
VERTEX
  5
605
330
603
100
AcDbEntity
  8
BEMA_UNG
 62
     7
100
AcDbVertex
100
AcDb2dVertex
 10
113.8801179578542
 20
15.98559810671803
 30
0.0
  0
SEQEND
  5
606
330
603
100
AcDbEntity
  8
BEMA_UNG
  0
POLYLINE
  5
607
330
1F
100
AcDbEntity
  8
BEMA_UNG
 62
     7
100
AcDb2dPolyline
 66
     1
 10
0.0
 20
0.0
 30
0.0
  0
VERTEX
  5
608
330
607
100
AcDbEntity
  8
BEMA_UNG
 62
     7
100
AcDbVertex
100
AcDb2dVertex
 10
113.8522126660147
 20
16.51183678924668
 30
0.0
  0
VERTEX
  5
609
330
607
100
AcDbEntity
  8
BEMA_UNG
 62
     7
100
AcDbVertex
100
AcDb2dVertex
 10
113.8522126660147
 20
15.77355233971549
 30
0.0
  0
SEQEND
  5
60A
330
607
100
AcDbEntity
  8
BEMA_UNG
  0
POLYLINE
  5
60B
330
1F
100
AcDbEntity
  8
BEMA_UNG
 62
     7
100
AcDb2dPolyline
 66
     1
 10
0.0
 20
0.0
 30
0.0
  0
VERTEX
  5
60C
330
60B
100
AcDbEntity
  8
BEMA_UNG
 62
     7
100
AcDbVertex
100
AcDb2dVertex
 10
113.8243073741752
 20
16.51183678924668
 30
0.0
  0
VERTEX
  5
60D
330
60B
100
AcDbEntity
  8
BEMA_UNG
 62
     7
100
AcDbVertex
100
AcDb2dVertex
 10
113.8243073741752
 20
15.56116206293715
 30
0.0
  0
SEQEND
  5
60E
330
60B
100
AcDbEntity
  8
BEMA_UNG
  0
POLYLINE
  5
60F
330
1F
100
AcDbEntity
  8
BEMA_UNG
 62
     7
100
AcDb2dPolyline
 66
     1
 10
0.0
 20
0.0
 30
0.0
  0
VERTEX
  5
610
330
60F
100
AcDbEntity
  8
BEMA_UNG
 62
     7
100
AcDbVertex
100
AcDb2dVertex
 10
113.7964020823357
 20
16.51183678924668
 30
0.0
  0
VERTEX
  5
611
330
60F
100
AcDbEntity
  8
BEMA_UNG
 62
     7
100
AcDbVertex
100
AcDb2dVertex
 10
113.7964020823357
 20
15.34911629593461
 30
0.0
  0
SEQEND
  5
612
330
60F
100
AcDbEntity
  8
BEMA_UNG
  0
POLYLINE
  5
613
330
1F
100
AcDbEntity
  8
BEMA_UNG
 62
     7
100
AcDb2dPolyline
 66
     1
 10
0.0
 20
0.0
 30
0.0
  0
VERTEX
  5
614
330
613
100
AcDbEntity
  8
BEMA_UNG
 62
     7
100
AcDbVertex
100
AcDb2dVertex
 10
113.7683245356083
 20
16.51183678924668
 30
0.0
  0
VERTEX
  5
615
330
613
100
AcDbEntity
  8
BEMA_UNG
 62
     7
100
AcDbVertex
100
AcDb2dVertex
 10
113.7683245356083
 20
15.13672601915627
 30
0.0
  0
SEQEND
  5
616
330
613
100
AcDbEntity
  8
BEMA_UNG
  0
POLYLINE
  5
617
330
1F
100
AcDbEntity
  8
BEMA_UNG
 62
     7
100
AcDb2dPolyline
 66
     1
 10
0.0
 20
0.0
 30
0.0
  0
VERTEX
  5
618
330
617
100
AcDbEntity
  8
BEMA_UNG
 62
     7
100
AcDbVertex
100
AcDb2dVertex
 10
113.6008927845714
 20
16.51183678924668
 30
0.0
  0
VERTEX
  5
619
330
617
100
AcDbEntity
  8
BEMA_UNG
 62
     7
100
AcDbVertex
100
AcDb2dVertex
 10
113.6008927845714
 20
16.41003415049891
 30
0.0
  0
SEQEND
  5
61A
330
617
100
AcDbEntity
  8
BEMA_UNG
  0
POLYLINE
  5
61B
330
1F
100
AcDbEntity
  8
BEMA_UNG
 62
     7
100
AcDb2dPolyline
 66
     1
 10
0.0
 20
0.0
 30
0.0
  0
VERTEX
  5
61C
330
61B
100
AcDbEntity
  8
BEMA_UNG
 62
     7
100
AcDbVertex
100
AcDb2dVertex
 10
113.6008927845714
 20
16.51183678924668
 30
0.0
  0
VERTEX
  5
61D
330
61B
100
AcDbEntity
  8
BEMA_UNG
 62
     7
100
AcDbVertex
100
AcDb2dVertex
 10
113.6008927845714
 20
16.41003415049891
 30
0.0
  0
SEQEND
  5
61E
330
61B
100
AcDbEntity
  8
BEMA_UNG
  0
POLYLINE
  5
61F
330
1F
100
AcDbEntity
  8
BEMA_UNG
 62
     7
100
AcDb2dPolyline
 66
     1
 10
0.0
 20
0.0
 30
0.0
  0
VERTEX
  5
620
330
61F
100
AcDbEntity
  8
BEMA_UNG
 62
     7
100
AcDbVertex
100
AcDb2dVertex
 10
113.6287980764109
 20
16.51183678924668
 30
0.0
  0
VERTEX
  5
621
330
61F
100
AcDbEntity
  8
BEMA_UNG
 62
     7
100
AcDbVertex
100
AcDb2dVertex
 10
113.6287980764109
 20
16.19798838349637
 30
0.0
  0
SEQEND
  5
622
330
61F
100
AcDbEntity
  8
BEMA_UNG
  0
POLYLINE
  5
623
330
1F
100
AcDbEntity
  8
BEMA_UNG
 62
     7
100
AcDb2dPolyline
 66
     1
 10
0.0
 20
0.0
 30
0.0
  0
VERTEX
  5
624
330
623
100
AcDbEntity
  8
BEMA_UNG
 62
     7
100
AcDbVertex
100
AcDb2dVertex
 10
113.6567033682504
 20
16.51183678924668
 30
0.0
  0
VERTEX
  5
625
330
623
100
AcDbEntity
  8
BEMA_UNG
 62
     7
100
AcDbVertex
100
AcDb2dVertex
 10
113.6567033682504
 20
15.98559810671803
 30
0.0
  0
SEQEND
  5
626
330
623
100
AcDbEntity
  8
BEMA_UNG
  0
POLYLINE
  5
627
330
1F
100
AcDbEntity
  8
BEMA_UNG
 62
     7
100
AcDb2dPolyline
 66
     1
 10
0.0
 20
0.0
 30
0.0
  0
VERTEX
  5
628
330
627
100
AcDbEntity
  8
BEMA_UNG
 62
     7
100
AcDbVertex
100
AcDb2dVertex
 10
113.6846086600899
 20
16.51183678924668
 30
0.0
  0
VERTEX
  5
629
330
627
100
AcDbEntity
  8
BEMA_UNG
 62
     7
100
AcDbVertex
100
AcDb2dVertex
 10
113.6846086600899
 20
15.77355233971549
 30
0.0
  0
SEQEND
  5
62A
330
627
100
AcDbEntity
  8
BEMA_UNG
  0
POLYLINE
  5
62B
330
1F
100
AcDbEntity
  8
BEMA_UNG
 62
     7
100
AcDb2dPolyline
 66
     1
 10
0.0
 20
0.0
 30
0.0
  0
VERTEX
  5
62C
330
62B
100
AcDbEntity
  8
BEMA_UNG
 62
     7
100
AcDbVertex
100
AcDb2dVertex
 10
113.7125139519294
 20
16.51183678924668
 30
0.0
  0
VERTEX
  5
62D
330
62B
100
AcDbEntity
  8
BEMA_UNG
 62
     7
100
AcDbVertex
100
AcDb2dVertex
 10
113.7125139519294
 20
15.56116206293715
 30
0.0
  0
SEQEND
  5
62E
330
62B
100
AcDbEntity
  8
BEMA_UNG
  0
POLYLINE
  5
62F
330
1F
100
AcDbEntity
  8
BEMA_UNG
 62
     7
100
AcDb2dPolyline
 66
     1
 10
0.0
 20
0.0
 30
0.0
  0
VERTEX
  5
630
330
62F
100
AcDbEntity
  8
BEMA_UNG
 62
     7
100
AcDbVertex
100
AcDb2dVertex
 10
113.7404192437688
 20
16.51183678924668
 30
0.0
  0
VERTEX
  5
631
330
62F
100
AcDbEntity
  8
BEMA_UNG
 62
     7
100
AcDbVertex
100
AcDb2dVertex
 10
113.7404192437688
 20
15.34911629593461
 30
0.0
  0
SEQEND
  5
632
330
62F
100
AcDbEntity
  8
BEMA_UNG
  0
POLYLINE
  5
633
330
1F
100
AcDbEntity
  8
BEMA_UNG
 62
     7
100
AcDb2dPolyline
 66
     1
 10
0.0
 20
0.0
 30
0.0
  0
VERTEX
  5
634
330
633
100
AcDbEntity
  8
BEMA_UNG
 62
     7
100
AcDbVertex
100
AcDb2dVertex
 10
113.7683245356083
 20
16.51183678924668
 30
0.0
  0
VERTEX
  5
635
330
633
100
AcDbEntity
  8
BEMA_UNG
 62
     7
100
AcDbVertex
100
AcDb2dVertex
 10
113.7683245356083
 20
15.13672601915627
 30
0.0
  0
SEQEND
  5
636
330
633
100
AcDbEntity
  8
BEMA_UNG
  0
POLYLINE
  5
637
330
1F
100
AcDbEntity
  8
BEMA_UNG
 62
     7
100
AcDb2dPolyline
 66
     1
 10
0.0
 20
0.0
 30
0.0
  0
VERTEX
  5
638
330
637
100
AcDbEntity
  8
BEMA_UNG
 62
     7
100
AcDbVertex
100
AcDb2dVertex
 10
166.6717624715317
 20
2.487016071472543
 30
0.0
  0
VERTEX
  5
639
330
637
100
AcDbEntity
  8
BEMA_UNG
 62
     7
100
AcDbVertex
100
AcDb2dVertex
 10
184.149432417223
 20
2.487016071472543
 30
0.0
  0
SEQEND
  5
63A
330
637
100
AcDbEntity
  8
BEMA_UNG
  0
POLYLINE
  5
63B
330
1F
100
AcDbEntity
  8
BEMA_UNG
 62
     7
100
AcDb2dPolyline
 66
     1
 10
0.0
 20
0.0
 30
0.0
  0
VERTEX
  5
63C
330
63B
100
AcDbEntity
  8
BEMA_UNG
 62
     7
100
AcDbVertex
100
AcDb2dVertex
 10
168.3226533171469
 20
32.73704144503095
 30
0.0
  0
VERTEX
  5
63D
330
63B
100
AcDbEntity
  8
BEMA_UNG
 62
     7
100
AcDbVertex
100
AcDb2dVertex
 10
184.149432417223
 20
32.73704144503095
 30
0.0
  0
SEQEND
  5
63E
330
63B
100
AcDbEntity
  8
BEMA_UNG
  0
POLYLINE
  5
63F
330
1F
100
AcDbEntity
  8
BEMA_UNG
 62
     7
100
AcDb2dPolyline
 66
     1
 10
0.0
 20
0.0
 30
0.0
  0
VERTEX
  5
640
330
63F
100
AcDbEntity
  8
BEMA_UNG
 62
     7
100
AcDbVertex
100
AcDb2dVertex
 10
183.0497572128816
 20
2.487016071472543
 30
0.0
  0
VERTEX
  5
641
330
63F
100
AcDbEntity
  8
BEMA_UNG
 62
     7
100
AcDbVertex
100
AcDb2dVertex
 10
183.0497572128816
 20
32.73704144503095
 30
0.0
  0
SEQEND
  5
642
330
63F
100
AcDbEntity
  8
BEMA_UNG
  0
POLYLINE
  5
643
330
1F
100
AcDbEntity
  8
BEMA_UNG
 62
     7
100
AcDb2dPolyline
 66
     1
 10
0.0
 20
0.0
 30
0.0
  0
VERTEX
  5
644
330
643
100
AcDbEntity
  8
BEMA_UNG
 62
     7
100
AcDbVertex
100
AcDb2dVertex
 10
183.0497572128816
 20
2.487016071472543
 30
0.0
  0
VERTEX
  5
645
330
643
100
AcDbEntity
  8
BEMA_UNG
 62
     7
100
AcDbVertex
100
AcDb2dVertex
 10
183.2302803353988
 20
3.861782331787155
 30
0.0
  0
VERTEX
  5
646
330
643
100
AcDbEntity
  8
BEMA_UNG
 62
     7
100
AcDbVertex
100
AcDb2dVertex
 10
182.8685450708128
 20
3.861782331787155
 30
0.0
  0
VERTEX
  5
647
330
643
100
AcDbEntity
  8
BEMA_UNG
 62
     7
100
AcDbVertex
100
AcDb2dVertex
 10
183.0497572128816
 20
2.487016071472543
 30
0.0
  0
SEQEND
  5
648
330
643
100
AcDbEntity
  8
BEMA_UNG
  0
POLYLINE
  5
649
330
1F
100
AcDbEntity
  8
BEMA_UNG
 62
     7
100
AcDb2dPolyline
 66
     1
 10
0.0
 20
0.0
 30
0.0
  0
VERTEX
  5
64A
330
649
100
AcDbEntity
  8
BEMA_UNG
 62
     7
100
AcDbVertex
100
AcDb2dVertex
 10
183.2171889639185
 20
3.861782331787155
 30
0.0
  0
VERTEX
  5
64B
330
649
100
AcDbEntity
  8
BEMA_UNG
 62
     7
100
AcDbVertex
100
AcDb2dVertex
 10
183.2171889639185
 20
3.759979693039387
 30
0.0
  0
SEQEND
  5
64C
330
649
100
AcDbEntity
  8
BEMA_UNG
  0
POLYLINE
  5
64D
330
1F
100
AcDbEntity
  8
BEMA_UNG
 62
     7
100
AcDb2dPolyline
 66
     1
 10
0.0
 20
0.0
 30
0.0
  0
VERTEX
  5
64E
330
64D
100
AcDbEntity
  8
BEMA_UNG
 62
     7
100
AcDbVertex
100
AcDb2dVertex
 10
183.2171889639185
 20
3.861782331787155
 30
0.0
  0
VERTEX
  5
64F
330
64D
100
AcDbEntity
  8
BEMA_UNG
 62
     7
100
AcDbVertex
100
AcDb2dVertex
 10
183.2171889639185
 20
3.759979693039387
 30
0.0
  0
SEQEND
  5
650
330
64D
100
AcDbEntity
  8
BEMA_UNG
  0
POLYLINE
  5
651
330
1F
100
AcDbEntity
  8
BEMA_UNG
 62
     7
100
AcDb2dPolyline
 66
     1
 10
0.0
 20
0.0
 30
0.0
  0
VERTEX
  5
652
330
651
100
AcDbEntity
  8
BEMA_UNG
 62
     7
100
AcDbVertex
100
AcDb2dVertex
 10
183.189283672079
 20
3.861782331787155
 30
0.0
  0
VERTEX
  5
653
330
651
100
AcDbEntity
  8
BEMA_UNG
 62
     7
100
AcDbVertex
100
AcDb2dVertex
 10
183.189283672079
 20
3.547933926036845
 30
0.0
  0
SEQEND
  5
654
330
651
100
AcDbEntity
  8
BEMA_UNG
  0
POLYLINE
  5
655
330
1F
100
AcDbEntity
  8
BEMA_UNG
 62
     7
100
AcDb2dPolyline
 66
     1
 10
0.0
 20
0.0
 30
0.0
  0
VERTEX
  5
656
330
655
100
AcDbEntity
  8
BEMA_UNG
 62
     7
100
AcDbVertex
100
AcDb2dVertex
 10
183.1613783802395
 20
3.861782331787155
 30
0.0
  0
VERTEX
  5
657
330
655
100
AcDbEntity
  8
BEMA_UNG
 62
     7
100
AcDbVertex
100
AcDb2dVertex
 10
183.1613783802395
 20
3.335888159034303
 30
0.0
  0
SEQEND
  5
658
330
655
100
AcDbEntity
  8
BEMA_UNG
  0
POLYLINE
  5
659
330
1F
100
AcDbEntity
  8
BEMA_UNG
 62
     7
100
AcDb2dPolyline
 66
     1
 10
0.0
 20
0.0
 30
0.0
  0
VERTEX
  5
65A
330
659
100
AcDbEntity
  8
BEMA_UNG
 62
     7
100
AcDbVertex
100
AcDb2dVertex
 10
183.1334730884001
 20
3.861782331787155
 30
0.0
  0
VERTEX
  5
65B
330
659
100
AcDbEntity
  8
BEMA_UNG
 62
     7
100
AcDbVertex
100
AcDb2dVertex
 10
183.1334730884001
 20
3.123497882255965
 30
0.0
  0
SEQEND
  5
65C
330
659
100
AcDbEntity
  8
BEMA_UNG
  0
POLYLINE
  5
65D
330
1F
100
AcDbEntity
  8
BEMA_UNG
 62
     7
100
AcDb2dPolyline
 66
     1
 10
0.0
 20
0.0
 30
0.0
  0
VERTEX
  5
65E
330
65D
100
AcDbEntity
  8
BEMA_UNG
 62
     7
100
AcDbVertex
100
AcDb2dVertex
 10
183.1055677965606
 20
3.861782331787155
 30
0.0
  0
VERTEX
  5
65F
330
65D
100
AcDbEntity
  8
BEMA_UNG
 62
     7
100
AcDbVertex
100
AcDb2dVertex
 10
183.1055677965606
 20
2.911107605477627
 30
0.0
  0
SEQEND
  5
660
330
65D
100
AcDbEntity
  8
BEMA_UNG
  0
POLYLINE
  5
661
330
1F
100
AcDbEntity
  8
BEMA_UNG
 62
     7
100
AcDb2dPolyline
 66
     1
 10
0.0
 20
0.0
 30
0.0
  0
VERTEX
  5
662
330
661
100
AcDbEntity
  8
BEMA_UNG
 62
     7
100
AcDbVertex
100
AcDb2dVertex
 10
183.0776625047211
 20
3.861782331787155
 30
0.0
  0
VERTEX
  5
663
330
661
100
AcDbEntity
  8
BEMA_UNG
 62
     7
100
AcDbVertex
100
AcDb2dVertex
 10
183.0776625047211
 20
2.699061838475085
 30
0.0
  0
SEQEND
  5
664
330
661
100
AcDbEntity
  8
BEMA_UNG
  0
POLYLINE
  5
665
330
1F
100
AcDbEntity
  8
BEMA_UNG
 62
     7
100
AcDb2dPolyline
 66
     1
 10
0.0
 20
0.0
 30
0.0
  0
VERTEX
  5
666
330
665
100
AcDbEntity
  8
BEMA_UNG
 62
     7
100
AcDbVertex
100
AcDb2dVertex
 10
183.0497572128816
 20
3.861782331787155
 30
0.0
  0
VERTEX
  5
667
330
665
100
AcDbEntity
  8
BEMA_UNG
 62
     7
100
AcDbVertex
100
AcDb2dVertex
 10
183.0497572128816
 20
2.487016071472543
 30
0.0
  0
SEQEND
  5
668
330
665
100
AcDbEntity
  8
BEMA_UNG
  0
POLYLINE
  5
669
330
1F
100
AcDbEntity
  8
BEMA_UNG
 62
     7
100
AcDb2dPolyline
 66
     1
 10
0.0
 20
0.0
 30
0.0
  0
VERTEX
  5
66A
330
669
100
AcDbEntity
  8
BEMA_UNG
 62
     7
100
AcDbVertex
100
AcDb2dVertex
 10
182.8816364422931
 20
3.861782331787155
 30
0.0
  0
VERTEX
  5
66B
330
669
100
AcDbEntity
  8
BEMA_UNG
 62
     7
100
AcDbVertex
100
AcDb2dVertex
 10
182.8816364422931
 20
3.759979693039387
 30
0.0
  0
SEQEND
  5
66C
330
669
100
AcDbEntity
  8
BEMA_UNG
  0
POLYLINE
  5
66D
330
1F
100
AcDbEntity
  8
BEMA_UNG
 62
     7
100
AcDb2dPolyline
 66
     1
 10
0.0
 20
0.0
 30
0.0
  0
VERTEX
  5
66E
330
66D
100
AcDbEntity
  8
BEMA_UNG
 62
     7
100
AcDbVertex
100
AcDb2dVertex
 10
182.8816364422931
 20
3.861782331787155
 30
0.0
  0
VERTEX
  5
66F
330
66D
100
AcDbEntity
  8
BEMA_UNG
 62
     7
100
AcDbVertex
100
AcDb2dVertex
 10
182.8816364422931
 20
3.759979693039387
 30
0.0
  0
SEQEND
  5
670
330
66D
100
AcDbEntity
  8
BEMA_UNG
  0
POLYLINE
  5
671
330
1F
100
AcDbEntity
  8
BEMA_UNG
 62
     7
100
AcDb2dPolyline
 66
     1
 10
0.0
 20
0.0
 30
0.0
  0
VERTEX
  5
672
330
671
100
AcDbEntity
  8
BEMA_UNG
 62
     7
100
AcDbVertex
100
AcDb2dVertex
 10
182.9098862439083
 20
3.861782331787155
 30
0.0
  0
VERTEX
  5
673
330
671
100
AcDbEntity
  8
BEMA_UNG
 62
     7
100
AcDbVertex
100
AcDb2dVertex
 10
182.9098862439083
 20
3.547933926036845
 30
0.0
  0
SEQEND
  5
674
330
671
100
AcDbEntity
  8
BEMA_UNG
  0
POLYLINE
  5
675
330
1F
100
AcDbEntity
  8
BEMA_UNG
 62
     7
100
AcDb2dPolyline
 66
     1
 10
0.0
 20
0.0
 30
0.0
  0
VERTEX
  5
676
330
675
100
AcDbEntity
  8
BEMA_UNG
 62
     7
100
AcDbVertex
100
AcDb2dVertex
 10
182.937447025972
 20
3.861782331787155
 30
0.0
  0
VERTEX
  5
677
330
675
100
AcDbEntity
  8
BEMA_UNG
 62
     7
100
AcDbVertex
100
AcDb2dVertex
 10
182.937447025972
 20
3.335888159034303
 30
0.0
  0
SEQEND
  5
678
330
675
100
AcDbEntity
  8
BEMA_UNG
  0
POLYLINE
  5
679
330
1F
100
AcDbEntity
  8
BEMA_UNG
 62
     7
100
AcDb2dPolyline
 66
     1
 10
0.0
 20
0.0
 30
0.0
  0
VERTEX
  5
67A
330
679
100
AcDbEntity
  8
BEMA_UNG
 62
     7
100
AcDbVertex
100
AcDb2dVertex
 10
182.9656968275873
 20
3.861782331787155
 30
0.0
  0
VERTEX
  5
67B
330
679
100
AcDbEntity
  8
BEMA_UNG
 62
     7
100
AcDbVertex
100
AcDb2dVertex
 10
182.9656968275873
 20
3.123497882255965
 30
0.0
  0
SEQEND
  5
67C
330
679
100
AcDbEntity
  8
BEMA_UNG
  0
POLYLINE
  5
67D
330
1F
100
AcDbEntity
  8
BEMA_UNG
 62
     7
100
AcDb2dPolyline
 66
     1
 10
0.0
 20
0.0
 30
0.0
  0
VERTEX
  5
67E
330
67D
100
AcDbEntity
  8
BEMA_UNG
 62
     7
100
AcDbVertex
100
AcDb2dVertex
 10
182.9936021194268
 20
3.861782331787155
 30
0.0
  0
VERTEX
  5
67F
330
67D
100
AcDbEntity
  8
BEMA_UNG
 62
     7
100
AcDbVertex
100
AcDb2dVertex
 10
182.9936021194268
 20
2.911107605477627
 30
0.0
  0
SEQEND
  5
680
330
67D
100
AcDbEntity
  8
BEMA_UNG
  0
POLYLINE
  5
681
330
1F
100
AcDbEntity
  8
BEMA_UNG
 62
     7
100
AcDb2dPolyline
 66
     1
 10
0.0
 20
0.0
 30
0.0
  0
VERTEX
  5
682
330
681
100
AcDbEntity
  8
BEMA_UNG
 62
     7
100
AcDbVertex
100
AcDb2dVertex
 10
183.0215074112663
 20
3.861782331787155
 30
0.0
  0
VERTEX
  5
683
330
681
100
AcDbEntity
  8
BEMA_UNG
 62
     7
100
AcDbVertex
100
AcDb2dVertex
 10
183.0215074112663
 20
2.699061838475085
 30
0.0
  0
SEQEND
  5
684
330
681
100
AcDbEntity
  8
BEMA_UNG
  0
POLYLINE
  5
685
330
1F
100
AcDbEntity
  8
BEMA_UNG
 62
     7
100
AcDb2dPolyline
 66
     1
 10
0.0
 20
0.0
 30
0.0
  0
VERTEX
  5
686
330
685
100
AcDbEntity
  8
BEMA_UNG
 62
     7
100
AcDbVertex
100
AcDb2dVertex
 10
183.0497572128816
 20
3.861782331787155
 30
0.0
  0
VERTEX
  5
687
330
685
100
AcDbEntity
  8
BEMA_UNG
 62
     7
100
AcDbVertex
100
AcDb2dVertex
 10
183.0497572128816
 20
2.487016071472543
 30
0.0
  0
SEQEND
  5
688
330
685
100
AcDbEntity
  8
BEMA_UNG
  0
POLYLINE
  5
689
330
1F
100
AcDbEntity
  8
BEMA_UNG
 62
     7
100
AcDb2dPolyline
 66
     1
 10
0.0
 20
0.0
 30
0.0
  0
VERTEX
  5
68A
330
689
100
AcDbEntity
  8
BEMA_UNG
 62
     7
100
AcDbVertex
100
AcDb2dVertex
 10
183.0497572128816
 20
32.73704144503095
 30
0.0
  0
VERTEX
  5
68B
330
689
100
AcDbEntity
  8
BEMA_UNG
 62
     7
100
AcDbVertex
100
AcDb2dVertex
 10
182.8685450708128
 20
31.36193067494054
 30
0.0
  0
VERTEX
  5
68C
330
689
100
AcDbEntity
  8
BEMA_UNG
 62
     7
100
AcDbVertex
100
AcDb2dVertex
 10
183.2302803353988
 20
31.36193067494054
 30
0.0
  0
VERTEX
  5
68D
330
689
100
AcDbEntity
  8
BEMA_UNG
 62
     7
100
AcDbVertex
100
AcDb2dVertex
 10
183.0497572128816
 20
32.73704144503095
 30
0.0
  0
SEQEND
  5
68E
330
689
100
AcDbEntity
  8
BEMA_UNG
  0
POLYLINE
  5
68F
330
1F
100
AcDbEntity
  8
BEMA_UNG
 62
     7
100
AcDb2dPolyline
 66
     1
 10
0.0
 20
0.0
 30
0.0
  0
VERTEX
  5
690
330
68F
100
AcDbEntity
  8
BEMA_UNG
 62
     7
100
AcDbVertex
100
AcDb2dVertex
 10
182.8816364422931
 20
31.36193067494054
 30
0.0
  0
VERTEX
  5
691
330
68F
100
AcDbEntity
  8
BEMA_UNG
 62
     7
100
AcDbVertex
100
AcDb2dVertex
 10
182.8816364422931
 20
31.4635610588004
 30
0.0
  0
SEQEND
  5
692
330
68F
100
AcDbEntity
  8
BEMA_UNG
  0
POLYLINE
  5
693
330
1F
100
AcDbEntity
  8
BEMA_UNG
 62
     7
100
AcDb2dPolyline
 66
     1
 10
0.0
 20
0.0
 30
0.0
  0
VERTEX
  5
694
330
693
100
AcDbEntity
  8
BEMA_UNG
 62
     7
100
AcDbVertex
100
AcDb2dVertex
 10
182.8816364422931
 20
31.36193067494054
 30
0.0
  0
VERTEX
  5
695
330
693
100
AcDbEntity
  8
BEMA_UNG
 62
     7
100
AcDbVertex
100
AcDb2dVertex
 10
182.8816364422931
 20
31.4635610588004
 30
0.0
  0
SEQEND
  5
696
330
693
100
AcDbEntity
  8
BEMA_UNG
  0
POLYLINE
  5
697
330
1F
100
AcDbEntity
  8
BEMA_UNG
 62
     7
100
AcDb2dPolyline
 66
     1
 10
0.0
 20
0.0
 30
0.0
  0
VERTEX
  5
698
330
697
100
AcDbEntity
  8
BEMA_UNG
 62
     7
100
AcDbVertex
100
AcDb2dVertex
 10
182.9098862439083
 20
31.36193067494054
 30
0.0
  0
VERTEX
  5
699
330
697
100
AcDbEntity
  8
BEMA_UNG
 62
     7
100
AcDbVertex
100
AcDb2dVertex
 10
182.9098862439083
 20
31.67560682580295
 30
0.0
  0
SEQEND
  5
69A
330
697
100
AcDbEntity
  8
BEMA_UNG
  0
POLYLINE
  5
69B
330
1F
100
AcDbEntity
  8
BEMA_UNG
 62
     7
100
AcDb2dPolyline
 66
     1
 10
0.0
 20
0.0
 30
0.0
  0
VERTEX
  5
69C
330
69B
100
AcDbEntity
  8
BEMA_UNG
 62
     7
100
AcDbVertex
100
AcDb2dVertex
 10
182.937447025972
 20
31.36193067494054
 30
0.0
  0
VERTEX
  5
69D
330
69B
100
AcDbEntity
  8
BEMA_UNG
 62
     7
100
AcDbVertex
100
AcDb2dVertex
 10
182.937447025972
 20
31.88816935746918
 30
0.0
  0
SEQEND
  5
69E
330
69B
100
AcDbEntity
  8
BEMA_UNG
  0
POLYLINE
  5
69F
330
1F
100
AcDbEntity
  8
BEMA_UNG
 62
     7
100
AcDb2dPolyline
 66
     1
 10
0.0
 20
0.0
 30
0.0
  0
VERTEX
  5
6A0
330
69F
100
AcDbEntity
  8
BEMA_UNG
 62
     7
100
AcDbVertex
100
AcDb2dVertex
 10
182.9656968275873
 20
31.36193067494054
 30
0.0
  0
VERTEX
  5
6A1
330
69F
100
AcDbEntity
  8
BEMA_UNG
 62
     7
100
AcDbVertex
100
AcDb2dVertex
 10
182.9656968275873
 20
32.10021512447172
 30
0.0
  0
SEQEND
  5
6A2
330
69F
100
AcDbEntity
  8
BEMA_UNG
  0
POLYLINE
  5
6A3
330
1F
100
AcDbEntity
  8
BEMA_UNG
 62
     7
100
AcDb2dPolyline
 66
     1
 10
0.0
 20
0.0
 30
0.0
  0
VERTEX
  5
6A4
330
6A3
100
AcDbEntity
  8
BEMA_UNG
 62
     7
100
AcDbVertex
100
AcDb2dVertex
 10
182.9936021194268
 20
31.36193067494054
 30
0.0
  0
VERTEX
  5
6A5
330
6A3
100
AcDbEntity
  8
BEMA_UNG
 62
     7
100
AcDbVertex
100
AcDb2dVertex
 10
182.9936021194268
 20
32.31243314636217
 30
0.0
  0
SEQEND
  5
6A6
330
6A3
100
AcDbEntity
  8
BEMA_UNG
  0
POLYLINE
  5
6A7
330
1F
100
AcDbEntity
  8
BEMA_UNG
 62
     7
100
AcDb2dPolyline
 66
     1
 10
0.0
 20
0.0
 30
0.0
  0
VERTEX
  5
6A8
330
6A7
100
AcDbEntity
  8
BEMA_UNG
 62
     7
100
AcDbVertex
100
AcDb2dVertex
 10
183.0215074112663
 20
31.36193067494054
 30
0.0
  0
VERTEX
  5
6A9
330
6A7
100
AcDbEntity
  8
BEMA_UNG
 62
     7
100
AcDbVertex
100
AcDb2dVertex
 10
183.0215074112663
 20
32.52447891336471
 30
0.0
  0
SEQEND
  5
6AA
330
6A7
100
AcDbEntity
  8
BEMA_UNG
  0
POLYLINE
  5
6AB
330
1F
100
AcDbEntity
  8
BEMA_UNG
 62
     7
100
AcDb2dPolyline
 66
     1
 10
0.0
 20
0.0
 30
0.0
  0
VERTEX
  5
6AC
330
6AB
100
AcDbEntity
  8
BEMA_UNG
 62
     7
100
AcDbVertex
100
AcDb2dVertex
 10
183.0497572128816
 20
31.36193067494054
 30
0.0
  0
VERTEX
  5
6AD
330
6AB
100
AcDbEntity
  8
BEMA_UNG
 62
     7
100
AcDbVertex
100
AcDb2dVertex
 10
183.0497572128816
 20
32.73704144503095
 30
0.0
  0
SEQEND
  5
6AE
330
6AB
100
AcDbEntity
  8
BEMA_UNG
  0
POLYLINE
  5
6AF
330
1F
100
AcDbEntity
  8
BEMA_UNG
 62
     7
100
AcDb2dPolyline
 66
     1
 10
0.0
 20
0.0
 30
0.0
  0
VERTEX
  5
6B0
330
6AF
100
AcDbEntity
  8
BEMA_UNG
 62
     7
100
AcDbVertex
100
AcDb2dVertex
 10
183.2171889639185
 20
31.36193067494054
 30
0.0
  0
VERTEX
  5
6B1
330
6AF
100
AcDbEntity
  8
BEMA_UNG
 62
     7
100
AcDbVertex
100
AcDb2dVertex
 10
183.2171889639185
 20
31.4635610588004
 30
0.0
  0
SEQEND
  5
6B2
330
6AF
100
AcDbEntity
  8
BEMA_UNG
  0
POLYLINE
  5
6B3
330
1F
100
AcDbEntity
  8
BEMA_UNG
 62
     7
100
AcDb2dPolyline
 66
     1
 10
0.0
 20
0.0
 30
0.0
  0
VERTEX
  5
6B4
330
6B3
100
AcDbEntity
  8
BEMA_UNG
 62
     7
100
AcDbVertex
100
AcDb2dVertex
 10
183.2171889639185
 20
31.36193067494054
 30
0.0
  0
VERTEX
  5
6B5
330
6B3
100
AcDbEntity
  8
BEMA_UNG
 62
     7
100
AcDbVertex
100
AcDb2dVertex
 10
183.2171889639185
 20
31.4635610588004
 30
0.0
  0
SEQEND
  5
6B6
330
6B3
100
AcDbEntity
  8
BEMA_UNG
  0
POLYLINE
  5
6B7
330
1F
100
AcDbEntity
  8
BEMA_UNG
 62
     7
100
AcDb2dPolyline
 66
     1
 10
0.0
 20
0.0
 30
0.0
  0
VERTEX
  5
6B8
330
6B7
100
AcDbEntity
  8
BEMA_UNG
 62
     7
100
AcDbVertex
100
AcDb2dVertex
 10
183.189283672079
 20
31.36193067494054
 30
0.0
  0
VERTEX
  5
6B9
330
6B7
100
AcDbEntity
  8
BEMA_UNG
 62
     7
100
AcDbVertex
100
AcDb2dVertex
 10
183.189283672079
 20
31.67560682580295
 30
0.0
  0
SEQEND
  5
6BA
330
6B7
100
AcDbEntity
  8
BEMA_UNG
  0
POLYLINE
  5
6BB
330
1F
100
AcDbEntity
  8
BEMA_UNG
 62
     7
100
AcDb2dPolyline
 66
     1
 10
0.0
 20
0.0
 30
0.0
  0
VERTEX
  5
6BC
330
6BB
100
AcDbEntity
  8
BEMA_UNG
 62
     7
100
AcDbVertex
100
AcDb2dVertex
 10
183.1613783802395
 20
31.36193067494054
 30
0.0
  0
VERTEX
  5
6BD
330
6BB
100
AcDbEntity
  8
BEMA_UNG
 62
     7
100
AcDbVertex
100
AcDb2dVertex
 10
183.1613783802395
 20
31.88816935746918
 30
0.0
  0
SEQEND
  5
6BE
330
6BB
100
AcDbEntity
  8
BEMA_UNG
  0
POLYLINE
  5
6BF
330
1F
100
AcDbEntity
  8
BEMA_UNG
 62
     7
100
AcDb2dPolyline
 66
     1
 10
0.0
 20
0.0
 30
0.0
  0
VERTEX
  5
6C0
330
6BF
100
AcDbEntity
  8
BEMA_UNG
 62
     7
100
AcDbVertex
100
AcDb2dVertex
 10
183.1334730884001
 20
31.36193067494054
 30
0.0
  0
VERTEX
  5
6C1
330
6BF
100
AcDbEntity
  8
BEMA_UNG
 62
     7
100
AcDbVertex
100
AcDb2dVertex
 10
183.1334730884001
 20
32.10021512447172
 30
0.0
  0
SEQEND
  5
6C2
330
6BF
100
AcDbEntity
  8
BEMA_UNG
  0
POLYLINE
  5
6C3
330
1F
100
AcDbEntity
  8
BEMA_UNG
 62
     7
100
AcDb2dPolyline
 66
     1
 10
0.0
 20
0.0
 30
0.0
  0
VERTEX
  5
6C4
330
6C3
100
AcDbEntity
  8
BEMA_UNG
 62
     7
100
AcDbVertex
100
AcDb2dVertex
 10
183.1055677965606
 20
31.36193067494054
 30
0.0
  0
VERTEX
  5
6C5
330
6C3
100
AcDbEntity
  8
BEMA_UNG
 62
     7
100
AcDbVertex
100
AcDb2dVertex
 10
183.1055677965606
 20
32.31243314636217
 30
0.0
  0
SEQEND
  5
6C6
330
6C3
100
AcDbEntity
  8
BEMA_UNG
  0
POLYLINE
  5
6C7
330
1F
100
AcDbEntity
  8
BEMA_UNG
 62
     7
100
AcDb2dPolyline
 66
     1
 10
0.0
 20
0.0
 30
0.0
  0
VERTEX
  5
6C8
330
6C7
100
AcDbEntity
  8
BEMA_UNG
 62
     7
100
AcDbVertex
100
AcDb2dVertex
 10
183.0776625047211
 20
31.36193067494054
 30
0.0
  0
VERTEX
  5
6C9
330
6C7
100
AcDbEntity
  8
BEMA_UNG
 62
     7
100
AcDbVertex
100
AcDb2dVertex
 10
183.0776625047211
 20
32.52447891336471
 30
0.0
  0
SEQEND
  5
6CA
330
6C7
100
AcDbEntity
  8
BEMA_UNG
  0
POLYLINE
  5
6CB
330
1F
100
AcDbEntity
  8
BEMA_UNG
 62
     7
100
AcDb2dPolyline
 66
     1
 10
0.0
 20
0.0
 30
0.0
  0
VERTEX
  5
6CC
330
6CB
100
AcDbEntity
  8
BEMA_UNG
 62
     7
100
AcDbVertex
100
AcDb2dVertex
 10
183.0497572128816
 20
31.36193067494054
 30
0.0
  0
VERTEX
  5
6CD
330
6CB
100
AcDbEntity
  8
BEMA_UNG
 62
     7
100
AcDbVertex
100
AcDb2dVertex
 10
183.0497572128816
 20
32.73704144503095
 30
0.0
  0
SEQEND
  5
6CE
330
6CB
100
AcDbEntity
  8
BEMA_UNG
  0
POLYLINE
  5
6CF
330
1F
100
AcDbEntity
  8
BEMA_UNG
 62
     7
100
AcDb2dPolyline
 66
     1
 10
0.0
 20
0.0
 30
0.0
  0
VERTEX
  5
6D0
330
6CF
100
AcDbEntity
  8
BEMA_UNG
 62
     7
100
AcDbVertex
100
AcDb2dVertex
 10
168.8728354290934
 20
9.636799703458333
 30
0.0
  0
VERTEX
  5
6D1
330
6CF
100
AcDbEntity
  8
BEMA_UNG
 62
     7
100
AcDbVertex
100
AcDb2dVertex
 10
178.2910436798091
 20
9.636799703458333
 30
0.0
  0
SEQEND
  5
6D2
330
6CF
100
AcDbEntity
  8
BEMA_UNG
  0
POLYLINE
  5
6D3
330
1F
100
AcDbEntity
  8
BEMA_UNG
 62
     7
100
AcDb2dPolyline
 66
     1
 10
0.0
 20
0.0
 30
0.0
  0
VERTEX
  5
6D4
330
6D3
100
AcDbEntity
  8
BEMA_UNG
 62
     7
100
AcDbVertex
100
AcDb2dVertex
 10
177.1910239656919
 20
9.636799703458333
 30
0.0
  0
VERTEX
  5
6D5
330
6D3
100
AcDbEntity
  8
BEMA_UNG
 62
     7
100
AcDbVertex
100
AcDb2dVertex
 10
177.1910239656919
 20
32.73704144503095
 30
0.0
  0
SEQEND
  5
6D6
330
6D3
100
AcDbEntity
  8
BEMA_UNG
  0
POLYLINE
  5
6D7
330
1F
100
AcDbEntity
  8
BEMA_UNG
 62
     7
100
AcDb2dPolyline
 66
     1
 10
0.0
 20
0.0
 30
0.0
  0
VERTEX
  5
6D8
330
6D7
100
AcDbEntity
  8
BEMA_UNG
 62
     7
100
AcDbVertex
100
AcDb2dVertex
 10
177.1910239656919
 20
9.636799703458333
 30
0.0
  0
VERTEX
  5
6D9
330
6D7
100
AcDbEntity
  8
BEMA_UNG
 62
     7
100
AcDbVertex
100
AcDb2dVertex
 10
177.3722361077607
 20
11.01173821866084
 30
0.0
  0
VERTEX
  5
6DA
330
6D7
100
AcDbEntity
  8
BEMA_UNG
 62
     7
100
AcDbVertex
100
AcDb2dVertex
 10
177.010156333399
 20
11.01173821866084
 30
0.0
  0
VERTEX
  5
6DB
330
6D7
100
AcDbEntity
  8
BEMA_UNG
 62
     7
100
AcDbVertex
100
AcDb2dVertex
 10
177.1910239656919
 20
9.636799703458333
 30
0.0
  0
SEQEND
  5
6DC
330
6D7
100
AcDbEntity
  8
BEMA_UNG
  0
POLYLINE
  5
6DD
330
1F
100
AcDbEntity
  8
BEMA_UNG
 62
     7
100
AcDb2dPolyline
 66
     1
 10
0.0
 20
0.0
 30
0.0
  0
VERTEX
  5
6DE
330
6DD
100
AcDbEntity
  8
BEMA_UNG
 62
     7
100
AcDbVertex
100
AcDb2dVertex
 10
177.3584557167289
 20
11.01173821866084
 30
0.0
  0
VERTEX
  5
6DF
330
6DD
100
AcDbEntity
  8
BEMA_UNG
 62
     7
100
AcDbVertex
100
AcDb2dVertex
 10
177.3584557167289
 20
10.91028008968887
 30
0.0
  0
SEQEND
  5
6E0
330
6DD
100
AcDbEntity
  8
BEMA_UNG
  0
POLYLINE
  5
6E1
330
1F
100
AcDbEntity
  8
BEMA_UNG
 62
     7
100
AcDb2dPolyline
 66
     1
 10
0.0
 20
0.0
 30
0.0
  0
VERTEX
  5
6E2
330
6E1
100
AcDbEntity
  8
BEMA_UNG
 62
     7
100
AcDbVertex
100
AcDb2dVertex
 10
177.3584557167289
 20
11.01173821866084
 30
0.0
  0
VERTEX
  5
6E3
330
6E1
100
AcDbEntity
  8
BEMA_UNG
 62
     7
100
AcDbVertex
100
AcDb2dVertex
 10
177.3584557167289
 20
10.91028008968887
 30
0.0
  0
SEQEND
  5
6E4
330
6E1
100
AcDbEntity
  8
BEMA_UNG
  0
POLYLINE
  5
6E5
330
1F
100
AcDbEntity
  8
BEMA_UNG
 62
     7
100
AcDb2dPolyline
 66
     1
 10
0.0
 20
0.0
 30
0.0
  0
VERTEX
  5
6E6
330
6E5
100
AcDbEntity
  8
BEMA_UNG
 62
     7
100
AcDbVertex
100
AcDb2dVertex
 10
177.3305504248894
 20
11.01173821866084
 30
0.0
  0
VERTEX
  5
6E7
330
6E5
100
AcDbEntity
  8
BEMA_UNG
 62
     7
100
AcDbVertex
100
AcDb2dVertex
 10
177.3305504248894
 20
10.69823432268633
 30
0.0
  0
SEQEND
  5
6E8
330
6E5
100
AcDbEntity
  8
BEMA_UNG
  0
POLYLINE
  5
6E9
330
1F
100
AcDbEntity
  8
BEMA_UNG
 62
     7
100
AcDb2dPolyline
 66
     1
 10
0.0
 20
0.0
 30
0.0
  0
VERTEX
  5
6EA
330
6E9
100
AcDbEntity
  8
BEMA_UNG
 62
     7
100
AcDbVertex
100
AcDb2dVertex
 10
177.3026451330499
 20
11.01173821866084
 30
0.0
  0
VERTEX
  5
6EB
330
6E9
100
AcDbEntity
  8
BEMA_UNG
 62
     7
100
AcDbVertex
100
AcDb2dVertex
 10
177.3026451330499
 20
10.48567179102009
 30
0.0
  0
SEQEND
  5
6EC
330
6E9
100
AcDbEntity
  8
BEMA_UNG
  0
POLYLINE
  5
6ED
330
1F
100
AcDbEntity
  8
BEMA_UNG
 62
     7
100
AcDb2dPolyline
 66
     1
 10
0.0
 20
0.0
 30
0.0
  0
VERTEX
  5
6EE
330
6ED
100
AcDbEntity
  8
BEMA_UNG
 62
     7
100
AcDbVertex
100
AcDb2dVertex
 10
177.2750843509862
 20
11.01173821866084
 30
0.0
  0
VERTEX
  5
6EF
330
6ED
100
AcDbEntity
  8
BEMA_UNG
 62
     7
100
AcDbVertex
100
AcDb2dVertex
 10
177.2750843509862
 20
10.27362602401755
 30
0.0
  0
SEQEND
  5
6F0
330
6ED
100
AcDbEntity
  8
BEMA_UNG
  0
POLYLINE
  5
6F1
330
1F
100
AcDbEntity
  8
BEMA_UNG
 62
     7
100
AcDb2dPolyline
 66
     1
 10
0.0
 20
0.0
 30
0.0
  0
VERTEX
  5
6F2
330
6F1
100
AcDbEntity
  8
BEMA_UNG
 62
     7
100
AcDbVertex
100
AcDb2dVertex
 10
177.2471790591467
 20
11.01173821866084
 30
0.0
  0
VERTEX
  5
6F3
330
6F1
100
AcDbEntity
  8
BEMA_UNG
 62
     7
100
AcDbVertex
100
AcDb2dVertex
 10
177.2471790591467
 20
10.06123574723921
 30
0.0
  0
SEQEND
  5
6F4
330
6F1
100
AcDbEntity
  8
BEMA_UNG
  0
POLYLINE
  5
6F5
330
1F
100
AcDbEntity
  8
BEMA_UNG
 62
     7
100
AcDb2dPolyline
 66
     1
 10
0.0
 20
0.0
 30
0.0
  0
VERTEX
  5
6F6
330
6F5
100
AcDbEntity
  8
BEMA_UNG
 62
     7
100
AcDbVertex
100
AcDb2dVertex
 10
177.2189292575314
 20
11.01173821866084
 30
0.0
  0
VERTEX
  5
6F7
330
6F5
100
AcDbEntity
  8
BEMA_UNG
 62
     7
100
AcDbVertex
100
AcDb2dVertex
 10
177.2189292575314
 20
9.84936223512457
 30
0.0
  0
SEQEND
  5
6F8
330
6F5
100
AcDbEntity
  8
BEMA_UNG
  0
POLYLINE
  5
6F9
330
1F
100
AcDbEntity
  8
BEMA_UNG
 62
     7
100
AcDb2dPolyline
 66
     1
 10
0.0
 20
0.0
 30
0.0
  0
VERTEX
  5
6FA
330
6F9
100
AcDbEntity
  8
BEMA_UNG
 62
     7
100
AcDbVertex
100
AcDb2dVertex
 10
177.1910239656919
 20
11.01173821866084
 30
0.0
  0
VERTEX
  5
6FB
330
6F9
100
AcDbEntity
  8
BEMA_UNG
 62
     7
100
AcDbVertex
100
AcDb2dVertex
 10
177.1910239656919
 20
9.636799703458333
 30
0.0
  0
SEQEND
  5
6FC
330
6F9
100
AcDbEntity
  8
BEMA_UNG
  0
POLYLINE
  5
6FD
330
1F
100
AcDbEntity
  8
BEMA_UNG
 62
     7
100
AcDb2dPolyline
 66
     1
 10
0.0
 20
0.0
 30
0.0
  0
VERTEX
  5
6FE
330
6FD
100
AcDbEntity
  8
BEMA_UNG
 62
     7
100
AcDbVertex
100
AcDb2dVertex
 10
177.023592214655
 20
11.01173821866084
 30
0.0
  0
VERTEX
  5
6FF
330
6FD
100
AcDbEntity
  8
BEMA_UNG
 62
     7
100
AcDbVertex
100
AcDb2dVertex
 10
177.023592214655
 20
10.91028008968887
 30
0.0
  0
SEQEND
  5
700
330
6FD
100
AcDbEntity
  8
BEMA_UNG
  0
POLYLINE
  5
701
330
1F
100
AcDbEntity
  8
BEMA_UNG
 62
     7
100
AcDb2dPolyline
 66
     1
 10
0.0
 20
0.0
 30
0.0
  0
VERTEX
  5
702
330
701
100
AcDbEntity
  8
BEMA_UNG
 62
     7
100
AcDbVertex
100
AcDb2dVertex
 10
177.023592214655
 20
11.01173821866084
 30
0.0
  0
VERTEX
  5
703
330
701
100
AcDbEntity
  8
BEMA_UNG
 62
     7
100
AcDbVertex
100
AcDb2dVertex
 10
177.023592214655
 20
10.91028008968887
 30
0.0
  0
SEQEND
  5
704
330
701
100
AcDbEntity
  8
BEMA_UNG
  0
POLYLINE
  5
705
330
1F
100
AcDbEntity
  8
BEMA_UNG
 62
     7
100
AcDb2dPolyline
 66
     1
 10
0.0
 20
0.0
 30
0.0
  0
VERTEX
  5
706
330
705
100
AcDbEntity
  8
BEMA_UNG
 62
     7
100
AcDbVertex
100
AcDb2dVertex
 10
177.0514975064945
 20
11.01173821866084
 30
0.0
  0
VERTEX
  5
707
330
705
100
AcDbEntity
  8
BEMA_UNG
 62
     7
100
AcDbVertex
100
AcDb2dVertex
 10
177.0514975064945
 20
10.69823432268633
 30
0.0
  0
SEQEND
  5
708
330
705
100
AcDbEntity
  8
BEMA_UNG
  0
POLYLINE
  5
709
330
1F
100
AcDbEntity
  8
BEMA_UNG
 62
     7
100
AcDb2dPolyline
 66
     1
 10
0.0
 20
0.0
 30
0.0
  0
VERTEX
  5
70A
330
709
100
AcDbEntity
  8
BEMA_UNG
 62
     7
100
AcDbVertex
100
AcDb2dVertex
 10
177.079402798334
 20
11.01173821866084
 30
0.0
  0
VERTEX
  5
70B
330
709
100
AcDbEntity
  8
BEMA_UNG
 62
     7
100
AcDbVertex
100
AcDb2dVertex
 10
177.079402798334
 20
10.48567179102009
 30
0.0
  0
SEQEND
  5
70C
330
709
100
AcDbEntity
  8
BEMA_UNG
  0
POLYLINE
  5
70D
330
1F
100
AcDbEntity
  8
BEMA_UNG
 62
     7
100
AcDb2dPolyline
 66
     1
 10
0.0
 20
0.0
 30
0.0
  0
VERTEX
  5
70E
330
70D
100
AcDbEntity
  8
BEMA_UNG
 62
     7
100
AcDbVertex
100
AcDb2dVertex
 10
177.1073080901735
 20
11.01173821866084
 30
0.0
  0
VERTEX
  5
70F
330
70D
100
AcDbEntity
  8
BEMA_UNG
 62
     7
100
AcDbVertex
100
AcDb2dVertex
 10
177.1073080901735
 20
10.27362602401755
 30
0.0
  0
SEQEND
  5
710
330
70D
100
AcDbEntity
  8
BEMA_UNG
  0
POLYLINE
  5
711
330
1F
100
AcDbEntity
  8
BEMA_UNG
 62
     7
100
AcDb2dPolyline
 66
     1
 10
0.0
 20
0.0
 30
0.0
  0
VERTEX
  5
712
330
711
100
AcDbEntity
  8
BEMA_UNG
 62
     7
100
AcDbVertex
100
AcDb2dVertex
 10
177.1352133820129
 20
11.01173821866084
 30
0.0
  0
VERTEX
  5
713
330
711
100
AcDbEntity
  8
BEMA_UNG
 62
     7
100
AcDbVertex
100
AcDb2dVertex
 10
177.1352133820129
 20
10.06123574723921
 30
0.0
  0
SEQEND
  5
714
330
711
100
AcDbEntity
  8
BEMA_UNG
  0
POLYLINE
  5
715
330
1F
100
AcDbEntity
  8
BEMA_UNG
 62
     7
100
AcDb2dPolyline
 66
     1
 10
0.0
 20
0.0
 30
0.0
  0
VERTEX
  5
716
330
715
100
AcDbEntity
  8
BEMA_UNG
 62
     7
100
AcDbVertex
100
AcDb2dVertex
 10
177.1631186738524
 20
11.01173821866084
 30
0.0
  0
VERTEX
  5
717
330
715
100
AcDbEntity
  8
BEMA_UNG
 62
     7
100
AcDbVertex
100
AcDb2dVertex
 10
177.1631186738524
 20
9.84936223512457
 30
0.0
  0
SEQEND
  5
718
330
715
100
AcDbEntity
  8
BEMA_UNG
  0
POLYLINE
  5
719
330
1F
100
AcDbEntity
  8
BEMA_UNG
 62
     7
100
AcDb2dPolyline
 66
     1
 10
0.0
 20
0.0
 30
0.0
  0
VERTEX
  5
71A
330
719
100
AcDbEntity
  8
BEMA_UNG
 62
     7
100
AcDbVertex
100
AcDb2dVertex
 10
177.1910239656919
 20
11.01173821866084
 30
0.0
  0
VERTEX
  5
71B
330
719
100
AcDbEntity
  8
BEMA_UNG
 62
     7
100
AcDbVertex
100
AcDb2dVertex
 10
177.1910239656919
 20
9.636799703458333
 30
0.0
  0
SEQEND
  5
71C
330
719
100
AcDbEntity
  8
BEMA_UNG
  0
POLYLINE
  5
71D
330
1F
100
AcDbEntity
  8
BEMA_UNG
 62
     7
100
AcDb2dPolyline
 66
     1
 10
0.0
 20
0.0
 30
0.0
  0
VERTEX
  5
71E
330
71D
100
AcDbEntity
  8
BEMA_UNG
 62
     7
100
AcDbVertex
100
AcDb2dVertex
 10
177.1910239656919
 20
32.73704144503095
 30
0.0
  0
VERTEX
  5
71F
330
71D
100
AcDbEntity
  8
BEMA_UNG
 62
     7
100
AcDbVertex
100
AcDb2dVertex
 10
177.010156333399
 20
31.36193067494054
 30
0.0
  0
VERTEX
  5
720
330
71D
100
AcDbEntity
  8
BEMA_UNG
 62
     7
100
AcDbVertex
100
AcDb2dVertex
 10
177.3722361077607
 20
31.36193067494054
 30
0.0
  0
VERTEX
  5
721
330
71D
100
AcDbEntity
  8
BEMA_UNG
 62
     7
100
AcDbVertex
100
AcDb2dVertex
 10
177.1910239656919
 20
32.73704144503095
 30
0.0
  0
SEQEND
  5
722
330
71D
100
AcDbEntity
  8
BEMA_UNG
  0
POLYLINE
  5
723
330
1F
100
AcDbEntity
  8
BEMA_UNG
 62
     7
100
AcDb2dPolyline
 66
     1
 10
0.0
 20
0.0
 30
0.0
  0
VERTEX
  5
724
330
723
100
AcDbEntity
  8
BEMA_UNG
 62
     7
100
AcDbVertex
100
AcDb2dVertex
 10
177.023592214655
 20
31.36193067494054
 30
0.0
  0
VERTEX
  5
725
330
723
100
AcDbEntity
  8
BEMA_UNG
 62
     7
100
AcDbVertex
100
AcDb2dVertex
 10
177.023592214655
 20
31.4635610588004
 30
0.0
  0
SEQEND
  5
726
330
723
100
AcDbEntity
  8
BEMA_UNG
  0
POLYLINE
  5
727
330
1F
100
AcDbEntity
  8
BEMA_UNG
 62
     7
100
AcDb2dPolyline
 66
     1
 10
0.0
 20
0.0
 30
0.0
  0
VERTEX
  5
728
330
727
100
AcDbEntity
  8
BEMA_UNG
 62
     7
100
AcDbVertex
100
AcDb2dVertex
 10
177.023592214655
 20
31.36193067494054
 30
0.0
  0
VERTEX
  5
729
330
727
100
AcDbEntity
  8
BEMA_UNG
 62
     7
100
AcDbVertex
100
AcDb2dVertex
 10
177.023592214655
 20
31.4635610588004
 30
0.0
  0
SEQEND
  5
72A
330
727
100
AcDbEntity
  8
BEMA_UNG
  0
POLYLINE
  5
72B
330
1F
100
AcDbEntity
  8
BEMA_UNG
 62
     7
100
AcDb2dPolyline
 66
     1
 10
0.0
 20
0.0
 30
0.0
  0
VERTEX
  5
72C
330
72B
100
AcDbEntity
  8
BEMA_UNG
 62
     7
100
AcDbVertex
100
AcDb2dVertex
 10
177.0514975064945
 20
31.36193067494054
 30
0.0
  0
VERTEX
  5
72D
330
72B
100
AcDbEntity
  8
BEMA_UNG
 62
     7
100
AcDbVertex
100
AcDb2dVertex
 10
177.0514975064945
 20
31.67560682580295
 30
0.0
  0
SEQEND
  5
72E
330
72B
100
AcDbEntity
  8
BEMA_UNG
  0
POLYLINE
  5
72F
330
1F
100
AcDbEntity
  8
BEMA_UNG
 62
     7
100
AcDb2dPolyline
 66
     1
 10
0.0
 20
0.0
 30
0.0
  0
VERTEX
  5
730
330
72F
100
AcDbEntity
  8
BEMA_UNG
 62
     7
100
AcDbVertex
100
AcDb2dVertex
 10
177.079402798334
 20
31.36193067494054
 30
0.0
  0
VERTEX
  5
731
330
72F
100
AcDbEntity
  8
BEMA_UNG
 62
     7
100
AcDbVertex
100
AcDb2dVertex
 10
177.079402798334
 20
31.88816935746918
 30
0.0
  0
SEQEND
  5
732
330
72F
100
AcDbEntity
  8
BEMA_UNG
  0
POLYLINE
  5
733
330
1F
100
AcDbEntity
  8
BEMA_UNG
 62
     7
100
AcDb2dPolyline
 66
     1
 10
0.0
 20
0.0
 30
0.0
  0
VERTEX
  5
734
330
733
100
AcDbEntity
  8
BEMA_UNG
 62
     7
100
AcDbVertex
100
AcDb2dVertex
 10
177.1073080901735
 20
31.36193067494054
 30
0.0
  0
VERTEX
  5
735
330
733
100
AcDbEntity
  8
BEMA_UNG
 62
     7
100
AcDbVertex
100
AcDb2dVertex
 10
177.1073080901735
 20
32.10021512447172
 30
0.0
  0
SEQEND
  5
736
330
733
100
AcDbEntity
  8
BEMA_UNG
  0
POLYLINE
  5
737
330
1F
100
AcDbEntity
  8
BEMA_UNG
 62
     7
100
AcDb2dPolyline
 66
     1
 10
0.0
 20
0.0
 30
0.0
  0
VERTEX
  5
738
330
737
100
AcDbEntity
  8
BEMA_UNG
 62
     7
100
AcDbVertex
100
AcDb2dVertex
 10
177.1352133820129
 20
31.36193067494054
 30
0.0
  0
VERTEX
  5
739
330
737
100
AcDbEntity
  8
BEMA_UNG
 62
     7
100
AcDbVertex
100
AcDb2dVertex
 10
177.1352133820129
 20
32.31243314636217
 30
0.0
  0
SEQEND
  5
73A
330
737
100
AcDbEntity
  8
BEMA_UNG
  0
POLYLINE
  5
73B
330
1F
100
AcDbEntity
  8
BEMA_UNG
 62
     7
100
AcDb2dPolyline
 66
     1
 10
0.0
 20
0.0
 30
0.0
  0
VERTEX
  5
73C
330
73B
100
AcDbEntity
  8
BEMA_UNG
 62
     7
100
AcDbVertex
100
AcDb2dVertex
 10
177.1631186738524
 20
31.36193067494054
 30
0.0
  0
VERTEX
  5
73D
330
73B
100
AcDbEntity
  8
BEMA_UNG
 62
     7
100
AcDbVertex
100
AcDb2dVertex
 10
177.1631186738524
 20
32.52447891336471
 30
0.0
  0
SEQEND
  5
73E
330
73B
100
AcDbEntity
  8
BEMA_UNG
  0
POLYLINE
  5
73F
330
1F
100
AcDbEntity
  8
BEMA_UNG
 62
     7
100
AcDb2dPolyline
 66
     1
 10
0.0
 20
0.0
 30
0.0
  0
VERTEX
  5
740
330
73F
100
AcDbEntity
  8
BEMA_UNG
 62
     7
100
AcDbVertex
100
AcDb2dVertex
 10
177.1910239656919
 20
31.36193067494054
 30
0.0
  0
VERTEX
  5
741
330
73F
100
AcDbEntity
  8
BEMA_UNG
 62
     7
100
AcDbVertex
100
AcDb2dVertex
 10
177.1910239656919
 20
32.73704144503095
 30
0.0
  0
SEQEND
  5
742
330
73F
100
AcDbEntity
  8
BEMA_UNG
  0
POLYLINE
  5
743
330
1F
100
AcDbEntity
  8
BEMA_UNG
 62
     7
100
AcDb2dPolyline
 66
     1
 10
0.0
 20
0.0
 30
0.0
  0
VERTEX
  5
744
330
743
100
AcDbEntity
  8
BEMA_UNG
 62
     7
100
AcDbVertex
100
AcDb2dVertex
 10
177.3584557167289
 20
31.36193067494054
 30
0.0
  0
VERTEX
  5
745
330
743
100
AcDbEntity
  8
BEMA_UNG
 62
     7
100
AcDbVertex
100
AcDb2dVertex
 10
177.3584557167289
 20
31.4635610588004
 30
0.0
  0
SEQEND
  5
746
330
743
100
AcDbEntity
  8
BEMA_UNG
  0
POLYLINE
  5
747
330
1F
100
AcDbEntity
  8
BEMA_UNG
 62
     7
100
AcDb2dPolyline
 66
     1
 10
0.0
 20
0.0
 30
0.0
  0
VERTEX
  5
748
330
747
100
AcDbEntity
  8
BEMA_UNG
 62
     7
100
AcDbVertex
100
AcDb2dVertex
 10
177.3584557167289
 20
31.36193067494054
 30
0.0
  0
VERTEX
  5
749
330
747
100
AcDbEntity
  8
BEMA_UNG
 62
     7
100
AcDbVertex
100
AcDb2dVertex
 10
177.3584557167289
 20
31.4635610588004
 30
0.0
  0
SEQEND
  5
74A
330
747
100
AcDbEntity
  8
BEMA_UNG
  0
POLYLINE
  5
74B
330
1F
100
AcDbEntity
  8
BEMA_UNG
 62
     7
100
AcDb2dPolyline
 66
     1
 10
0.0
 20
0.0
 30
0.0
  0
VERTEX
  5
74C
330
74B
100
AcDbEntity
  8
BEMA_UNG
 62
     7
100
AcDbVertex
100
AcDb2dVertex
 10
177.3305504248894
 20
31.36193067494054
 30
0.0
  0
VERTEX
  5
74D
330
74B
100
AcDbEntity
  8
BEMA_UNG
 62
     7
100
AcDbVertex
100
AcDb2dVertex
 10
177.3305504248894
 20
31.67560682580295
 30
0.0
  0
SEQEND
  5
74E
330
74B
100
AcDbEntity
  8
BEMA_UNG
  0
POLYLINE
  5
74F
330
1F
100
AcDbEntity
  8
BEMA_UNG
 62
     7
100
AcDb2dPolyline
 66
     1
 10
0.0
 20
0.0
 30
0.0
  0
VERTEX
  5
750
330
74F
100
AcDbEntity
  8
BEMA_UNG
 62
     7
100
AcDbVertex
100
AcDb2dVertex
 10
177.3026451330499
 20
31.36193067494054
 30
0.0
  0
VERTEX
  5
751
330
74F
100
AcDbEntity
  8
BEMA_UNG
 62
     7
100
AcDbVertex
100
AcDb2dVertex
 10
177.3026451330499
 20
31.88816935746918
 30
0.0
  0
SEQEND
  5
752
330
74F
100
AcDbEntity
  8
BEMA_UNG
  0
POLYLINE
  5
753
330
1F
100
AcDbEntity
  8
BEMA_UNG
 62
     7
100
AcDb2dPolyline
 66
     1
 10
0.0
 20
0.0
 30
0.0
  0
VERTEX
  5
754
330
753
100
AcDbEntity
  8
BEMA_UNG
 62
     7
100
AcDbVertex
100
AcDb2dVertex
 10
177.2750843509862
 20
31.36193067494054
 30
0.0
  0
VERTEX
  5
755
330
753
100
AcDbEntity
  8
BEMA_UNG
 62
     7
100
AcDbVertex
100
AcDb2dVertex
 10
177.2750843509862
 20
32.10021512447172
 30
0.0
  0
SEQEND
  5
756
330
753
100
AcDbEntity
  8
BEMA_UNG
  0
POLYLINE
  5
757
330
1F
100
AcDbEntity
  8
BEMA_UNG
 62
     7
100
AcDb2dPolyline
 66
     1
 10
0.0
 20
0.0
 30
0.0
  0
VERTEX
  5
758
330
757
100
AcDbEntity
  8
BEMA_UNG
 62
     7
100
AcDbVertex
100
AcDb2dVertex
 10
177.2471790591467
 20
31.36193067494054
 30
0.0
  0
VERTEX
  5
759
330
757
100
AcDbEntity
  8
BEMA_UNG
 62
     7
100
AcDbVertex
100
AcDb2dVertex
 10
177.2471790591467
 20
32.31243314636217
 30
0.0
  0
SEQEND
  5
75A
330
757
100
AcDbEntity
  8
BEMA_UNG
  0
POLYLINE
  5
75B
330
1F
100
AcDbEntity
  8
BEMA_UNG
 62
     7
100
AcDb2dPolyline
 66
     1
 10
0.0
 20
0.0
 30
0.0
  0
VERTEX
  5
75C
330
75B
100
AcDbEntity
  8
BEMA_UNG
 62
     7
100
AcDbVertex
100
AcDb2dVertex
 10
177.2189292575314
 20
31.36193067494054
 30
0.0
  0
VERTEX
  5
75D
330
75B
100
AcDbEntity
  8
BEMA_UNG
 62
     7
100
AcDbVertex
100
AcDb2dVertex
 10
177.2189292575314
 20
32.52447891336471
 30
0.0
  0
SEQEND
  5
75E
330
75B
100
AcDbEntity
  8
BEMA_UNG
  0
POLYLINE
  5
75F
330
1F
100
AcDbEntity
  8
BEMA_UNG
 62
     7
100
AcDb2dPolyline
 66
     1
 10
0.0
 20
0.0
 30
0.0
  0
VERTEX
  5
760
330
75F
100
AcDbEntity
  8
BEMA_UNG
 62
     7
100
AcDbVertex
100
AcDb2dVertex
 10
177.1910239656919
 20
31.36193067494054
 30
0.0
  0
VERTEX
  5
761
330
75F
100
AcDbEntity
  8
BEMA_UNG
 62
     7
100
AcDbVertex
100
AcDb2dVertex
 10
177.1910239656919
 20
32.73704144503095
 30
0.0
  0
SEQEND
  5
762
330
75F
100
AcDbEntity
  8
BEMA_UNG
  0
POLYLINE
  5
763
330
1F
100
AcDbEntity
  8
BEMA_UNG
 62
     7
100
AcDb2dPolyline
 66
     1
 10
0.0
 20
0.0
 30
0.0
  0
VERTEX
  5
764
330
763
100
AcDbEntity
  8
BEMA_UNG
 62
     7
100
AcDbVertex
100
AcDb2dVertex
 10
96.76401102186102
 20
-2.839449572112024
 30
0.0
  0
VERTEX
  5
765
330
763
100
AcDbEntity
  8
BEMA_UNG
 62
     7
100
AcDbVertex
100
AcDb2dVertex
 10
113.3426827076122
 20
-2.839449572112024
 30
0.0
  0
SEQEND
  5
766
330
763
100
AcDbEntity
  8
BEMA_UNG
  0
POLYLINE
  5
767
330
1F
100
AcDbEntity
  8
BEMA_UNG
 62
     7
100
AcDb2dPolyline
 66
     1
 10
0.0
 20
0.0
 30
0.0
  0
VERTEX
  5
768
330
767
100
AcDbEntity
  8
BEMA_UNG
 62
     7
100
AcDbVertex
100
AcDb2dVertex
 10
122.6432408698934
 20
5.100811740438076
 30
0.0
  0
VERTEX
  5
769
330
767
100
AcDbEntity
  8
BEMA_UNG
 62
     7
100
AcDbVertex
100
AcDb2dVertex
 10
113.3426827076122
 20
-2.839449572112024
 30
0.0
  0
SEQEND
  5
76A
330
767
100
AcDbEntity
  8
BEMA_UNG
  0
SPLINE
  5
76B
330
1F
100
AcDbEntity
  8
BEMA_UNG
 62
     7
100
AcDbSpline
210
0.0
220
0.0
230
1.0
 70
    11
 71
     3
 72
    17
 73
    13
 74
     0
 42
0.0000000001
 43
0.0000000001
 40
0.0
 40
0.0
 40
0.0
 40
0.0
 40
1.0
 40
1.0
 40
1.0
 40
2.0
 40
2.0
 40
2.0
 40
3.0
 40
3.0
 40
3.0
 40
4.0
 40
4.0
 40
4.0
 40
4.0
 10
123.0561358361851
 20
5.100811740438076
 30
0.0
 10
123.0561358361851
 20
5.328532702239343
 30
0.0
 10
122.8713063414705
 20
5.51318994206609
 30
0.0
 10
122.6432408698934
 20
5.51318994206609
 30
0.0
 10
122.4155199080922
 20
5.51318994206609
 30
0.0
 10
122.2305181584896
 20
5.328532702239343
 30
0.0
 10
122.2305181584896
 20
5.100811740438076
 30
0.0
 10
122.2305181584896
 20
4.872574013973114
 30
0.0
 10
122.4155199080922
 20
4.688089029034265
 30
0.0
 10
122.6432408698934
 20
4.688089029034265
 30
0.0
 10
122.8713063414705
 20
4.688089029034265
 30
0.0
 10
123.0561358361851
 20
4.872574013973114
 30
0.0
 10
123.0561358361851
 20
5.100811740438076
 30
0.0
  0
SPLINE
  5
76C
330
1F
100
AcDbEntity
  8
BEMA_UNG
 62
     7
100
AcDbSpline
210
0.0
220
0.0
230
1.0
 70
    11
 71
     3
 72
    17
 73
    13
 74
     0
 42
0.0000000001
 43
0.0000000001
 40
0.0
 40
0.0
 40
0.0
 40
0.0
 40
1.0
 40
1.0
 40
1.0
 40
2.0
 40
2.0
 40
2.0
 40
3.0
 40
3.0
 40
3.0
 40
4.0
 40
4.0
 40
4.0
 40
4.0
 10
123.0282305443456
 20
5.100811740438076
 30
0.0
 10
123.0282305443456
 20
5.312857507440618
 30
0.0
 10
122.8556311466718
 20
5.485456905114498
 30
0.0
 10
122.6432408698934
 20
5.485456905114498
 30
0.0
 10
122.4311951028909
 20
5.485456905114498
 30
0.0
 10
122.258595705217
 20
5.312857507440618
 30
0.0
 10
122.258595705217
 20
5.100811740438076
 30
0.0
 10
122.258595705217
 20
4.888421463659738
 30
0.0
 10
122.4311951028909
 20
4.716166575761654
 30
0.0
 10
122.6432408698934
 20
4.716166575761654
 30
0.0
 10
122.8556311466718
 20
4.716166575761654
 30
0.0
 10
123.0282305443456
 20
4.888421463659738
 30
0.0
 10
123.0282305443456
 20
5.100811740438076
 30
0.0
  0
SPLINE
  5
76D
330
1F
100
AcDbEntity
  8
BEMA_UNG
 62
     7
100
AcDbSpline
210
0.0
220
0.0
230
1.0
 70
    11
 71
     3
 72
    17
 73
    13
 74
     0
 42
0.0000000001
 43
0.0000000001
 40
0.0
 40
0.0
 40
0.0
 40
0.0
 40
1.0
 40
1.0
 40
1.0
 40
2.0
 40
2.0
 40
2.0
 40
3.0
 40
3.0
 40
3.0
 40
4.0
 40
4.0
 40
4.0
 40
4.0
 10
122.9999807427304
 20
5.100811740438076
 30
0.0
 10
122.9999807427304
 20
5.297871332193485
 30
0.0
 10
122.8404727165367
 20
5.457379358387111
 30
0.0
 10
122.6432408698934
 20
5.457379358387111
 30
0.0
 10
122.4463535330259
 20
5.457379358387111
 30
0.0
 10
122.2865009970565
 20
5.297871332193485
 30
0.0
 10
122.2865009970565
 20
5.100811740438076
 30
0.0
 10
122.2865009970565
 20
4.903579893794769
 30
0.0
 10
122.4463535330259
 20
4.743899612713245
 30
0.0
 10
122.6432408698934
 20
4.743899612713245
 30
0.0
 10
122.8404727165367
 20
4.743899612713245
 30
0.0
 10
122.9999807427304
 20
4.903579893794769
 30
0.0
 10
122.9999807427304
 20
5.100811740438076
 30
0.0
  0
SPLINE
  5
76E
330
1F
100
AcDbEntity
  8
BEMA_UNG
 62
     7
100
AcDbSpline
210
0.0
220
0.0
230
1.0
 70
    11
 71
     3
 72
    17
 73
    13
 74
     0
 42
0.0000000001
 43
0.0000000001
 40
0.0
 40
0.0
 40
0.0
 40
0.0
 40
1.0
 40
1.0
 40
1.0
 40
2.0
 40
2.0
 40
2.0
 40
3.0
 40
3.0
 40
3.0
 40
4.0
 40
4.0
 40
4.0
 40
4.0
 10
122.9722477057788
 20
5.100811740438076
 30
0.0
 10
122.9722477057788
 20
5.282023882506861
 30
0.0
 10
122.8246252668501
 20
5.429474066547621
 30
0.0
 10
122.6432408698934
 20
5.429474066547621
 30
0.0
 10
122.4618564729367
 20
5.429474066547621
 30
0.0
 10
122.3147507986718
 20
5.282023882506861
 30
0.0
 10
122.3147507986718
 20
5.100811740438076
 30
0.0
 10
122.3147507986718
 20
4.919255088593495
 30
0.0
 10
122.4618564729367
 20
4.771977159440633
 30
0.0
 10
122.6432408698934
 20
4.771977159440633
 30
0.0
 10
122.8246252668501
 20
4.771977159440633
 30
0.0
 10
122.9722477057788
 20
4.919255088593495
 30
0.0
 10
122.9722477057788
 20
5.100811740438076
 30
0.0
  0
SPLINE
  5
76F
330
1F
100
AcDbEntity
  8
BEMA_UNG
 62
     7
100
AcDbSpline
210
0.0
220
0.0
230
1.0
 70
    11
 71
     3
 72
    17
 73
    13
 74
     0
 42
0.0000000001
 43
0.0000000001
 40
0.0
 40
0.0
 40
0.0
 40
0.0
 40
1.0
 40
1.0
 40
1.0
 40
2.0
 40
2.0
 40
2.0
 40
3.0
 40
3.0
 40
3.0
 40
4.0
 40
4.0
 40
4.0
 40
4.0
 10
122.9441701590514
 20
5.100811740438076
 30
0.0
 10
122.9441701590514
 20
5.266865452371829
 30
0.0
 10
122.8092945818272
 20
5.401396519820233
 30
0.0
 10
122.6432408698934
 20
5.401396519820233
 30
0.0
 10
122.4771871579597
 20
5.401396519820233
 30
0.0
 10
122.3423115807355
 20
5.266865452371829
 30
0.0
 10
122.3423115807355
 20
5.100811740438076
 30
0.0
 10
122.3423115807355
 20
4.934585773616424
 30
0.0
 10
122.4771871579597
 20
4.799882451280123
 30
0.0
 10
122.6432408698934
 20
4.799882451280123
 30
0.0
 10
122.8092945818272
 20
4.799882451280123
 30
0.0
 10
122.9441701590514
 20
4.934585773616424
 30
0.0
 10
122.9441701590514
 20
5.100811740438076
 30
0.0
  0
SPLINE
  5
770
330
1F
100
AcDbEntity
  8
BEMA_UNG
 62
     7
100
AcDbSpline
210
0.0
220
0.0
230
1.0
 70
    11
 71
     3
 72
    17
 73
    13
 74
     0
 42
0.0000000001
 43
0.0000000001
 40
0.0
 40
0.0
 40
0.0
 40
0.0
 40
1.0
 40
1.0
 40
1.0
 40
2.0
 40
2.0
 40
2.0
 40
3.0
 40
3.0
 40
3.0
 40
4.0
 40
4.0
 40
4.0
 40
4.0
 10
122.9162648672119
 20
5.100811740438076
 30
0.0
 10
122.9162648672119
 20
5.251362512461002
 30
0.0
 10
122.7939638968043
 20
5.373663482868642
 30
0.0
 10
122.6432408698934
 20
5.373663482868642
 30
0.0
 10
122.4925178429826
 20
5.373663482868642
 30
0.0
 10
122.3703891274629
 20
5.251362512461002
 30
0.0
 10
122.3703891274629
 20
5.100811740438076
 30
0.0
 10
122.3703891274629
 20
4.950088713527252
 30
0.0
 10
122.4925178429826
 20
4.827787743119612
 30
0.0
 10
122.6432408698934
 20
4.827787743119612
 30
0.0
 10
122.7939638968043
 20
4.827787743119612
 30
0.0
 10
122.9162648672119
 20
4.950088713527252
 30
0.0
 10
122.9162648672119
 20
5.100811740438076
 30
0.0
  0
SPLINE
  5
771
330
1F
100
AcDbEntity
  8
BEMA_UNG
 62
     7
100
AcDbSpline
210
0.0
220
0.0
230
1.0
 70
    11
 71
     3
 72
    17
 73
    13
 74
     0
 42
0.0000000001
 43
0.0000000001
 40
0.0
 40
0.0
 40
0.0
 40
0.0
 40
1.0
 40
1.0
 40
1.0
 40
2.0
 40
2.0
 40
2.0
 40
3.0
 40
3.0
 40
3.0
 40
4.0
 40
4.0
 40
4.0
 40
4.0
 10
122.8883595753724
 20
5.100811740438076
 30
0.0
 10
122.8883595753724
 20
5.236031827438072
 30
0.0
 10
122.7784609568934
 20
5.345413681253356
 30
0.0
 10
122.6432408698934
 20
5.345413681253356
 30
0.0
 10
122.5081930377813
 20
5.345413681253356
 30
0.0
 10
122.3984666741903
 20
5.236031827438072
 30
0.0
 10
122.3984666741903
 20
5.100811740438076
 30
0.0
 10
122.3984666741903
 20
4.965419398550182
 30
0.0
 10
122.5081930377813
 20
4.855693034959102
 30
0.0
 10
122.6432408698934
 20
4.855693034959102
 30
0.0
 10
122.7784609568934
 20
4.855693034959102
 30
0.0
 10
122.8883595753724
 20
4.965419398550182
 30
0.0
 10
122.8883595753724
 20
5.100811740438076
 30
0.0
  0
SPLINE
  5
772
330
1F
100
AcDbEntity
  8
BEMA_UNG
 62
     7
100
AcDbSpline
210
0.0
220
0.0
230
1.0
 70
    11
 71
     3
 72
    17
 73
    13
 74
     0
 42
0.0000000001
 43
0.0000000001
 40
0.0
 40
0.0
 40
0.0
 40
0.0
 40
1.0
 40
1.0
 40
1.0
 40
2.0
 40
2.0
 40
2.0
 40
3.0
 40
3.0
 40
3.0
 40
4.0
 40
4.0
 40
4.0
 40
4.0
 10
122.8604542835329
 20
5.100811740438076
 30
0.0
 10
122.8604542835329
 20
5.220528887527244
 30
0.0
 10
122.7629580169826
 20
5.317508389413866
 30
0.0
 10
122.6432408698934
 20
5.317508389413866
 30
0.0
 10
122.5235237228043
 20
5.317508389413866
 30
0.0
 10
122.4263719660297
 20
5.220528887527244
 30
0.0
 10
122.4263719660297
 20
5.100811740438076
 30
0.0
 10
122.4263719660297
 20
4.980750083573111
 30
0.0
 10
122.5235237228043
 20
4.883770581686489
 30
0.0
 10
122.6432408698934
 20
4.883770581686489
 30
0.0
 10
122.7629580169826
 20
4.883770581686489
 30
0.0
 10
122.8604542835329
 20
4.980750083573111
 30
0.0
 10
122.8604542835329
 20
5.100811740438076
 30
0.0
  0
SPLINE
  5
773
330
1F
100
AcDbEntity
  8
BEMA_UNG
 62
     7
100
AcDbSpline
210
0.0
220
0.0
230
1.0
 70
    11
 71
     3
 72
    17
 73
    13
 74
     0
 42
0.0000000001
 43
0.0000000001
 40
0.0
 40
0.0
 40
0.0
 40
0.0
 40
1.0
 40
1.0
 40
1.0
 40
2.0
 40
2.0
 40
2.0
 40
3.0
 40
3.0
 40
3.0
 40
4.0
 40
4.0
 40
4.0
 40
4.0
 10
122.8322044819176
 20
5.100811740438076
 30
0.0
 10
122.8322044819176
 20
5.205025947616417
 30
0.0
 10
122.7476273319597
 20
5.289603097574377
 30
0.0
 10
122.6432408698934
 20
5.289603097574377
 30
0.0
 10
122.5390266627151
 20
5.289603097574377
 30
0.0
 10
122.4542772578692
 20
5.205025947616417
 30
0.0
 10
122.4542772578692
 20
5.100811740438076
 30
0.0
 10
122.4542772578692
 20
4.996425278371837
 30
0.0
 10
122.5390266627151
 20
4.911848128413878
 30
0.0
 10
122.6432408698934
 20
4.911848128413878
 30
0.0
 10
122.7476273319597
 20
4.911848128413878
 30
0.0
 10
122.8322044819176
 20
4.996425278371837
 30
0.0
 10
122.8322044819176
 20
5.100811740438076
 30
0.0
  0
SPLINE
  5
774
330
1F
100
AcDbEntity
  8
BEMA_UNG
 62
     7
100
AcDbSpline
210
0.0
220
0.0
230
1.0
 70
    11
 71
     3
 72
    17
 73
    13
 74
     0
 42
0.0000000001
 43
0.0000000001
 40
0.0
 40
0.0
 40
0.0
 40
0.0
 40
1.0
 40
1.0
 40
1.0
 40
2.0
 40
2.0
 40
2.0
 40
3.0
 40
3.0
 40
3.0
 40
4.0
 40
4.0
 40
4.0
 40
4.0
 10
122.8042991900781
 20
5.100811740438076
 30
0.0
 10
122.8042991900781
 20
5.189695262593488
 30
0.0
 10
122.7322966469367
 20
5.261697805734887
 30
0.0
 10
122.6432408698934
 20
5.261697805734887
 30
0.0
 10
122.5541850928501
 20
5.261697805734887
 30
0.0
 10
122.4821825497087
 20
5.189695262593488
 30
0.0
 10
122.4821825497087
 20
5.100811740438076
 30
0.0
 10
122.4821825497087
 20
5.011583708506868
 30
0.0
 10
122.5541850928501
 20
4.939753420253367
 30
0.0
 10
122.6432408698934
 20
4.939753420253367
 30
0.0
 10
122.7322966469367
 20
4.939753420253367
 30
0.0
 10
122.8042991900781
 20
5.011583708506868
 30
0.0
 10
122.8042991900781
 20
5.100811740438076
 30
0.0
  0
SPLINE
  5
775
330
1F
100
AcDbEntity
  8
BEMA_UNG
 62
     7
100
AcDbSpline
210
0.0
220
0.0
230
1.0
 70
    11
 71
     3
 72
    17
 73
    13
 74
     0
 42
0.0000000001
 43
0.0000000001
 40
0.0
 40
0.0
 40
0.0
 40
0.0
 40
1.0
 40
1.0
 40
1.0
 40
2.0
 40
2.0
 40
2.0
 40
3.0
 40
3.0
 40
3.0
 40
4.0
 40
4.0
 40
4.0
 40
4.0
 10
122.7763938982387
 20
5.100811740438076
 30
0.0
 10
122.7763938982387
 20
5.173847812906864
 30
0.0
 10
122.7167937070259
 20
5.233792513895397
 30
0.0
 10
122.6432408698934
 20
5.233792513895397
 30
0.0
 10
122.5698602876489
 20
5.233792513895397
 30
0.0
 10
122.5100878415482
 20
5.173847812906864
 30
0.0
 10
122.5100878415482
 20
5.100811740438076
 30
0.0
 10
122.5100878415482
 20
5.027258903305594
 30
0.0
 10
122.5698602876489
 20
4.967658712092857
 30
0.0
 10
122.6432408698934
 20
4.967658712092857
 30
0.0
 10
122.7167937070259
 20
4.967658712092857
 30
0.0
 10
122.7763938982387
 20
5.027258903305594
 30
0.0
 10
122.7763938982387
 20
5.100811740438076
 30
0.0
  0
SPLINE
  5
776
330
1F
100
AcDbEntity
  8
BEMA_UNG
 62
     7
100
AcDbSpline
210
0.0
220
0.0
230
1.0
 70
    11
 71
     3
 72
    17
 73
    13
 74
     0
 42
0.0000000001
 43
0.0000000001
 40
0.0
 40
0.0
 40
0.0
 40
0.0
 40
1.0
 40
1.0
 40
1.0
 40
2.0
 40
2.0
 40
2.0
 40
3.0
 40
3.0
 40
3.0
 40
4.0
 40
4.0
 40
4.0
 40
4.0
 10
122.7484886063992
 20
5.100811740438076
 30
0.0
 10
122.7484886063992
 20
5.158689382771833
 30
0.0
 10
122.7016352768909
 20
5.205714967168009
 30
0.0
 10
122.6432408698934
 20
5.205714967168009
 30
0.0
 10
122.5850187177839
 20
5.205714967168009
 30
0.0
 10
122.5383376431635
 20
5.158689382771833
 30
0.0
 10
122.5383376431635
 20
5.100811740438076
 30
0.0
 10
122.5383376431635
 20
5.042417333440626
 30
0.0
 10
122.5850187177839
 20
4.995564003932347
 30
0.0
 10
122.6432408698934
 20
4.995564003932347
 30
0.0
 10
122.7016352768909
 20
4.995564003932347
 30
0.0
 10
122.7484886063992
 20
5.042417333440626
 30
0.0
 10
122.7484886063992
 20
5.100811740438076
 30
0.0
  0
SPLINE
  5
777
330
1F
100
AcDbEntity
  8
BEMA_UNG
 62
     7
100
AcDbSpline
210
0.0
220
0.0
230
1.0
 70
    11
 71
     3
 72
    17
 73
    13
 74
     0
 42
0.0000000001
 43
0.0000000001
 40
0.0
 40
0.0
 40
0.0
 40
0.0
 40
1.0
 40
1.0
 40
1.0
 40
2.0
 40
2.0
 40
2.0
 40
3.0
 40
3.0
 40
3.0
 40
4.0
 40
4.0
 40
4.0
 40
4.0
 10
122.7202388047839
 20
5.100811740438076
 30
0.0
 10
122.7202388047839
 20
5.143014187973106
 30
0.0
 10
122.6859600820922
 20
5.17780967532852
 30
0.0
 10
122.6432408698934
 20
5.17780967532852
 30
0.0
 10
122.6008661674705
 20
5.17780967532852
 30
0.0
 10
122.566242935003
 20
5.143014187973106
 30
0.0
 10
122.566242935003
 20
5.100811740438076
 30
0.0
 10
122.566242935003
 20
5.058092528239351
 30
0.0
 10
122.6008661674705
 20
5.023641550659734
 30
0.0
 10
122.6432408698934
 20
5.023641550659734
 30
0.0
 10
122.6859600820922
 20
5.023641550659734
 30
0.0
 10
122.7202388047839
 20
5.058092528239351
 30
0.0
 10
122.7202388047839
 20
5.100811740438076
 30
0.0
  0
SPLINE
  5
778
330
1F
100
AcDbEntity
  8
BEMA_UNG
 62
     7
100
AcDbSpline
210
0.0
220
0.0
230
1.0
 70
    11
 71
     3
 72
    17
 73
    13
 74
     0
 42
0.0000000001
 43
0.0000000001
 40
0.0
 40
0.0
 40
0.0
 40
0.0
 40
1.0
 40
1.0
 40
1.0
 40
2.0
 40
2.0
 40
2.0
 40
3.0
 40
3.0
 40
3.0
 40
4.0
 40
4.0
 40
4.0
 40
4.0
 10
122.693022532496
 20
5.100811740438076
 30
0.0
 10
122.693022532496
 20
5.128028012725974
 30
0.0
 10
122.6706293970692
 20
5.14990438348903
 30
0.0
 10
122.6432408698934
 20
5.14990438348903
 30
0.0
 10
122.6161968524934
 20
5.14990438348903
 30
0.0
 10
122.5941482268425
 20
5.128028012725974
 30
0.0
 10
122.5941482268425
 20
5.100811740438076
 30
0.0
 10
122.5941482268425
 20
5.073250958374382
 30
0.0
 10
122.6161968524934
 20
5.051546842499223
 30
0.0
 10
122.6432408698934
 20
5.051546842499223
 30
0.0
 10
122.6706293970692
 20
5.051546842499223
 30
0.0
 10
122.693022532496
 20
5.073250958374382
 30
0.0
 10
122.693022532496
 20
5.100811740438076
 30
0.0
  0
SPLINE
  5
779
330
1F
100
AcDbEntity
  8
BEMA_UNG
 62
     7
100
AcDbSpline
210
0.0
220
0.0
230
1.0
 70
    11
 71
     3
 72
    17
 73
    13
 74
     0
 42
0.0000000001
 43
0.0000000001
 40
0.0
 40
0.0
 40
0.0
 40
0.0
 40
1.0
 40
1.0
 40
1.0
 40
2.0
 40
2.0
 40
2.0
 40
3.0
 40
3.0
 40
3.0
 40
4.0
 40
4.0
 40
4.0
 40
4.0
 10
122.6647727308807
 20
5.100811740438076
 30
0.0
 10
122.6647727308807
 20
5.112352817927247
 30
0.0
 10
122.6549542022705
 20
5.12199909164954
 30
0.0
 10
122.6432408698934
 20
5.12199909164954
 30
0.0
 10
122.6315275375164
 20
5.12199909164954
 30
0.0
 10
122.622053518682
 20
5.112352817927247
 30
0.0
 10
122.622053518682
 20
5.100811740438076
 30
0.0
 10
122.622053518682
 20
5.088926153173108
 30
0.0
 10
122.6315275375164
 20
5.079452134338713
 30
0.0
 10
122.6432408698934
 20
5.079452134338713
 30
0.0
 10
122.6549542022705
 20
5.079452134338713
 30
0.0
 10
122.6647727308807
 20
5.088926153173108
 30
0.0
 10
122.6647727308807
 20
5.100811740438076
 30
0.0
  0
POLYLINE
  5
77A
330
1F
100
AcDbEntity
  8
BEMA_UNG
 62
     7
100
AcDb2dPolyline
 66
     1
 10
0.0
 20
0.0
 30
0.0
  0
VERTEX
  5
77B
330
77A
100
AcDbEntity
  8
BEMA_UNG
 62
     7
100
AcDbVertex
100
AcDb2dVertex
 10
126.1651643078577
 20
24.45812702287321
 30
0.0
  0
VERTEX
  5
77C
330
77A
100
AcDbEntity
  8
BEMA_UNG
 62
     7
100
AcDbVertex
100
AcDb2dVertex
 10
142.3414485754789
 20
24.45812702287321
 30
0.0
  0
SEQEND
  5
77D
330
77A
100
AcDbEntity
  8
BEMA_UNG
  0
POLYLINE
  5
77E
330
1F
100
AcDbEntity
  8
BEMA_UNG
 62
     7
100
AcDb2dPolyline
 66
     1
 10
0.0
 20
0.0
 30
0.0
  0
VERTEX
  5
77F
330
77E
100
AcDbEntity
  8
BEMA_UNG
 62
     7
100
AcDbVertex
100
AcDb2dVertex
 10
132.4901915365874
 20
32.73704144503095
 30
0.0
  0
VERTEX
  5
780
330
77E
100
AcDbEntity
  8
BEMA_UNG
 62
     7
100
AcDbVertex
100
AcDb2dVertex
 10
142.3414485754789
 20
32.73704144503095
 30
0.0
  0
SEQEND
  5
781
330
77E
100
AcDbEntity
  8
BEMA_UNG
  0
POLYLINE
  5
782
330
1F
100
AcDbEntity
  8
BEMA_UNG
 62
     7
100
AcDb2dPolyline
 66
     1
 10
0.0
 20
0.0
 30
0.0
  0
VERTEX
  5
783
330
782
100
AcDbEntity
  8
BEMA_UNG
 62
     7
100
AcDbVertex
100
AcDb2dVertex
 10
141.2414288613617
 20
24.45812702287321
 30
0.0
  0
VERTEX
  5
784
330
782
100
AcDbEntity
  8
BEMA_UNG
 62
     7
100
AcDbVertex
100
AcDb2dVertex
 10
141.2414288613617
 20
32.73704144503095
 30
0.0
  0
SEQEND
  5
785
330
782
100
AcDbEntity
  8
BEMA_UNG
  0
POLYLINE
  5
786
330
1F
100
AcDbEntity
  8
BEMA_UNG
 62
     7
100
AcDb2dPolyline
 66
     1
 10
0.0
 20
0.0
 30
0.0
  0
VERTEX
  5
787
330
786
100
AcDbEntity
  8
BEMA_UNG
 62
     7
100
AcDbVertex
100
AcDb2dVertex
 10
141.2414288613617
 20
24.45812702287321
 30
0.0
  0
VERTEX
  5
788
330
786
100
AcDbEntity
  8
BEMA_UNG
 62
     7
100
AcDbVertex
100
AcDb2dVertex
 10
141.4226410034305
 20
25.83323779296362
 30
0.0
  0
VERTEX
  5
789
330
786
100
AcDbEntity
  8
BEMA_UNG
 62
     7
100
AcDbVertex
100
AcDb2dVertex
 10
141.0605612290687
 20
25.83323779296362
 30
0.0
  0
VERTEX
  5
78A
330
786
100
AcDbEntity
  8
BEMA_UNG
 62
     7
100
AcDbVertex
100
AcDb2dVertex
 10
141.2414288613617
 20
24.45812702287321
 30
0.0
  0
SEQEND
  5
78B
330
786
100
AcDbEntity
  8
BEMA_UNG
  0
POLYLINE
  5
78C
330
1F
100
AcDbEntity
  8
BEMA_UNG
 62
     7
100
AcDb2dPolyline
 66
     1
 10
0.0
 20
0.0
 30
0.0
  0
VERTEX
  5
78D
330
78C
100
AcDbEntity
  8
BEMA_UNG
 62
     7
100
AcDbVertex
100
AcDb2dVertex
 10
141.4095496319503
 20
25.83323779296362
 30
0.0
  0
VERTEX
  5
78E
330
78C
100
AcDbEntity
  8
BEMA_UNG
 62
     7
100
AcDbVertex
100
AcDb2dVertex
 10
141.4095496319503
 20
25.73160740910375
 30
0.0
  0
SEQEND
  5
78F
330
78C
100
AcDbEntity
  8
BEMA_UNG
  0
POLYLINE
  5
790
330
1F
100
AcDbEntity
  8
BEMA_UNG
 62
     7
100
AcDb2dPolyline
 66
     1
 10
0.0
 20
0.0
 30
0.0
  0
VERTEX
  5
791
330
790
100
AcDbEntity
  8
BEMA_UNG
 62
     7
100
AcDbVertex
100
AcDb2dVertex
 10
141.4095496319503
 20
25.83323779296362
 30
0.0
  0
VERTEX
  5
792
330
790
100
AcDbEntity
  8
BEMA_UNG
 62
     7
100
AcDbVertex
100
AcDb2dVertex
 10
141.4095496319503
 20
25.73160740910375
 30
0.0
  0
SEQEND
  5
793
330
790
100
AcDbEntity
  8
BEMA_UNG
  0
POLYLINE
  5
794
330
1F
100
AcDbEntity
  8
BEMA_UNG
 62
     7
100
AcDb2dPolyline
 66
     1
 10
0.0
 20
0.0
 30
0.0
  0
VERTEX
  5
795
330
794
100
AcDbEntity
  8
BEMA_UNG
 62
     7
100
AcDbVertex
100
AcDb2dVertex
 10
141.3814720852229
 20
25.83323779296362
 30
0.0
  0
VERTEX
  5
796
330
794
100
AcDbEntity
  8
BEMA_UNG
 62
     7
100
AcDbVertex
100
AcDb2dVertex
 10
141.3814720852229
 20
25.51921713232541
 30
0.0
  0
SEQEND
  5
797
330
794
100
AcDbEntity
  8
BEMA_UNG
  0
POLYLINE
  5
798
330
1F
100
AcDbEntity
  8
BEMA_UNG
 62
     7
100
AcDb2dPolyline
 66
     1
 10
0.0
 20
0.0
 30
0.0
  0
VERTEX
  5
799
330
798
100
AcDbEntity
  8
BEMA_UNG
 62
     7
100
AcDbVertex
100
AcDb2dVertex
 10
141.3535667933834
 20
25.83323779296362
 30
0.0
  0
VERTEX
  5
79A
330
798
100
AcDbEntity
  8
BEMA_UNG
 62
     7
100
AcDbVertex
100
AcDb2dVertex
 10
141.3535667933834
 20
25.30699911043497
 30
0.0
  0
SEQEND
  5
79B
330
798
100
AcDbEntity
  8
BEMA_UNG
  0
POLYLINE
  5
79C
330
1F
100
AcDbEntity
  8
BEMA_UNG
 62
     7
100
AcDb2dPolyline
 66
     1
 10
0.0
 20
0.0
 30
0.0
  0
VERTEX
  5
79D
330
79C
100
AcDbEntity
  8
BEMA_UNG
 62
     7
100
AcDbVertex
100
AcDb2dVertex
 10
141.3256615015439
 20
25.83323779296362
 30
0.0
  0
VERTEX
  5
79E
330
79C
100
AcDbEntity
  8
BEMA_UNG
 62
     7
100
AcDbVertex
100
AcDb2dVertex
 10
141.3256615015439
 20
25.09460883365663
 30
0.0
  0
SEQEND
  5
79F
330
79C
100
AcDbEntity
  8
BEMA_UNG
  0
POLYLINE
  5
7A0
330
1F
100
AcDbEntity
  8
BEMA_UNG
 62
     7
100
AcDb2dPolyline
 66
     1
 10
0.0
 20
0.0
 30
0.0
  0
VERTEX
  5
7A1
330
7A0
100
AcDbEntity
  8
BEMA_UNG
 62
     7
100
AcDbVertex
100
AcDb2dVertex
 10
141.2972394450407
 20
25.83323779296362
 30
0.0
  0
VERTEX
  5
7A2
330
7A0
100
AcDbEntity
  8
BEMA_UNG
 62
     7
100
AcDbVertex
100
AcDb2dVertex
 10
141.2972394450407
 20
24.88273532154199
 30
0.0
  0
SEQEND
  5
7A3
330
7A0
100
AcDbEntity
  8
BEMA_UNG
  0
POLYLINE
  5
7A4
330
1F
100
AcDbEntity
  8
BEMA_UNG
 62
     7
100
AcDb2dPolyline
 66
     1
 10
0.0
 20
0.0
 30
0.0
  0
VERTEX
  5
7A5
330
7A4
100
AcDbEntity
  8
BEMA_UNG
 62
     7
100
AcDbVertex
100
AcDb2dVertex
 10
141.2693341532012
 20
25.83323779296362
 30
0.0
  0
VERTEX
  5
7A6
330
7A4
100
AcDbEntity
  8
BEMA_UNG
 62
     7
100
AcDbVertex
100
AcDb2dVertex
 10
141.2693341532012
 20
24.67034504476365
 30
0.0
  0
SEQEND
  5
7A7
330
7A4
100
AcDbEntity
  8
BEMA_UNG
  0
POLYLINE
  5
7A8
330
1F
100
AcDbEntity
  8
BEMA_UNG
 62
     7
100
AcDb2dPolyline
 66
     1
 10
0.0
 20
0.0
 30
0.0
  0
VERTEX
  5
7A9
330
7A8
100
AcDbEntity
  8
BEMA_UNG
 62
     7
100
AcDbVertex
100
AcDb2dVertex
 10
141.2414288613617
 20
25.83323779296362
 30
0.0
  0
VERTEX
  5
7AA
330
7A8
100
AcDbEntity
  8
BEMA_UNG
 62
     7
100
AcDbVertex
100
AcDb2dVertex
 10
141.2414288613617
 20
24.45812702287321
 30
0.0
  0
SEQEND
  5
7AB
330
7A8
100
AcDbEntity
  8
BEMA_UNG
  0
POLYLINE
  5
7AC
330
1F
100
AcDbEntity
  8
BEMA_UNG
 62
     7
100
AcDb2dPolyline
 66
     1
 10
0.0
 20
0.0
 30
0.0
  0
VERTEX
  5
7AD
330
7AC
100
AcDbEntity
  8
BEMA_UNG
 62
     7
100
AcDbVertex
100
AcDb2dVertex
 10
141.0739971103248
 20
25.83323779296362
 30
0.0
  0
VERTEX
  5
7AE
330
7AC
100
AcDbEntity
  8
BEMA_UNG
 62
     7
100
AcDbVertex
100
AcDb2dVertex
 10
141.0739971103248
 20
25.73160740910375
 30
0.0
  0
SEQEND
  5
7AF
330
7AC
100
AcDbEntity
  8
BEMA_UNG
  0
POLYLINE
  5
7B0
330
1F
100
AcDbEntity
  8
BEMA_UNG
 62
     7
100
AcDb2dPolyline
 66
     1
 10
0.0
 20
0.0
 30
0.0
  0
VERTEX
  5
7B1
330
7B0
100
AcDbEntity
  8
BEMA_UNG
 62
     7
100
AcDbVertex
100
AcDb2dVertex
 10
141.0739971103248
 20
25.83323779296362
 30
0.0
  0
VERTEX
  5
7B2
330
7B0
100
AcDbEntity
  8
BEMA_UNG
 62
     7
100
AcDbVertex
100
AcDb2dVertex
 10
141.0739971103248
 20
25.73160740910375
 30
0.0
  0
SEQEND
  5
7B3
330
7B0
100
AcDbEntity
  8
BEMA_UNG
  0
POLYLINE
  5
7B4
330
1F
100
AcDbEntity
  8
BEMA_UNG
 62
     7
100
AcDb2dPolyline
 66
     1
 10
0.0
 20
0.0
 30
0.0
  0
VERTEX
  5
7B5
330
7B4
100
AcDbEntity
  8
BEMA_UNG
 62
     7
100
AcDbVertex
100
AcDb2dVertex
 10
141.1019024021643
 20
25.83323779296362
 30
0.0
  0
VERTEX
  5
7B6
330
7B4
100
AcDbEntity
  8
BEMA_UNG
 62
     7
100
AcDbVertex
100
AcDb2dVertex
 10
141.1019024021643
 20
25.51921713232541
 30
0.0
  0
SEQEND
  5
7B7
330
7B4
100
AcDbEntity
  8
BEMA_UNG
  0
POLYLINE
  5
7B8
330
1F
100
AcDbEntity
  8
BEMA_UNG
 62
     7
100
AcDb2dPolyline
 66
     1
 10
0.0
 20
0.0
 30
0.0
  0
VERTEX
  5
7B9
330
7B8
100
AcDbEntity
  8
BEMA_UNG
 62
     7
100
AcDbVertex
100
AcDb2dVertex
 10
141.1298076940037
 20
25.83323779296362
 30
0.0
  0
VERTEX
  5
7BA
330
7B8
100
AcDbEntity
  8
BEMA_UNG
 62
     7
100
AcDbVertex
100
AcDb2dVertex
 10
141.1298076940037
 20
25.30699911043497
 30
0.0
  0
SEQEND
  5
7BB
330
7B8
100
AcDbEntity
  8
BEMA_UNG
  0
POLYLINE
  5
7BC
330
1F
100
AcDbEntity
  8
BEMA_UNG
 62
     7
100
AcDb2dPolyline
 66
     1
 10
0.0
 20
0.0
 30
0.0
  0
VERTEX
  5
7BD
330
7BC
100
AcDbEntity
  8
BEMA_UNG
 62
     7
100
AcDbVertex
100
AcDb2dVertex
 10
141.1577129858432
 20
25.83323779296362
 30
0.0
  0
VERTEX
  5
7BE
330
7BC
100
AcDbEntity
  8
BEMA_UNG
 62
     7
100
AcDbVertex
100
AcDb2dVertex
 10
141.1577129858432
 20
25.09460883365663
 30
0.0
  0
SEQEND
  5
7BF
330
7BC
100
AcDbEntity
  8
BEMA_UNG
  0
POLYLINE
  5
7C0
330
1F
100
AcDbEntity
  8
BEMA_UNG
 62
     7
100
AcDb2dPolyline
 66
     1
 10
0.0
 20
0.0
 30
0.0
  0
VERTEX
  5
7C1
330
7C0
100
AcDbEntity
  8
BEMA_UNG
 62
     7
100
AcDbVertex
100
AcDb2dVertex
 10
141.1856182776827
 20
25.83323779296362
 30
0.0
  0
VERTEX
  5
7C2
330
7C0
100
AcDbEntity
  8
BEMA_UNG
 62
     7
100
AcDbVertex
100
AcDb2dVertex
 10
141.1856182776827
 20
24.88273532154199
 30
0.0
  0
SEQEND
  5
7C3
330
7C0
100
AcDbEntity
  8
BEMA_UNG
  0
POLYLINE
  5
7C4
330
1F
100
AcDbEntity
  8
BEMA_UNG
 62
     7
100
AcDb2dPolyline
 66
     1
 10
0.0
 20
0.0
 30
0.0
  0
VERTEX
  5
7C5
330
7C4
100
AcDbEntity
  8
BEMA_UNG
 62
     7
100
AcDbVertex
100
AcDb2dVertex
 10
141.2135235695222
 20
25.83323779296362
 30
0.0
  0
VERTEX
  5
7C6
330
7C4
100
AcDbEntity
  8
BEMA_UNG
 62
     7
100
AcDbVertex
100
AcDb2dVertex
 10
141.2135235695222
 20
24.67034504476365
 30
0.0
  0
SEQEND
  5
7C7
330
7C4
100
AcDbEntity
  8
BEMA_UNG
  0
POLYLINE
  5
7C8
330
1F
100
AcDbEntity
  8
BEMA_UNG
 62
     7
100
AcDb2dPolyline
 66
     1
 10
0.0
 20
0.0
 30
0.0
  0
VERTEX
  5
7C9
330
7C8
100
AcDbEntity
  8
BEMA_UNG
 62
     7
100
AcDbVertex
100
AcDb2dVertex
 10
141.2414288613617
 20
25.83323779296362
 30
0.0
  0
VERTEX
  5
7CA
330
7C8
100
AcDbEntity
  8
BEMA_UNG
 62
     7
100
AcDbVertex
100
AcDb2dVertex
 10
141.2414288613617
 20
24.45812702287321
 30
0.0
  0
SEQEND
  5
7CB
330
7C8
100
AcDbEntity
  8
BEMA_UNG
  0
POLYLINE
  5
7CC
330
1F
100
AcDbEntity
  8
BEMA_UNG
 62
     7
100
AcDb2dPolyline
 66
     1
 10
0.0
 20
0.0
 30
0.0
  0
VERTEX
  5
7CD
330
7CC
100
AcDbEntity
  8
BEMA_UNG
 62
     7
100
AcDbVertex
100
AcDb2dVertex
 10
141.2414288613617
 20
32.73704144503095
 30
0.0
  0
VERTEX
  5
7CE
330
7CC
100
AcDbEntity
  8
BEMA_UNG
 62
     7
100
AcDbVertex
100
AcDb2dVertex
 10
141.0605612290687
 20
31.36193067494054
 30
0.0
  0
VERTEX
  5
7CF
330
7CC
100
AcDbEntity
  8
BEMA_UNG
 62
     7
100
AcDbVertex
100
AcDb2dVertex
 10
141.4226410034305
 20
31.36193067494054
 30
0.0
  0
VERTEX
  5
7D0
330
7CC
100
AcDbEntity
  8
BEMA_UNG
 62
     7
100
AcDbVertex
100
AcDb2dVertex
 10
141.2414288613617
 20
32.73704144503095
 30
0.0
  0
SEQEND
  5
7D1
330
7CC
100
AcDbEntity
  8
BEMA_UNG
  0
POLYLINE
  5
7D2
330
1F
100
AcDbEntity
  8
BEMA_UNG
 62
     7
100
AcDb2dPolyline
 66
     1
 10
0.0
 20
0.0
 30
0.0
  0
VERTEX
  5
7D3
330
7D2
100
AcDbEntity
  8
BEMA_UNG
 62
     7
100
AcDbVertex
100
AcDb2dVertex
 10
141.0739971103248
 20
31.36193067494054
 30
0.0
  0
VERTEX
  5
7D4
330
7D2
100
AcDbEntity
  8
BEMA_UNG
 62
     7
100
AcDbVertex
100
AcDb2dVertex
 10
141.0739971103248
 20
31.4635610588004
 30
0.0
  0
SEQEND
  5
7D5
330
7D2
100
AcDbEntity
  8
BEMA_UNG
  0
POLYLINE
  5
7D6
330
1F
100
AcDbEntity
  8
BEMA_UNG
 62
     7
100
AcDb2dPolyline
 66
     1
 10
0.0
 20
0.0
 30
0.0
  0
VERTEX
  5
7D7
330
7D6
100
AcDbEntity
  8
BEMA_UNG
 62
     7
100
AcDbVertex
100
AcDb2dVertex
 10
141.0739971103248
 20
31.36193067494054
 30
0.0
  0
VERTEX
  5
7D8
330
7D6
100
AcDbEntity
  8
BEMA_UNG
 62
     7
100
AcDbVertex
100
AcDb2dVertex
 10
141.0739971103248
 20
31.4635610588004
 30
0.0
  0
SEQEND
  5
7D9
330
7D6
100
AcDbEntity
  8
BEMA_UNG
  0
POLYLINE
  5
7DA
330
1F
100
AcDbEntity
  8
BEMA_UNG
 62
     7
100
AcDb2dPolyline
 66
     1
 10
0.0
 20
0.0
 30
0.0
  0
VERTEX
  5
7DB
330
7DA
100
AcDbEntity
  8
BEMA_UNG
 62
     7
100
AcDbVertex
100
AcDb2dVertex
 10
141.1019024021643
 20
31.36193067494054
 30
0.0
  0
VERTEX
  5
7DC
330
7DA
100
AcDbEntity
  8
BEMA_UNG
 62
     7
100
AcDbVertex
100
AcDb2dVertex
 10
141.1019024021643
 20
31.67560682580295
 30
0.0
  0
SEQEND
  5
7DD
330
7DA
100
AcDbEntity
  8
BEMA_UNG
  0
POLYLINE
  5
7DE
330
1F
100
AcDbEntity
  8
BEMA_UNG
 62
     7
100
AcDb2dPolyline
 66
     1
 10
0.0
 20
0.0
 30
0.0
  0
VERTEX
  5
7DF
330
7DE
100
AcDbEntity
  8
BEMA_UNG
 62
     7
100
AcDbVertex
100
AcDb2dVertex
 10
141.1298076940037
 20
31.36193067494054
 30
0.0
  0
VERTEX
  5
7E0
330
7DE
100
AcDbEntity
  8
BEMA_UNG
 62
     7
100
AcDbVertex
100
AcDb2dVertex
 10
141.1298076940037
 20
31.88816935746918
 30
0.0
  0
SEQEND
  5
7E1
330
7DE
100
AcDbEntity
  8
BEMA_UNG
  0
POLYLINE
  5
7E2
330
1F
100
AcDbEntity
  8
BEMA_UNG
 62
     7
100
AcDb2dPolyline
 66
     1
 10
0.0
 20
0.0
 30
0.0
  0
VERTEX
  5
7E3
330
7E2
100
AcDbEntity
  8
BEMA_UNG
 62
     7
100
AcDbVertex
100
AcDb2dVertex
 10
141.1577129858432
 20
31.36193067494054
 30
0.0
  0
VERTEX
  5
7E4
330
7E2
100
AcDbEntity
  8
BEMA_UNG
 62
     7
100
AcDbVertex
100
AcDb2dVertex
 10
141.1577129858432
 20
32.10021512447172
 30
0.0
  0
SEQEND
  5
7E5
330
7E2
100
AcDbEntity
  8
BEMA_UNG
  0
POLYLINE
  5
7E6
330
1F
100
AcDbEntity
  8
BEMA_UNG
 62
     7
100
AcDb2dPolyline
 66
     1
 10
0.0
 20
0.0
 30
0.0
  0
VERTEX
  5
7E7
330
7E6
100
AcDbEntity
  8
BEMA_UNG
 62
     7
100
AcDbVertex
100
AcDb2dVertex
 10
141.1856182776827
 20
31.36193067494054
 30
0.0
  0
VERTEX
  5
7E8
330
7E6
100
AcDbEntity
  8
BEMA_UNG
 62
     7
100
AcDbVertex
100
AcDb2dVertex
 10
141.1856182776827
 20
32.31243314636217
 30
0.0
  0
SEQEND
  5
7E9
330
7E6
100
AcDbEntity
  8
BEMA_UNG
  0
POLYLINE
  5
7EA
330
1F
100
AcDbEntity
  8
BEMA_UNG
 62
     7
100
AcDb2dPolyline
 66
     1
 10
0.0
 20
0.0
 30
0.0
  0
VERTEX
  5
7EB
330
7EA
100
AcDbEntity
  8
BEMA_UNG
 62
     7
100
AcDbVertex
100
AcDb2dVertex
 10
141.2135235695222
 20
31.36193067494054
 30
0.0
  0
VERTEX
  5
7EC
330
7EA
100
AcDbEntity
  8
BEMA_UNG
 62
     7
100
AcDbVertex
100
AcDb2dVertex
 10
141.2135235695222
 20
32.52447891336471
 30
0.0
  0
SEQEND
  5
7ED
330
7EA
100
AcDbEntity
  8
BEMA_UNG
  0
POLYLINE
  5
7EE
330
1F
100
AcDbEntity
  8
BEMA_UNG
 62
     7
100
AcDb2dPolyline
 66
     1
 10
0.0
 20
0.0
 30
0.0
  0
VERTEX
  5
7EF
330
7EE
100
AcDbEntity
  8
BEMA_UNG
 62
     7
100
AcDbVertex
100
AcDb2dVertex
 10
141.2414288613617
 20
31.36193067494054
 30
0.0
  0
VERTEX
  5
7F0
330
7EE
100
AcDbEntity
  8
BEMA_UNG
 62
     7
100
AcDbVertex
100
AcDb2dVertex
 10
141.2414288613617
 20
32.73704144503095
 30
0.0
  0
SEQEND
  5
7F1
330
7EE
100
AcDbEntity
  8
BEMA_UNG
  0
POLYLINE
  5
7F2
330
1F
100
AcDbEntity
  8
BEMA_UNG
 62
     7
100
AcDb2dPolyline
 66
     1
 10
0.0
 20
0.0
 30
0.0
  0
VERTEX
  5
7F3
330
7F2
100
AcDbEntity
  8
BEMA_UNG
 62
     7
100
AcDbVertex
100
AcDb2dVertex
 10
141.4095496319503
 20
31.36193067494054
 30
0.0
  0
VERTEX
  5
7F4
330
7F2
100
AcDbEntity
  8
BEMA_UNG
 62
     7
100
AcDbVertex
100
AcDb2dVertex
 10
141.4095496319503
 20
31.4635610588004
 30
0.0
  0
SEQEND
  5
7F5
330
7F2
100
AcDbEntity
  8
BEMA_UNG
  0
POLYLINE
  5
7F6
330
1F
100
AcDbEntity
  8
BEMA_UNG
 62
     7
100
AcDb2dPolyline
 66
     1
 10
0.0
 20
0.0
 30
0.0
  0
VERTEX
  5
7F7
330
7F6
100
AcDbEntity
  8
BEMA_UNG
 62
     7
100
AcDbVertex
100
AcDb2dVertex
 10
141.4095496319503
 20
31.36193067494054
 30
0.0
  0
VERTEX
  5
7F8
330
7F6
100
AcDbEntity
  8
BEMA_UNG
 62
     7
100
AcDbVertex
100
AcDb2dVertex
 10
141.4095496319503
 20
31.4635610588004
 30
0.0
  0
SEQEND
  5
7F9
330
7F6
100
AcDbEntity
  8
BEMA_UNG
  0
POLYLINE
  5
7FA
330
1F
100
AcDbEntity
  8
BEMA_UNG
 62
     7
100
AcDb2dPolyline
 66
     1
 10
0.0
 20
0.0
 30
0.0
  0
VERTEX
  5
7FB
330
7FA
100
AcDbEntity
  8
BEMA_UNG
 62
     7
100
AcDbVertex
100
AcDb2dVertex
 10
141.3814720852229
 20
31.36193067494054
 30
0.0
  0
VERTEX
  5
7FC
330
7FA
100
AcDbEntity
  8
BEMA_UNG
 62
     7
100
AcDbVertex
100
AcDb2dVertex
 10
141.3814720852229
 20
31.67560682580295
 30
0.0
  0
SEQEND
  5
7FD
330
7FA
100
AcDbEntity
  8
BEMA_UNG
  0
POLYLINE
  5
7FE
330
1F
100
AcDbEntity
  8
BEMA_UNG
 62
     7
100
AcDb2dPolyline
 66
     1
 10
0.0
 20
0.0
 30
0.0
  0
VERTEX
  5
7FF
330
7FE
100
AcDbEntity
  8
BEMA_UNG
 62
     7
100
AcDbVertex
100
AcDb2dVertex
 10
141.3535667933834
 20
31.36193067494054
 30
0.0
  0
VERTEX
  5
800
330
7FE
100
AcDbEntity
  8
BEMA_UNG
 62
     7
100
AcDbVertex
100
AcDb2dVertex
 10
141.3535667933834
 20
31.88816935746918
 30
0.0
  0
SEQEND
  5
801
330
7FE
100
AcDbEntity
  8
BEMA_UNG
  0
POLYLINE
  5
802
330
1F
100
AcDbEntity
  8
BEMA_UNG
 62
     7
100
AcDb2dPolyline
 66
     1
 10
0.0
 20
0.0
 30
0.0
  0
VERTEX
  5
803
330
802
100
AcDbEntity
  8
BEMA_UNG
 62
     7
100
AcDbVertex
100
AcDb2dVertex
 10
141.3256615015439
 20
31.36193067494054
 30
0.0
  0
VERTEX
  5
804
330
802
100
AcDbEntity
  8
BEMA_UNG
 62
     7
100
AcDbVertex
100
AcDb2dVertex
 10
141.3256615015439
 20
32.10021512447172
 30
0.0
  0
SEQEND
  5
805
330
802
100
AcDbEntity
  8
BEMA_UNG
  0
POLYLINE
  5
806
330
1F
100
AcDbEntity
  8
BEMA_UNG
 62
     7
100
AcDb2dPolyline
 66
     1
 10
0.0
 20
0.0
 30
0.0
  0
VERTEX
  5
807
330
806
100
AcDbEntity
  8
BEMA_UNG
 62
     7
100
AcDbVertex
100
AcDb2dVertex
 10
141.2972394450407
 20
31.36193067494054
 30
0.0
  0
VERTEX
  5
808
330
806
100
AcDbEntity
  8
BEMA_UNG
 62
     7
100
AcDbVertex
100
AcDb2dVertex
 10
141.2972394450407
 20
32.31243314636217
 30
0.0
  0
SEQEND
  5
809
330
806
100
AcDbEntity
  8
BEMA_UNG
  0
POLYLINE
  5
80A
330
1F
100
AcDbEntity
  8
BEMA_UNG
 62
     7
100
AcDb2dPolyline
 66
     1
 10
0.0
 20
0.0
 30
0.0
  0
VERTEX
  5
80B
330
80A
100
AcDbEntity
  8
BEMA_UNG
 62
     7
100
AcDbVertex
100
AcDb2dVertex
 10
141.2693341532012
 20
31.36193067494054
 30
0.0
  0
VERTEX
  5
80C
330
80A
100
AcDbEntity
  8
BEMA_UNG
 62
     7
100
AcDbVertex
100
AcDb2dVertex
 10
141.2693341532012
 20
32.52447891336471
 30
0.0
  0
SEQEND
  5
80D
330
80A
100
AcDbEntity
  8
BEMA_UNG
  0
POLYLINE
  5
80E
330
1F
100
AcDbEntity
  8
BEMA_UNG
 62
     7
100
AcDb2dPolyline
 66
     1
 10
0.0
 20
0.0
 30
0.0
  0
VERTEX
  5
80F
330
80E
100
AcDbEntity
  8
BEMA_UNG
 62
     7
100
AcDbVertex
100
AcDb2dVertex
 10
141.2414288613617
 20
31.36193067494054
 30
0.0
  0
VERTEX
  5
810
330
80E
100
AcDbEntity
  8
BEMA_UNG
 62
     7
100
AcDbVertex
100
AcDb2dVertex
 10
141.2414288613617
 20
32.73704144503095
 30
0.0
  0
SEQEND
  5
811
330
80E
100
AcDbEntity
  8
BEMA_UNG
  0
ENDSEC
  0
SECTION
  2
OBJECTS
  0
DICTIONARY
  5
C
330
0
100
AcDbDictionary
  3
ACAD_GROUP
350
D
  3
ACAD_LAYOUT
350
1A
  3
ACAD_MLINESTYLE
350
17
  3
ACAD_PLOTSETTINGS
350
19
  3
ACAD_TABLESTYLE
350
832
  3
ACAD_VISUALSTYLE
350
2A
  3
ACDBHEADERROUNDTRIPXREC
350
812
  0
DICTIONARY
  5
D
102
{ACAD_REACTORS
330
C
102
}
330
C
100
AcDbDictionary
  0
DICTIONARY
  5
1A
102
{ACAD_REACTORS
330
C
102
}
330
C
100
AcDbDictionary
  0
DICTIONARY
  5
17
102
{ACAD_REACTORS
330
C
102
}
330
C
100
AcDbDictionary
  3
STANDARD
350
18
  0
DICTIONARY
  5
19
102
{ACAD_REACTORS
330
C
102
}
330
C
100
AcDbDictionary
  0
DICTIONARY
  5
832
102
{ACAD_REACTORS
330
C
102
}
330
C
100
AcDbDictionary
  0
DICTIONARY
  5
2A
102
{ACAD_REACTORS
330
C
102
}
330
C
100
AcDbDictionary
  3
2DWIREFRAME
350
2F
  3
3D_HIDDEN
350
31
  3
3DWIREFRAME
350
30
  3
BASIC
350
32
  3
BRIGHTEN
350
36
  3
COLORCHANGE
350
3A
  3
CONCEPTUAL
350
34
  3
DIM
350
35
  3
FACEPATTERN
350
39
  3
FLAT
350
2B
  3
FLATWITHEDGES
350
2C
  3
GOURAUD
350
2D
  3
GOURAUDWITHEDGES
350
2E
  3
LINEPATTERN
350
38
  3
REALISTIC
350
33
  3
THICKEN
350
37
  0
DICTIONARY
  5
812
102
{ACAD_REACTORS
330
C
102
}
330
C
100
AcDbDictionary
  3
CEPSNTYPE
350
81B
  3
DIMSTYLEDATA
350
831
  3
FINGERPRINTGUID
350
81C
  3
HYPERLINKBASE
350
815
  3
INSUNITS
350
81A
  3
LAYOUTDICT
350
817
  3
LWETCUNION
350
819
  3
PLOTSETDICT
350
818
  3
PSVPSCALE
350
81E
  3
PUCSBASE
350
821
  3
PUCSORGBACK
350
827
  3
PUCSORGBOTTOM
350
823
  3
PUCSORGFRONT
350
826
  3
PUCSORGLEFT
350
824
  3
PUCSORGRIGHT
350
825
  3
PUCSORGTOP
350
822
  3
PUCSORTHOREF
350
81F
  3
PUCSORTHOVIEW
350
820
  3
STYLESHEET
350
816
  3
TSTACKALIGN
350
813
  3
TSTACKSIZE
350
814
  3
UCSBASE
350
82A
  3
UCSORGBACK
350
830
  3
UCSORGBOTTOM
350
82C
  3
UCSORGFRONT
350
82F
  3
UCSORGLEFT
350
82D
  3
UCSORGRIGHT
350
82E
  3
UCSORGTOP
350
82B
  3
UCSORTHOREF
350
828
  3
UCSORTHOVIEW
350
829
  3
VERSIONGUID
350
81D
  0
MLINESTYLE
  5
18
102
{ACAD_REACTORS
330
17
102
}
330
17
100
AcDbMlineStyle
  2
Standard
 70
     0
  3

 62
   256
 51
90.0
 52
90.0
 71
     2
 49
0.5
 62
   256
  6
BYLAYER
 49
-0.5
 62
   256
  6
BYLAYER
  0
VISUALSTYLE
  5
2F
102
{ACAD_REACTORS
330
2A
102
}
330
2A
100
AcDbVisualStyle
  2
2dWireframe
 70
     4
 71
     0
 72
     2
 73
     0
 90
        0
 40
-0.6
 41
-30.0
 62
     5
 63
     7
 74
     1
 91
        4
 64
     7
 65
   257
 75
     1
175
     1
 42
1.0
 92
        0
 66
   257
 43
1.0
 76
     1
 77
     6
 78
     2
 67
     7
 79
     5
170
     0
171
     0
290
     0
174
     0
 93
        1
 44
0.0
173
     0
291
     0
 45
0.0
1001
ACAD
1000
AcDbSavedByObjectVersion
1070
     0
  0
VISUALSTYLE
  5
31
102
{ACAD_REACTORS
330
2A
102
}
330
2A
100
AcDbVisualStyle
  2
3D Hidden
 70
     6
 71
     1
 72
     2
 73
     2
 90
        0
 40
-0.6
 41
-30.0
 62
     5
 63
     7
 74
     2
 91
        2
 64
     7
 65
   257
 75
     2
175
     1
 42
40.0
 92
        0
 66
   257
 43
1.0
 76
     1
 77
     6
 78
     2
 67
     7
 79
     3
170
     0
171
     0
290
     0
174
     0
 93
        1
 44
0.0
173
     0
291
     0
 45
0.0
1001
ACAD
1000
AcDbSavedByObjectVersion
1070
     0
  0
VISUALSTYLE
  5
30
102
{ACAD_REACTORS
330
2A
102
}
330
2A
100
AcDbVisualStyle
  2
3dWireframe
 70
     5
 71
     0
 72
     2
 73
     0
 90
        0
 40
-0.6
 41
-30.0
 62
     5
 63
     7
 74
     1
 91
        4
 64
     7
 65
   257
 75
     1
175
     1
 42
1.0
 92
        0
 66
   257
 43
1.0
 76
     1
 77
     6
 78
     2
 67
     7
 79
     5
170
     0
171
     0
290
     0
174
     0
 93
        1
 44
0.0
173
     0
291
     0
 45
0.0
1001
ACAD
1000
AcDbSavedByObjectVersion
1070
     0
  0
VISUALSTYLE
  5
32
102
{ACAD_REACTORS
330
2A
102
}
330
2A
100
AcDbVisualStyle
  2
Basic
 70
     7
 71
     1
 72
     0
 73
     1
 90
        0
 40
-0.6
 41
-30.0
 62
     5
 63
     7
 74
     0
 91
        4
 64
     7
 65
   257
 75
     1
175
     1
 42
1.0
 92
        8
 66
     7
 43
1.0
 76
     1
 77
     6
 78
     2
 67
     7
 79
     5
170
     0
171
     0
290
     0
174
     0
 93
        1
 44
0.0
173
     0
291
     1
 45
0.0
1001
ACAD
1000
AcDbSavedByObjectVersion
1070
     0
  0
VISUALSTYLE
  5
36
102
{ACAD_REACTORS
330
2A
102
}
330
2A
100
AcDbVisualStyle
  2
Brighten
 70
    12
 71
     2
 72
     2
 73
     0
 90
        0
 40
-0.6
 41
-30.0
 62
     5
 63
     7
 74
     1
 91
        4
 64
     7
 65
   257
 75
     1
175
     1
 42
1.0
 92
        8
 66
     7
 43
1.0
 76
     1
 77
     6
 78
     2
 67
     7
 79
     5
170
     0
171
     0
290
     0
174
     0
 93
        1
 44
50.0
173
     0
291
     1
 45
0.0
1001
ACAD
1000
AcDbSavedByObjectVersion
1070
     0
  0
VISUALSTYLE
  5
3A
102
{ACAD_REACTORS
330
2A
102
}
330
2A
100
AcDbVisualStyle
  2
ColorChange
 70
    16
 71
     2
 72
     2
 73
     3
 90
        0
 40
-0.6
 41
-30.0
 62
     5
 63
     8
 74
     1
 91
        4
 64
     7
 65
   257
 75
     1
175
     1
 42
1.0
 92
        8
 66
     8
 43
1.0
 76
     1
 77
     6
 78
     2
 67
     7
 79
     5
170
     0
171
     0
290
     0
174
     0
 93
        1
 44
0.0
173
     0
291
     1
 45
0.0
1001
ACAD
1000
AcDbSavedByObjectVersion
1070
     0
  0
VISUALSTYLE
  5
34
102
{ACAD_REACTORS
330
2A
102
}
330
2A
100
AcDbVisualStyle
  2
Conceptual
 70
     9
 71
     3
 72
     2
 73
     0
 90
        0
 40
-0.6
 41
-30.0
 62
     5
 63
     7
 74
     2
 91
        2
 64
     7
 65
   257
 75
     1
175
     1
 42
40.0
 92
        8
 66
     7
 43
1.0
 76
     1
 77
     6
 78
     2
 67
     7
 79
     3
170
     0
171
     0
290
     0
174
     0
 93
        1
 44
0.0
173
     0
291
     0
 45
0.0
1001
ACAD
1000
AcDbSavedByObjectVersion
1070
     0
  0
VISUALSTYLE
  5
35
102
{ACAD_REACTORS
330
2A
102
}
330
2A
100
AcDbVisualStyle
  2
Dim
 70
    11
 71
     2
 72
     2
 73
     0
 90
        0
 40
-0.6
 41
-30.0
 62
     5
 63
     7
 74
     1
 91
        4
 64
     7
 65
   257
 75
     1
175
     1
 42
1.0
 92
        8
 66
     7
 43
1.0
 76
     1
 77
     6
 78
     2
 67
     7
 79
     5
170
     0
171
     0
290
     0
174
     0
 93
        1
 44
-50.0
173
     0
291
     1
 45
0.0
1001
ACAD
1000
AcDbSavedByObjectVersion
1070
     0
  0
VISUALSTYLE
  5
39
102
{ACAD_REACTORS
330
2A
102
}
330
2A
100
AcDbVisualStyle
  2
Facepattern
 70
    15
 71
     2
 72
     2
 73
     0
 90
        0
 40
-0.6
 41
-30.0
 62
     5
 63
     7
 74
     1
 91
        4
 64
     7
 65
   257
 75
     1
175
     1
 42
1.0
 92
        8
 66
     7
 43
1.0
 76
     1
 77
     6
 78
     2
 67
     7
 79
     5
170
     0
171
     0
290
     0
174
     0
 93
        1
 44
0.0
173
     0
291
     1
 45
0.0
1001
ACAD
1000
AcDbSavedByObjectVersion
1070
     0
  0
VISUALSTYLE
  5
2B
102
{ACAD_REACTORS
330
2A
102
}
330
2A
100
AcDbVisualStyle
  2
Flat
 70
     0
 71
     2
 72
     1
 73
     1
 90
        2
 40
-0.6
 41
30.0
 62
     5
 63
     7
 74
     0
 91
        4
 64
     7
 65
   257
 75
     1
175
     1
 42
1.0
 92
        8
 66
     7
 43
1.0
 76
     1
 77
     6
 78
     2
 67
     7
 79
     5
170
     0
171
     0
290
     0
174
     0
 93
       13
 44
0.0
173
     0
291
     1
 45
0.0
1001
ACAD
1000
AcDbSavedByObjectVersion
1070
     0
  0
VISUALSTYLE
  5
2C
102
{ACAD_REACTORS
330
2A
102
}
330
2A
100
AcDbVisualStyle
  2
FlatWithEdges
 70
     1
 71
     2
 72
     1
 73
     1
 90
        2
 40
-0.6
 41
30.0
 62
     5
 63
     7
 74
     1
 91
        4
 64
     7
 65
   257
 75
     1
175
     1
 42
1.0
 92
        0
 66
   257
 43
1.0
 76
     1
 77
     6
 78
     2
 67
     7
 79
     5
170
     0
171
     0
290
     0
174
     0
 93
       13
 44
0.0
173
     0
291
     1
 45
0.0
1001
ACAD
1000
AcDbSavedByObjectVersion
1070
     0
  0
VISUALSTYLE
  5
2D
102
{ACAD_REACTORS
330
2A
102
}
330
2A
100
AcDbVisualStyle
  2
Gouraud
 70
     2
 71
     2
 72
     2
 73
     1
 90
        2
 40
-0.6
 41
30.0
 62
     5
 63
     7
 74
     0
 91
        4
 64
     7
 65
   257
 75
     1
175
     1
 42
1.0
 92
        0
 66
     7
 43
1.0
 76
     1
 77
     6
 78
     2
 67
     7
 79
     5
170
     0
171
     0
290
     0
174
     0
 93
       13
 44
0.0
173
     0
291
     1
 45
0.0
1001
ACAD
1000
AcDbSavedByObjectVersion
1070
     0
  0
VISUALSTYLE
  5
2E
102
{ACAD_REACTORS
330
2A
102
}
330
2A
100
AcDbVisualStyle
  2
GouraudWithEdges
 70
     3
 71
     2
 72
     2
 73
     1
 90
        2
 40
-0.6
 41
30.0
 62
     5
 63
     7
 74
     1
 91
        4
 64
     7
 65
   257
 75
     1
175
     1
 42
1.0
 92
        0
 66
   257
 43
1.0
 76
     1
 77
     6
 78
     2
 67
     7
 79
     5
170
     0
171
     0
290
     0
174
     0
 93
       13
 44
0.0
173
     0
291
     1
 45
0.0
1001
ACAD
1000
AcDbSavedByObjectVersion
1070
     0
  0
VISUALSTYLE
  5
38
102
{ACAD_REACTORS
330
2A
102
}
330
2A
100
AcDbVisualStyle
  2
Linepattern
 70
    14
 71
     2
 72
     2
 73
     0
 90
        0
 40
-0.6
 41
-30.0
 62
     5
 63
     7
 74
     1
 91
        4
 64
     7
 65
   257
 75
     7
175
     7
 42
1.0
 92
        8
 66
     7
 43
1.0
 76
     1
 77
     6
 78
     2
 67
     7
 79
     5
170
     0
171
     0
290
     0
174
     0
 93
        1
 44
0.0
173
     0
291
     1
 45
0.0
1001
ACAD
1000
AcDbSavedByObjectVersion
1070
     0
  0
VISUALSTYLE
  5
33
102
{ACAD_REACTORS
330
2A
102
}
330
2A
100
AcDbVisualStyle
  2
Realistic
 70
     8
 71
     2
 72
     2
 73
     0
 90
        0
 40
-0.6
 41
-30.0
 62
     5
 63
     7
 74
     1
 91
        0
 64
     7
 65
   257
 75
     1
175
     1
 42
1.0
 92
        8
 66
     8
 43
1.0
 76
     1
 77
     6
 78
     2
 67
     7
 79
     5
170
     0
171
     0
290
     0
174
     0
 93
       13
 44
0.0
173
     0
291
     0
 45
0.0
1001
ACAD
1000
AcDbSavedByObjectVersion
1070
     0
  0
VISUALSTYLE
  5
37
102
{ACAD_REACTORS
330
2A
102
}
330
2A
100
AcDbVisualStyle
  2
Thicken
 70
    13
 71
     2
 72
     2
 73
     0
 90
        0
 40
-0.6
 41
-30.0
 62
     5
 63
     7
 74
     1
 91
        4
 64
     7
 65
   257
 75
     1
175
     1
 42
1.0
 92
       12
 66
     7
 43
1.0
 76
     1
 77
     6
 78
     2
 67
     7
 79
     5
170
     0
171
     0
290
     0
174
     0
 93
        1
 44
0.0
173
     0
291
     1
 45
0.0
1001
ACAD
1000
AcDbSavedByObjectVersion
1070
     0
  0
XRECORD
  5
81B
102
{ACAD_REACTORS
330
812
102
}
330
812
100
AcDbXrecord
 90
        0
  0
XRECORD
  5
831
102
{ACAD_REACTORS
330
812
102
}
330
812
100
AcDbXrecord
1000
DSTYLE
1002
{
1070
   340
340
11
1002
}
  0
XRECORD
  5
81C
102
{ACAD_REACTORS
330
812
102
}
330
812
100
AcDbXrecord
  1
{A36B5B4A-0584-4481-969D-10B06B8E63FC}
  0
XRECORD
  5
815
102
{ACAD_REACTORS
330
812
102
}
330
812
100
AcDbXrecord
  1

  0
XRECORD
  5
81A
102
{ACAD_REACTORS
330
812
102
}
330
812
100
AcDbXrecord
 90
        1
  0
XRECORD
  5
817
102
{ACAD_REACTORS
330
812
102
}
330
812
100
AcDbXrecord
340
1A
  0
XRECORD
  5
819
102
{ACAD_REACTORS
330
812
102
}
330
812
100
AcDbXrecord
 90
    10269
  0
XRECORD
  5
818
102
{ACAD_REACTORS
330
812
102
}
330
812
100
AcDbXrecord
340
19
  0
XRECORD
  5
81E
102
{ACAD_REACTORS
330
812
102
}
330
812
100
AcDbXrecord
 40
0.0
  0
XRECORD
  5
821
102
{ACAD_REACTORS
330
812
102
}
330
812
100
AcDbXrecord
340
0
  0
XRECORD
  5
827
102
{ACAD_REACTORS
330
812
102
}
330
812
100
AcDbXrecord
 10
0.0
 20
0.0
 30
0.0
  0
XRECORD
  5
823
102
{ACAD_REACTORS
330
812
102
}
330
812
100
AcDbXrecord
 10
0.0
 20
0.0
 30
0.0
  0
XRECORD
  5
826
102
{ACAD_REACTORS
330
812
102
}
330
812
100
AcDbXrecord
 10
0.0
 20
0.0
 30
0.0
  0
XRECORD
  5
824
102
{ACAD_REACTORS
330
812
102
}
330
812
100
AcDbXrecord
 10
0.0
 20
0.0
 30
0.0
  0
XRECORD
  5
825
102
{ACAD_REACTORS
330
812
102
}
330
812
100
AcDbXrecord
 10
0.0
 20
0.0
 30
0.0
  0
XRECORD
  5
822
102
{ACAD_REACTORS
330
812
102
}
330
812
100
AcDbXrecord
 10
0.0
 20
0.0
 30
0.0
  0
XRECORD
  5
81F
102
{ACAD_REACTORS
330
812
102
}
330
812
100
AcDbXrecord
340
0
  0
XRECORD
  5
820
102
{ACAD_REACTORS
330
812
102
}
330
812
100
AcDbXrecord
 70
     0
  0
XRECORD
  5
816
102
{ACAD_REACTORS
330
812
102
}
330
812
100
AcDbXrecord
  1

  0
XRECORD
  5
813
102
{ACAD_REACTORS
330
812
102
}
330
812
100
AcDbXrecord
 90
        1
  0
XRECORD
  5
814
102
{ACAD_REACTORS
330
812
102
}
330
812
100
AcDbXrecord
 90
       70
  0
XRECORD
  5
82A
102
{ACAD_REACTORS
330
812
102
}
330
812
100
AcDbXrecord
340
0
  0
XRECORD
  5
830
102
{ACAD_REACTORS
330
812
102
}
330
812
100
AcDbXrecord
 10
0.0
 20
0.0
 30
0.0
  0
XRECORD
  5
82C
102
{ACAD_REACTORS
330
812
102
}
330
812
100
AcDbXrecord
 10
0.0
 20
0.0
 30
0.0
  0
XRECORD
  5
82F
102
{ACAD_REACTORS
330
812
102
}
330
812
100
AcDbXrecord
 10
0.0
 20
0.0
 30
0.0
  0
XRECORD
  5
82D
102
{ACAD_REACTORS
330
812
102
}
330
812
100
AcDbXrecord
 10
0.0
 20
0.0
 30
0.0
  0
XRECORD
  5
82E
102
{ACAD_REACTORS
330
812
102
}
330
812
100
AcDbXrecord
 10
0.0
 20
0.0
 30
0.0
  0
XRECORD
  5
82B
102
{ACAD_REACTORS
330
812
102
}
330
812
100
AcDbXrecord
 10
0.0
 20
0.0
 30
0.0
  0
XRECORD
  5
828
102
{ACAD_REACTORS
330
812
102
}
330
812
100
AcDbXrecord
340
0
  0
XRECORD
  5
829
102
{ACAD_REACTORS
330
812
102
}
330
812
100
AcDbXrecord
 70
     0
  0
XRECORD
  5
81D
102
{ACAD_REACTORS
330
812
102
}
330
812
100
AcDbXrecord
  1
{FAEB1C32-E019-11D5-929B-00C0DF256EC4}
  0
ENDSEC
  0
EOF
