  0
SECTION
  2
HEADER
  9
$ACADVER
  1
AC1024
  9
$ACADMAINTVER
 70
     6
  9
$DWGCODEPAGE
  3
ANSI_1252
  9
$INSBASE
 10
0.0
 20
0.0
 30
0.0
  9
$EXTMIN
 10
1.000000000000000E+20
 20
1.000000000000000E+20
 30
1.000000000000000E+20
  9
$EXTMAX
 10
-1.000000000000000E+20
 20
-1.000000000000000E+20
 30
-1.000000000000000E+20
  9
$LIMMIN
 10
0.0
 20
0.0
  9
$LIMMAX
 10
12.0
 20
9.0
  9
$ORTHOMODE
 70
     0
  9
$REGENMODE
 70
     1
  9
$FILLMODE
 70
     1
  9
$QTEXTMODE
 70
     0
  9
$MIRRTEXT
 70
     1
  9
$LTSCALE
 40
1.0
  9
$ATTMODE
 70
     1
  9
$TEXTSIZE
 40
0.2
  9
$TRACEWID
 40
0.05
  9
$TEXTSTYLE
  7
Standard
  9
$CLAYER
  8
0
  9
$CELTYPE
  6
ByLayer
  9
$CECOLOR
 62
   256
  9
$CELTSCALE
 40
1.0
  9
$DISPSILH
 70
     0
  9
$DIMSCALE
 40
1.0
  9
$DIMASZ
 40
0.18
  9
$DIMEXO
 40
0.0625
  9
$DIMDLI
 40
0.38
  9
$DIMRND
 40
0.0
  9
$DIMDLE
 40
0.0
  9
$DIMEXE
 40
0.18
  9
$DIMTP
 40
0.0
  9
$DIMTM
 40
0.0
  9
$DIMTXT
 40
0.18
  9
$DIMCEN
 40
0.09
  9
$DIMTSZ
 40
0.0
  9
$DIMTOL
 70
     0
  9
$DIMLIM
 70
     0
  9
$DIMTIH
 70
     1
  9
$DIMTOH
 70
     1
  9
$DIMSE1
 70
     0
  9
$DIMSE2
 70
     0
  9
$DIMTAD
 70
     0
  9
$DIMZIN
 70
     0
  9
$DIMBLK
  1

  9
$DIMASO
 70
     1
  9
$DIMSHO
 70
     1
  9
$DIMPOST
  1

  9
$DIMAPOST
  1

  9
$DIMALT
 70
     0
  9
$DIMALTD
 70
     2
  9
$DIMALTF
 40
25.4
  9
$DIMLFAC
 40
1.0
  9
$DIMTOFL
 70
     0
  9
$DIMTVP
 40
0.0
  9
$DIMTIX
 70
     0
  9
$DIMSOXD
 70
     0
  9
$DIMSAH
 70
     0
  9
$DIMBLK1
  1

  9
$DIMBLK2
  1

  9
$DIMSTYLE
  2
Standard
  9
$DIMCLRD
 70
     0
  9
$DIMCLRE
 70
     0
  9
$DIMCLRT
 70
     0
  9
$DIMTFAC
 40
1.0
  9
$DIMGAP
 40
0.09
  9
$DIMJUST
 70
     0
  9
$DIMSD1
 70
     0
  9
$DIMSD2
 70
     0
  9
$DIMTOLJ
 70
     1
  9
$DIMTZIN
 70
     0
  9
$DIMALTZ
 70
     0
  9
$DIMALTTZ
 70
     0
  9
$DIMUPT
 70
     0
  9
$DIMDEC
 70
     4
  9
$DIMTDEC
 70
     4
  9
$DIMALTU
 70
     2
  9
$DIMALTTD
 70
     2
  9
$DIMTXSTY
  7
Standard
  9
$DIMAUNIT
 70
     0
  9
$DIMADEC
 70
     0
  9
$DIMALTRND
 40
0.0
  9
$DIMAZIN
 70
     0
  9
$DIMDSEP
 70
    46
  9
$DIMATFIT
 70
     3
  9
$DIMFRAC
 70
     0
  9
$DIMLDRBLK
  1

  9
$DIMLUNIT
 70
     2
  9
$DIMLWD
 70
    -2
  9
$DIMLWE
 70
    -2
  9
$DIMTMOVE
 70
     0
  9
$DIMFXL
 40
1.0
  9
$DIMFXLON
 70
     0
  9
$DIMJOGANG
 40
0.7853981633974483
  9
$DIMTFILL
 70
     0
  9
$DIMTFILLCLR
 70
     0
  9
$DIMARCSYM
 70
     0
  9
$DIMLTYPE
  6

  9
$DIMLTEX1
  6

  9
$DIMLTEX2
  6

  9
$DIMTXTDIRECTION
 70
     0
  9
$LUNITS
 70
     2
  9
$LUPREC
 70
     4
  9
$SKETCHINC
 40
0.1
  9
$FILLETRAD
 40
0.5
  9
$AUNITS
 70
     0
  9
$AUPREC
 70
     0
  9
$MENU
  1
.
  9
$ELEVATION
 40
0.0
  9
$PELEVATION
 40
0.0
  9
$THICKNESS
 40
0.0
  9
$LIMCHECK
 70
     0
  9
$CHAMFERA
 40
0.5
  9
$CHAMFERB
 40
0.5
  9
$CHAMFERC
 40
1.0
  9
$CHAMFERD
 40
0.0
  9
$SKPOLY
 70
     0
  9
$TDCREATE
 40
2458738.465179572
  9
$TDUCREATE
 40
2458738.381846238
  9
$TDUPDATE
 40
2458738.465179954
  9
$TDUUPDATE
 40
2458738.38184662
  9
$TDINDWG
 40
0.0000000116
  9
$TDUSRTIMER
 40
0.0000000116
  9
$USRTIMER
 70
     1
  9
$ANGBASE
 50
0.0
  9
$ANGDIR
 70
     0
  9
$PDMODE
 70
     0
  9
$PDSIZE
 40
0.0
  9
$PLINEWID
 40
0.0
  9
$SPLFRAME
 70
     0
  9
$SPLINETYPE
 70
     6
  9
$SPLINESEGS
 70
     8
  9
$HANDSEED
  5
521
  9
$SURFTAB1
 70
     6
  9
$SURFTAB2
 70
     6
  9
$SURFTYPE
 70
     6
  9
$SURFU
 70
     6
  9
$SURFV
 70
     6
  9
$UCSBASE
  2

  9
$UCSNAME
  2

  9
$UCSORG
 10
0.0
 20
0.0
 30
0.0
  9
$UCSXDIR
 10
1.0
 20
0.0
 30
0.0
  9
$UCSYDIR
 10
0.0
 20
1.0
 30
0.0
  9
$UCSORTHOREF
  2

  9
$UCSORTHOVIEW
 70
     0
  9
$UCSORGTOP
 10
0.0
 20
0.0
 30
0.0
  9
$UCSORGBOTTOM
 10
0.0
 20
0.0
 30
0.0
  9
$UCSORGLEFT
 10
0.0
 20
0.0
 30
0.0
  9
$UCSORGRIGHT
 10
0.0
 20
0.0
 30
0.0
  9
$UCSORGFRONT
 10
0.0
 20
0.0
 30
0.0
  9
$UCSORGBACK
 10
0.0
 20
0.0
 30
0.0
  9
$PUCSBASE
  2

  9
$PUCSNAME
  2

  9
$PUCSORG
 10
0.0
 20
0.0
 30
0.0
  9
$PUCSXDIR
 10
1.0
 20
0.0
 30
0.0
  9
$PUCSYDIR
 10
0.0
 20
1.0
 30
0.0
  9
$PUCSORTHOREF
  2

  9
$PUCSORTHOVIEW
 70
     0
  9
$PUCSORGTOP
 10
0.0
 20
0.0
 30
0.0
  9
$PUCSORGBOTTOM
 10
0.0
 20
0.0
 30
0.0
  9
$PUCSORGLEFT
 10
0.0
 20
0.0
 30
0.0
  9
$PUCSORGRIGHT
 10
0.0
 20
0.0
 30
0.0
  9
$PUCSORGFRONT
 10
0.0
 20
0.0
 30
0.0
  9
$PUCSORGBACK
 10
0.0
 20
0.0
 30
0.0
  9
$USERI1
 70
     0
  9
$USERI2
 70
     0
  9
$USERI3
 70
     0
  9
$USERI4
 70
     0
  9
$USERI5
 70
     0
  9
$USERR1
 40
0.0
  9
$USERR2
 40
0.0
  9
$USERR3
 40
0.0
  9
$USERR4
 40
0.0
  9
$USERR5
 40
0.0
  9
$WORLDVIEW
 70
     1
  9
$SHADEDGE
 70
     3
  9
$SHADEDIF
 70
    70
  9
$TILEMODE
 70
     1
  9
$MAXACTVP
 70
    64
  9
$PINSBASE
 10
0.0
 20
0.0
 30
0.0
  9
$PLIMCHECK
 70
     0
  9
$PEXTMIN
 10
1.000000000000000E+20
 20
1.000000000000000E+20
 30
1.000000000000000E+20
  9
$PEXTMAX
 10
-1.000000000000000E+20
 20
-1.000000000000000E+20
 30
-1.000000000000000E+20
  9
$PLIMMIN
 10
0.0
 20
0.0
  9
$PLIMMAX
 10
12.0
 20
9.0
  9
$UNITMODE
 70
     0
  9
$VISRETAIN
 70
     1
  9
$PLINEGEN
 70
     0
  9
$PSLTSCALE
 70
     1
  9
$TREEDEPTH
 70
  3020
  9
$CMLSTYLE
  2
Standard
  9
$CMLJUST
 70
     0
  9
$CMLSCALE
 40
1.0
  9
$PROXYGRAPHICS
 70
     1
  9
$MEASUREMENT
 70
     0
  9
$CELWEIGHT
370
    -1
  9
$ENDCAPS
280
     0
  9
$JOINSTYLE
280
     0
  9
$LWDISPLAY
290
     1
  9
$INSUNITS
 70
     1
  9
$HYPERLINKBASE
  1

  9
$STYLESHEET
  1

  9
$XEDIT
290
     1
  9
$CEPSNTYPE
380
     0
  9
$PSTYLEMODE
290
     1
  9
$FINGERPRINTGUID
  2
{A32DDEB5-A319-43A6-960E-D0EEBFA629C9}
  9
$VERSIONGUID
  2
{FAEB1C32-E019-11D5-929B-00C0DF256EC4}
  9
$EXTNAMES
290
     1
  9
$PSVPSCALE
 40
0.0
  9
$OLESTARTUP
290
     0
  9
$SORTENTS
280
   127
  9
$INDEXCTL
280
     0
  9
$HIDETEXT
280
     1
  9
$XCLIPFRAME
280
     2
  9
$HALOGAP
280
     0
  9
$OBSCOLOR
 70
   257
  9
$OBSLTYPE
280
     0
  9
$INTERSECTIONDISPLAY
280
     0
  9
$INTERSECTIONCOLOR
 70
   257
  9
$DIMASSOC
280
     2
  9
$PROJECTNAME
  1

  9
$CAMERADISPLAY
290
     0
  9
$LENSLENGTH
 40
50.0
  9
$CAMERAHEIGHT
 40
0.0
  9
$STEPSPERSEC
 40
2.0
  9
$STEPSIZE
 40
6.0
  9
$3DDWFPREC
 40
2.0
  9
$PSOLWIDTH
 40
0.25
  9
$PSOLHEIGHT
 40
4.0
  9
$LOFTANG1
 40
1.570796326794897
  9
$LOFTANG2
 40
1.570796326794897
  9
$LOFTMAG1
 40
0.0
  9
$LOFTMAG2
 40
0.0
  9
$LOFTPARAM
 70
     7
  9
$LOFTNORMALS
280
     1
  9
$LATITUDE
 40
37.795
  9
$LONGITUDE
 40
-122.394
  9
$NORTHDIRECTION
 40
0.0
  9
$TIMEZONE
 70
 -8000
  9
$LIGHTGLYPHDISPLAY
280
     1
  9
$TILEMODELIGHTSYNCH
280
     1
  9
$CMATERIAL
347
3C
  9
$SOLIDHIST
280
     1
  9
$SHOWHIST
280
     1
  9
$DWFFRAME
280
     2
  9
$DGNFRAME
280
     2
  9
$REALWORLDSCALE
290
     1
  9
$INTERFERECOLOR
 62
   256
  9
$CSHADOW
280
     0
  9
$SHADOWPLANELOCATION
 40
0.0
  0
ENDSEC
  0
SECTION
  2
CLASSES
  0
CLASS
  1
ACDBDICTIONARYWDFLT
  2
AcDbDictionaryWithDefault
  3
ObjectDBX Classes
 90
        0
 91
        4
280
     0
281
     0
  0
CLASS
  1
VISUALSTYLE
  2
AcDbVisualStyle
  3
ObjectDBX Classes
 90
     4095
 91
        4
280
     0
281
     0
  0
CLASS
  1
MATERIAL
  2
AcDbMaterial
  3
ObjectDBX Classes
 90
     1153
 91
        4
280
     0
281
     0
  0
CLASS
  1
SUN
  2
AcDbSun
  3
SCENEOE
 90
     1024
 91
        4
280
     0
281
     0
  0
ENDSEC
  0
SECTION
  2
TABLES
  0
TABLE
  2
VPORT
  5
8
330
0
100
AcDbSymbolTable
 70
     1
  0
VPORT
  5
29
330
8
100
AcDbSymbolTableRecord
100
AcDbViewportTableRecord
  2
*Active
 70
     0
 10
0.0
 20
0.0
 11
1.0
 21
1.0
 12
0.0
 22
0.0
 13
0.0
 23
0.0
 14
0.5
 24
0.5
 15
0.5
 25
0.5
 16
0.0
 26
0.0
 36
1.0
 17
107.9499999730125
 27
139.699999965075
 37
0.0
 40
279.39999993015
 41
0.7727272727272728
 42
50.0
 43
0.0
 44
0.0
 50
0.0
 51
0.0
 71
     0
 72
   100
 73
     1
 74
     3
 75
     0
 76
     0
 77
     0
 78
     0
281
     0
 65
     1
110
0.0
120
0.0
130
0.0
111
1.0
121
0.0
131
0.0
112
0.0
122
1.0
132
0.0
 79
     0
146
0.0
 60
     3
 61
     5
292
     1
282
     1
141
0.0
142
0.0
 63
   250
361
3F
  0
ENDTAB
  0
TABLE
  2
LTYPE
  5
5
330
0
100
AcDbSymbolTable
 70
     1
  0
LTYPE
  5
14
330
5
100
AcDbSymbolTableRecord
100
AcDbLinetypeTableRecord
  2
ByBlock
 70
     0
  3

 72
    65
 73
     0
 40
0.0
  0
LTYPE
  5
15
330
5
100
AcDbSymbolTableRecord
100
AcDbLinetypeTableRecord
  2
ByLayer
 70
     0
  3

 72
    65
 73
     0
 40
0.0
  0
LTYPE
  5
16
330
5
100
AcDbSymbolTableRecord
100
AcDbLinetypeTableRecord
  2
Continuous
 70
     0
  3
Solid line
 72
    65
 73
     0
 40
0.0
  0
ENDTAB
  0
TABLE
  2
LAYER
  5
2
330
0
100
AcDbSymbolTable
 70
     5
  0
LAYER
  5
10
330
2
100
AcDbSymbolTableRecord
100
AcDbLayerTableRecord
  2
0
 70
     0
 62
     7
  6
Continuous
370
    -3
390
F
347
3E
  0
LAYER
  5
40
330
2
100
AcDbSymbolTableRecord
100
AcDbLayerTableRecord
  2
grau 10%
 70
     0
 62
     7
  6
Continuous
370
    -3
390
F
347
3E
  0
LAYER
  5
288
330
2
100
AcDbSymbolTableRecord
100
AcDbLayerTableRecord
  2
Ebene 1
 70
     0
 62
     7
  6
Continuous
370
    -3
390
F
347
3E
  0
LAYER
  5
289
330
2
100
AcDbSymbolTableRecord
100
AcDbLayerTableRecord
  2
Bema_U+00DFung
 70
     1
 62
     7
  6
Continuous
370
    -3
390
F
347
3E
  0
LAYER
  5
51A
330
2
100
AcDbSymbolTableRecord
100
AcDbLayerTableRecord
  2
Text
 70
     1
 62
     7
  6
Continuous
370
    -3
390
F
347
3E
  0
ENDTAB
  0
TABLE
  2
STYLE
  5
3
330
0
100
AcDbSymbolTable
 70
     1
  0
STYLE
  5
11
330
3
100
AcDbSymbolTableRecord
100
AcDbTextStyleTableRecord
  2
Standard
 70
     0
 40
0.0
 41
1.0
 50
0.0
 71
     0
 42
0.2
  3
txt
  4

  0
ENDTAB
  0
TABLE
  2
VIEW
  5
6
330
0
100
AcDbSymbolTable
 70
     0
  0
ENDTAB
  0
TABLE
  2
UCS
  5
7
330
0
100
AcDbSymbolTable
 70
     0
  0
ENDTAB
  0
TABLE
  2
APPID
  5
9
330
0
100
AcDbSymbolTable
 70
     1
  0
APPID
  5
12
330
9
100
AcDbSymbolTableRecord
100
AcDbRegAppTableRecord
  2
ACAD
 70
     0
  0
ENDTAB
  0
TABLE
  2
DIMSTYLE
  5
A
330
0
100
AcDbSymbolTable
 70
     1
100
AcDbDimStyleTable
  0
DIMSTYLE
105
27
330
A
100
AcDbSymbolTableRecord
100
AcDbDimStyleTableRecord
  2
Standard
 70
     0
178
     0
340
11
  0
ENDTAB
  0
TABLE
  2
BLOCK_RECORD
  5
1
330
0
100
AcDbSymbolTable
 70
     1
  0
BLOCK_RECORD
  5
1F
330
1
100
AcDbSymbolTableRecord
100
AcDbBlockTableRecord
  2
*Model_Space
340
22
 70
     0
280
     1
281
     0
  0
BLOCK_RECORD
  5
1B
330
1
100
AcDbSymbolTableRecord
100
AcDbBlockTableRecord
  2
*Paper_Space
340
1E
 70
     0
280
     1
281
     0
  0
BLOCK_RECORD
  5
23
330
1
100
AcDbSymbolTableRecord
100
AcDbBlockTableRecord
  2
*Paper_Space0
340
26
 70
     0
280
     1
281
     0
  0
ENDTAB
  0
ENDSEC
  0
SECTION
  2
BLOCKS
  0
BLOCK
  5
20
330
1F
100
AcDbEntity
  8
0
100
AcDbBlockBegin
  2
*Model_Space
 70
     0
 10
0.0
 20
0.0
 30
0.0
  3
*Model_Space
  1

  0
ENDBLK
  5
21
330
1F
100
AcDbEntity
  8
0
100
AcDbBlockEnd
  0
BLOCK
  5
1C
330
1B
100
AcDbEntity
 67
     1
  8
0
100
AcDbBlockBegin
  2
*Paper_Space
 70
     0
 10
0.0
 20
0.0
 30
0.0
  3
*Paper_Space
  1

  0
ENDBLK
  5
1D
330
1B
100
AcDbEntity
 67
     1
  8
0
100
AcDbBlockEnd
  0
BLOCK
  5
24
330
23
100
AcDbEntity
  8
0
100
AcDbBlockBegin
  2
*Paper_Space0
 70
     0
 10
0.0
 20
0.0
 30
0.0
  3
*Paper_Space0
  1

  0
ENDBLK
  5
25
330
23
100
AcDbEntity
  8
0
100
AcDbBlockEnd
  0
ENDSEC
  0
SECTION
  2
ENTITIES
  0
POLYLINE
  5
41
330
1F
100
AcDbEntity
  8
grau 10%
 62
     7
420
 16777215
370
    35
100
AcDb2dPolyline
 66
     1
 10
0.0
 20
0.0
 30
0.0
  0
VERTEX
  5
42
330
41
100
AcDbEntity
  8
grau 10%
 62
     7
420
 16777215
370
    35
100
AcDbVertex
100
AcDb2dVertex
 10
54.81293333590614
 20
9.83793309283674
 30
0.0
  0
VERTEX
  5
43
330
41
100
AcDbEntity
  8
grau 10%
 62
     7
420
 16777215
370
    35
100
AcDbVertex
100
AcDb2dVertex
 10
54.81293333590614
 20
11.23793377065514
 30
0.0
  0
SEQEND
  5
44
330
41
100
AcDbEntity
  8
grau 10%
 62
     7
420
 16777215
370
    35
  0
POLYLINE
  5
45
330
1F
100
AcDbEntity
  8
grau 10%
 62
     7
420
 16777215
370
    35
100
AcDb2dPolyline
 66
     1
 10
0.0
 20
0.0
 30
0.0
  0
VERTEX
  5
46
330
45
100
AcDbEntity
  8
grau 10%
 62
     7
420
 16777215
370
    35
100
AcDbVertex
100
AcDb2dVertex
 10
44.81293003233518
 20
11.23793377065514
 30
0.0
  0
VERTEX
  5
47
330
45
100
AcDbEntity
  8
grau 10%
 62
     7
420
 16777215
370
    35
100
AcDbVertex
100
AcDb2dVertex
 10
44.81293003233518
 20
9.83793309283674
 30
0.0
  0
SEQEND
  5
48
330
45
100
AcDbEntity
  8
grau 10%
 62
     7
420
 16777215
370
    35
  0
POLYLINE
  5
49
330
1F
100
AcDbEntity
  8
grau 10%
 62
     7
420
 16777215
370
    35
100
AcDb2dPolyline
 66
     1
 10
0.0
 20
0.0
 30
0.0
  0
VERTEX
  5
4A
330
49
100
AcDbEntity
  8
grau 10%
 62
     7
420
 16777215
370
    35
100
AcDbVertex
100
AcDb2dVertex
 10
54.81293333590614
 20
11.23793377065514
 30
0.0
  0
VERTEX
  5
4B
330
49
100
AcDbEntity
  8
grau 10%
 62
     7
420
 16777215
370
    35
100
AcDbVertex
100
AcDb2dVertex
 10
54.70363768163659
 20
11.23793377065514
 30
0.0
  0
VERTEX
  5
4C
330
49
100
AcDbEntity
  8
grau 10%
 62
     7
420
 16777215
370
    35
100
AcDbVertex
100
AcDb2dVertex
 10
54.38060615027747
 20
11.23793377065514
 30
0.0
  0
VERTEX
  5
4D
330
49
100
AcDbEntity
  8
grau 10%
 62
     7
420
 16777215
370
    35
100
AcDbVertex
100
AcDb2dVertex
 10
53.85797439924167
 20
11.23793377065514
 30
0.0
  0
VERTEX
  5
4E
330
49
100
AcDbEntity
  8
grau 10%
 62
     7
420
 16777215
370
    35
100
AcDbVertex
100
AcDb2dVertex
 10
53.1585554201956
 20
11.23793377065514
 30
0.0
  0
VERTEX
  5
4F
330
49
100
AcDbEntity
  8
grau 10%
 62
     7
420
 16777215
370
    35
100
AcDbVertex
100
AcDb2dVertex
 10
52.31292443557086
 20
11.23793377065514
 30
0.0
  0
VERTEX
  5
50
330
49
100
AcDbEntity
  8
grau 10%
 62
     7
420
 16777215
370
    35
100
AcDbVertex
100
AcDb2dVertex
 10
51.35803009444674
 20
11.23793377065514
 30
0.0
  0
VERTEX
  5
51
330
49
100
AcDbEntity
  8
grau 10%
 62
     7
420
 16777215
370
    35
100
AcDbVertex
100
AcDb2dVertex
 10
50.33562264773511
 20
11.23793377065514
 30
0.0
  0
VERTEX
  5
52
330
49
100
AcDbEntity
  8
grau 10%
 62
     7
420
 16777215
370
    35
100
AcDbVertex
100
AcDb2dVertex
 10
49.29038067751031
 20
11.23793377065514
 30
0.0
  0
VERTEX
  5
53
330
49
100
AcDbEntity
  8
grau 10%
 62
     7
420
 16777215
370
    35
100
AcDbVertex
100
AcDb2dVertex
 10
48.26796246487529
 20
11.23793377065514
 30
0.0
  0
VERTEX
  5
54
330
49
100
AcDbEntity
  8
grau 10%
 62
     7
420
 16777215
370
    35
100
AcDbVertex
100
AcDb2dVertex
 10
47.31305735782777
 20
11.23793377065514
 30
0.0
  0
VERTEX
  5
55
330
49
100
AcDbEntity
  8
grau 10%
 62
     7
420
 16777215
370
    35
100
AcDbVertex
100
AcDb2dVertex
 10
46.46741560727963
 20
11.23793377065514
 30
0.0
  0
VERTEX
  5
56
330
49
100
AcDbEntity
  8
grau 10%
 62
     7
420
 16777215
370
    35
100
AcDbVertex
100
AcDb2dVertex
 10
45.76797509638678
 20
11.23793377065514
 30
0.0
  0
VERTEX
  5
57
330
49
100
AcDbEntity
  8
grau 10%
 62
     7
420
 16777215
370
    35
100
AcDbVertex
100
AcDb2dVertex
 10
45.24530028165743
 20
11.23793377065514
 30
0.0
  0
VERTEX
  5
58
330
49
100
AcDbEntity
  8
grau 10%
 62
     7
420
 16777215
370
    35
100
AcDbVertex
100
AcDb2dVertex
 10
44.92224721845152
 20
11.23793377065514
 30
0.0
  0
VERTEX
  5
59
330
49
100
AcDbEntity
  8
grau 10%
 62
     7
420
 16777215
370
    35
100
AcDbVertex
100
AcDb2dVertex
 10
44.81293003233518
 20
11.23793377065514
 30
0.0
  0
SEQEND
  5
5A
330
49
100
AcDbEntity
  8
grau 10%
 62
     7
420
 16777215
370
    35
  0
POLYLINE
  5
5B
330
1F
100
AcDbEntity
  8
grau 10%
 62
     7
420
 16777215
370
    35
100
AcDb2dPolyline
 66
     1
 10
0.0
 20
0.0
 30
0.0
  0
VERTEX
  5
5C
330
5B
100
AcDbEntity
  8
grau 10%
 62
     7
420
 16777215
370
    35
100
AcDbVertex
100
AcDb2dVertex
 10
54.23420035807774
 20
9.83793309283674
 30
0.0
  0
VERTEX
  5
5D
330
5B
100
AcDbEntity
  8
grau 10%
 62
     7
420
 16777215
370
    35
100
AcDbVertex
100
AcDb2dVertex
 10
54.66612920454094
 20
9.83793309283674
 30
0.0
  0
VERTEX
  5
5E
330
5B
100
AcDbEntity
  8
grau 10%
 62
     7
420
 16777215
370
    35
100
AcDbVertex
100
AcDb2dVertex
 10
54.81293333590614
 20
9.83793309283674
 30
0.0
  0
SEQEND
  5
5F
330
5B
100
AcDbEntity
  8
grau 10%
 62
     7
420
 16777215
370
    35
  0
POLYLINE
  5
60
330
1F
100
AcDbEntity
  8
grau 10%
 62
     7
420
 16777215
370
    35
100
AcDb2dPolyline
 66
     1
 10
0.0
 20
0.0
 30
0.0
  0
VERTEX
  5
61
330
60
100
AcDbEntity
  8
grau 10%
 62
     7
420
 16777215
370
    35
100
AcDbVertex
100
AcDb2dVertex
 10
44.81293003233518
 20
9.83793309283674
 30
0.0
  0
VERTEX
  5
62
330
60
100
AcDbEntity
  8
grau 10%
 62
     7
420
 16777215
370
    35
100
AcDbVertex
100
AcDb2dVertex
 10
44.91686425675582
 20
9.83793309283674
 30
0.0
  0
VERTEX
  5
63
330
60
100
AcDbEntity
  8
grau 10%
 62
     7
420
 16777215
370
    35
100
AcDbVertex
100
AcDb2dVertex
 10
45.2244143902781
 20
9.83793309283674
 30
0.0
  0
VERTEX
  5
64
330
60
100
AcDbEntity
  8
grau 10%
 62
     7
420
 16777215
370
    35
100
AcDbVertex
100
AcDb2dVertex
 10
45.72280128183645
 20
9.83793309283674
 30
0.0
  0
VERTEX
  5
65
330
60
100
AcDbEntity
  8
grau 10%
 62
     7
420
 16777215
370
    35
100
AcDbVertex
100
AcDb2dVertex
 10
46.39127899705561
 20
9.83793309283674
 30
0.0
  0
VERTEX
  5
66
330
60
100
AcDbEntity
  8
grau 10%
 62
     7
420
 16777215
370
    35
100
AcDbVertex
100
AcDb2dVertex
 10
47.20206068766237
 20
9.83793309283674
 30
0.0
  0
VERTEX
  5
67
330
60
100
AcDbEntity
  8
grau 10%
 62
     7
420
 16777215
370
    35
100
AcDbVertex
100
AcDb2dVertex
 10
48.12142748159486
 20
9.83793309283674
 30
0.0
  0
VERTEX
  5
68
330
60
100
AcDbEntity
  8
grau 10%
 62
     7
420
 16777215
370
    35
100
AcDbVertex
100
AcDb2dVertex
 10
49.1111280530434
 20
9.83793309283674
 30
0.0
  0
VERTEX
  5
69
330
60
100
AcDbEntity
  8
grau 10%
 62
     7
420
 16777215
370
    35
100
AcDbVertex
100
AcDb2dVertex
 10
50.13002580872943
 20
9.83793309283674
 30
0.0
  0
VERTEX
  5
6A
330
60
100
AcDbEntity
  8
grau 10%
 62
     7
420
 16777215
370
    35
100
AcDbVertex
100
AcDb2dVertex
 10
51.13573530826099
 20
9.83793309283674
 30
0.0
  0
VERTEX
  5
6B
330
60
100
AcDbEntity
  8
grau 10%
 62
     7
420
 16777215
370
    35
100
AcDbVertex
100
AcDb2dVertex
 10
52.08642017333907
 20
9.83793309283674
 30
0.0
  0
VERTEX
  5
6C
330
60
100
AcDbEntity
  8
grau 10%
 62
     7
420
 16777215
370
    35
100
AcDbVertex
100
AcDb2dVertex
 10
52.94256946511722
 20
9.83793309283674
 30
0.0
  0
VERTEX
  5
6D
330
60
100
AcDbEntity
  8
grau 10%
 62
     7
420
 16777215
370
    35
100
AcDbVertex
100
AcDb2dVertex
 10
53.66855874309328
 20
9.83793309283674
 30
0.0
  0
VERTEX
  5
6E
330
60
100
AcDbEntity
  8
grau 10%
 62
     7
420
 16777215
370
    35
100
AcDbVertex
100
AcDb2dVertex
 10
54.23420035807774
 20
9.83793309283674
 30
0.0
  0
SEQEND
  5
6F
330
60
100
AcDbEntity
  8
grau 10%
 62
     7
420
 16777215
370
    35
  0
POLYLINE
  5
70
330
1F
100
AcDbEntity
  8
grau 10%
 62
     7
420
 16777215
370
    35
100
AcDb2dPolyline
 66
     1
 10
0.0
 20
0.0
 30
0.0
  0
VERTEX
  5
71
330
70
100
AcDbEntity
  8
grau 10%
 62
     7
420
 16777215
370
    35
100
AcDbVertex
100
AcDb2dVertex
 10
44.81293003233518
 20
9.83793309283674
 30
0.0
  0
VERTEX
  5
72
330
70
100
AcDbEntity
  8
grau 10%
 62
     7
420
 16777215
370
    35
100
AcDbVertex
100
AcDb2dVertex
 10
45.1129224876367
 20
9.537929871611828
 30
0.0
  0
SEQEND
  5
73
330
70
100
AcDbEntity
  8
grau 10%
 62
     7
420
 16777215
370
    35
  0
POLYLINE
  5
74
330
1F
100
AcDbEntity
  8
grau 10%
 62
     7
420
 16777215
370
    35
100
AcDb2dPolyline
 66
     1
 10
0.0
 20
0.0
 30
0.0
  0
VERTEX
  5
75
330
74
100
AcDbEntity
  8
grau 10%
 62
     7
420
 16777215
370
    35
100
AcDbVertex
100
AcDb2dVertex
 10
54.51293011468123
 20
9.537929871611828
 30
0.0
  0
VERTEX
  5
76
330
74
100
AcDbEntity
  8
grau 10%
 62
     7
420
 16777215
370
    35
100
AcDbVertex
100
AcDb2dVertex
 10
54.81293333590614
 20
9.83793309283674
 30
0.0
  0
SEQEND
  5
77
330
74
100
AcDbEntity
  8
grau 10%
 62
     7
420
 16777215
370
    35
  0
POLYLINE
  5
78
330
1F
100
AcDbEntity
  8
grau 10%
 62
     7
420
 16777215
370
    35
100
AcDb2dPolyline
 66
     1
 10
0.0
 20
0.0
 30
0.0
  0
VERTEX
  5
79
330
78
100
AcDbEntity
  8
grau 10%
 62
     7
420
 16777215
370
    35
100
AcDbVertex
100
AcDb2dVertex
 10
54.81293333590614
 20
11.23793377065514
 30
0.0
  0
VERTEX
  5
7A
330
78
100
AcDbEntity
  8
grau 10%
 62
     7
420
 16777215
370
    35
100
AcDbVertex
100
AcDb2dVertex
 10
54.51293011468123
 20
11.53791546003327
 30
0.0
  0
SEQEND
  5
7B
330
78
100
AcDbEntity
  8
grau 10%
 62
     7
420
 16777215
370
    35
  0
POLYLINE
  5
7C
330
1F
100
AcDbEntity
  8
grau 10%
 62
     7
420
 16777215
370
    35
100
AcDb2dPolyline
 66
     1
 10
0.0
 20
0.0
 30
0.0
  0
VERTEX
  5
7D
330
7C
100
AcDbEntity
  8
grau 10%
 62
     7
420
 16777215
370
    35
100
AcDbVertex
100
AcDb2dVertex
 10
45.1129224876367
 20
11.53791546003327
 30
0.0
  0
VERTEX
  5
7E
330
7C
100
AcDbEntity
  8
grau 10%
 62
     7
420
 16777215
370
    35
100
AcDbVertex
100
AcDb2dVertex
 10
44.81293003233518
 20
11.23793377065514
 30
0.0
  0
SEQEND
  5
7F
330
7C
100
AcDbEntity
  8
grau 10%
 62
     7
420
 16777215
370
    35
  0
POLYLINE
  5
80
330
1F
100
AcDbEntity
  8
grau 10%
 62
     7
420
 16777215
370
    35
100
AcDb2dPolyline
 66
     1
 10
0.0
 20
0.0
 30
0.0
  0
VERTEX
  5
81
330
80
100
AcDbEntity
  8
grau 10%
 62
     7
420
 16777215
370
    35
100
AcDbVertex
100
AcDb2dVertex
 10
45.1129224876367
 20
11.53791546003327
 30
0.0
  0
VERTEX
  5
82
330
80
100
AcDbEntity
  8
grau 10%
 62
     7
420
 16777215
370
    35
100
AcDbVertex
100
AcDb2dVertex
 10
45.21569399233106
 20
11.53791546003327
 30
0.0
  0
VERTEX
  5
83
330
80
100
AcDbEntity
  8
grau 10%
 62
     7
420
 16777215
370
    35
100
AcDbVertex
100
AcDb2dVertex
 10
45.51935762750905
 20
11.53791546003327
 30
0.0
  0
VERTEX
  5
84
330
80
100
AcDbEntity
  8
grau 10%
 62
     7
420
 16777215
370
    35
100
AcDbVertex
100
AcDb2dVertex
 10
46.01067130739924
 20
11.53791546003327
 30
0.0
  0
VERTEX
  5
85
330
80
100
AcDbEntity
  8
grau 10%
 62
     7
420
 16777215
370
    35
100
AcDbVertex
100
AcDb2dVertex
 10
46.66814624891239
 20
11.53791546003327
 30
0.0
  0
VERTEX
  5
86
330
80
100
AcDbEntity
  8
grau 10%
 62
     7
420
 16777215
370
    35
100
AcDbVertex
100
AcDb2dVertex
 10
47.46305896844023
 20
11.53791546003327
 30
0.0
  0
VERTEX
  5
87
330
80
100
AcDbEntity
  8
grau 10%
 62
     7
420
 16777215
370
    35
100
AcDbVertex
100
AcDb2dVertex
 10
48.36065706527529
 20
11.53791546003327
 30
0.0
  0
VERTEX
  5
88
330
80
100
AcDbEntity
  8
grau 10%
 62
     7
420
 16777215
370
    35
100
AcDbVertex
100
AcDb2dVertex
 10
49.32172028050269
 20
11.53791546003327
 30
0.0
  0
VERTEX
  5
89
330
80
100
AcDbEntity
  8
grau 10%
 62
     7
420
 16777215
370
    35
100
AcDbVertex
100
AcDb2dVertex
 10
50.30427227881933
 20
11.53791546003327
 30
0.0
  0
VERTEX
  5
8A
330
80
100
AcDbEntity
  8
grau 10%
 62
     7
420
 16777215
370
    35
100
AcDbVertex
100
AcDb2dVertex
 10
51.26532472812334
 20
11.53791546003327
 30
0.0
  0
VERTEX
  5
8B
330
80
100
AcDbEntity
  8
grau 10%
 62
     7
420
 16777215
370
    35
100
AcDbVertex
100
AcDb2dVertex
 10
52.1629228249584
 20
11.53791546003327
 30
0.0
  0
VERTEX
  5
8C
330
80
100
AcDbEntity
  8
grau 10%
 62
     7
420
 16777215
370
    35
100
AcDbVertex
100
AcDb2dVertex
 10
52.95781401263945
 20
11.53791546003327
 30
0.0
  0
VERTEX
  5
8D
330
80
100
AcDbEntity
  8
grau 10%
 62
     7
420
 16777215
370
    35
100
AcDbVertex
100
AcDb2dVertex
 10
53.61526742230582
 20
11.53791546003327
 30
0.0
  0
VERTEX
  5
8E
330
80
100
AcDbEntity
  8
grau 10%
 62
     7
420
 16777215
370
    35
100
AcDbVertex
100
AcDb2dVertex
 10
54.10654880442584
 20
11.53791546003327
 30
0.0
  0
VERTEX
  5
8F
330
80
100
AcDbEntity
  8
grau 10%
 62
     7
420
 16777215
370
    35
100
AcDbVertex
100
AcDb2dVertex
 10
54.41020167368044
 20
11.53791546003327
 30
0.0
  0
VERTEX
  5
90
330
80
100
AcDbEntity
  8
grau 10%
 62
     7
420
 16777215
370
    35
100
AcDbVertex
100
AcDb2dVertex
 10
54.51293011468123
 20
11.53791546003327
 30
0.0
  0
SEQEND
  5
91
330
80
100
AcDbEntity
  8
grau 10%
 62
     7
420
 16777215
370
    35
  0
POLYLINE
  5
92
330
1F
100
AcDbEntity
  8
grau 10%
 62
     7
420
 16777215
370
    35
100
AcDb2dPolyline
 66
     1
 10
0.0
 20
0.0
 30
0.0
  0
VERTEX
  5
93
330
92
100
AcDbEntity
  8
grau 10%
 62
     7
420
 16777215
370
    35
100
AcDbVertex
100
AcDb2dVertex
 10
52.81293698156131
 20
12.53791902016739
 30
0.0
  0
VERTEX
  5
94
330
92
100
AcDbEntity
  8
grau 10%
 62
     7
420
 16777215
370
    35
100
AcDbVertex
100
AcDb2dVertex
 10
51.65823786821608
 20
14.53792614043561
 30
0.0
  0
SEQEND
  5
95
330
92
100
AcDbEntity
  8
grau 10%
 62
     7
420
 16777215
370
    35
  0
POLYLINE
  5
96
330
1F
100
AcDbEntity
  8
grau 10%
 62
     7
420
 16777215
370
    35
100
AcDb2dPolyline
 66
     1
 10
0.0
 20
0.0
 30
0.0
  0
VERTEX
  5
97
330
96
100
AcDbEntity
  8
grau 10%
 62
     7
420
 16777215
370
    35
100
AcDbVertex
100
AcDb2dVertex
 10
47.96763626594863
 20
14.53792614043561
 30
0.0
  0
VERTEX
  5
98
330
96
100
AcDbEntity
  8
grau 10%
 62
     7
420
 16777215
370
    35
100
AcDbVertex
100
AcDb2dVertex
 10
46.81293715260341
 20
12.53791902016739
 30
0.0
  0
SEQEND
  5
99
330
96
100
AcDbEntity
  8
grau 10%
 62
     7
420
 16777215
370
    35
  0
POLYLINE
  5
9A
330
1F
100
AcDbEntity
  8
grau 10%
 62
     7
420
 16777215
370
    35
100
AcDb2dPolyline
 66
     1
 10
0.0
 20
0.0
 30
0.0
  0
VERTEX
  5
9B
330
9A
100
AcDbEntity
  8
grau 10%
 62
     7
420
 16777215
370
    35
100
AcDbVertex
100
AcDb2dVertex
 10
52.81293698156131
 20
12.53791902016739
 30
0.0
  0
VERTEX
  5
9C
330
9A
100
AcDbEntity
  8
grau 10%
 62
     7
420
 16777215
370
    35
100
AcDbVertex
100
AcDb2dVertex
 10
52.71068224118974
 20
12.53791902016739
 30
0.0
  0
VERTEX
  5
9D
330
9A
100
AcDbEntity
  8
grau 10%
 62
     7
420
 16777215
370
    35
100
AcDbVertex
100
AcDb2dVertex
 10
52.41098046581978
 20
12.53791902016739
 30
0.0
  0
VERTEX
  5
9E
330
9A
100
AcDbEntity
  8
grau 10%
 62
     7
420
 16777215
370
    35
100
AcDbVertex
100
AcDb2dVertex
 10
51.93422231435477
 20
12.53791902016739
 30
0.0
  0
VERTEX
  5
9F
330
9A
100
AcDbEntity
  8
grau 10%
 62
     7
420
 16777215
370
    35
100
AcDbVertex
100
AcDb2dVertex
 10
51.31292087543675
 20
12.53791902016739
 30
0.0
  0
VERTEX
  5
A0
330
9A
100
AcDbEntity
  8
grau 10%
 62
     7
420
 16777215
370
    35
100
AcDbVertex
100
AcDb2dVertex
 10
50.58940775984072
 20
12.53791902016739
 30
0.0
  0
VERTEX
  5
A1
330
9A
100
AcDbEntity
  8
grau 10%
 62
     7
420
 16777215
370
    35
100
AcDbVertex
100
AcDb2dVertex
 10
49.81296936485253
 20
12.53791902016739
 30
0.0
  0
VERTEX
  5
A2
330
9A
100
AcDbEntity
  8
grau 10%
 62
     7
420
 16777215
370
    35
100
AcDbVertex
100
AcDb2dVertex
 10
49.03654173578774
 20
12.53791902016739
 30
0.0
  0
VERTEX
  5
A3
330
9A
100
AcDbEntity
  8
grau 10%
 62
     7
420
 16777215
370
    35
100
AcDbVertex
100
AcDb2dVertex
 10
48.31300708834492
 20
12.53791902016739
 30
0.0
  0
VERTEX
  5
A4
330
9A
100
AcDbEntity
  8
grau 10%
 62
     7
420
 16777215
370
    35
100
AcDbVertex
100
AcDb2dVertex
 10
47.69169488350351
 20
12.53791902016739
 30
0.0
  0
VERTEX
  5
A5
330
9A
100
AcDbEntity
  8
grau 10%
 62
     7
420
 16777215
370
    35
100
AcDbVertex
100
AcDb2dVertex
 10
47.21492596611511
 20
12.53791902016739
 30
0.0
  0
VERTEX
  5
A6
330
9A
100
AcDbEntity
  8
grau 10%
 62
     7
420
 16777215
370
    35
100
AcDbVertex
100
AcDb2dVertex
 10
46.91519189297498
 20
12.53791902016739
 30
0.0
  0
VERTEX
  5
A7
330
9A
100
AcDbEntity
  8
grau 10%
 62
     7
420
 16777215
370
    35
100
AcDbVertex
100
AcDb2dVertex
 10
46.81293715260341
 20
12.53791902016739
 30
0.0
  0
SEQEND
  5
A8
330
9A
100
AcDbEntity
  8
grau 10%
 62
     7
420
 16777215
370
    35
  0
POLYLINE
  5
A9
330
1F
100
AcDbEntity
  8
grau 10%
 62
     7
420
 16777215
370
    35
100
AcDb2dPolyline
 66
     1
 10
0.0
 20
0.0
 30
0.0
  0
VERTEX
  5
AA
330
A9
100
AcDbEntity
  8
grau 10%
 62
     7
420
 16777215
370
    35
100
AcDbVertex
100
AcDb2dVertex
 10
47.96763626594863
 20
14.53792614043561
 30
0.0
  0
VERTEX
  5
AB
330
A9
100
AcDbEntity
  8
grau 10%
 62
     7
420
 16777215
370
    35
100
AcDbVertex
100
AcDb2dVertex
 10
48.07894514789238
 20
14.53792614043561
 30
0.0
  0
VERTEX
  5
AC
330
A9
100
AcDbEntity
  8
grau 10%
 62
     7
420
 16777215
370
    35
100
AcDbVertex
100
AcDb2dVertex
 10
48.39940362356096
 20
14.53792614043561
 30
0.0
  0
VERTEX
  5
AD
330
A9
100
AcDbEntity
  8
grau 10%
 62
     7
420
 16777215
370
    35
100
AcDbVertex
100
AcDb2dVertex
 10
48.89032973020906
 20
14.53792614043561
 30
0.0
  0
VERTEX
  5
AE
330
A9
100
AcDbEntity
  8
grau 10%
 62
     7
420
 16777215
370
    35
100
AcDbVertex
100
AcDb2dVertex
 10
49.49253242103073
 20
14.53792614043561
 30
0.0
  0
VERTEX
  5
AF
330
A9
100
AcDbEntity
  8
grau 10%
 62
     7
420
 16777215
370
    35
100
AcDbVertex
100
AcDb2dVertex
 10
50.13337401090416
 20
14.53792614043561
 30
0.0
  0
VERTEX
  5
B0
330
A9
100
AcDbEntity
  8
grau 10%
 62
     7
420
 16777215
370
    35
100
AcDbVertex
100
AcDb2dVertex
 10
50.73557670172583
 20
14.53792614043561
 30
0.0
  0
VERTEX
  5
B1
330
A9
100
AcDbEntity
  8
grau 10%
 62
     7
420
 16777215
370
    35
100
AcDbVertex
100
AcDb2dVertex
 10
51.22649204245054
 20
14.53792614043561
 30
0.0
  0
VERTEX
  5
B2
330
A9
100
AcDbEntity
  8
grau 10%
 62
     7
420
 16777215
370
    35
100
AcDbVertex
100
AcDb2dVertex
 10
51.54692898627234
 20
14.53792614043561
 30
0.0
  0
VERTEX
  5
B3
330
A9
100
AcDbEntity
  8
grau 10%
 62
     7
420
 16777215
370
    35
100
AcDbVertex
100
AcDb2dVertex
 10
51.65823786821608
 20
14.53792614043561
 30
0.0
  0
SEQEND
  5
B4
330
A9
100
AcDbEntity
  8
grau 10%
 62
     7
420
 16777215
370
    35
  0
POLYLINE
  5
B5
330
1F
100
AcDbEntity
  8
grau 10%
 62
     7
420
 16777215
370
    35
100
AcDb2dPolyline
 66
     1
 10
0.0
 20
0.0
 30
0.0
  0
VERTEX
  5
B6
330
B5
100
AcDbEntity
  8
grau 10%
 62
     7
420
 16777215
370
    35
100
AcDbVertex
100
AcDb2dVertex
 10
46.81293715260341
 20
12.53791902016739
 30
0.0
  0
VERTEX
  5
B7
330
B5
100
AcDbEntity
  8
grau 10%
 62
     7
420
 16777215
370
    35
100
AcDbVertex
100
AcDb2dVertex
 10
46.81293715260341
 20
11.53791546003327
 30
0.0
  0
SEQEND
  5
B8
330
B5
100
AcDbEntity
  8
grau 10%
 62
     7
420
 16777215
370
    35
  0
POLYLINE
  5
B9
330
1F
100
AcDbEntity
  8
grau 10%
 62
     7
420
 16777215
370
    35
100
AcDb2dPolyline
 66
     1
 10
0.0
 20
0.0
 30
0.0
  0
VERTEX
  5
BA
330
B9
100
AcDbEntity
  8
grau 10%
 62
     7
420
 16777215
370
    35
100
AcDbVertex
100
AcDb2dVertex
 10
52.81293698156131
 20
11.53791546003327
 30
0.0
  0
VERTEX
  5
BB
330
B9
100
AcDbEntity
  8
grau 10%
 62
     7
420
 16777215
370
    35
100
AcDbVertex
100
AcDb2dVertex
 10
52.81293698156131
 20
12.53791902016739
 30
0.0
  0
SEQEND
  5
BC
330
B9
100
AcDbEntity
  8
grau 10%
 62
     7
420
 16777215
370
    35
  0
POLYLINE
  5
BD
330
1F
100
AcDbEntity
  8
grau 10%
 62
     7
420
 16777215
370
    35
100
AcDb2dPolyline
 66
     1
 10
0.0
 20
0.0
 30
0.0
  0
VERTEX
  5
BE
330
BD
100
AcDbEntity
  8
grau 10%
 62
     7
420
 16777215
370
    35
100
AcDbVertex
100
AcDb2dVertex
 10
398.8129522386214
 20
51.03791612832668
 30
0.0
  0
VERTEX
  5
BF
330
BD
100
AcDbEntity
  8
grau 10%
 62
     7
420
 16777215
370
    35
100
AcDbVertex
100
AcDb2dVertex
 10
116.8129387457534
 20
51.03791612832668
 30
0.0
  0
SEQEND
  5
C0
330
BD
100
AcDbEntity
  8
grau 10%
 62
     7
420
 16777215
370
    35
  0
POLYLINE
  5
C1
330
1F
100
AcDbEntity
  8
grau 10%
 62
     7
420
 16777215
370
    35
100
AcDb2dPolyline
 66
     1
 10
0.0
 20
0.0
 30
0.0
  0
VERTEX
  5
C2
330
C1
100
AcDbEntity
  8
grau 10%
 62
     7
420
 16777215
370
    35
100
AcDbVertex
100
AcDb2dVertex
 10
116.8129387457534
 20
36.03792732185532
 30
0.0
  0
VERTEX
  5
C3
330
C1
100
AcDbEntity
  8
grau 10%
 62
     7
420
 16777215
370
    35
100
AcDbVertex
100
AcDb2dVertex
 10
398.8129522386214
 20
36.03792732185532
 30
0.0
  0
SEQEND
  5
C4
330
C1
100
AcDbEntity
  8
grau 10%
 62
     7
420
 16777215
370
    35
  0
POLYLINE
  5
C5
330
1F
100
AcDbEntity
  8
grau 10%
 62
     7
420
 16777215
370
    35
100
AcDb2dPolyline
 66
     1
 10
0.0
 20
0.0
 30
0.0
  0
VERTEX
  5
C6
330
C5
100
AcDbEntity
  8
grau 10%
 62
     7
420
 16777215
370
    35
100
AcDbVertex
100
AcDb2dVertex
 10
398.8129522386214
 20
36.03792732185532
 30
0.0
  0
VERTEX
  5
C7
330
C5
100
AcDbEntity
  8
grau 10%
 62
     7
420
 16777215
370
    35
100
AcDbVertex
100
AcDb2dVertex
 10
398.8129522386214
 20
36.14026818961403
 30
0.0
  0
VERTEX
  5
C8
330
C5
100
AcDbEntity
  8
grau 10%
 62
     7
420
 16777215
370
    35
100
AcDbVertex
100
AcDb2dVertex
 10
398.8129522386214
 20
36.44438399357445
 30
0.0
  0
VERTEX
  5
C9
330
C5
100
AcDbEntity
  8
grau 10%
 62
     7
420
 16777215
370
    35
100
AcDbVertex
100
AcDb2dVertex
 10
398.8129522386214
 20
36.94198497272522
 30
0.0
  0
VERTEX
  5
CA
330
C5
100
AcDbEntity
  8
grau 10%
 62
     7
420
 16777215
370
    35
100
AcDbVertex
100
AcDb2dVertex
 10
398.8129522386214
 20
37.61948453174639
 30
0.0
  0
VERTEX
  5
CB
330
C5
100
AcDbEntity
  8
grau 10%
 62
     7
420
 16777215
370
    35
100
AcDbVertex
100
AcDb2dVertex
 10
398.8129522386214
 20
38.45840834609829
 30
0.0
  0
VERTEX
  5
CC
330
C5
100
AcDbEntity
  8
grau 10%
 62
     7
420
 16777215
370
    35
100
AcDbVertex
100
AcDb2dVertex
 10
398.8129522386214
 20
39.43588959449758
 30
0.0
  0
VERTEX
  5
CD
330
C5
100
AcDbEntity
  8
grau 10%
 62
     7
420
 16777215
370
    35
100
AcDbVertex
100
AcDb2dVertex
 10
398.8129522386214
 20
40.52525031878037
 30
0.0
  0
VERTEX
  5
CE
330
C5
100
AcDbEntity
  8
grau 10%
 62
     7
420
 16777215
370
    35
100
AcDbVertex
100
AcDb2dVertex
 10
398.8129522386214
 20
41.69677657038635
 30
0.0
  0
VERTEX
  5
CF
330
C5
100
AcDbEntity
  8
grau 10%
 62
     7
420
 16777215
370
    35
100
AcDbVertex
100
AcDb2dVertex
 10
398.8129522386214
 20
42.91853662053664
 30
0.0
  0
VERTEX
  5
D0
330
C5
100
AcDbEntity
  8
grau 10%
 62
     7
420
 16777215
370
    35
100
AcDbVertex
100
AcDb2dVertex
 10
398.8129522386214
 20
44.15719917041144
 30
0.0
  0
VERTEX
  5
D1
330
C5
100
AcDbEntity
  8
grau 10%
 62
     7
420
 16777215
370
    35
100
AcDbVertex
100
AcDb2dVertex
 10
398.8129522386214
 20
45.37895922056173
 30
0.0
  0
VERTEX
  5
D2
330
C5
100
AcDbEntity
  8
grau 10%
 62
     7
420
 16777215
370
    35
100
AcDbVertex
100
AcDb2dVertex
 10
398.8129522386214
 20
46.5505070040145
 30
0.0
  0
VERTEX
  5
D3
330
C5
100
AcDbEntity
  8
grau 10%
 62
     7
420
 16777215
370
    35
100
AcDbVertex
100
AcDb2dVertex
 10
398.8129522386214
 20
47.63988926014407
 30
0.0
  0
VERTEX
  5
D4
330
C5
100
AcDbEntity
  8
grau 10%
 62
     7
420
 16777215
370
    35
100
AcDbVertex
100
AcDb2dVertex
 10
398.8129522386214
 20
48.61737050854336
 30
0.0
  0
VERTEX
  5
D5
330
C5
100
AcDbEntity
  8
grau 10%
 62
     7
420
 16777215
370
    35
100
AcDbVertex
100
AcDb2dVertex
 10
398.8129522386214
 20
49.45631585474204
 30
0.0
  0
VERTEX
  5
D6
330
C5
100
AcDbEntity
  8
grau 10%
 62
     7
420
 16777215
370
    35
100
AcDbVertex
100
AcDb2dVertex
 10
398.8129522386214
 20
50.13383694560999
 30
0.0
  0
VERTEX
  5
D7
330
C5
100
AcDbEntity
  8
grau 10%
 62
     7
420
 16777215
370
    35
100
AcDbVertex
100
AcDb2dVertex
 10
398.8129522386214
 20
50.63145945660754
 30
0.0
  0
VERTEX
  5
D8
330
C5
100
AcDbEntity
  8
grau 10%
 62
     7
420
 16777215
370
    35
100
AcDbVertex
100
AcDb2dVertex
 10
398.8129522386214
 20
50.93557526056797
 30
0.0
  0
VERTEX
  5
D9
330
C5
100
AcDbEntity
  8
grau 10%
 62
     7
420
 16777215
370
    35
100
AcDbVertex
100
AcDb2dVertex
 10
398.8129522386214
 20
51.03791612832668
 30
0.0
  0
SEQEND
  5
DA
330
C5
100
AcDbEntity
  8
grau 10%
 62
     7
420
 16777215
370
    35
  0
POLYLINE
  5
DB
330
1F
100
AcDbEntity
  8
grau 10%
 62
     7
420
 16777215
370
    35
100
AcDb2dPolyline
 66
     1
 10
0.0
 20
0.0
 30
0.0
  0
VERTEX
  5
DC
330
DB
100
AcDbEntity
  8
grau 10%
 62
     7
420
 16777215
370
    35
100
AcDbVertex
100
AcDb2dVertex
 10
116.8129387457534
 20
40.66604706489317
 30
0.0
  0
VERTEX
  5
DD
330
DB
100
AcDbEntity
  8
grau 10%
 62
     7
420
 16777215
370
    35
100
AcDbVertex
100
AcDb2dVertex
 10
116.8129387457534
 20
39.54626184110627
 30
0.0
  0
VERTEX
  5
DE
330
DB
100
AcDbEntity
  8
grau 10%
 62
     7
420
 16777215
370
    35
100
AcDbVertex
100
AcDb2dVertex
 10
116.8129387457534
 20
38.53923889892096
 30
0.0
  0
VERTEX
  5
DF
330
DB
100
AcDbEntity
  8
grau 10%
 62
     7
420
 16777215
370
    35
100
AcDbVertex
100
AcDb2dVertex
 10
116.8129387457534
 20
37.67340027609055
 30
0.0
  0
VERTEX
  5
E0
330
DB
100
AcDbEntity
  8
grau 10%
 62
     7
420
 16777215
370
    35
100
AcDbVertex
100
AcDb2dVertex
 10
116.8129387457534
 20
36.97324921425387
 30
0.0
  0
VERTEX
  5
E1
330
DB
100
AcDbEntity
  8
grau 10%
 62
     7
420
 16777215
370
    35
100
AcDbVertex
100
AcDb2dVertex
 10
116.8129387457534
 20
36.45853041691076
 30
0.0
  0
VERTEX
  5
E2
330
DB
100
AcDbEntity
  8
grau 10%
 62
     7
420
 16777215
370
    35
100
AcDbVertex
100
AcDb2dVertex
 10
116.8129387457534
 20
36.14377788063962
 30
0.0
  0
VERTEX
  5
E3
330
DB
100
AcDbEntity
  8
grau 10%
 62
     7
420
 16777215
370
    35
100
AcDbVertex
100
AcDb2dVertex
 10
116.8129387457534
 20
36.03792732185532
 30
0.0
  0
SEQEND
  5
E4
330
DB
100
AcDbEntity
  8
grau 10%
 62
     7
420
 16777215
370
    35
  0
POLYLINE
  5
E5
330
1F
100
AcDbEntity
  8
grau 10%
 62
     7
420
 16777215
370
    35
100
AcDb2dPolyline
 66
     1
 10
0.0
 20
0.0
 30
0.0
  0
VERTEX
  5
E6
330
E5
100
AcDbEntity
  8
grau 10%
 62
     7
420
 16777215
370
    35
100
AcDbVertex
100
AcDb2dVertex
 10
116.8129387457534
 20
51.03791612832668
 30
0.0
  0
VERTEX
  5
E7
330
E5
100
AcDbEntity
  8
grau 10%
 62
     7
420
 16777215
370
    35
100
AcDbVertex
100
AcDb2dVertex
 10
116.8129387457534
 20
50.91878042007738
 30
0.0
  0
VERTEX
  5
E8
330
E5
100
AcDbEntity
  8
grau 10%
 62
     7
420
 16777215
370
    35
100
AcDbVertex
100
AcDb2dVertex
 10
116.8129387457534
 20
50.56501217743579
 30
0.0
  0
VERTEX
  5
E9
330
E5
100
AcDbEntity
  8
grau 10%
 62
     7
420
 16777215
370
    35
100
AcDbVertex
100
AcDb2dVertex
 10
116.8129387457534
 20
49.98787255626931
 30
0.0
  0
VERTEX
  5
EA
330
E5
100
AcDbEntity
  8
grau 10%
 62
     7
420
 16777215
370
    35
100
AcDbVertex
100
AcDb2dVertex
 10
116.8129387457534
 20
49.20572822188368
 30
0.0
  0
VERTEX
  5
EB
330
E5
100
AcDbEntity
  8
grau 10%
 62
     7
420
 16777215
370
    35
100
AcDbVertex
100
AcDb2dVertex
 10
116.8129387457534
 20
48.24340539361949
 30
0.0
  0
VERTEX
  5
EC
330
E5
100
AcDbEntity
  8
grau 10%
 62
     7
420
 16777215
370
    35
100
AcDbVertex
100
AcDb2dVertex
 10
116.8129387457534
 20
47.13152235760189
 30
0.0
  0
VERTEX
  5
ED
330
E5
100
AcDbEntity
  8
grau 10%
 62
     7
420
 16777215
370
    35
100
AcDbVertex
100
AcDb2dVertex
 10
116.8129387457534
 20
45.9053698107079
 30
0.0
  0
VERTEX
  5
EE
330
E5
100
AcDbEntity
  8
grau 10%
 62
     7
420
 16777215
370
    35
100
AcDbVertex
100
AcDb2dVertex
 10
116.8129387457534
 20
44.60400652300156
 30
0.0
  0
VERTEX
  5
EF
330
E5
100
AcDbEntity
  8
grau 10%
 62
     7
420
 16777215
370
    35
100
AcDbVertex
100
AcDb2dVertex
 10
116.8129387457534
 20
43.26875210845908
 30
0.0
  0
VERTEX
  5
F0
330
E5
100
AcDbEntity
  8
grau 10%
 62
     7
420
 16777215
370
    35
100
AcDbVertex
100
AcDb2dVertex
 10
116.8129387457534
 20
41.94202430524258
 30
0.0
  0
VERTEX
  5
F1
330
E5
100
AcDbEntity
  8
grau 10%
 62
     7
420
 16777215
370
    35
100
AcDbVertex
100
AcDb2dVertex
 10
116.8129387457534
 20
40.66604706489317
 30
0.0
  0
SEQEND
  5
F2
330
E5
100
AcDbEntity
  8
grau 10%
 62
     7
420
 16777215
370
    35
  0
POLYLINE
  5
F3
330
1F
100
AcDbEntity
  8
grau 10%
 62
     7
420
 16777215
370
    35
100
AcDb2dPolyline
 66
     1
 10
0.0
 20
0.0
 30
0.0
  0
VERTEX
  5
F4
330
F3
100
AcDbEntity
  8
grau 10%
 62
     7
420
 16777215
370
    35
100
AcDbVertex
100
AcDb2dVertex
 10
116.8129387457534
 20
51.03791612832668
 30
0.0
  0
VERTEX
  5
F5
330
F3
100
AcDbEntity
  8
grau 10%
 62
     7
420
 16777215
370
    35
100
AcDbVertex
100
AcDb2dVertex
 10
116.3129369656863
 20
50.53792511418301
 30
0.0
  0
SEQEND
  5
F6
330
F3
100
AcDbEntity
  8
grau 10%
 62
     7
420
 16777215
370
    35
  0
POLYLINE
  5
F7
330
1F
100
AcDbEntity
  8
grau 10%
 62
     7
420
 16777215
370
    35
100
AcDb2dPolyline
 66
     1
 10
0.0
 20
0.0
 30
0.0
  0
VERTEX
  5
F8
330
F7
100
AcDbEntity
  8
grau 10%
 62
     7
420
 16777215
370
    35
100
AcDbVertex
100
AcDb2dVertex
 10
116.3129369656863
 20
36.53791833599899
 30
0.0
  0
VERTEX
  5
F9
330
F7
100
AcDbEntity
  8
grau 10%
 62
     7
420
 16777215
370
    35
100
AcDbVertex
100
AcDb2dVertex
 10
116.8129387457534
 20
36.03792732185532
 30
0.0
  0
SEQEND
  5
FA
330
F7
100
AcDbEntity
  8
grau 10%
 62
     7
420
 16777215
370
    35
  0
POLYLINE
  5
FB
330
1F
100
AcDbEntity
  8
grau 10%
 62
     7
420
 16777215
370
    35
100
AcDb2dPolyline
 66
     1
 10
0.0
 20
0.0
 30
0.0
  0
VERTEX
  5
FC
330
FB
100
AcDbEntity
  8
grau 10%
 62
     7
420
 16777215
370
    35
100
AcDbVertex
100
AcDb2dVertex
 10
398.8129522386214
 20
36.03792732185532
 30
0.0
  0
VERTEX
  5
FD
330
FB
100
AcDbEntity
  8
grau 10%
 62
     7
420
 16777215
370
    35
100
AcDbVertex
100
AcDb2dVertex
 10
399.8129773306023
 20
37.03793088198943
 30
0.0
  0
SEQEND
  5
FE
330
FB
100
AcDbEntity
  8
grau 10%
 62
     7
420
 16777215
370
    35
  0
POLYLINE
  5
FF
330
1F
100
AcDbEntity
  8
grau 10%
 62
     7
420
 16777215
370
    35
100
AcDb2dPolyline
 66
     1
 10
0.0
 20
0.0
 30
0.0
  0
VERTEX
  5
100
330
FF
100
AcDbEntity
  8
grau 10%
 62
     7
420
 16777215
370
    35
100
AcDbVertex
100
AcDb2dVertex
 10
399.8129773306023
 20
50.03791256819257
 30
0.0
  0
VERTEX
  5
101
330
FF
100
AcDbEntity
  8
grau 10%
 62
     7
420
 16777215
370
    35
100
AcDbVertex
100
AcDb2dVertex
 10
398.8129522386214
 20
51.03791612832668
 30
0.0
  0
SEQEND
  5
102
330
FF
100
AcDbEntity
  8
grau 10%
 62
     7
420
 16777215
370
    35
  0
POLYLINE
  5
103
330
1F
100
AcDbEntity
  8
grau 10%
 62
     7
420
 16777215
370
    35
100
AcDb2dPolyline
 66
     1
 10
0.0
 20
0.0
 30
0.0
  0
VERTEX
  5
104
330
103
100
AcDbEntity
  8
grau 10%
 62
     7
420
 16777215
370
    35
100
AcDbVertex
100
AcDb2dVertex
 10
399.8129773306023
 20
50.03791256819257
 30
0.0
  0
VERTEX
  5
105
330
103
100
AcDbEntity
  8
grau 10%
 62
     7
420
 16777215
370
    35
100
AcDbVertex
100
AcDb2dVertex
 10
399.8129773306023
 20
49.92719581203535
 30
0.0
  0
VERTEX
  5
106
330
103
100
AcDbEntity
  8
grau 10%
 62
     7
420
 16777215
370
    35
100
AcDbVertex
100
AcDb2dVertex
 10
399.8129773306023
 20
49.59889974413782
 30
0.0
  0
VERTEX
  5
107
330
103
100
AcDbEntity
  8
grau 10%
 62
     7
420
 16777215
370
    35
100
AcDbVertex
100
AcDb2dVertex
 10
399.8129773306023
 20
49.06422092482705
 30
0.0
  0
VERTEX
  5
108
330
103
100
AcDbEntity
  8
grau 10%
 62
     7
420
 16777215
370
    35
100
AcDbVertex
100
AcDb2dVertex
 10
399.8129773306023
 20
48.34133223278771
 30
0.0
  0
VERTEX
  5
109
330
103
100
AcDbEntity
  8
grau 10%
 62
     7
420
 16777215
370
    35
100
AcDbVertex
100
AcDb2dVertex
 10
399.8129773306023
 20
47.45490916443293
 30
0.0
  0
VERTEX
  5
10A
330
103
100
AcDbEntity
  8
grau 10%
 62
     7
420
 16777215
370
    35
100
AcDbVertex
100
AcDb2dVertex
 10
399.8129773306023
 20
46.43509630525863
 30
0.0
  0
VERTEX
  5
10B
330
103
100
AcDbEntity
  8
grau 10%
 62
     7
420
 16777215
370
    35
100
AcDbVertex
100
AcDb2dVertex
 10
399.8129773306023
 20
45.31664605597227
 30
0.0
  0
VERTEX
  5
10C
330
103
100
AcDbEntity
  8
grau 10%
 62
     7
420
 16777215
370
    35
100
AcDbVertex
100
AcDb2dVertex
 10
399.8129773306023
 20
44.13760518983908
 30
0.0
  0
VERTEX
  5
10D
330
103
100
AcDbEntity
  8
grau 10%
 62
     7
420
 16777215
370
    35
100
AcDbVertex
100
AcDb2dVertex
 10
399.8129773306023
 20
42.93815213295579
 30
0.0
  0
VERTEX
  5
10E
330
103
100
AcDbEntity
  8
grau 10%
 62
     7
420
 16777215
370
    35
100
AcDbVertex
100
AcDb2dVertex
 10
399.8129773306023
 20
41.75913279866938
 30
0.0
  0
VERTEX
  5
10F
330
103
100
AcDbEntity
  8
grau 10%
 62
     7
420
 16777215
370
    35
100
AcDbVertex
100
AcDb2dVertex
 10
399.8129773306023
 20
40.64066101753623
 30
0.0
  0
VERTEX
  5
110
330
103
100
AcDbEntity
  8
grau 10%
 62
     7
420
 16777215
370
    35
100
AcDbVertex
100
AcDb2dVertex
 10
399.8129773306023
 20
39.62086969020871
 30
0.0
  0
VERTEX
  5
111
330
103
100
AcDbEntity
  8
grau 10%
 62
     7
420
 16777215
370
    35
100
AcDbVertex
100
AcDb2dVertex
 10
399.8129773306023
 20
38.73444662185393
 30
0.0
  0
VERTEX
  5
112
330
103
100
AcDbEntity
  8
grau 10%
 62
     7
420
 16777215
370
    35
100
AcDbVertex
100
AcDb2dVertex
 10
399.8129773306023
 20
38.01160099350817
 30
0.0
  0
VERTEX
  5
113
330
103
100
AcDbEntity
  8
grau 10%
 62
     7
420
 16777215
370
    35
100
AcDbVertex
100
AcDb2dVertex
 10
399.8129773306023
 20
37.4769221741974
 30
0.0
  0
VERTEX
  5
114
330
103
100
AcDbEntity
  8
grau 10%
 62
     7
420
 16777215
370
    35
100
AcDbVertex
100
AcDb2dVertex
 10
399.8129773306023
 20
37.14864763814665
 30
0.0
  0
VERTEX
  5
115
330
103
100
AcDbEntity
  8
grau 10%
 62
     7
420
 16777215
370
    35
100
AcDbVertex
100
AcDb2dVertex
 10
399.8129773306023
 20
37.03793088198943
 30
0.0
  0
SEQEND
  5
116
330
103
100
AcDbEntity
  8
grau 10%
 62
     7
420
 16777215
370
    35
  0
POLYLINE
  5
117
330
1F
100
AcDbEntity
  8
grau 10%
 62
     7
420
 16777215
370
    35
100
AcDb2dPolyline
 66
     1
 10
0.0
 20
0.0
 30
0.0
  0
VERTEX
  5
118
330
117
100
AcDbEntity
  8
grau 10%
 62
     7
420
 16777215
370
    35
100
AcDbVertex
100
AcDb2dVertex
 10
85.81293604082975
 20
31.03793105303154
 30
0.0
  0
VERTEX
  5
119
330
117
100
AcDbEntity
  8
grau 10%
 62
     7
420
 16777215
370
    35
100
AcDbVertex
100
AcDb2dVertex
 10
85.81293604082975
 20
56.03793392899725
 30
0.0
  0
SEQEND
  5
11A
330
117
100
AcDbEntity
  8
grau 10%
 62
     7
420
 16777215
370
    35
  0
POLYLINE
  5
11B
330
1F
100
AcDbEntity
  8
grau 10%
 62
     7
420
 16777215
370
    35
100
AcDb2dPolyline
 66
     1
 10
0.0
 20
0.0
 30
0.0
  0
VERTEX
  5
11C
330
11B
100
AcDbEntity
  8
grau 10%
 62
     7
420
 16777215
370
    35
100
AcDbVertex
100
AcDb2dVertex
 10
85.81293604082975
 20
56.03793392899725
 30
0.0
  0
VERTEX
  5
11D
330
11B
100
AcDbEntity
  8
grau 10%
 62
     7
420
 16777215
370
    35
100
AcDbVertex
100
AcDb2dVertex
 10
89.81292874951943
 20
56.03793392899725
 30
0.0
  0
SEQEND
  5
11E
330
11B
100
AcDbEntity
  8
grau 10%
 62
     7
420
 16777215
370
    35
  0
POLYLINE
  5
11F
330
1F
100
AcDbEntity
  8
grau 10%
 62
     7
420
 16777215
370
    35
100
AcDb2dPolyline
 66
     1
 10
0.0
 20
0.0
 30
0.0
  0
VERTEX
  5
120
330
11F
100
AcDbEntity
  8
grau 10%
 62
     7
420
 16777215
370
    35
100
AcDbVertex
100
AcDb2dVertex
 10
89.81292874951943
 20
56.03793392899725
 30
0.0
  0
VERTEX
  5
121
330
11F
100
AcDbEntity
  8
grau 10%
 62
     7
420
 16777215
370
    35
100
AcDbVertex
100
AcDb2dVertex
 10
89.81292874951943
 20
31.03793105303154
 30
0.0
  0
SEQEND
  5
122
330
11F
100
AcDbEntity
  8
grau 10%
 62
     7
420
 16777215
370
    35
  0
POLYLINE
  5
123
330
1F
100
AcDbEntity
  8
grau 10%
 62
     7
420
 16777215
370
    35
100
AcDb2dPolyline
 66
     1
 10
0.0
 20
0.0
 30
0.0
  0
VERTEX
  5
124
330
123
100
AcDbEntity
  8
grau 10%
 62
     7
420
 16777215
370
    35
100
AcDbVertex
100
AcDb2dVertex
 10
89.81292874951943
 20
31.03793105303154
 30
0.0
  0
VERTEX
  5
125
330
123
100
AcDbEntity
  8
grau 10%
 62
     7
420
 16777215
370
    35
100
AcDbVertex
100
AcDb2dVertex
 10
85.81293604082975
 20
31.03793105303154
 30
0.0
  0
SEQEND
  5
126
330
123
100
AcDbEntity
  8
grau 10%
 62
     7
420
 16777215
370
    35
  0
POLYLINE
  5
127
330
1F
100
AcDbEntity
  8
grau 10%
 62
     7
420
 16777215
370
    35
100
AcDb2dPolyline
 66
     1
 10
0.0
 20
0.0
 30
0.0
  0
VERTEX
  5
128
330
127
100
AcDbEntity
  8
grau 10%
 62
     7
420
 16777215
370
    35
100
AcDbVertex
100
AcDb2dVertex
 10
85.81293604082975
 20
56.03793392899725
 30
0.0
  0
VERTEX
  5
129
330
127
100
AcDbEntity
  8
grau 10%
 62
     7
420
 16777215
370
    35
100
AcDbVertex
100
AcDb2dVertex
 10
82.8129361263508
 20
56.03793392899725
 30
0.0
  0
SEQEND
  5
12A
330
127
100
AcDbEntity
  8
grau 10%
 62
     7
420
 16777215
370
    35
  0
POLYLINE
  5
12B
330
1F
100
AcDbEntity
  8
grau 10%
 62
     7
420
 16777215
370
    35
100
AcDb2dPolyline
 66
     1
 10
0.0
 20
0.0
 30
0.0
  0
VERTEX
  5
12C
330
12B
100
AcDbEntity
  8
grau 10%
 62
     7
420
 16777215
370
    35
100
AcDbVertex
100
AcDb2dVertex
 10
82.8129361263508
 20
31.03793105303154
 30
0.0
  0
VERTEX
  5
12D
330
12B
100
AcDbEntity
  8
grau 10%
 62
     7
420
 16777215
370
    35
100
AcDbVertex
100
AcDb2dVertex
 10
82.8129361263508
 20
56.03793392899725
 30
0.0
  0
SEQEND
  5
12E
330
12B
100
AcDbEntity
  8
grau 10%
 62
     7
420
 16777215
370
    35
  0
POLYLINE
  5
12F
330
1F
100
AcDbEntity
  8
grau 10%
 62
     7
420
 16777215
370
    35
100
AcDb2dPolyline
 66
     1
 10
0.0
 20
0.0
 30
0.0
  0
VERTEX
  5
130
330
12F
100
AcDbEntity
  8
grau 10%
 62
     7
420
 16777215
370
    35
100
AcDbVertex
100
AcDb2dVertex
 10
85.81293604082975
 20
31.03793105303154
 30
0.0
  0
VERTEX
  5
131
330
12F
100
AcDbEntity
  8
grau 10%
 62
     7
420
 16777215
370
    35
100
AcDbVertex
100
AcDb2dVertex
 10
82.8129361263508
 20
31.03793105303154
 30
0.0
  0
SEQEND
  5
132
330
12F
100
AcDbEntity
  8
grau 10%
 62
     7
420
 16777215
370
    35
  0
POLYLINE
  5
133
330
1F
100
AcDbEntity
  8
grau 10%
 62
     7
420
 16777215
370
    35
100
AcDb2dPolyline
 66
     1
 10
0.0
 20
0.0
 30
0.0
  0
VERTEX
  5
134
330
133
100
AcDbEntity
  8
grau 10%
 62
     7
420
 16777215
370
    35
100
AcDbVertex
100
AcDb2dVertex
 10
89.81292874951943
 20
56.03793392899725
 30
0.0
  0
VERTEX
  5
135
330
133
100
AcDbEntity
  8
grau 10%
 62
     7
420
 16777215
370
    35
100
AcDbVertex
100
AcDb2dVertex
 10
89.96518043812068
 20
56.03793392899725
 30
0.0
  0
VERTEX
  5
136
330
133
100
AcDbEntity
  8
grau 10%
 62
     7
420
 16777215
370
    35
100
AcDbVertex
100
AcDb2dVertex
 10
90.3987241730926
 20
56.03793392899725
 30
0.0
  0
VERTEX
  5
137
330
133
100
AcDbEntity
  8
grau 10%
 62
     7
420
 16777215
370
    35
100
AcDbVertex
100
AcDb2dVertex
 10
91.04757560996923
 20
56.03793392899725
 30
0.0
  0
VERTEX
  5
138
330
133
100
AcDbEntity
  8
grau 10%
 62
     7
420
 16777215
370
    35
100
AcDbVertex
100
AcDb2dVertex
 10
91.81293586978765
 20
56.03793392899725
 30
0.0
  0
SEQEND
  5
139
330
133
100
AcDbEntity
  8
grau 10%
 62
     7
420
 16777215
370
    35
  0
POLYLINE
  5
13A
330
1F
100
AcDbEntity
  8
grau 10%
 62
     7
420
 16777215
370
    35
100
AcDb2dPolyline
 66
     1
 10
0.0
 20
0.0
 30
0.0
  0
VERTEX
  5
13B
330
13A
100
AcDbEntity
  8
grau 10%
 62
     7
420
 16777215
370
    35
100
AcDbVertex
100
AcDb2dVertex
 10
91.81293586978765
 20
31.03793105303154
 30
0.0
  0
VERTEX
  5
13C
330
13A
100
AcDbEntity
  8
grau 10%
 62
     7
420
 16777215
370
    35
100
AcDbVertex
100
AcDb2dVertex
 10
91.04757560996923
 20
31.03793105303154
 30
0.0
  0
VERTEX
  5
13D
330
13A
100
AcDbEntity
  8
grau 10%
 62
     7
420
 16777215
370
    35
100
AcDbVertex
100
AcDb2dVertex
 10
90.3987241730926
 20
31.03793105303154
 30
0.0
  0
VERTEX
  5
13E
330
13A
100
AcDbEntity
  8
grau 10%
 62
     7
420
 16777215
370
    35
100
AcDbVertex
100
AcDb2dVertex
 10
89.96518043812068
 20
31.03793105303154
 30
0.0
  0
VERTEX
  5
13F
330
13A
100
AcDbEntity
  8
grau 10%
 62
     7
420
 16777215
370
    35
100
AcDbVertex
100
AcDb2dVertex
 10
89.81292874951943
 20
31.03793105303154
 30
0.0
  0
SEQEND
  5
140
330
13A
100
AcDbEntity
  8
grau 10%
 62
     7
420
 16777215
370
    35
  0
POLYLINE
  5
141
330
1F
100
AcDbEntity
  8
grau 10%
 62
     7
420
 16777215
370
    35
100
AcDb2dPolyline
 66
     1
 10
0.0
 20
0.0
 30
0.0
  0
VERTEX
  5
142
330
141
100
AcDbEntity
  8
grau 10%
 62
     7
420
 16777215
370
    35
100
AcDbVertex
100
AcDb2dVertex
 10
116.3129369656863
 20
31.03793105303154
 30
0.0
  0
VERTEX
  5
143
330
141
100
AcDbEntity
  8
grau 10%
 62
     7
420
 16777215
370
    35
100
AcDbVertex
100
AcDb2dVertex
 10
116.3129369656863
 20
56.03793392899725
 30
0.0
  0
SEQEND
  5
144
330
141
100
AcDbEntity
  8
grau 10%
 62
     7
420
 16777215
370
    35
  0
POLYLINE
  5
145
330
1F
100
AcDbEntity
  8
grau 10%
 62
     7
420
 16777215
370
    35
100
AcDb2dPolyline
 66
     1
 10
0.0
 20
0.0
 30
0.0
  0
VERTEX
  5
146
330
145
100
AcDbEntity
  8
grau 10%
 62
     7
420
 16777215
370
    35
100
AcDbVertex
100
AcDb2dVertex
 10
116.3129369656863
 20
56.03793392899725
 30
0.0
  0
VERTEX
  5
147
330
145
100
AcDbEntity
  8
grau 10%
 62
     7
420
 16777215
370
    35
100
AcDbVertex
100
AcDb2dVertex
 10
91.81293586978765
 20
56.03793392899725
 30
0.0
  0
SEQEND
  5
148
330
145
100
AcDbEntity
  8
grau 10%
 62
     7
420
 16777215
370
    35
  0
POLYLINE
  5
149
330
1F
100
AcDbEntity
  8
grau 10%
 62
     7
420
 16777215
370
    35
100
AcDb2dPolyline
 66
     1
 10
0.0
 20
0.0
 30
0.0
  0
VERTEX
  5
14A
330
149
100
AcDbEntity
  8
grau 10%
 62
     7
420
 16777215
370
    35
100
AcDbVertex
100
AcDb2dVertex
 10
116.3129369656863
 20
31.03793105303154
 30
0.0
  0
VERTEX
  5
14B
330
149
100
AcDbEntity
  8
grau 10%
 62
     7
420
 16777215
370
    35
100
AcDbVertex
100
AcDb2dVertex
 10
91.81293586978765
 20
31.03793105303154
 30
0.0
  0
SEQEND
  5
14C
330
149
100
AcDbEntity
  8
grau 10%
 62
     7
420
 16777215
370
    35
  0
POLYLINE
  5
14D
330
1F
100
AcDbEntity
  8
grau 10%
 62
     7
420
 16777215
370
    35
100
AcDb2dPolyline
 66
     1
 10
0.0
 20
0.0
 30
0.0
  0
VERTEX
  5
14E
330
14D
100
AcDbEntity
  8
grau 10%
 62
     7
420
 16777215
370
    35
100
AcDbVertex
100
AcDb2dVertex
 10
82.8129361263508
 20
31.03694058807952
 30
0.0
  0
VERTEX
  5
14F
330
14D
100
AcDbEntity
  8
grau 10%
 62
     7
420
 16777215
370
    35
100
AcDbVertex
100
AcDb2dVertex
 10
82.80994319964799
 20
31.03043797035112
 30
0.0
  0
VERTEX
  5
150
330
14D
100
AcDbEntity
  8
grau 10%
 62
     7
420
 16777215
370
    35
100
AcDbVertex
100
AcDb2dVertex
 10
82.80111514246704
 20
31.01816481768491
 30
0.0
  0
VERTEX
  5
151
330
14D
100
AcDbEntity
  8
grau 10%
 62
     7
420
 16777215
370
    35
100
AcDbVertex
100
AcDb2dVertex
 10
82.78667803919917
 20
31.00025032116162
 30
0.0
  0
VERTEX
  5
152
330
14D
100
AcDbEntity
  8
grau 10%
 62
     7
420
 16777215
370
    35
100
AcDbVertex
100
AcDb2dVertex
 10
82.76675031500167
 20
30.97678060816835
 30
0.0
  0
VERTEX
  5
153
330
14D
100
AcDbEntity
  8
grau 10%
 62
     7
420
 16777215
370
    35
100
AcDbVertex
100
AcDb2dVertex
 10
82.75476784226704
 20
30.96300022622735
 30
0.0
  0
VERTEX
  5
154
330
14D
100
AcDbEntity
  8
grau 10%
 62
     7
420
 16777215
370
    35
100
AcDbVertex
100
AcDb2dVertex
 10
82.74143962910848
 20
30.94786333793903
 30
0.0
  0
VERTEX
  5
155
330
14D
100
AcDbEntity
  8
grau 10%
 62
     7
420
 16777215
370
    35
100
AcDbVertex
100
AcDb2dVertex
 10
82.72688410068331
 20
30.93147760253731
 30
0.0
  0
VERTEX
  5
156
330
14D
100
AcDbEntity
  8
grau 10%
 62
     7
420
 16777215
370
    35
100
AcDbVertex
100
AcDb2dVertex
 10
82.71119815030202
 20
30.91395067925611
 30
0.0
  0
VERTEX
  5
157
330
14D
100
AcDbEntity
  8
grau 10%
 62
     7
420
 16777215
370
    35
100
AcDbVertex
100
AcDb2dVertex
 10
82.67661800436883
 20
30.8756239919827
 30
0.0
  0
VERTEX
  5
158
330
14D
100
AcDbEntity
  8
grau 10%
 62
     7
420
 16777215
370
    35
100
AcDbVertex
100
AcDb2dVertex
 10
82.6379360416235
 20
30.83312012643343
 30
0.0
  0
VERTEX
  5
159
330
14D
100
AcDbEntity
  8
grau 10%
 62
     7
420
 16777215
370
    35
100
AcDbVertex
100
AcDb2dVertex
 10
82.61711474578453
 20
30.81033943253722
 30
0.0
  0
VERTEX
  5
15A
330
14D
100
AcDbEntity
  8
grau 10%
 62
     7
420
 16777215
370
    35
100
AcDbVertex
100
AcDb2dVertex
 10
82.59536758053389
 20
30.78658980553578
 30
0.0
  0
VERTEX
  5
15B
330
14D
100
AcDbEntity
  8
grau 10%
 62
     7
420
 16777215
370
    35
100
AcDbVertex
100
AcDb2dVertex
 10
82.57266224810141
 20
30.76184971358233
 30
0.0
  0
VERTEX
  5
15C
330
14D
100
AcDbEntity
  8
grau 10%
 62
     7
420
 16777215
370
    35
100
AcDbVertex
100
AcDb2dVertex
 10
82.54907410995084
 20
30.73618375221722
 30
0.0
  0
VERTEX
  5
15D
330
14D
100
AcDbEntity
  8
grau 10%
 62
     7
420
 16777215
370
    35
100
AcDbVertex
100
AcDb2dVertex
 10
82.4997554148948
 20
30.68256945372801
 30
0.0
  0
VERTEX
  5
15E
330
14D
100
AcDbEntity
  8
grau 10%
 62
     7
420
 16777215
370
    35
100
AcDbVertex
100
AcDb2dVertex
 10
82.44791749376519
 20
30.62626367439096
 30
0.0
  0
VERTEX
  5
15F
330
14D
100
AcDbEntity
  8
grau 10%
 62
     7
420
 16777215
370
    35
100
AcDbVertex
100
AcDb2dVertex
 10
82.39376489910643
 20
30.56743866898032
 30
0.0
  0
VERTEX
  5
160
330
14D
100
AcDbEntity
  8
grau 10%
 62
     7
420
 16777215
370
    35
100
AcDbVertex
100
AcDb2dVertex
 10
82.3374268219992
 20
30.50613750118966
 30
0.0
  0
VERTEX
  5
161
330
14D
100
AcDbEntity
  8
grau 10%
 62
     7
420
 16777215
370
    35
100
AcDbVertex
100
AcDb2dVertex
 10
82.27906475129438
 20
30.44246783025288
 30
0.0
  0
VERTEX
  5
162
330
14D
100
AcDbEntity
  8
grau 10%
 62
     7
420
 16777215
370
    35
100
AcDbVertex
100
AcDb2dVertex
 10
82.21878634622591
 20
30.37649425171035
 30
0.0
  0
VERTEX
  5
163
330
14D
100
AcDbEntity
  8
grau 10%
 62
     7
420
 16777215
370
    35
100
AcDbVertex
100
AcDb2dVertex
 10
82.18795274163293
 20
30.3426031248742
 30
0.0
  0
VERTEX
  5
164
330
14D
100
AcDbEntity
  8
grau 10%
 62
     7
420
 16777215
370
    35
100
AcDbVertex
100
AcDb2dVertex
 10
82.15671003195106
 20
30.30819523371527
 30
0.0
  0
VERTEX
  5
165
330
14D
100
AcDbEntity
  8
grau 10%
 62
     7
420
 16777215
370
    35
100
AcDbVertex
100
AcDb2dVertex
 10
82.12516587641424
 20
30.2733351737739
 30
0.0
  0
VERTEX
  5
166
330
14D
100
AcDbEntity
  8
grau 10%
 62
     7
420
 16777215
370
    35
100
AcDbVertex
100
AcDb2dVertex
 10
82.09341716833299
 20
30.238130604284
 30
0.0
  0
VERTEX
  5
167
330
14D
100
AcDbEntity
  8
grau 10%
 62
     7
420
 16777215
370
    35
100
AcDbVertex
100
AcDb2dVertex
 10
82.0293814560009
 20
30.16668793665863
 30
0.0
  0
VERTEX
  5
168
330
14D
100
AcDbEntity
  8
grau 10%
 62
     7
420
 16777215
370
    35
100
AcDbVertex
100
AcDb2dVertex
 10
81.96471055418873
 20
30.0938241671456
 30
0.0
  0
VERTEX
  5
169
330
14D
100
AcDbEntity
  8
grau 10%
 62
     7
420
 16777215
370
    35
100
AcDbVertex
100
AcDb2dVertex
 10
81.89956595174733
 20
30.01949623205133
 30
0.0
  0
VERTEX
  5
16A
330
14D
100
AcDbEntity
  8
grau 10%
 62
     7
420
 16777215
370
    35
100
AcDbVertex
100
AcDb2dVertex
 10
81.8340983716042
 20
29.94363953583549
 30
0.0
  0
VERTEX
  5
16B
330
14D
100
AcDbEntity
  8
grau 10%
 62
     7
420
 16777215
370
    35
100
AcDbVertex
100
AcDb2dVertex
 10
81.76852313222714
 20
29.86614641926415
 30
0.0
  0
VERTEX
  5
16C
330
14D
100
AcDbEntity
  8
grau 10%
 62
     7
420
 16777215
370
    35
100
AcDbVertex
100
AcDb2dVertex
 10
81.7030770839308
 20
29.78684462756306
 30
0.0
  0
VERTEX
  5
16D
330
14D
100
AcDbEntity
  8
grau 10%
 62
     7
420
 16777215
370
    35
100
AcDbVertex
100
AcDb2dVertex
 10
81.63811550218705
 20
29.70541118303046
 30
0.0
  0
VERTEX
  5
16E
330
14D
100
AcDbEntity
  8
grau 10%
 62
     7
420
 16777215
370
    35
100
AcDbVertex
100
AcDb2dVertex
 10
81.5741551513187
 20
29.62145851242428
 30
0.0
  0
VERTEX
  5
16F
330
14D
100
AcDbEntity
  8
grau 10%
 62
     7
420
 16777215
370
    35
100
AcDbVertex
100
AcDb2dVertex
 10
81.54275095278598
 20
29.57837328701187
 30
0.0
  0
VERTEX
  5
170
330
14D
100
AcDbEntity
  8
grau 10%
 62
     7
420
 16777215
370
    35
100
AcDbVertex
100
AcDb2dVertex
 10
81.51200347558012
 20
29.53459904250242
 30
0.0
  0
VERTEX
  5
171
330
14D
100
AcDbEntity
  8
grau 10%
 62
     7
420
 16777215
370
    35
100
AcDbVertex
100
AcDb2dVertex
 10
81.48214957001575
 20
29.49007118335556
 30
0.0
  0
VERTEX
  5
172
330
14D
100
AcDbEntity
  8
grau 10%
 62
     7
420
 16777215
370
    35
100
AcDbVertex
100
AcDb2dVertex
 10
81.45336149086714
 20
29.44470358218418
 30
0.0
  0
VERTEX
  5
173
330
14D
100
AcDbEntity
  8
grau 10%
 62
     7
420
 16777215
370
    35
100
AcDbVertex
100
AcDb2dVertex
 10
81.42589762029566
 20
29.39830245236722
 30
0.0
  0
VERTEX
  5
174
330
14D
100
AcDbEntity
  8
grau 10%
 62
     7
420
 16777215
370
    35
100
AcDbVertex
100
AcDb2dVertex
 10
81.40005940415628
 20
29.35073860282399
 30
0.0
  0
VERTEX
  5
175
330
14D
100
AcDbEntity
  8
grau 10%
 62
     7
420
 16777215
370
    35
100
AcDbVertex
100
AcDb2dVertex
 10
81.3878723788772
 20
29.32640761595941
 30
0.0
  0
VERTEX
  5
176
330
14D
100
AcDbEntity
  8
grau 10%
 62
     7
420
 16777215
370
    35
100
AcDbVertex
100
AcDb2dVertex
 10
81.37629901123145
 20
29.30173211954631
 30
0.0
  0
VERTEX
  5
177
330
14D
100
AcDbEntity
  8
grau 10%
 62
     7
420
 16777215
370
    35
100
AcDbVertex
100
AcDb2dVertex
 10
81.36542542860613
 20
29.2768197728186
 30
0.0
  0
VERTEX
  5
178
330
14D
100
AcDbEntity
  8
grau 10%
 62
     7
420
 16777215
370
    35
100
AcDbVertex
100
AcDb2dVertex
 10
81.35533775838839
 20
29.25158444838915
 30
0.0
  0
VERTEX
  5
179
330
14D
100
AcDbEntity
  8
grau 10%
 62
     7
420
 16777215
370
    35
100
AcDbVertex
100
AcDb2dVertex
 10
81.33781083510718
 20
29.20023099381214
 30
0.0
  0
VERTEX
  5
17A
330
14D
100
AcDbEntity
  8
grau 10%
 62
     7
420
 16777215
370
    35
100
AcDbVertex
100
AcDb2dVertex
 10
81.32440726048488
 20
29.14737030996034
 30
0.0
  0
VERTEX
  5
17B
330
14D
100
AcDbEntity
  8
grau 10%
 62
     7
420
 16777215
370
    35
100
AcDbVertex
100
AcDb2dVertex
 10
81.31946570164821
 20
29.12030477855434
 30
0.0
  0
VERTEX
  5
17C
330
14D
100
AcDbEntity
  8
grau 10%
 62
     7
420
 16777215
370
    35
100
AcDbVertex
100
AcDb2dVertex
 10
81.3158591173121
 20
29.09298086498696
 30
0.0
  0
VERTEX
  5
17D
330
14D
100
AcDbEntity
  8
grau 10%
 62
     7
420
 16777215
370
    35
100
AcDbVertex
100
AcDb2dVertex
 10
81.31367363486365
 20
29.06550622849209
 30
0.0
  0
VERTEX
  5
17E
330
14D
100
AcDbEntity
  8
grau 10%
 62
     7
420
 16777215
370
    35
100
AcDbVertex
100
AcDb2dVertex
 10
81.31293078614964
 20
29.03792393276331
 30
0.0
  0
SEQEND
  5
17F
330
14D
100
AcDbEntity
  8
grau 10%
 62
     7
420
 16777215
370
    35
  0
POLYLINE
  5
180
330
1F
100
AcDbEntity
  8
grau 10%
 62
     7
420
 16777215
370
    35
100
AcDb2dPolyline
 66
     1
 10
0.0
 20
0.0
 30
0.0
  0
VERTEX
  5
181
330
180
100
AcDbEntity
  8
grau 10%
 62
     7
420
 16777215
370
    35
100
AcDbVertex
100
AcDb2dVertex
 10
116.3129369656863
 20
31.03793105303154
 30
0.0
  0
VERTEX
  5
182
330
180
100
AcDbEntity
  8
grau 10%
 62
     7
420
 16777215
370
    35
100
AcDbVertex
100
AcDb2dVertex
 10
116.3129369656863
 20
30.88567936443027
 30
0.0
  0
VERTEX
  5
183
330
180
100
AcDbEntity
  8
grau 10%
 62
     7
420
 16777215
370
    35
100
AcDbVertex
100
AcDb2dVertex
 10
116.3129369656863
 20
30.45213562945836
 30
0.0
  0
VERTEX
  5
184
330
180
100
AcDbEntity
  8
grau 10%
 62
     7
420
 16777215
370
    35
100
AcDbVertex
100
AcDb2dVertex
 10
116.3129369656863
 20
29.80329495850512
 30
0.0
  0
VERTEX
  5
185
330
180
100
AcDbEntity
  8
grau 10%
 62
     7
420
 16777215
370
    35
100
AcDbVertex
100
AcDb2dVertex
 10
116.3129369656863
 20
29.03792393276331
 30
0.0
  0
SEQEND
  5
186
330
180
100
AcDbEntity
  8
grau 10%
 62
     7
420
 16777215
370
    35
  0
POLYLINE
  5
187
330
1F
100
AcDbEntity
  8
grau 10%
 62
     7
420
 16777215
370
    35
100
AcDb2dPolyline
 66
     1
 10
0.0
 20
0.0
 30
0.0
  0
VERTEX
  5
188
330
187
100
AcDbEntity
  8
grau 10%
 62
     7
420
 16777215
370
    35
100
AcDbVertex
100
AcDb2dVertex
 10
82.8129361263508
 20
31.03694058807952
 30
0.0
  0
VERTEX
  5
189
330
187
100
AcDbEntity
  8
grau 10%
 62
     7
420
 16777215
370
    35
100
AcDbVertex
100
AcDb2dVertex
 10
82.8129361263508
 20
31.03767267087014
 30
0.0
  0
VERTEX
  5
18A
330
187
100
AcDbEntity
  8
grau 10%
 62
     7
420
 16777215
370
    35
100
AcDbVertex
100
AcDb2dVertex
 10
82.8129361263508
 20
31.03793105303154
 30
0.0
  0
SEQEND
  5
18B
330
187
100
AcDbEntity
  8
grau 10%
 62
     7
420
 16777215
370
    35
  0
POLYLINE
  5
18C
330
1F
100
AcDbEntity
  8
grau 10%
 62
     7
420
 16777215
370
    35
100
AcDb2dPolyline
 66
     1
 10
0.0
 20
0.0
 30
0.0
  0
VERTEX
  5
18D
330
18C
100
AcDbEntity
  8
grau 10%
 62
     7
420
 16777215
370
    35
100
AcDbVertex
100
AcDb2dVertex
 10
81.31293078614964
 20
29.03792393276331
 30
0.0
  0
VERTEX
  5
18E
330
18C
100
AcDbEntity
  8
grau 10%
 62
     7
420
 16777215
370
    35
100
AcDbVertex
100
AcDb2dVertex
 10
81.31293078614964
 20
58.03791951741869
 30
0.0
  0
SEQEND
  5
18F
330
18C
100
AcDbEntity
  8
grau 10%
 62
     7
420
 16777215
370
    35
  0
POLYLINE
  5
190
330
1F
100
AcDbEntity
  8
grau 10%
 62
     7
420
 16777215
370
    35
100
AcDb2dPolyline
 66
     1
 10
0.0
 20
0.0
 30
0.0
  0
VERTEX
  5
191
330
190
100
AcDbEntity
  8
grau 10%
 62
     7
420
 16777215
370
    35
100
AcDbVertex
100
AcDb2dVertex
 10
81.31293078614964
 20
58.03791951741869
 30
0.0
  0
VERTEX
  5
192
330
190
100
AcDbEntity
  8
grau 10%
 62
     7
420
 16777215
370
    35
100
AcDbVertex
100
AcDb2dVertex
 10
81.31584835138871
 20
57.98307790366287
 30
0.0
  0
VERTEX
  5
193
330
190
100
AcDbEntity
  8
grau 10%
 62
     7
420
 16777215
370
    35
100
AcDbVertex
100
AcDb2dVertex
 10
81.32422423978721
 20
57.92931288224619
 30
0.0
  0
VERTEX
  5
194
330
190
100
AcDbEntity
  8
grau 10%
 62
     7
420
 16777215
370
    35
100
AcDbVertex
100
AcDb2dVertex
 10
81.33031775242675
 20
57.90280717885655
 30
0.0
  0
VERTEX
  5
195
330
190
100
AcDbEntity
  8
grau 10%
 62
     7
420
 16777215
370
    35
100
AcDbVertex
100
AcDb2dVertex
 10
81.3375416870224
 20
57.8765598576283
 30
0.0
  0
VERTEX
  5
196
330
190
100
AcDbEntity
  8
grau 10%
 62
     7
420
 16777215
370
    35
100
AcDbVertex
100
AcDb2dVertex
 10
81.34586374580394
 20
57.85048479117432
 30
0.0
  0
VERTEX
  5
197
330
190
100
AcDbEntity
  8
grau 10%
 62
     7
420
 16777215
370
    35
100
AcDbVertex
100
AcDb2dVertex
 10
81.35516550361412
 20
57.82471117057529
 30
0.0
  0
VERTEX
  5
198
330
190
100
AcDbEntity
  8
grau 10%
 62
     7
420
 16777215
370
    35
100
AcDbVertex
100
AcDb2dVertex
 10
81.37615905422736
 20
57.77439124464386
 30
0.0
  0
VERTEX
  5
199
330
190
100
AcDbEntity
  8
grau 10%
 62
     7
420
 16777215
370
    35
100
AcDbVertex
100
AcDb2dVertex
 10
81.39976872422471
 20
57.72570773906792
 30
0.0
  0
VERTEX
  5
19A
330
190
100
AcDbEntity
  8
grau 10%
 62
     7
420
 16777215
370
    35
100
AcDbVertex
100
AcDb2dVertex
 10
81.42544545151321
 20
57.67833767614574
 30
0.0
  0
VERTEX
  5
19B
330
190
100
AcDbEntity
  8
grau 10%
 62
     7
420
 16777215
370
    35
100
AcDbVertex
100
AcDb2dVertex
 10
81.45280166285077
 20
57.63208726925626
 30
0.0
  0
VERTEX
  5
19C
330
190
100
AcDbEntity
  8
grau 10%
 62
     7
420
 16777215
370
    35
100
AcDbVertex
100
AcDb2dVertex
 10
81.48152514645905
 20
57.58674119993166
 30
0.0
  0
VERTEX
  5
19D
330
190
100
AcDbEntity
  8
grau 10%
 62
     7
420
 16777215
370
    35
100
AcDbVertex
100
AcDb2dVertex
 10
81.5113898179468
 20
57.54219180893802
 30
0.0
  0
VERTEX
  5
19E
330
190
100
AcDbEntity
  8
grau 10%
 62
     7
420
 16777215
370
    35
100
AcDbVertex
100
AcDb2dVertex
 10
81.5420942314591
 20
57.49839603258178
 30
0.0
  0
VERTEX
  5
19F
330
190
100
AcDbEntity
  8
grau 10%
 62
     7
420
 16777215
370
    35
100
AcDbVertex
100
AcDb2dVertex
 10
81.57339077075791
 20
57.45543999825008
 30
0.0
  0
VERTEX
  5
1A0
330
190
100
AcDbEntity
  8
grau 10%
 62
     7
420
 16777215
370
    35
100
AcDbVertex
100
AcDb2dVertex
 10
81.63722193054556
 20
57.37161651872459
 30
0.0
  0
VERTEX
  5
1A1
330
190
100
AcDbEntity
  8
grau 10%
 62
     7
420
 16777215
370
    35
100
AcDbVertex
100
AcDb2dVertex
 10
81.70216198044253
 20
57.29016154234522
 30
0.0
  0
VERTEX
  5
1A2
330
190
100
AcDbEntity
  8
grau 10%
 62
     7
420
 16777215
370
    35
100
AcDbVertex
100
AcDb2dVertex
 10
81.76769415612601
 20
57.21068749586986
 30
0.0
  0
VERTEX
  5
1A3
330
190
100
AcDbEntity
  8
grau 10%
 62
     7
420
 16777215
370
    35
100
AcDbVertex
100
AcDb2dVertex
 10
81.83348471397089
 20
57.13293599713712
 30
0.0
  0
VERTEX
  5
1A4
330
190
100
AcDbEntity
  8
grau 10%
 62
     7
420
 16777215
370
    35
100
AcDbVertex
100
AcDb2dVertex
 10
81.89928603773916
 20
57.05669172767919
 30
0.0
  0
VERTEX
  5
1A5
330
190
100
AcDbEntity
  8
grau 10%
 62
     7
420
 16777215
370
    35
100
AcDbVertex
100
AcDb2dVertex
 10
81.9648720430396
 20
56.98186856010892
 30
0.0
  0
VERTEX
  5
1A6
330
190
100
AcDbEntity
  8
grau 10%
 62
     7
420
 16777215
370
    35
100
AcDbVertex
100
AcDb2dVertex
 10
81.99753585460913
 20
56.9449414428764
 30
0.0
  0
VERTEX
  5
1A7
330
190
100
AcDbEntity
  8
grau 10%
 62
     7
420
 16777215
370
    35
100
AcDbVertex
100
AcDb2dVertex
 10
82.03007047509796
 20
56.90840189888597
 30
0.0
  0
VERTEX
  5
1A8
330
190
100
AcDbEntity
  8
grau 10%
 62
     7
420
 16777215
370
    35
100
AcDbVertex
100
AcDb2dVertex
 10
82.06235747934878
 20
56.87231452367797
 30
0.0
  0
VERTEX
  5
1A9
330
190
100
AcDbEntity
  8
grau 10%
 62
     7
420
 16777215
370
    35
100
AcDbVertex
100
AcDb2dVertex
 10
82.09431073997447
 20
56.83674391279277
 30
0.0
  0
VERTEX
  5
1AA
330
190
100
AcDbEntity
  8
grau 10%
 62
     7
420
 16777215
370
    35
100
AcDbVertex
100
AcDb2dVertex
 10
82.15721603035045
 20
56.76713145214394
 30
0.0
  0
VERTEX
  5
1AB
330
190
100
AcDbEntity
  8
grau 10%
 62
     7
420
 16777215
370
    35
100
AcDbVertex
100
AcDb2dVertex
 10
82.21868945291538
 20
56.69949992139913
 30
0.0
  0
VERTEX
  5
1AC
330
190
100
AcDbEntity
  8
grau 10%
 62
     7
420
 16777215
370
    35
100
AcDbVertex
100
AcDb2dVertex
 10
82.27859105066517
 20
56.63391391609868
 30
0.0
  0
VERTEX
  5
1AD
330
190
100
AcDbEntity
  8
grau 10%
 62
     7
420
 16777215
370
    35
100
AcDbVertex
100
AcDb2dVertex
 10
82.33681316436589
 20
56.57039496808939
 30
0.0
  0
VERTEX
  5
1AE
330
190
100
AcDbEntity
  8
grau 10%
 62
     7
420
 16777215
370
    35
100
AcDbVertex
100
AcDb2dVertex
 10
82.39322660293685
 20
56.50900767291159
 30
0.0
  0
VERTEX
  5
1AF
330
190
100
AcDbEntity
  8
grau 10%
 62
     7
420
 16777215
370
    35
100
AcDbVertex
100
AcDb2dVertex
 10
82.44768064345058
 20
56.44983815795243
 30
0.0
  0
VERTEX
  5
1B0
330
190
100
AcDbEntity
  8
grau 10%
 62
     7
420
 16777215
370
    35
100
AcDbVertex
100
AcDb2dVertex
 10
82.47412175129988
 20
56.42111467434416
 30
0.0
  0
VERTEX
  5
1B1
330
190
100
AcDbEntity
  8
grau 10%
 62
     7
420
 16777215
370
    35
100
AcDbVertex
100
AcDb2dVertex
 10
82.4998953718989
 20
56.39312327352651
 30
0.0
  0
VERTEX
  5
1B2
330
190
100
AcDbEntity
  8
grau 10%
 62
     7
420
 16777215
370
    35
100
AcDbVertex
100
AcDb2dVertex
 10
82.52487231416696
 20
56.36599314658016
 30
0.0
  0
VERTEX
  5
1B3
330
190
100
AcDbEntity
  8
grau 10%
 62
     7
420
 16777215
370
    35
100
AcDbVertex
100
AcDb2dVertex
 10
82.54905257810405
 20
56.33972429350514
 30
0.0
  0
VERTEX
  5
1B4
330
190
100
AcDbEntity
  8
grau 10%
 62
     7
420
 16777215
370
    35
100
AcDbVertex
100
AcDb2dVertex
 10
82.59490464582805
 20
56.28977040896901
 30
0.0
  0
VERTEX
  5
1B5
330
190
100
AcDbEntity
  8
grau 10%
 62
     7
420
 16777215
370
    35
100
AcDbVertex
100
AcDb2dVertex
 10
82.6373116180668
 20
56.2434338746924
 30
0.0
  0
VERTEX
  5
1B6
330
190
100
AcDbEntity
  8
grau 10%
 62
     7
420
 16777215
370
    35
100
AcDbVertex
100
AcDb2dVertex
 10
82.67604741042908
 20
56.20086541360278
 30
0.0
  0
VERTEX
  5
1B7
330
190
100
AcDbEntity
  8
grau 10%
 62
     7
420
 16777215
370
    35
100
AcDbVertex
100
AcDb2dVertex
 10
82.71086440667689
 20
56.16230187601477
 30
0.0
  0
VERTEX
  5
1B8
330
190
100
AcDbEntity
  8
grau 10%
 62
     7
420
 16777215
370
    35
100
AcDbVertex
100
AcDb2dVertex
 10
82.74111665140674
 20
56.12838921733184
 30
0.0
  0
VERTEX
  5
1B9
330
190
100
AcDbEntity
  8
grau 10%
 62
     7
420
 16777215
370
    35
100
AcDbVertex
100
AcDb2dVertex
 10
82.76631967806603
 20
56.09957960633643
 30
0.0
  0
VERTEX
  5
1BA
330
190
100
AcDbEntity
  8
grau 10%
 62
     7
420
 16777215
370
    35
100
AcDbVertex
100
AcDb2dVertex
 10
82.78633352965065
 20
56.0760668296496
 30
0.0
  0
VERTEX
  5
1BB
330
190
100
AcDbEntity
  8
grau 10%
 62
     7
420
 16777215
370
    35
100
AcDbVertex
100
AcDb2dVertex
 10
82.80094288769278
 20
56.05793701465848
 30
0.0
  0
VERTEX
  5
1BC
330
190
100
AcDbEntity
  8
grau 10%
 62
     7
420
 16777215
370
    35
100
AcDbVertex
100
AcDb2dVertex
 10
82.80616436053761
 20
56.05096069630085
 30
0.0
  0
VERTEX
  5
1BD
330
190
100
AcDbEntity
  8
grau 10%
 62
     7
420
 16777215
370
    35
100
AcDbVertex
100
AcDb2dVertex
 10
82.80991090187783
 20
56.04544854352445
 30
0.0
  0
VERTEX
  5
1BE
330
190
100
AcDbEntity
  8
grau 10%
 62
     7
420
 16777215
370
    35
100
AcDbVertex
100
AcDb2dVertex
 10
82.8121825117134
 20
56.04144362002285
 30
0.0
  0
VERTEX
  5
1BF
330
190
100
AcDbEntity
  8
grau 10%
 62
     7
420
 16777215
370
    35
100
AcDbVertex
100
AcDb2dVertex
 10
82.8129361263508
 20
56.03894592579604
 30
0.0
  0
SEQEND
  5
1C0
330
190
100
AcDbEntity
  8
grau 10%
 62
     7
420
 16777215
370
    35
  0
POLYLINE
  5
1C1
330
1F
100
AcDbEntity
  8
grau 10%
 62
     7
420
 16777215
370
    35
100
AcDb2dPolyline
 66
     1
 10
0.0
 20
0.0
 30
0.0
  0
VERTEX
  5
1C2
330
1C1
100
AcDbEntity
  8
grau 10%
 62
     7
420
 16777215
370
    35
100
AcDbVertex
100
AcDb2dVertex
 10
116.3129369656863
 20
58.03791951741869
 30
0.0
  0
VERTEX
  5
1C3
330
1C1
100
AcDbEntity
  8
grau 10%
 62
     7
420
 16777215
370
    35
100
AcDbVertex
100
AcDb2dVertex
 10
116.3129369656863
 20
57.27257002352366
 30
0.0
  0
VERTEX
  5
1C4
330
1C1
100
AcDbEntity
  8
grau 10%
 62
     7
420
 16777215
370
    35
100
AcDbVertex
100
AcDb2dVertex
 10
116.3129369656863
 20
56.62370782072363
 30
0.0
  0
VERTEX
  5
1C5
330
1C1
100
AcDbEntity
  8
grau 10%
 62
     7
420
 16777215
370
    35
100
AcDbVertex
100
AcDb2dVertex
 10
116.3129369656863
 20
56.19016408575173
 30
0.0
  0
VERTEX
  5
1C6
330
1C1
100
AcDbEntity
  8
grau 10%
 62
     7
420
 16777215
370
    35
100
AcDbVertex
100
AcDb2dVertex
 10
116.3129369656863
 20
56.03793392899725
 30
0.0
  0
SEQEND
  5
1C7
330
1C1
100
AcDbEntity
  8
grau 10%
 62
     7
420
 16777215
370
    35
  0
POLYLINE
  5
1C8
330
1F
100
AcDbEntity
  8
grau 10%
 62
     7
420
 16777215
370
    35
100
AcDb2dPolyline
 66
     1
 10
0.0
 20
0.0
 30
0.0
  0
VERTEX
  5
1C9
330
1C8
100
AcDbEntity
  8
grau 10%
 62
     7
420
 16777215
370
    35
100
AcDbVertex
100
AcDb2dVertex
 10
82.8129361263508
 20
56.03793392899725
 30
0.0
  0
VERTEX
  5
1CA
330
1C8
100
AcDbEntity
  8
grau 10%
 62
     7
420
 16777215
370
    35
100
AcDbVertex
100
AcDb2dVertex
 10
82.8129361263508
 20
56.03817077931186
 30
0.0
  0
VERTEX
  5
1CB
330
1C8
100
AcDbEntity
  8
grau 10%
 62
     7
420
 16777215
370
    35
100
AcDbVertex
100
AcDb2dVertex
 10
82.8129361263508
 20
56.03894592579604
 30
0.0
  0
SEQEND
  5
1CC
330
1C8
100
AcDbEntity
  8
grau 10%
 62
     7
420
 16777215
370
    35
  0
SPLINE
  5
1CD
330
1F
100
AcDbEntity
  8
grau 10%
 62
     7
420
 16777215
370
    35
100
AcDbSpline
210
0.0
220
0.0
230
1.0
 70
     8
 71
     3
 72
    11
 73
     7
 74
     0
 42
0.0000000001
 43
0.0000000001
 12
1.0
 22
0.0
 32
0.0
 13
1.0
 23
0.0
 33
0.0
 40
0.0
 40
0.0
 40
0.0
 40
0.0
 40
1.0
 40
1.0
 40
1.0
 40
2.0
 40
2.0
 40
2.0
 40
2.0
 10
81.31293078614964
 20
21.53792952952763
 30
0.0
 10
81.31293078614964
 20
14.91051272085545
 30
0.0
 10
75.94034793690601
 20
9.537929871611828
 30
0.0
 10
69.31293112823384
 20
9.537929871611828
 30
0.0
 10
69.30969508487
 20
9.537929871611828
 30
0.0
 10
69.30645934068231
 20
9.537931152535515
 30
0.0
 10
69.30322389614945
 20
9.5379337139029
 30
0.0
  0
POLYLINE
  5
1CE
330
1F
100
AcDbEntity
  8
grau 10%
 62
     7
420
 16777215
370
    35
100
AcDb2dPolyline
 66
     1
 10
0.0
 20
0.0
 30
0.0
  0
VERTEX
  5
1CF
330
1CE
100
AcDbEntity
  8
grau 10%
 62
     7
420
 16777215
370
    35
100
AcDbVertex
100
AcDb2dVertex
 10
81.31293078614964
 20
21.53792952952763
 30
0.0
  0
VERTEX
  5
1D0
330
1CE
100
AcDbEntity
  8
grau 10%
 62
     7
420
 16777215
370
    35
100
AcDbVertex
100
AcDb2dVertex
 10
81.31293078614964
 20
29.03792393276331
 30
0.0
  0
SEQEND
  5
1D1
330
1CE
100
AcDbEntity
  8
grau 10%
 62
     7
420
 16777215
370
    35
  0
POLYLINE
  5
1D2
330
1F
100
AcDbEntity
  8
grau 10%
 62
     7
420
 16777215
370
    35
100
AcDb2dPolyline
 66
     1
 10
0.0
 20
0.0
 30
0.0
  0
VERTEX
  5
1D3
330
1D2
100
AcDbEntity
  8
grau 10%
 62
     7
420
 16777215
370
    35
100
AcDbVertex
100
AcDb2dVertex
 10
91.3129340897206
 20
-2.962060800447636
 30
0.0
  0
VERTEX
  5
1D4
330
1D2
100
AcDbEntity
  8
grau 10%
 62
     7
420
 16777215
370
    35
100
AcDbVertex
100
AcDb2dVertex
 10
116.3129369656863
 20
22.03794207551807
 30
0.0
  0
SEQEND
  5
1D5
330
1D2
100
AcDbEntity
  8
grau 10%
 62
     7
420
 16777215
370
    35
  0
POLYLINE
  5
1D6
330
1F
100
AcDbEntity
  8
grau 10%
 62
     7
420
 16777215
370
    35
100
AcDb2dPolyline
 66
     1
 10
0.0
 20
0.0
 30
0.0
  0
VERTEX
  5
1D7
330
1D6
100
AcDbEntity
  8
grau 10%
 62
     7
420
 16777215
370
    35
100
AcDbVertex
100
AcDb2dVertex
 10
29.81293045994043
 20
2.03793546837615
 30
0.0
  0
VERTEX
  5
1D8
330
1D6
100
AcDbEntity
  8
grau 10%
 62
     7
420
 16777215
370
    35
100
AcDbVertex
100
AcDb2dVertex
 10
29.81293045994043
 20
6.626156699325449
 30
0.0
  0
SEQEND
  5
1D9
330
1D6
100
AcDbEntity
  8
grau 10%
 62
     7
420
 16777215
370
    35
  0
POLYLINE
  5
1DA
330
1F
100
AcDbEntity
  8
grau 10%
 62
     7
420
 16777215
370
    35
100
AcDb2dPolyline
 66
     1
 10
0.0
 20
0.0
 30
0.0
  0
VERTEX
  5
1DB
330
1DA
100
AcDbEntity
  8
grau 10%
 62
     7
420
 16777215
370
    35
100
AcDbVertex
100
AcDb2dVertex
 10
91.3129340897206
 20
-2.962060800447636
 30
0.0
  0
VERTEX
  5
1DC
330
1DA
100
AcDbEntity
  8
grau 10%
 62
     7
420
 16777215
370
    35
100
AcDbVertex
100
AcDb2dVertex
 10
34.81293211172591
 20
-2.962060800447636
 30
0.0
  0
SEQEND
  5
1DD
330
1DA
100
AcDbEntity
  8
grau 10%
 62
     7
420
 16777215
370
    35
  0
POLYLINE
  5
1DE
330
1F
100
AcDbEntity
  8
grau 10%
 62
     7
420
 16777215
370
    35
100
AcDb2dPolyline
 66
     1
 10
0.0
 20
0.0
 30
0.0
  0
VERTEX
  5
1DF
330
1DE
100
AcDbEntity
  8
grau 10%
 62
     7
420
 16777215
370
    35
100
AcDbVertex
100
AcDb2dVertex
 10
37.81293202620486
 20
9.537929871611828
 30
0.0
  0
VERTEX
  5
1E0
330
1DE
100
AcDbEntity
  8
grau 10%
 62
     7
420
 16777215
370
    35
100
AcDbVertex
100
AcDb2dVertex
 10
69.31293112823384
 20
9.537929871611828
 30
0.0
  0
SEQEND
  5
1E1
330
1DE
100
AcDbEntity
  8
grau 10%
 62
     7
420
 16777215
370
    35
  0
POLYLINE
  5
1E2
330
1F
100
AcDbEntity
  8
grau 10%
 62
     7
420
 16777215
370
    35
100
AcDb2dPolyline
 66
     1
 10
0.0
 20
0.0
 30
0.0
  0
VERTEX
  5
1E3
330
1E2
100
AcDbEntity
  8
grau 10%
 62
     7
420
 16777215
370
    35
100
AcDbVertex
100
AcDb2dVertex
 10
37.81293202620486
 20
9.537929871611828
 30
0.0
  0
VERTEX
  5
1E4
330
1E2
100
AcDbEntity
  8
grau 10%
 62
     7
420
 16777215
370
    35
100
AcDbVertex
100
AcDb2dVertex
 10
29.81293045994043
 20
6.626156699325449
 30
0.0
  0
SEQEND
  5
1E5
330
1E2
100
AcDbEntity
  8
grau 10%
 62
     7
420
 16777215
370
    35
  0
POLYLINE
  5
1E6
330
1F
100
AcDbEntity
  8
grau 10%
 62
     7
420
 16777215
370
    35
100
AcDb2dPolyline
 66
     1
 10
0.0
 20
0.0
 30
0.0
  0
VERTEX
  5
1E7
330
1E6
100
AcDbEntity
  8
grau 10%
 62
     7
420
 16777215
370
    35
100
AcDbVertex
100
AcDb2dVertex
 10
29.81293045994043
 20
2.03793546837615
 30
0.0
  0
VERTEX
  5
1E8
330
1E6
100
AcDbEntity
  8
grau 10%
 62
     7
420
 16777215
370
    35
100
AcDbVertex
100
AcDb2dVertex
 10
34.81293211172591
 20
-2.962060800447636
 30
0.0
  0
SEQEND
  5
1E9
330
1E6
100
AcDbEntity
  8
grau 10%
 62
     7
420
 16777215
370
    35
  0
POLYLINE
  5
1EA
330
1F
100
AcDbEntity
  8
grau 10%
 62
     7
420
 16777215
370
    35
100
AcDb2dPolyline
 66
     1
 10
0.0
 20
0.0
 30
0.0
  0
VERTEX
  5
1EB
330
1EA
100
AcDbEntity
  8
grau 10%
 62
     7
420
 16777215
370
    35
100
AcDbVertex
100
AcDb2dVertex
 10
116.3129369656863
 20
29.03792393276331
 30
0.0
  0
VERTEX
  5
1EC
330
1EA
100
AcDbEntity
  8
grau 10%
 62
     7
420
 16777215
370
    35
100
AcDbVertex
100
AcDb2dVertex
 10
116.3129369656863
 20
22.03794207551807
 30
0.0
  0
SEQEND
  5
1ED
330
1EA
100
AcDbEntity
  8
grau 10%
 62
     7
420
 16777215
370
    35
  0
POLYLINE
  5
1EE
330
1F
100
AcDbEntity
  8
grau 10%
 62
     7
420
 16777215
370
    35
100
AcDb2dPolyline
 66
     1
 10
0.0
 20
0.0
 30
0.0
  0
VERTEX
  5
1EF
330
1EE
100
AcDbEntity
  8
grau 10%
 62
     7
420
 16777215
370
    35
100
AcDbVertex
100
AcDb2dVertex
 10
29.81293045994043
 20
80.44970828270333
 30
0.0
  0
VERTEX
  5
1F0
330
1EE
100
AcDbEntity
  8
grau 10%
 62
     7
420
 16777215
370
    35
100
AcDbVertex
100
AcDb2dVertex
 10
29.81293045994043
 20
85.03790798180584
 30
0.0
  0
SEQEND
  5
1F1
330
1EE
100
AcDbEntity
  8
grau 10%
 62
     7
420
 16777215
370
    35
  0
POLYLINE
  5
1F2
330
1F
100
AcDbEntity
  8
grau 10%
 62
     7
420
 16777215
370
    35
100
AcDb2dPolyline
 66
     1
 10
0.0
 20
0.0
 30
0.0
  0
VERTEX
  5
1F3
330
1F2
100
AcDbEntity
  8
grau 10%
 62
     7
420
 16777215
370
    35
100
AcDbVertex
100
AcDb2dVertex
 10
34.81293211172591
 20
90.03792578247642
 30
0.0
  0
VERTEX
  5
1F4
330
1F2
100
AcDbEntity
  8
grau 10%
 62
     7
420
 16777215
370
    35
100
AcDbVertex
100
AcDb2dVertex
 10
91.3129340897206
 20
90.03792578247642
 30
0.0
  0
SEQEND
  5
1F5
330
1F2
100
AcDbEntity
  8
grau 10%
 62
     7
420
 16777215
370
    35
  0
POLYLINE
  5
1F6
330
1F
100
AcDbEntity
  8
grau 10%
 62
     7
420
 16777215
370
    35
100
AcDb2dPolyline
 66
     1
 10
0.0
 20
0.0
 30
0.0
  0
VERTEX
  5
1F7
330
1F6
100
AcDbEntity
  8
grau 10%
 62
     7
420
 16777215
370
    35
100
AcDbVertex
100
AcDb2dVertex
 10
69.31293112823384
 20
77.53793511041695
 30
0.0
  0
VERTEX
  5
1F8
330
1F6
100
AcDbEntity
  8
grau 10%
 62
     7
420
 16777215
370
    35
100
AcDbVertex
100
AcDb2dVertex
 10
37.81293202620486
 20
77.53793511041695
 30
0.0
  0
SEQEND
  5
1F9
330
1F6
100
AcDbEntity
  8
grau 10%
 62
     7
420
 16777215
370
    35
  0
POLYLINE
  5
1FA
330
1F
100
AcDbEntity
  8
grau 10%
 62
     7
420
 16777215
370
    35
100
AcDb2dPolyline
 66
     1
 10
0.0
 20
0.0
 30
0.0
  0
VERTEX
  5
1FB
330
1FA
100
AcDbEntity
  8
grau 10%
 62
     7
420
 16777215
370
    35
100
AcDbVertex
100
AcDb2dVertex
 10
81.31293078614964
 20
58.03791951741869
 30
0.0
  0
VERTEX
  5
1FC
330
1FA
100
AcDbEntity
  8
grau 10%
 62
     7
420
 16777215
370
    35
100
AcDbVertex
100
AcDb2dVertex
 10
81.31293078614964
 20
65.53793545250116
 30
0.0
  0
SEQEND
  5
1FD
330
1FA
100
AcDbEntity
  8
grau 10%
 62
     7
420
 16777215
370
    35
  0
SPLINE
  5
1FE
330
1F
100
AcDbEntity
  8
grau 10%
 62
     7
420
 16777215
370
    35
100
AcDbSpline
210
0.0
220
0.0
230
1.0
 70
     8
 71
     3
 72
     8
 73
     4
 74
     0
 42
0.0000000001
 43
0.0000000001
 12
1.0
 22
0.0
 32
0.0
 13
1.0
 23
0.0
 33
0.0
 40
0.0
 40
0.0
 40
0.0
 40
0.0
 40
1.0
 40
1.0
 40
1.0
 40
1.0
 10
69.31293112823384
 20
77.53793511041695
 30
0.0
 10
75.93711189354218
 20
77.53793511041695
 30
0.0
 10
81.30768382403524
 20
72.17059764318854
 30
0.0
 10
81.31292694385857
 20
65.54764268458554
 30
0.0
  0
POLYLINE
  5
1FF
330
1F
100
AcDbEntity
  8
grau 10%
 62
     7
420
 16777215
370
    35
100
AcDb2dPolyline
 66
     1
 10
0.0
 20
0.0
 30
0.0
  0
VERTEX
  5
200
330
1FF
100
AcDbEntity
  8
grau 10%
 62
     7
420
 16777215
370
    35
100
AcDbVertex
100
AcDb2dVertex
 10
29.81293045994043
 20
80.44970828270333
 30
0.0
  0
VERTEX
  5
201
330
1FF
100
AcDbEntity
  8
grau 10%
 62
     7
420
 16777215
370
    35
100
AcDbVertex
100
AcDb2dVertex
 10
37.81293202620486
 20
77.53793511041695
 30
0.0
  0
SEQEND
  5
202
330
1FF
100
AcDbEntity
  8
grau 10%
 62
     7
420
 16777215
370
    35
  0
POLYLINE
  5
203
330
1F
100
AcDbEntity
  8
grau 10%
 62
     7
420
 16777215
370
    35
100
AcDb2dPolyline
 66
     1
 10
0.0
 20
0.0
 30
0.0
  0
VERTEX
  5
204
330
203
100
AcDbEntity
  8
grau 10%
 62
     7
420
 16777215
370
    35
100
AcDbVertex
100
AcDb2dVertex
 10
34.81293211172591
 20
90.03792578247642
 30
0.0
  0
VERTEX
  5
205
330
203
100
AcDbEntity
  8
grau 10%
 62
     7
420
 16777215
370
    35
100
AcDbVertex
100
AcDb2dVertex
 10
29.81293045994043
 20
85.03790798180584
 30
0.0
  0
SEQEND
  5
206
330
203
100
AcDbEntity
  8
grau 10%
 62
     7
420
 16777215
370
    35
  0
POLYLINE
  5
207
330
1F
100
AcDbEntity
  8
grau 10%
 62
     7
420
 16777215
370
    35
100
AcDb2dPolyline
 66
     1
 10
0.0
 20
0.0
 30
0.0
  0
VERTEX
  5
208
330
207
100
AcDbEntity
  8
grau 10%
 62
     7
420
 16777215
370
    35
100
AcDbVertex
100
AcDb2dVertex
 10
116.3129369656863
 20
65.03794443835748
 30
0.0
  0
VERTEX
  5
209
330
207
100
AcDbEntity
  8
grau 10%
 62
     7
420
 16777215
370
    35
100
AcDbVertex
100
AcDb2dVertex
 10
91.3129340897206
 20
90.03792578247642
 30
0.0
  0
SEQEND
  5
20A
330
207
100
AcDbEntity
  8
grau 10%
 62
     7
420
 16777215
370
    35
  0
POLYLINE
  5
20B
330
1F
100
AcDbEntity
  8
grau 10%
 62
     7
420
 16777215
370
    35
100
AcDb2dPolyline
 66
     1
 10
0.0
 20
0.0
 30
0.0
  0
VERTEX
  5
20C
330
20B
100
AcDbEntity
  8
grau 10%
 62
     7
420
 16777215
370
    35
100
AcDbVertex
100
AcDb2dVertex
 10
116.3129369656863
 20
65.03794443835748
 30
0.0
  0
VERTEX
  5
20D
330
20B
100
AcDbEntity
  8
grau 10%
 62
     7
420
 16777215
370
    35
100
AcDbVertex
100
AcDb2dVertex
 10
116.3129369656863
 20
58.03791951741869
 30
0.0
  0
SEQEND
  5
20E
330
20B
100
AcDbEntity
  8
grau 10%
 62
     7
420
 16777215
370
    35
  0
POLYLINE
  5
20F
330
1F
100
AcDbEntity
  8
grau 10%
 62
     7
420
 16777215
370
    35
100
AcDb2dPolyline
 66
     1
 10
0.0
 20
0.0
 30
0.0
  0
VERTEX
  5
210
330
20F
100
AcDbEntity
  8
grau 10%
 62
     7
420
 16777215
370
    35
100
AcDbVertex
100
AcDb2dVertex
 10
54.81293333590614
 20
77.23791035734526
 30
0.0
  0
VERTEX
  5
211
330
20F
100
AcDbEntity
  8
grau 10%
 62
     7
420
 16777215
370
    35
100
AcDbVertex
100
AcDb2dVertex
 10
54.51293011468123
 20
77.53793511041695
 30
0.0
  0
SEQEND
  5
212
330
20F
100
AcDbEntity
  8
grau 10%
 62
     7
420
 16777215
370
    35
  0
POLYLINE
  5
213
330
1F
100
AcDbEntity
  8
grau 10%
 62
     7
420
 16777215
370
    35
100
AcDb2dPolyline
 66
     1
 10
0.0
 20
0.0
 30
0.0
  0
VERTEX
  5
214
330
213
100
AcDbEntity
  8
grau 10%
 62
     7
420
 16777215
370
    35
100
AcDbVertex
100
AcDb2dVertex
 10
45.1129224876367
 20
77.53793511041695
 30
0.0
  0
VERTEX
  5
215
330
213
100
AcDbEntity
  8
grau 10%
 62
     7
420
 16777215
370
    35
100
AcDbVertex
100
AcDb2dVertex
 10
44.81293003233518
 20
77.23791035734526
 30
0.0
  0
SEQEND
  5
216
330
213
100
AcDbEntity
  8
grau 10%
 62
     7
420
 16777215
370
    35
  0
POLYLINE
  5
217
330
1F
100
AcDbEntity
  8
grau 10%
 62
     7
420
 16777215
370
    35
100
AcDb2dPolyline
 66
     1
 10
0.0
 20
0.0
 30
0.0
  0
VERTEX
  5
218
330
217
100
AcDbEntity
  8
grau 10%
 62
     7
420
 16777215
370
    35
100
AcDbVertex
100
AcDb2dVertex
 10
54.81293333590614
 20
77.23791035734526
 30
0.0
  0
VERTEX
  5
219
330
217
100
AcDbEntity
  8
grau 10%
 62
     7
420
 16777215
370
    35
100
AcDbVertex
100
AcDb2dVertex
 10
54.70366997940677
 20
77.23791035734526
 30
0.0
  0
VERTEX
  5
21A
330
217
100
AcDbEntity
  8
grau 10%
 62
     7
420
 16777215
370
    35
100
AcDbVertex
100
AcDb2dVertex
 10
54.38065997989442
 20
77.23791035734526
 30
0.0
  0
VERTEX
  5
21B
330
217
100
AcDbEntity
  8
grau 10%
 62
     7
420
 16777215
370
    35
100
AcDbVertex
100
AcDb2dVertex
 10
53.85801746293524
 20
77.23791035734526
 30
0.0
  0
VERTEX
  5
21C
330
217
100
AcDbEntity
  8
grau 10%
 62
     7
420
 16777215
370
    35
100
AcDbVertex
100
AcDb2dVertex
 10
53.15858771796578
 20
77.23791035734526
 30
0.0
  0
VERTEX
  5
21D
330
217
100
AcDbEntity
  8
grau 10%
 62
     7
420
 16777215
370
    35
100
AcDbVertex
100
AcDb2dVertex
 10
52.31293520149425
 20
77.23791035734526
 30
0.0
  0
VERTEX
  5
21E
330
217
100
AcDbEntity
  8
grau 10%
 62
     7
420
 16777215
370
    35
100
AcDbVertex
100
AcDb2dVertex
 10
51.35800856259996
 20
77.23791035734526
 30
0.0
  0
VERTEX
  5
21F
330
217
100
AcDbEntity
  8
grau 10%
 62
     7
420
 16777215
370
    35
100
AcDbVertex
100
AcDb2dVertex
 10
50.33557958404154
 20
77.23791035734526
 30
0.0
  0
VERTEX
  5
220
330
217
100
AcDbEntity
  8
grau 10%
 62
     7
420
 16777215
370
    35
100
AcDbVertex
100
AcDb2dVertex
 10
49.29029455012318
 20
77.23791035734526
 30
0.0
  0
VERTEX
  5
221
330
217
100
AcDbEntity
  8
grau 10%
 62
     7
420
 16777215
370
    35
100
AcDbVertex
100
AcDb2dVertex
 10
48.26784403971798
 20
77.23791035734526
 30
0.0
  0
VERTEX
  5
222
330
217
100
AcDbEntity
  8
grau 10%
 62
     7
420
 16777215
370
    35
100
AcDbVertex
100
AcDb2dVertex
 10
47.31292816674707
 20
77.23791035734526
 30
0.0
  0
VERTEX
  5
223
330
217
100
AcDbEntity
  8
grau 10%
 62
     7
420
 16777215
370
    35
100
AcDbVertex
100
AcDb2dVertex
 10
46.46728641619894
 20
77.23791035734526
 30
0.0
  0
VERTEX
  5
224
330
217
100
AcDbEntity
  8
grau 10%
 62
     7
420
 16777215
370
    35
100
AcDbVertex
100
AcDb2dVertex
 10
45.76784590530609
 20
77.23791035734526
 30
0.0
  0
VERTEX
  5
225
330
217
100
AcDbEntity
  8
grau 10%
 62
     7
420
 16777215
370
    35
100
AcDbVertex
100
AcDb2dVertex
 10
45.2452033883469
 20
77.23791035734526
 30
0.0
  0
VERTEX
  5
226
330
217
100
AcDbEntity
  8
grau 10%
 62
     7
420
 16777215
370
    35
100
AcDbVertex
100
AcDb2dVertex
 10
44.92219338883456
 20
77.23791035734526
 30
0.0
  0
VERTEX
  5
227
330
217
100
AcDbEntity
  8
grau 10%
 62
     7
420
 16777215
370
    35
100
AcDbVertex
100
AcDb2dVertex
 10
44.81293003233518
 20
77.23791035734526
 30
0.0
  0
SEQEND
  5
228
330
217
100
AcDbEntity
  8
grau 10%
 62
     7
420
 16777215
370
    35
  0
POLYLINE
  5
229
330
1F
100
AcDbEntity
  8
grau 10%
 62
     7
420
 16777215
370
    35
100
AcDb2dPolyline
 66
     1
 10
0.0
 20
0.0
 30
0.0
  0
VERTEX
  5
22A
330
229
100
AcDbEntity
  8
grau 10%
 62
     7
420
 16777215
370
    35
100
AcDbVertex
100
AcDb2dVertex
 10
44.81293003233518
 20
77.23791035734526
 30
0.0
  0
VERTEX
  5
22B
330
229
100
AcDbEntity
  8
grau 10%
 62
     7
420
 16777215
370
    35
100
AcDbVertex
100
AcDb2dVertex
 10
44.81293003233518
 20
75.83793121137364
 30
0.0
  0
SEQEND
  5
22C
330
229
100
AcDbEntity
  8
grau 10%
 62
     7
420
 16777215
370
    35
  0
POLYLINE
  5
22D
330
1F
100
AcDbEntity
  8
grau 10%
 62
     7
420
 16777215
370
    35
100
AcDb2dPolyline
 66
     1
 10
0.0
 20
0.0
 30
0.0
  0
VERTEX
  5
22E
330
22D
100
AcDbEntity
  8
grau 10%
 62
     7
420
 16777215
370
    35
100
AcDbVertex
100
AcDb2dVertex
 10
54.81293333590614
 20
75.83793121137364
 30
0.0
  0
VERTEX
  5
22F
330
22D
100
AcDbEntity
  8
grau 10%
 62
     7
420
 16777215
370
    35
100
AcDbVertex
100
AcDb2dVertex
 10
54.81293333590614
 20
77.23791035734526
 30
0.0
  0
SEQEND
  5
230
330
22D
100
AcDbEntity
  8
grau 10%
 62
     7
420
 16777215
370
    35
  0
POLYLINE
  5
231
330
1F
100
AcDbEntity
  8
grau 10%
 62
     7
420
 16777215
370
    35
100
AcDb2dPolyline
 66
     1
 10
0.0
 20
0.0
 30
0.0
  0
VERTEX
  5
232
330
231
100
AcDbEntity
  8
grau 10%
 62
     7
420
 16777215
370
    35
100
AcDbVertex
100
AcDb2dVertex
 10
44.81293003233518
 20
75.83793121137364
 30
0.0
  0
VERTEX
  5
233
330
231
100
AcDbEntity
  8
grau 10%
 62
     7
420
 16777215
370
    35
100
AcDbVertex
100
AcDb2dVertex
 10
44.92219338883456
 20
75.83793121137364
 30
0.0
  0
VERTEX
  5
234
330
231
100
AcDbEntity
  8
grau 10%
 62
     7
420
 16777215
370
    35
100
AcDbVertex
100
AcDb2dVertex
 10
45.2452033883469
 20
75.83793121137364
 30
0.0
  0
VERTEX
  5
235
330
231
100
AcDbEntity
  8
grau 10%
 62
     7
420
 16777215
370
    35
100
AcDbVertex
100
AcDb2dVertex
 10
45.76784590530609
 20
75.83793121137364
 30
0.0
  0
VERTEX
  5
236
330
231
100
AcDbEntity
  8
grau 10%
 62
     7
420
 16777215
370
    35
100
AcDbVertex
100
AcDb2dVertex
 10
46.46728641619894
 20
75.83793121137364
 30
0.0
  0
VERTEX
  5
237
330
231
100
AcDbEntity
  8
grau 10%
 62
     7
420
 16777215
370
    35
100
AcDbVertex
100
AcDb2dVertex
 10
47.31292816674707
 20
75.83793121137364
 30
0.0
  0
VERTEX
  5
238
330
231
100
AcDbEntity
  8
grau 10%
 62
     7
420
 16777215
370
    35
100
AcDbVertex
100
AcDb2dVertex
 10
48.26784403971798
 20
75.83793121137364
 30
0.0
  0
VERTEX
  5
239
330
231
100
AcDbEntity
  8
grau 10%
 62
     7
420
 16777215
370
    35
100
AcDbVertex
100
AcDb2dVertex
 10
49.29029455012318
 20
75.83793121137364
 30
0.0
  0
VERTEX
  5
23A
330
231
100
AcDbEntity
  8
grau 10%
 62
     7
420
 16777215
370
    35
100
AcDbVertex
100
AcDb2dVertex
 10
50.33557958404154
 20
75.83793121137364
 30
0.0
  0
VERTEX
  5
23B
330
231
100
AcDbEntity
  8
grau 10%
 62
     7
420
 16777215
370
    35
100
AcDbVertex
100
AcDb2dVertex
 10
51.35800856259996
 20
75.83793121137364
 30
0.0
  0
VERTEX
  5
23C
330
231
100
AcDbEntity
  8
grau 10%
 62
     7
420
 16777215
370
    35
100
AcDbVertex
100
AcDb2dVertex
 10
52.31293520149425
 20
75.83793121137364
 30
0.0
  0
VERTEX
  5
23D
330
231
100
AcDbEntity
  8
grau 10%
 62
     7
420
 16777215
370
    35
100
AcDbVertex
100
AcDb2dVertex
 10
53.15858771796578
 20
75.83793121137364
 30
0.0
  0
VERTEX
  5
23E
330
231
100
AcDbEntity
  8
grau 10%
 62
     7
420
 16777215
370
    35
100
AcDbVertex
100
AcDb2dVertex
 10
53.85801746293524
 20
75.83793121137364
 30
0.0
  0
VERTEX
  5
23F
330
231
100
AcDbEntity
  8
grau 10%
 62
     7
420
 16777215
370
    35
100
AcDbVertex
100
AcDb2dVertex
 10
54.38065997989442
 20
75.83793121137364
 30
0.0
  0
VERTEX
  5
240
330
231
100
AcDbEntity
  8
grau 10%
 62
     7
420
 16777215
370
    35
100
AcDbVertex
100
AcDb2dVertex
 10
54.70366997940677
 20
75.83793121137364
 30
0.0
  0
VERTEX
  5
241
330
231
100
AcDbEntity
  8
grau 10%
 62
     7
420
 16777215
370
    35
100
AcDbVertex
100
AcDb2dVertex
 10
54.81293333590614
 20
75.83793121137364
 30
0.0
  0
SEQEND
  5
242
330
231
100
AcDbEntity
  8
grau 10%
 62
     7
420
 16777215
370
    35
  0
POLYLINE
  5
243
330
1F
100
AcDbEntity
  8
grau 10%
 62
     7
420
 16777215
370
    35
100
AcDb2dPolyline
 66
     1
 10
0.0
 20
0.0
 30
0.0
  0
VERTEX
  5
244
330
243
100
AcDbEntity
  8
grau 10%
 62
     7
420
 16777215
370
    35
100
AcDbVertex
100
AcDb2dVertex
 10
44.81293003233518
 20
75.83793121137364
 30
0.0
  0
VERTEX
  5
245
330
243
100
AcDbEntity
  8
grau 10%
 62
     7
420
 16777215
370
    35
100
AcDbVertex
100
AcDb2dVertex
 10
45.1129224876367
 20
75.53792799014873
 30
0.0
  0
SEQEND
  5
246
330
243
100
AcDbEntity
  8
grau 10%
 62
     7
420
 16777215
370
    35
  0
POLYLINE
  5
247
330
1F
100
AcDbEntity
  8
grau 10%
 62
     7
420
 16777215
370
    35
100
AcDb2dPolyline
 66
     1
 10
0.0
 20
0.0
 30
0.0
  0
VERTEX
  5
248
330
247
100
AcDbEntity
  8
grau 10%
 62
     7
420
 16777215
370
    35
100
AcDbVertex
100
AcDb2dVertex
 10
54.51293011468123
 20
75.53792799014873
 30
0.0
  0
VERTEX
  5
249
330
247
100
AcDbEntity
  8
grau 10%
 62
     7
420
 16777215
370
    35
100
AcDbVertex
100
AcDb2dVertex
 10
54.81293333590614
 20
75.83793121137364
 30
0.0
  0
SEQEND
  5
24A
330
247
100
AcDbEntity
  8
grau 10%
 62
     7
420
 16777215
370
    35
  0
POLYLINE
  5
24B
330
1F
100
AcDbEntity
  8
grau 10%
 62
     7
420
 16777215
370
    35
100
AcDb2dPolyline
 66
     1
 10
0.0
 20
0.0
 30
0.0
  0
VERTEX
  5
24C
330
24B
100
AcDbEntity
  8
grau 10%
 62
     7
420
 16777215
370
    35
100
AcDbVertex
100
AcDb2dVertex
 10
54.51293011468123
 20
75.53792799014873
 30
0.0
  0
VERTEX
  5
24D
330
24B
100
AcDbEntity
  8
grau 10%
 62
     7
420
 16777215
370
    35
100
AcDbVertex
100
AcDb2dVertex
 10
54.41023397145062
 20
75.53792799014873
 30
0.0
  0
VERTEX
  5
24E
330
24B
100
AcDbEntity
  8
grau 10%
 62
     7
420
 16777215
370
    35
100
AcDbVertex
100
AcDb2dVertex
 10
54.10660263404279
 20
75.53792799014873
 30
0.0
  0
VERTEX
  5
24F
330
24B
100
AcDbEntity
  8
grau 10%
 62
     7
420
 16777215
370
    35
100
AcDbVertex
100
AcDb2dVertex
 10
53.61531048599939
 20
75.53792799014873
 30
0.0
  0
VERTEX
  5
250
330
24B
100
AcDbEntity
  8
grau 10%
 62
     7
420
 16777215
370
    35
100
AcDbVertex
100
AcDb2dVertex
 10
52.95784631040963
 20
75.53792799014873
 30
0.0
  0
VERTEX
  5
251
330
24B
100
AcDbEntity
  8
grau 10%
 62
     7
420
 16777215
370
    35
100
AcDbVertex
100
AcDb2dVertex
 10
52.16293359088179
 20
75.53792799014873
 30
0.0
  0
VERTEX
  5
252
330
24B
100
AcDbEntity
  8
grau 10%
 62
     7
420
 16777215
370
    35
100
AcDbVertex
100
AcDb2dVertex
 10
51.26531396219995
 20
75.53792799014873
 30
0.0
  0
VERTEX
  5
253
330
24B
100
AcDbEntity
  8
grau 10%
 62
     7
420
 16777215
370
    35
100
AcDbVertex
100
AcDb2dVertex
 10
50.30421844920237
 20
75.53792799014873
 30
0.0
  0
VERTEX
  5
254
330
24B
100
AcDbEntity
  8
grau 10%
 62
     7
420
 16777215
370
    35
100
AcDbVertex
100
AcDb2dVertex
 10
49.32165568496234
 20
75.53792799014873
 30
0.0
  0
VERTEX
  5
255
330
24B
100
AcDbEntity
  8
grau 10%
 62
     7
420
 16777215
370
    35
100
AcDbVertex
100
AcDb2dVertex
 10
48.36054940604137
 20
75.53792799014873
 30
0.0
  0
VERTEX
  5
256
330
24B
100
AcDbEntity
  8
grau 10%
 62
     7
420
 16777215
370
    35
100
AcDbVertex
100
AcDb2dVertex
 10
47.46292977735953
 20
75.53792799014873
 30
0.0
  0
VERTEX
  5
257
330
24B
100
AcDbEntity
  8
grau 10%
 62
     7
420
 16777215
370
    35
100
AcDbVertex
100
AcDb2dVertex
 10
46.6680170578317
 20
75.53792799014873
 30
0.0
  0
VERTEX
  5
258
330
24B
100
AcDbEntity
  8
grau 10%
 62
     7
420
 16777215
370
    35
100
AcDbVertex
100
AcDb2dVertex
 10
46.01055288224194
 20
75.53792799014873
 30
0.0
  0
VERTEX
  5
259
330
24B
100
AcDbEntity
  8
grau 10%
 62
     7
420
 16777215
370
    35
100
AcDbVertex
100
AcDb2dVertex
 10
45.51927150012192
 20
75.53792799014873
 30
0.0
  0
VERTEX
  5
25A
330
24B
100
AcDbEntity
  8
grau 10%
 62
     7
420
 16777215
370
    35
100
AcDbVertex
100
AcDb2dVertex
 10
45.2156401627141
 20
75.53792799014873
 30
0.0
  0
VERTEX
  5
25B
330
24B
100
AcDbEntity
  8
grau 10%
 62
     7
420
 16777215
370
    35
100
AcDbVertex
100
AcDb2dVertex
 10
45.1129224876367
 20
75.53792799014873
 30
0.0
  0
SEQEND
  5
25C
330
24B
100
AcDbEntity
  8
grau 10%
 62
     7
420
 16777215
370
    35
  0
POLYLINE
  5
25D
330
1F
100
AcDbEntity
  8
grau 10%
 62
     7
420
 16777215
370
    35
100
AcDb2dPolyline
 66
     1
 10
0.0
 20
0.0
 30
0.0
  0
VERTEX
  5
25E
330
25D
100
AcDbEntity
  8
grau 10%
 62
     7
420
 16777215
370
    35
100
AcDbVertex
100
AcDb2dVertex
 10
46.81293715260341
 20
74.53792443001461
 30
0.0
  0
VERTEX
  5
25F
330
25D
100
AcDbEntity
  8
grau 10%
 62
     7
420
 16777215
370
    35
100
AcDbVertex
100
AcDb2dVertex
 10
47.96763626594863
 20
72.53791730974638
 30
0.0
  0
SEQEND
  5
260
330
25D
100
AcDbEntity
  8
grau 10%
 62
     7
420
 16777215
370
    35
  0
POLYLINE
  5
261
330
1F
100
AcDbEntity
  8
grau 10%
 62
     7
420
 16777215
370
    35
100
AcDb2dPolyline
 66
     1
 10
0.0
 20
0.0
 30
0.0
  0
VERTEX
  5
262
330
261
100
AcDbEntity
  8
grau 10%
 62
     7
420
 16777215
370
    35
100
AcDbVertex
100
AcDb2dVertex
 10
51.65823786821608
 20
72.53791730974638
 30
0.0
  0
VERTEX
  5
263
330
261
100
AcDbEntity
  8
grau 10%
 62
     7
420
 16777215
370
    35
100
AcDbVertex
100
AcDb2dVertex
 10
52.81293698156131
 20
74.53792443001461
 30
0.0
  0
SEQEND
  5
264
330
261
100
AcDbEntity
  8
grau 10%
 62
     7
420
 16777215
370
    35
  0
POLYLINE
  5
265
330
1F
100
AcDbEntity
  8
grau 10%
 62
     7
420
 16777215
370
    35
100
AcDb2dPolyline
 66
     1
 10
0.0
 20
0.0
 30
0.0
  0
VERTEX
  5
266
330
265
100
AcDbEntity
  8
grau 10%
 62
     7
420
 16777215
370
    35
100
AcDbVertex
100
AcDb2dVertex
 10
46.81293715260341
 20
74.53792443001461
 30
0.0
  0
VERTEX
  5
267
330
265
100
AcDbEntity
  8
grau 10%
 62
     7
420
 16777215
370
    35
100
AcDbVertex
100
AcDb2dVertex
 10
46.91514882928141
 20
74.53792443001461
 30
0.0
  0
VERTEX
  5
268
330
265
100
AcDbEntity
  8
grau 10%
 62
     7
420
 16777215
370
    35
100
AcDbVertex
100
AcDb2dVertex
 10
47.21485060465137
 20
74.53792443001461
 30
0.0
  0
VERTEX
  5
269
330
265
100
AcDbEntity
  8
grau 10%
 62
     7
420
 16777215
370
    35
100
AcDbVertex
100
AcDb2dVertex
 10
47.69160875611638
 20
74.53792443001461
 30
0.0
  0
VERTEX
  5
26A
330
265
100
AcDbEntity
  8
grau 10%
 62
     7
420
 16777215
370
    35
100
AcDbVertex
100
AcDb2dVertex
 10
48.31293172688119
 20
74.53792443001461
 30
0.0
  0
VERTEX
  5
26B
330
265
100
AcDbEntity
  8
grau 10%
 62
     7
420
 16777215
370
    35
100
AcDbVertex
100
AcDb2dVertex
 10
49.036466374324
 20
74.53792443001461
 30
0.0
  0
VERTEX
  5
26C
330
265
100
AcDbEntity
  8
grau 10%
 62
     7
420
 16777215
370
    35
100
AcDbVertex
100
AcDb2dVertex
 10
49.81292630115897
 20
74.53792443001461
 30
0.0
  0
VERTEX
  5
26D
330
265
100
AcDbEntity
  8
grau 10%
 62
     7
420
 16777215
370
    35
100
AcDbVertex
100
AcDb2dVertex
 10
50.58938622799393
 20
74.53792443001461
 30
0.0
  0
VERTEX
  5
26E
330
265
100
AcDbEntity
  8
grau 10%
 62
     7
420
 16777215
370
    35
100
AcDbVertex
100
AcDb2dVertex
 10
51.31293164136014
 20
74.53792443001461
 30
0.0
  0
VERTEX
  5
26F
330
265
100
AcDbEntity
  8
grau 10%
 62
     7
420
 16777215
370
    35
100
AcDbVertex
100
AcDb2dVertex
 10
51.93425461212495
 20
74.53792443001461
 30
0.0
  0
VERTEX
  5
270
330
265
100
AcDbEntity
  8
grau 10%
 62
     7
420
 16777215
370
    35
100
AcDbVertex
100
AcDb2dVertex
 10
52.41100199766657
 20
74.53792443001461
 30
0.0
  0
VERTEX
  5
271
330
265
100
AcDbEntity
  8
grau 10%
 62
     7
420
 16777215
370
    35
100
AcDbVertex
100
AcDb2dVertex
 10
52.71070377303652
 20
74.53792443001461
 30
0.0
  0
VERTEX
  5
272
330
265
100
AcDbEntity
  8
grau 10%
 62
     7
420
 16777215
370
    35
100
AcDbVertex
100
AcDb2dVertex
 10
52.81293698156131
 20
74.53792443001461
 30
0.0
  0
SEQEND
  5
273
330
265
100
AcDbEntity
  8
grau 10%
 62
     7
420
 16777215
370
    35
  0
POLYLINE
  5
274
330
1F
100
AcDbEntity
  8
grau 10%
 62
     7
420
 16777215
370
    35
100
AcDb2dPolyline
 66
     1
 10
0.0
 20
0.0
 30
0.0
  0
VERTEX
  5
275
330
274
100
AcDbEntity
  8
grau 10%
 62
     7
420
 16777215
370
    35
100
AcDbVertex
100
AcDb2dVertex
 10
51.65823786821608
 20
72.53791730974638
 30
0.0
  0
VERTEX
  5
276
330
274
100
AcDbEntity
  8
grau 10%
 62
     7
420
 16777215
370
    35
100
AcDbVertex
100
AcDb2dVertex
 10
51.54693975219573
 20
72.53791730974638
 30
0.0
  0
VERTEX
  5
277
330
274
100
AcDbEntity
  8
grau 10%
 62
     7
420
 16777215
370
    35
100
AcDbVertex
100
AcDb2dVertex
 10
51.22651357429732
 20
72.53791730974638
 30
0.0
  0
VERTEX
  5
278
330
274
100
AcDbEntity
  8
grau 10%
 62
     7
420
 16777215
370
    35
100
AcDbVertex
100
AcDb2dVertex
 10
50.73557670172583
 20
72.53791730974638
 30
0.0
  0
VERTEX
  5
279
330
274
100
AcDbEntity
  8
grau 10%
 62
     7
420
 16777215
370
    35
100
AcDbVertex
100
AcDb2dVertex
 10
50.13336324498077
 20
72.53791730974638
 30
0.0
  0
VERTEX
  5
27A
330
274
100
AcDbEntity
  8
grau 10%
 62
     7
420
 16777215
370
    35
100
AcDbVertex
100
AcDb2dVertex
 10
49.49248935733716
 20
72.53791730974638
 30
0.0
  0
VERTEX
  5
27B
330
274
100
AcDbEntity
  8
grau 10%
 62
     7
420
 16777215
370
    35
100
AcDbVertex
100
AcDb2dVertex
 10
48.8902759005921
 20
72.53791730974638
 30
0.0
  0
VERTEX
  5
27C
330
274
100
AcDbEntity
  8
grau 10%
 62
     7
420
 16777215
370
    35
100
AcDbVertex
100
AcDb2dVertex
 10
48.399349793944
 20
72.53791730974638
 30
0.0
  0
VERTEX
  5
27D
330
274
100
AcDbEntity
  8
grau 10%
 62
     7
420
 16777215
370
    35
100
AcDbVertex
100
AcDb2dVertex
 10
48.0789128501222
 20
72.53791730974638
 30
0.0
  0
VERTEX
  5
27E
330
274
100
AcDbEntity
  8
grau 10%
 62
     7
420
 16777215
370
    35
100
AcDbVertex
100
AcDb2dVertex
 10
47.96763626594863
 20
72.53791730974638
 30
0.0
  0
SEQEND
  5
27F
330
274
100
AcDbEntity
  8
grau 10%
 62
     7
420
 16777215
370
    35
  0
POLYLINE
  5
280
330
1F
100
AcDbEntity
  8
grau 10%
 62
     7
420
 16777215
370
    35
100
AcDb2dPolyline
 66
     1
 10
0.0
 20
0.0
 30
0.0
  0
VERTEX
  5
281
330
280
100
AcDbEntity
  8
grau 10%
 62
     7
420
 16777215
370
    35
100
AcDbVertex
100
AcDb2dVertex
 10
52.81293698156131
 20
74.53792443001461
 30
0.0
  0
VERTEX
  5
282
330
280
100
AcDbEntity
  8
grau 10%
 62
     7
420
 16777215
370
    35
100
AcDbVertex
100
AcDb2dVertex
 10
52.81293698156131
 20
75.53792799014873
 30
0.0
  0
SEQEND
  5
283
330
280
100
AcDbEntity
  8
grau 10%
 62
     7
420
 16777215
370
    35
  0
POLYLINE
  5
284
330
1F
100
AcDbEntity
  8
grau 10%
 62
     7
420
 16777215
370
    35
100
AcDb2dPolyline
 66
     1
 10
0.0
 20
0.0
 30
0.0
  0
VERTEX
  5
285
330
284
100
AcDbEntity
  8
grau 10%
 62
     7
420
 16777215
370
    35
100
AcDbVertex
100
AcDb2dVertex
 10
46.81293715260341
 20
75.53792799014873
 30
0.0
  0
VERTEX
  5
286
330
284
100
AcDbEntity
  8
grau 10%
 62
     7
420
 16777215
370
    35
100
AcDbVertex
100
AcDb2dVertex
 10
46.81293715260341
 20
74.53792443001461
 30
0.0
  0
SEQEND
  5
287
330
284
100
AcDbEntity
  8
grau 10%
 62
     7
420
 16777215
370
    35
  0
POLYLINE
  5
28A
330
1F
100
AcDbEntity
  8
Bema_U+00DFung
 62
     7
420
 16777215
370
     9
100
AcDb2dPolyline
 66
     1
 10
0.0
 20
0.0
 30
0.0
  0
VERTEX
  5
28B
330
28A
100
AcDbEntity
  8
Bema_U+00DFung
 62
     7
420
 16777215
370
     9
100
AcDbVertex
100
AcDb2dVertex
 10
45.1129224876367
 20
77.53793511041695
 30
0.0
  0
VERTEX
  5
28C
330
28A
100
AcDbEntity
  8
Bema_U+00DFung
 62
     7
420
 16777215
370
     9
100
AcDbVertex
100
AcDb2dVertex
 10
17.81293080202463
 20
77.53793511041695
 30
0.0
  0
SEQEND
  5
28D
330
28A
100
AcDbEntity
  8
Bema_U+00DFung
 62
     7
420
 16777215
370
     9
  0
POLYLINE
  5
28E
330
1F
100
AcDbEntity
  8
Bema_U+00DFung
 62
     7
420
 16777215
370
     9
100
AcDb2dPolyline
 66
     1
 10
0.0
 20
0.0
 30
0.0
  0
VERTEX
  5
28F
330
28E
100
AcDbEntity
  8
Bema_U+00DFung
 62
     7
420
 16777215
370
     9
100
AcDbVertex
100
AcDb2dVertex
 10
37.81293202620486
 20
9.537929871611828
 30
0.0
  0
VERTEX
  5
290
330
28E
100
AcDbEntity
  8
Bema_U+00DFung
 62
     7
420
 16777215
370
     9
100
AcDbVertex
100
AcDb2dVertex
 10
17.81293080202463
 20
9.537929871611828
 30
0.0
  0
SEQEND
  5
291
330
28E
100
AcDbEntity
  8
Bema_U+00DFung
 62
     7
420
 16777215
370
     9
  0
POLYLINE
  5
292
330
1F
100
AcDbEntity
  8
Bema_U+00DFung
 62
     7
420
 16777215
370
     9
100
AcDb2dPolyline
 66
     1
 10
0.0
 20
0.0
 30
0.0
  0
VERTEX
  5
293
330
292
100
AcDbEntity
  8
Bema_U+00DFung
 62
     7
420
 16777215
370
     9
100
AcDbVertex
100
AcDb2dVertex
 10
19.81293253933116
 20
77.53793511041695
 30
0.0
  0
VERTEX
  5
294
330
292
100
AcDbEntity
  8
Bema_U+00DFung
 62
     7
420
 16777215
370
     9
100
AcDbVertex
100
AcDb2dVertex
 10
19.81293253933116
 20
9.537929871611828
 30
0.0
  0
SEQEND
  5
295
330
292
100
AcDbEntity
  8
Bema_U+00DFung
 62
     7
420
 16777215
370
     9
  0
POLYLINE
  5
296
330
1F
100
AcDbEntity
  8
Bema_U+00DFung
 62
     7
420
 16777215
370
     9
100
AcDb2dPolyline
 66
     1
 10
0.0
 20
0.0
 30
0.0
  0
VERTEX
  5
297
330
296
100
AcDbEntity
  8
Bema_U+00DFung
 62
     7
420
 16777215
370
     9
100
AcDbVertex
100
AcDb2dVertex
 10
19.81293253933116
 20
77.53793511041695
 30
0.0
  0
VERTEX
  5
298
330
296
100
AcDbEntity
  8
Bema_U+00DFung
 62
     7
420
 16777215
370
     9
100
AcDbVertex
100
AcDb2dVertex
 10
19.48379672940911
 20
75.03793697600506
 30
0.0
  0
SEQEND
  5
299
330
296
100
AcDbEntity
  8
Bema_U+00DFung
 62
     7
420
 16777215
370
     9
  0
POLYLINE
  5
29A
330
1F
100
AcDbEntity
  8
Bema_U+00DFung
 62
     7
420
 16777215
370
     9
100
AcDb2dPolyline
 66
     1
 10
0.0
 20
0.0
 30
0.0
  0
VERTEX
  5
29B
330
29A
100
AcDbEntity
  8
Bema_U+00DFung
 62
     7
420
 16777215
370
     9
100
AcDbVertex
100
AcDb2dVertex
 10
19.48379672940911
 20
75.03793697600506
 30
0.0
  0
VERTEX
  5
29C
330
29A
100
AcDbEntity
  8
Bema_U+00DFung
 62
     7
420
 16777215
370
     9
100
AcDbVertex
100
AcDb2dVertex
 10
20.14206296629153
 20
75.03793697600506
 30
0.0
  0
SEQEND
  5
29D
330
29A
100
AcDbEntity
  8
Bema_U+00DFung
 62
     7
420
 16777215
370
     9
  0
POLYLINE
  5
29E
330
1F
100
AcDbEntity
  8
Bema_U+00DFung
 62
     7
420
 16777215
370
     9
100
AcDb2dPolyline
 66
     1
 10
0.0
 20
0.0
 30
0.0
  0
VERTEX
  5
29F
330
29E
100
AcDbEntity
  8
Bema_U+00DFung
 62
     7
420
 16777215
370
     9
100
AcDbVertex
100
AcDb2dVertex
 10
20.14206296629153
 20
75.03793697600506
 30
0.0
  0
VERTEX
  5
2A0
330
29E
100
AcDbEntity
  8
Bema_U+00DFung
 62
     7
420
 16777215
370
     9
100
AcDbVertex
100
AcDb2dVertex
 10
19.81293253933116
 20
77.53793511041695
 30
0.0
  0
SEQEND
  5
2A1
330
29E
100
AcDbEntity
  8
Bema_U+00DFung
 62
     7
420
 16777215
370
     9
  0
POLYLINE
  5
2A2
330
1F
100
AcDbEntity
  8
Bema_U+00DFung
 62
     7
420
 16777215
370
     9
100
AcDb2dPolyline
 66
     1
 10
0.0
 20
0.0
 30
0.0
  0
VERTEX
  5
2A3
330
2A2
100
AcDbEntity
  8
Bema_U+00DFung
 62
     7
420
 16777215
370
     9
100
AcDbVertex
100
AcDb2dVertex
 10
19.50813309923538
 20
75.03793697600506
 30
0.0
  0
VERTEX
  5
2A4
330
2A2
100
AcDbEntity
  8
Bema_U+00DFung
 62
     7
420
 16777215
370
     9
100
AcDbVertex
100
AcDb2dVertex
 10
19.50813309923538
 20
75.22274481694193
 30
0.0
  0
SEQEND
  5
2A5
330
2A2
100
AcDbEntity
  8
Bema_U+00DFung
 62
     7
420
 16777215
370
     9
  0
POLYLINE
  5
2A6
330
1F
100
AcDbEntity
  8
Bema_U+00DFung
 62
     7
420
 16777215
370
     9
100
AcDb2dPolyline
 66
     1
 10
0.0
 20
0.0
 30
0.0
  0
VERTEX
  5
2A7
330
2A6
100
AcDbEntity
  8
Bema_U+00DFung
 62
     7
420
 16777215
370
     9
100
AcDbVertex
100
AcDb2dVertex
 10
19.50813309923538
 20
75.03793697600506
 30
0.0
  0
VERTEX
  5
2A8
330
2A6
100
AcDbEntity
  8
Bema_U+00DFung
 62
     7
420
 16777215
370
     9
100
AcDbVertex
100
AcDb2dVertex
 10
19.50813309923538
 20
75.22274481694193
 30
0.0
  0
SEQEND
  5
2A9
330
2A6
100
AcDbEntity
  8
Bema_U+00DFung
 62
     7
420
 16777215
370
     9
  0
POLYLINE
  5
2AA
330
1F
100
AcDbEntity
  8
Bema_U+00DFung
 62
     7
420
 16777215
370
     9
100
AcDb2dPolyline
 66
     1
 10
0.0
 20
0.0
 30
0.0
  0
VERTEX
  5
2AB
330
2AA
100
AcDbEntity
  8
Bema_U+00DFung
 62
     7
420
 16777215
370
     9
100
AcDbVertex
100
AcDb2dVertex
 10
19.55893210875773
 20
75.03793697600506
 30
0.0
  0
VERTEX
  5
2AC
330
2AA
100
AcDbEntity
  8
Bema_U+00DFung
 62
     7
420
 16777215
370
     9
100
AcDbVertex
100
AcDb2dVertex
 10
19.55893210875773
 20
75.60861704313669
 30
0.0
  0
SEQEND
  5
2AD
330
2AA
100
AcDbEntity
  8
Bema_U+00DFung
 62
     7
420
 16777215
370
     9
  0
POLYLINE
  5
2AE
330
1F
100
AcDbEntity
  8
Bema_U+00DFung
 62
     7
420
 16777215
370
     9
100
AcDb2dPolyline
 66
     1
 10
0.0
 20
0.0
 30
0.0
  0
VERTEX
  5
2AF
330
2AE
100
AcDbEntity
  8
Bema_U+00DFung
 62
     7
420
 16777215
370
     9
100
AcDbVertex
100
AcDb2dVertex
 10
19.60973111828008
 20
75.03793697600506
 30
0.0
  0
VERTEX
  5
2B0
330
2AE
100
AcDbEntity
  8
Bema_U+00DFung
 62
     7
420
 16777215
370
     9
100
AcDbVertex
100
AcDb2dVertex
 10
19.60973111828008
 20
75.9944462056379
 30
0.0
  0
SEQEND
  5
2B1
330
2AE
100
AcDbEntity
  8
Bema_U+00DFung
 62
     7
420
 16777215
370
     9
  0
POLYLINE
  5
2B2
330
1F
100
AcDbEntity
  8
Bema_U+00DFung
 62
     7
420
 16777215
370
     9
100
AcDb2dPolyline
 66
     1
 10
0.0
 20
0.0
 30
0.0
  0
VERTEX
  5
2B3
330
2B2
100
AcDbEntity
  8
Bema_U+00DFung
 62
     7
420
 16777215
370
     9
100
AcDbVertex
100
AcDb2dVertex
 10
19.66053012780242
 20
75.03793697600506
 30
0.0
  0
VERTEX
  5
2B4
330
2B2
100
AcDbEntity
  8
Bema_U+00DFung
 62
     7
420
 16777215
370
     9
100
AcDbVertex
100
AcDb2dVertex
 10
19.66053012780242
 20
76.38033996367945
 30
0.0
  0
SEQEND
  5
2B5
330
2B2
100
AcDbEntity
  8
Bema_U+00DFung
 62
     7
420
 16777215
370
     9
  0
POLYLINE
  5
2B6
330
1F
100
AcDbEntity
  8
Bema_U+00DFung
 62
     7
420
 16777215
370
     9
100
AcDb2dPolyline
 66
     1
 10
0.0
 20
0.0
 30
0.0
  0
VERTEX
  5
2B7
330
2B6
100
AcDbEntity
  8
Bema_U+00DFung
 62
     7
420
 16777215
370
     9
100
AcDbVertex
100
AcDb2dVertex
 10
19.71132913732477
 20
75.03793697600506
 30
0.0
  0
VERTEX
  5
2B8
330
2B6
100
AcDbEntity
  8
Bema_U+00DFung
 62
     7
420
 16777215
370
     9
100
AcDbVertex
100
AcDb2dVertex
 10
19.71132913732477
 20
76.76621218987421
 30
0.0
  0
SEQEND
  5
2B9
330
2B6
100
AcDbEntity
  8
Bema_U+00DFung
 62
     7
420
 16777215
370
     9
  0
POLYLINE
  5
2BA
330
1F
100
AcDbEntity
  8
Bema_U+00DFung
 62
     7
420
 16777215
370
     9
100
AcDb2dPolyline
 66
     1
 10
0.0
 20
0.0
 30
0.0
  0
VERTEX
  5
2BB
330
2BA
100
AcDbEntity
  8
Bema_U+00DFung
 62
     7
420
 16777215
370
     9
100
AcDbVertex
100
AcDb2dVertex
 10
19.76213352980882
 20
75.03793697600506
 30
0.0
  0
VERTEX
  5
2BC
330
2BA
100
AcDbEntity
  8
Bema_U+00DFung
 62
     7
420
 16777215
370
     9
100
AcDbVertex
100
AcDb2dVertex
 10
19.76213352980882
 20
77.1520413523754
 30
0.0
  0
SEQEND
  5
2BD
330
2BA
100
AcDbEntity
  8
Bema_U+00DFung
 62
     7
420
 16777215
370
     9
  0
POLYLINE
  5
2BE
330
1F
100
AcDbEntity
  8
Bema_U+00DFung
 62
     7
420
 16777215
370
     9
100
AcDb2dPolyline
 66
     1
 10
0.0
 20
0.0
 30
0.0
  0
VERTEX
  5
2BF
330
2BE
100
AcDbEntity
  8
Bema_U+00DFung
 62
     7
420
 16777215
370
     9
100
AcDbVertex
100
AcDb2dVertex
 10
19.81293253933116
 20
75.03793697600506
 30
0.0
  0
VERTEX
  5
2C0
330
2BE
100
AcDbEntity
  8
Bema_U+00DFung
 62
     7
420
 16777215
370
     9
100
AcDbVertex
100
AcDb2dVertex
 10
19.81293253933116
 20
77.53793511041695
 30
0.0
  0
SEQEND
  5
2C1
330
2BE
100
AcDbEntity
  8
Bema_U+00DFung
 62
     7
420
 16777215
370
     9
  0
POLYLINE
  5
2C2
330
1F
100
AcDbEntity
  8
Bema_U+00DFung
 62
     7
420
 16777215
370
     9
100
AcDb2dPolyline
 66
     1
 10
0.0
 20
0.0
 30
0.0
  0
VERTEX
  5
2C3
330
2C2
100
AcDbEntity
  8
Bema_U+00DFung
 62
     7
420
 16777215
370
     9
100
AcDbVertex
100
AcDb2dVertex
 10
20.11773197942695
 20
75.03793697600506
 30
0.0
  0
VERTEX
  5
2C4
330
2C2
100
AcDbEntity
  8
Bema_U+00DFung
 62
     7
420
 16777215
370
     9
100
AcDbVertex
100
AcDb2dVertex
 10
20.11773197942695
 20
75.22274481694193
 30
0.0
  0
SEQEND
  5
2C5
330
2C2
100
AcDbEntity
  8
Bema_U+00DFung
 62
     7
420
 16777215
370
     9
  0
POLYLINE
  5
2C6
330
1F
100
AcDbEntity
  8
Bema_U+00DFung
 62
     7
420
 16777215
370
     9
100
AcDb2dPolyline
 66
     1
 10
0.0
 20
0.0
 30
0.0
  0
VERTEX
  5
2C7
330
2C6
100
AcDbEntity
  8
Bema_U+00DFung
 62
     7
420
 16777215
370
     9
100
AcDbVertex
100
AcDb2dVertex
 10
20.11773197942695
 20
75.03793697600506
 30
0.0
  0
VERTEX
  5
2C8
330
2C6
100
AcDbEntity
  8
Bema_U+00DFung
 62
     7
420
 16777215
370
     9
100
AcDbVertex
100
AcDb2dVertex
 10
20.11773197942695
 20
75.22274481694193
 30
0.0
  0
SEQEND
  5
2C9
330
2C6
100
AcDbEntity
  8
Bema_U+00DFung
 62
     7
420
 16777215
370
     9
  0
POLYLINE
  5
2CA
330
1F
100
AcDbEntity
  8
Bema_U+00DFung
 62
     7
420
 16777215
370
     9
100
AcDb2dPolyline
 66
     1
 10
0.0
 20
0.0
 30
0.0
  0
VERTEX
  5
2CB
330
2CA
100
AcDbEntity
  8
Bema_U+00DFung
 62
     7
420
 16777215
370
     9
100
AcDbVertex
100
AcDb2dVertex
 10
20.0669329699046
 20
75.03793697600506
 30
0.0
  0
VERTEX
  5
2CC
330
2CA
100
AcDbEntity
  8
Bema_U+00DFung
 62
     7
420
 16777215
370
     9
100
AcDbVertex
100
AcDb2dVertex
 10
20.0669329699046
 20
75.60861704313669
 30
0.0
  0
SEQEND
  5
2CD
330
2CA
100
AcDbEntity
  8
Bema_U+00DFung
 62
     7
420
 16777215
370
     9
  0
POLYLINE
  5
2CE
330
1F
100
AcDbEntity
  8
Bema_U+00DFung
 62
     7
420
 16777215
370
     9
100
AcDb2dPolyline
 66
     1
 10
0.0
 20
0.0
 30
0.0
  0
VERTEX
  5
2CF
330
2CE
100
AcDbEntity
  8
Bema_U+00DFung
 62
     7
420
 16777215
370
     9
100
AcDbVertex
100
AcDb2dVertex
 10
20.01613396038225
 20
75.03793697600506
 30
0.0
  0
VERTEX
  5
2D0
330
2CE
100
AcDbEntity
  8
Bema_U+00DFung
 62
     7
420
 16777215
370
     9
100
AcDbVertex
100
AcDb2dVertex
 10
20.01613396038225
 20
75.9944462056379
 30
0.0
  0
SEQEND
  5
2D1
330
2CE
100
AcDbEntity
  8
Bema_U+00DFung
 62
     7
420
 16777215
370
     9
  0
POLYLINE
  5
2D2
330
1F
100
AcDbEntity
  8
Bema_U+00DFung
 62
     7
420
 16777215
370
     9
100
AcDb2dPolyline
 66
     1
 10
0.0
 20
0.0
 30
0.0
  0
VERTEX
  5
2D3
330
2D2
100
AcDbEntity
  8
Bema_U+00DFung
 62
     7
420
 16777215
370
     9
100
AcDbVertex
100
AcDb2dVertex
 10
19.96532956789821
 20
75.03793697600506
 30
0.0
  0
VERTEX
  5
2D4
330
2D2
100
AcDbEntity
  8
Bema_U+00DFung
 62
     7
420
 16777215
370
     9
100
AcDbVertex
100
AcDb2dVertex
 10
19.96532956789821
 20
76.38033996367945
 30
0.0
  0
SEQEND
  5
2D5
330
2D2
100
AcDbEntity
  8
Bema_U+00DFung
 62
     7
420
 16777215
370
     9
  0
POLYLINE
  5
2D6
330
1F
100
AcDbEntity
  8
Bema_U+00DFung
 62
     7
420
 16777215
370
     9
100
AcDb2dPolyline
 66
     1
 10
0.0
 20
0.0
 30
0.0
  0
VERTEX
  5
2D7
330
2D6
100
AcDbEntity
  8
Bema_U+00DFung
 62
     7
420
 16777215
370
     9
100
AcDbVertex
100
AcDb2dVertex
 10
19.91453055837586
 20
75.03793697600506
 30
0.0
  0
VERTEX
  5
2D8
330
2D6
100
AcDbEntity
  8
Bema_U+00DFung
 62
     7
420
 16777215
370
     9
100
AcDbVertex
100
AcDb2dVertex
 10
19.91453055837586
 20
76.76621218987421
 30
0.0
  0
SEQEND
  5
2D9
330
2D6
100
AcDbEntity
  8
Bema_U+00DFung
 62
     7
420
 16777215
370
     9
  0
POLYLINE
  5
2DA
330
1F
100
AcDbEntity
  8
Bema_U+00DFung
 62
     7
420
 16777215
370
     9
100
AcDb2dPolyline
 66
     1
 10
0.0
 20
0.0
 30
0.0
  0
VERTEX
  5
2DB
330
2DA
100
AcDbEntity
  8
Bema_U+00DFung
 62
     7
420
 16777215
370
     9
100
AcDbVertex
100
AcDb2dVertex
 10
19.86373154885351
 20
75.03793697600506
 30
0.0
  0
VERTEX
  5
2DC
330
2DA
100
AcDbEntity
  8
Bema_U+00DFung
 62
     7
420
 16777215
370
     9
100
AcDbVertex
100
AcDb2dVertex
 10
19.86373154885351
 20
77.1520413523754
 30
0.0
  0
SEQEND
  5
2DD
330
2DA
100
AcDbEntity
  8
Bema_U+00DFung
 62
     7
420
 16777215
370
     9
  0
POLYLINE
  5
2DE
330
1F
100
AcDbEntity
  8
Bema_U+00DFung
 62
     7
420
 16777215
370
     9
100
AcDb2dPolyline
 66
     1
 10
0.0
 20
0.0
 30
0.0
  0
VERTEX
  5
2DF
330
2DE
100
AcDbEntity
  8
Bema_U+00DFung
 62
     7
420
 16777215
370
     9
100
AcDbVertex
100
AcDb2dVertex
 10
19.81293253933116
 20
75.03793697600506
 30
0.0
  0
VERTEX
  5
2E0
330
2DE
100
AcDbEntity
  8
Bema_U+00DFung
 62
     7
420
 16777215
370
     9
100
AcDbVertex
100
AcDb2dVertex
 10
19.81293253933116
 20
77.53793511041695
 30
0.0
  0
SEQEND
  5
2E1
330
2DE
100
AcDbEntity
  8
Bema_U+00DFung
 62
     7
420
 16777215
370
     9
  0
POLYLINE
  5
2E2
330
1F
100
AcDbEntity
  8
Bema_U+00DFung
 62
     7
420
 16777215
370
     9
100
AcDb2dPolyline
 66
     1
 10
0.0
 20
0.0
 30
0.0
  0
VERTEX
  5
2E3
330
2E2
100
AcDbEntity
  8
Bema_U+00DFung
 62
     7
420
 16777215
370
     9
100
AcDbVertex
100
AcDb2dVertex
 10
19.81293253933116
 20
9.537929871611828
 30
0.0
  0
VERTEX
  5
2E4
330
2E2
100
AcDbEntity
  8
Bema_U+00DFung
 62
     7
420
 16777215
370
     9
100
AcDbVertex
100
AcDb2dVertex
 10
20.14206296629153
 20
12.03792800602372
 30
0.0
  0
SEQEND
  5
2E5
330
2E2
100
AcDbEntity
  8
Bema_U+00DFung
 62
     7
420
 16777215
370
     9
  0
POLYLINE
  5
2E6
330
1F
100
AcDbEntity
  8
Bema_U+00DFung
 62
     7
420
 16777215
370
     9
100
AcDb2dPolyline
 66
     1
 10
0.0
 20
0.0
 30
0.0
  0
VERTEX
  5
2E7
330
2E6
100
AcDbEntity
  8
Bema_U+00DFung
 62
     7
420
 16777215
370
     9
100
AcDbVertex
100
AcDb2dVertex
 10
20.14206296629153
 20
12.03792800602372
 30
0.0
  0
VERTEX
  5
2E8
330
2E6
100
AcDbEntity
  8
Bema_U+00DFung
 62
     7
420
 16777215
370
     9
100
AcDbVertex
100
AcDb2dVertex
 10
19.48379672940911
 20
12.03792800602372
 30
0.0
  0
SEQEND
  5
2E9
330
2E6
100
AcDbEntity
  8
Bema_U+00DFung
 62
     7
420
 16777215
370
     9
  0
POLYLINE
  5
2EA
330
1F
100
AcDbEntity
  8
Bema_U+00DFung
 62
     7
420
 16777215
370
     9
100
AcDb2dPolyline
 66
     1
 10
0.0
 20
0.0
 30
0.0
  0
VERTEX
  5
2EB
330
2EA
100
AcDbEntity
  8
Bema_U+00DFung
 62
     7
420
 16777215
370
     9
100
AcDbVertex
100
AcDb2dVertex
 10
19.48379672940911
 20
12.03792800602372
 30
0.0
  0
VERTEX
  5
2EC
330
2EA
100
AcDbEntity
  8
Bema_U+00DFung
 62
     7
420
 16777215
370
     9
100
AcDbVertex
100
AcDb2dVertex
 10
19.81293253933116
 20
9.537929871611828
 30
0.0
  0
SEQEND
  5
2ED
330
2EA
100
AcDbEntity
  8
Bema_U+00DFung
 62
     7
420
 16777215
370
     9
  0
POLYLINE
  5
2EE
330
1F
100
AcDbEntity
  8
Bema_U+00DFung
 62
     7
420
 16777215
370
     9
100
AcDb2dPolyline
 66
     1
 10
0.0
 20
0.0
 30
0.0
  0
VERTEX
  5
2EF
330
2EE
100
AcDbEntity
  8
Bema_U+00DFung
 62
     7
420
 16777215
370
     9
100
AcDbVertex
100
AcDb2dVertex
 10
20.11773197942695
 20
12.03792800602372
 30
0.0
  0
VERTEX
  5
2F0
330
2EE
100
AcDbEntity
  8
Bema_U+00DFung
 62
     7
420
 16777215
370
     9
100
AcDbVertex
100
AcDb2dVertex
 10
20.11773197942695
 20
11.85309863324007
 30
0.0
  0
SEQEND
  5
2F1
330
2EE
100
AcDbEntity
  8
Bema_U+00DFung
 62
     7
420
 16777215
370
     9
  0
POLYLINE
  5
2F2
330
1F
100
AcDbEntity
  8
Bema_U+00DFung
 62
     7
420
 16777215
370
     9
100
AcDb2dPolyline
 66
     1
 10
0.0
 20
0.0
 30
0.0
  0
VERTEX
  5
2F3
330
2F2
100
AcDbEntity
  8
Bema_U+00DFung
 62
     7
420
 16777215
370
     9
100
AcDbVertex
100
AcDb2dVertex
 10
20.11773197942695
 20
12.03792800602372
 30
0.0
  0
VERTEX
  5
2F4
330
2F2
100
AcDbEntity
  8
Bema_U+00DFung
 62
     7
420
 16777215
370
     9
100
AcDbVertex
100
AcDb2dVertex
 10
20.11773197942695
 20
11.85309863324007
 30
0.0
  0
SEQEND
  5
2F5
330
2F2
100
AcDbEntity
  8
Bema_U+00DFung
 62
     7
420
 16777215
370
     9
  0
POLYLINE
  5
2F6
330
1F
100
AcDbEntity
  8
Bema_U+00DFung
 62
     7
420
 16777215
370
     9
100
AcDb2dPolyline
 66
     1
 10
0.0
 20
0.0
 30
0.0
  0
VERTEX
  5
2F7
330
2F6
100
AcDbEntity
  8
Bema_U+00DFung
 62
     7
420
 16777215
370
     9
100
AcDbVertex
100
AcDb2dVertex
 10
20.0669329699046
 20
12.03792800602372
 30
0.0
  0
VERTEX
  5
2F8
330
2F6
100
AcDbEntity
  8
Bema_U+00DFung
 62
     7
420
 16777215
370
     9
100
AcDbVertex
100
AcDb2dVertex
 10
20.0669329699046
 20
11.46724793889209
 30
0.0
  0
SEQEND
  5
2F9
330
2F6
100
AcDbEntity
  8
Bema_U+00DFung
 62
     7
420
 16777215
370
     9
  0
POLYLINE
  5
2FA
330
1F
100
AcDbEntity
  8
Bema_U+00DFung
 62
     7
420
 16777215
370
     9
100
AcDb2dPolyline
 66
     1
 10
0.0
 20
0.0
 30
0.0
  0
VERTEX
  5
2FB
330
2FA
100
AcDbEntity
  8
Bema_U+00DFung
 62
     7
420
 16777215
370
     9
100
AcDbVertex
100
AcDb2dVertex
 10
20.01613396038225
 20
12.03792800602372
 30
0.0
  0
VERTEX
  5
2FC
330
2FA
100
AcDbEntity
  8
Bema_U+00DFung
 62
     7
420
 16777215
370
     9
100
AcDbVertex
100
AcDb2dVertex
 10
20.01613396038225
 20
11.0813972445441
 30
0.0
  0
SEQEND
  5
2FD
330
2FA
100
AcDbEntity
  8
Bema_U+00DFung
 62
     7
420
 16777215
370
     9
  0
POLYLINE
  5
2FE
330
1F
100
AcDbEntity
  8
Bema_U+00DFung
 62
     7
420
 16777215
370
     9
100
AcDb2dPolyline
 66
     1
 10
0.0
 20
0.0
 30
0.0
  0
VERTEX
  5
2FF
330
2FE
100
AcDbEntity
  8
Bema_U+00DFung
 62
     7
420
 16777215
370
     9
100
AcDbVertex
100
AcDb2dVertex
 10
19.96532956789821
 20
12.03792800602372
 30
0.0
  0
VERTEX
  5
300
330
2FE
100
AcDbEntity
  8
Bema_U+00DFung
 62
     7
420
 16777215
370
     9
100
AcDbVertex
100
AcDb2dVertex
 10
19.96532956789821
 20
10.69552501834934
 30
0.0
  0
SEQEND
  5
301
330
2FE
100
AcDbEntity
  8
Bema_U+00DFung
 62
     7
420
 16777215
370
     9
  0
POLYLINE
  5
302
330
1F
100
AcDbEntity
  8
Bema_U+00DFung
 62
     7
420
 16777215
370
     9
100
AcDb2dPolyline
 66
     1
 10
0.0
 20
0.0
 30
0.0
  0
VERTEX
  5
303
330
302
100
AcDbEntity
  8
Bema_U+00DFung
 62
     7
420
 16777215
370
     9
100
AcDbVertex
100
AcDb2dVertex
 10
19.91453055837586
 20
12.03792800602372
 30
0.0
  0
VERTEX
  5
304
330
302
100
AcDbEntity
  8
Bema_U+00DFung
 62
     7
420
 16777215
370
     9
100
AcDbVertex
100
AcDb2dVertex
 10
19.91453055837586
 20
10.30965279215457
 30
0.0
  0
SEQEND
  5
305
330
302
100
AcDbEntity
  8
Bema_U+00DFung
 62
     7
420
 16777215
370
     9
  0
POLYLINE
  5
306
330
1F
100
AcDbEntity
  8
Bema_U+00DFung
 62
     7
420
 16777215
370
     9
100
AcDb2dPolyline
 66
     1
 10
0.0
 20
0.0
 30
0.0
  0
VERTEX
  5
307
330
306
100
AcDbEntity
  8
Bema_U+00DFung
 62
     7
420
 16777215
370
     9
100
AcDbVertex
100
AcDb2dVertex
 10
19.86373154885351
 20
12.03792800602372
 30
0.0
  0
VERTEX
  5
308
330
306
100
AcDbEntity
  8
Bema_U+00DFung
 62
     7
420
 16777215
370
     9
100
AcDbVertex
100
AcDb2dVertex
 10
19.86373154885351
 20
9.923802097806593
 30
0.0
  0
SEQEND
  5
309
330
306
100
AcDbEntity
  8
Bema_U+00DFung
 62
     7
420
 16777215
370
     9
  0
POLYLINE
  5
30A
330
1F
100
AcDbEntity
  8
Bema_U+00DFung
 62
     7
420
 16777215
370
     9
100
AcDb2dPolyline
 66
     1
 10
0.0
 20
0.0
 30
0.0
  0
VERTEX
  5
30B
330
30A
100
AcDbEntity
  8
Bema_U+00DFung
 62
     7
420
 16777215
370
     9
100
AcDbVertex
100
AcDb2dVertex
 10
19.81293253933116
 20
12.03792800602372
 30
0.0
  0
VERTEX
  5
30C
330
30A
100
AcDbEntity
  8
Bema_U+00DFung
 62
     7
420
 16777215
370
     9
100
AcDbVertex
100
AcDb2dVertex
 10
19.81293253933116
 20
9.537929871611828
 30
0.0
  0
SEQEND
  5
30D
330
30A
100
AcDbEntity
  8
Bema_U+00DFung
 62
     7
420
 16777215
370
     9
  0
POLYLINE
  5
30E
330
1F
100
AcDbEntity
  8
Bema_U+00DFung
 62
     7
420
 16777215
370
     9
100
AcDb2dPolyline
 66
     1
 10
0.0
 20
0.0
 30
0.0
  0
VERTEX
  5
30F
330
30E
100
AcDbEntity
  8
Bema_U+00DFung
 62
     7
420
 16777215
370
     9
100
AcDbVertex
100
AcDb2dVertex
 10
19.50813309923538
 20
12.03792800602372
 30
0.0
  0
VERTEX
  5
310
330
30E
100
AcDbEntity
  8
Bema_U+00DFung
 62
     7
420
 16777215
370
     9
100
AcDbVertex
100
AcDb2dVertex
 10
19.50813309923538
 20
11.85309863324007
 30
0.0
  0
SEQEND
  5
311
330
30E
100
AcDbEntity
  8
Bema_U+00DFung
 62
     7
420
 16777215
370
     9
  0
POLYLINE
  5
312
330
1F
100
AcDbEntity
  8
Bema_U+00DFung
 62
     7
420
 16777215
370
     9
100
AcDb2dPolyline
 66
     1
 10
0.0
 20
0.0
 30
0.0
  0
VERTEX
  5
313
330
312
100
AcDbEntity
  8
Bema_U+00DFung
 62
     7
420
 16777215
370
     9
100
AcDbVertex
100
AcDb2dVertex
 10
19.50813309923538
 20
12.03792800602372
 30
0.0
  0
VERTEX
  5
314
330
312
100
AcDbEntity
  8
Bema_U+00DFung
 62
     7
420
 16777215
370
     9
100
AcDbVertex
100
AcDb2dVertex
 10
19.50813309923538
 20
11.85309863324007
 30
0.0
  0
SEQEND
  5
315
330
312
100
AcDbEntity
  8
Bema_U+00DFung
 62
     7
420
 16777215
370
     9
  0
POLYLINE
  5
316
330
1F
100
AcDbEntity
  8
Bema_U+00DFung
 62
     7
420
 16777215
370
     9
100
AcDb2dPolyline
 66
     1
 10
0.0
 20
0.0
 30
0.0
  0
VERTEX
  5
317
330
316
100
AcDbEntity
  8
Bema_U+00DFung
 62
     7
420
 16777215
370
     9
100
AcDbVertex
100
AcDb2dVertex
 10
19.55893210875773
 20
12.03792800602372
 30
0.0
  0
VERTEX
  5
318
330
316
100
AcDbEntity
  8
Bema_U+00DFung
 62
     7
420
 16777215
370
     9
100
AcDbVertex
100
AcDb2dVertex
 10
19.55893210875773
 20
11.46724793889209
 30
0.0
  0
SEQEND
  5
319
330
316
100
AcDbEntity
  8
Bema_U+00DFung
 62
     7
420
 16777215
370
     9
  0
POLYLINE
  5
31A
330
1F
100
AcDbEntity
  8
Bema_U+00DFung
 62
     7
420
 16777215
370
     9
100
AcDb2dPolyline
 66
     1
 10
0.0
 20
0.0
 30
0.0
  0
VERTEX
  5
31B
330
31A
100
AcDbEntity
  8
Bema_U+00DFung
 62
     7
420
 16777215
370
     9
100
AcDbVertex
100
AcDb2dVertex
 10
19.60973111828008
 20
12.03792800602372
 30
0.0
  0
VERTEX
  5
31C
330
31A
100
AcDbEntity
  8
Bema_U+00DFung
 62
     7
420
 16777215
370
     9
100
AcDbVertex
100
AcDb2dVertex
 10
19.60973111828008
 20
11.0813972445441
 30
0.0
  0
SEQEND
  5
31D
330
31A
100
AcDbEntity
  8
Bema_U+00DFung
 62
     7
420
 16777215
370
     9
  0
POLYLINE
  5
31E
330
1F
100
AcDbEntity
  8
Bema_U+00DFung
 62
     7
420
 16777215
370
     9
100
AcDb2dPolyline
 66
     1
 10
0.0
 20
0.0
 30
0.0
  0
VERTEX
  5
31F
330
31E
100
AcDbEntity
  8
Bema_U+00DFung
 62
     7
420
 16777215
370
     9
100
AcDbVertex
100
AcDb2dVertex
 10
19.66053012780242
 20
12.03792800602372
 30
0.0
  0
VERTEX
  5
320
330
31E
100
AcDbEntity
  8
Bema_U+00DFung
 62
     7
420
 16777215
370
     9
100
AcDbVertex
100
AcDb2dVertex
 10
19.66053012780242
 20
10.69552501834934
 30
0.0
  0
SEQEND
  5
321
330
31E
100
AcDbEntity
  8
Bema_U+00DFung
 62
     7
420
 16777215
370
     9
  0
POLYLINE
  5
322
330
1F
100
AcDbEntity
  8
Bema_U+00DFung
 62
     7
420
 16777215
370
     9
100
AcDb2dPolyline
 66
     1
 10
0.0
 20
0.0
 30
0.0
  0
VERTEX
  5
323
330
322
100
AcDbEntity
  8
Bema_U+00DFung
 62
     7
420
 16777215
370
     9
100
AcDbVertex
100
AcDb2dVertex
 10
19.71132913732477
 20
12.03792800602372
 30
0.0
  0
VERTEX
  5
324
330
322
100
AcDbEntity
  8
Bema_U+00DFung
 62
     7
420
 16777215
370
     9
100
AcDbVertex
100
AcDb2dVertex
 10
19.71132913732477
 20
10.30965279215457
 30
0.0
  0
SEQEND
  5
325
330
322
100
AcDbEntity
  8
Bema_U+00DFung
 62
     7
420
 16777215
370
     9
  0
POLYLINE
  5
326
330
1F
100
AcDbEntity
  8
Bema_U+00DFung
 62
     7
420
 16777215
370
     9
100
AcDb2dPolyline
 66
     1
 10
0.0
 20
0.0
 30
0.0
  0
VERTEX
  5
327
330
326
100
AcDbEntity
  8
Bema_U+00DFung
 62
     7
420
 16777215
370
     9
100
AcDbVertex
100
AcDb2dVertex
 10
19.76213352980882
 20
12.03792800602372
 30
0.0
  0
VERTEX
  5
328
330
326
100
AcDbEntity
  8
Bema_U+00DFung
 62
     7
420
 16777215
370
     9
100
AcDbVertex
100
AcDb2dVertex
 10
19.76213352980882
 20
9.923802097806593
 30
0.0
  0
SEQEND
  5
329
330
326
100
AcDbEntity
  8
Bema_U+00DFung
 62
     7
420
 16777215
370
     9
  0
POLYLINE
  5
32A
330
1F
100
AcDbEntity
  8
Bema_U+00DFung
 62
     7
420
 16777215
370
     9
100
AcDb2dPolyline
 66
     1
 10
0.0
 20
0.0
 30
0.0
  0
VERTEX
  5
32B
330
32A
100
AcDbEntity
  8
Bema_U+00DFung
 62
     7
420
 16777215
370
     9
100
AcDbVertex
100
AcDb2dVertex
 10
19.81293253933116
 20
12.03792800602372
 30
0.0
  0
VERTEX
  5
32C
330
32A
100
AcDbEntity
  8
Bema_U+00DFung
 62
     7
420
 16777215
370
     9
100
AcDbVertex
100
AcDb2dVertex
 10
19.81293253933116
 20
9.537929871611828
 30
0.0
  0
SEQEND
  5
32D
330
32A
100
AcDbEntity
  8
Bema_U+00DFung
 62
     7
420
 16777215
370
     9
  0
POLYLINE
  5
32E
330
1F
100
AcDbEntity
  8
Bema_U+00DFung
 62
     7
420
 16777215
370
     9
100
AcDb2dPolyline
 66
     1
 10
0.0
 20
0.0
 30
0.0
  0
VERTEX
  5
32F
330
32E
100
AcDbEntity
  8
Bema_U+00DFung
 62
     7
420
 16777215
370
     9
100
AcDbVertex
100
AcDb2dVertex
 10
29.81293045994043
 20
2.03793546837615
 30
0.0
  0
VERTEX
  5
330
330
32E
100
AcDbEntity
  8
Bema_U+00DFung
 62
     7
420
 16777215
370
     9
100
AcDbVertex
100
AcDb2dVertex
 10
29.81293045994043
 20
-24.86238014616728
 30
0.0
  0
SEQEND
  5
331
330
32E
100
AcDbEntity
  8
Bema_U+00DFung
 62
     7
420
 16777215
370
     9
  0
POLYLINE
  5
332
330
1F
100
AcDbEntity
  8
Bema_U+00DFung
 62
     7
420
 16777215
370
     9
100
AcDb2dPolyline
 66
     1
 10
0.0
 20
0.0
 30
0.0
  0
VERTEX
  5
333
330
332
100
AcDbEntity
  8
Bema_U+00DFung
 62
     7
420
 16777215
370
     9
100
AcDbVertex
100
AcDb2dVertex
 10
399.8129773306023
 20
37.03793088198943
 30
0.0
  0
VERTEX
  5
334
330
332
100
AcDbEntity
  8
Bema_U+00DFung
 62
     7
420
 16777215
370
     9
100
AcDbVertex
100
AcDb2dVertex
 10
399.8129773306023
 20
-24.86238014616728
 30
0.0
  0
SEQEND
  5
335
330
332
100
AcDbEntity
  8
Bema_U+00DFung
 62
     7
420
 16777215
370
     9
  0
POLYLINE
  5
336
330
1F
100
AcDbEntity
  8
Bema_U+00DFung
 62
     7
420
 16777215
370
     9
100
AcDb2dPolyline
 66
     1
 10
0.0
 20
0.0
 30
0.0
  0
VERTEX
  5
337
330
336
100
AcDbEntity
  8
Bema_U+00DFung
 62
     7
420
 16777215
370
     9
100
AcDbVertex
100
AcDb2dVertex
 10
29.81293045994043
 20
-22.86237302589905
 30
0.0
  0
VERTEX
  5
338
330
336
100
AcDbEntity
  8
Bema_U+00DFung
 62
     7
420
 16777215
370
     9
100
AcDbVertex
100
AcDb2dVertex
 10
399.8129773306023
 20
-22.86237302589905
 30
0.0
  0
SEQEND
  5
339
330
336
100
AcDbEntity
  8
Bema_U+00DFung
 62
     7
420
 16777215
370
     9
  0
POLYLINE
  5
33A
330
1F
100
AcDbEntity
  8
Bema_U+00DFung
 62
     7
420
 16777215
370
     9
100
AcDb2dPolyline
 66
     1
 10
0.0
 20
0.0
 30
0.0
  0
VERTEX
  5
33B
330
33A
100
AcDbEntity
  8
Bema_U+00DFung
 62
     7
420
 16777215
370
     9
100
AcDbVertex
100
AcDb2dVertex
 10
29.81293045994043
 20
-22.86237302589905
 30
0.0
  0
VERTEX
  5
33C
330
33A
100
AcDbEntity
  8
Bema_U+00DFung
 62
     7
420
 16777215
370
     9
100
AcDbVertex
100
AcDb2dVertex
 10
32.31293397731402
 20
-23.19148730397432
 30
0.0
  0
SEQEND
  5
33D
330
33A
100
AcDbEntity
  8
Bema_U+00DFung
 62
     7
420
 16777215
370
     9
  0
POLYLINE
  5
33E
330
1F
100
AcDbEntity
  8
Bema_U+00DFung
 62
     7
420
 16777215
370
     9
100
AcDb2dPolyline
 66
     1
 10
0.0
 20
0.0
 30
0.0
  0
VERTEX
  5
33F
330
33E
100
AcDbEntity
  8
Bema_U+00DFung
 62
     7
420
 16777215
370
     9
100
AcDbVertex
100
AcDb2dVertex
 10
32.31293397731402
 20
-23.19148730397432
 30
0.0
  0
VERTEX
  5
340
330
33E
100
AcDbEntity
  8
Bema_U+00DFung
 62
     7
420
 16777215
370
     9
100
AcDbVertex
100
AcDb2dVertex
 10
32.31293397731402
 20
-22.53323721597699
 30
0.0
  0
SEQEND
  5
341
330
33E
100
AcDbEntity
  8
Bema_U+00DFung
 62
     7
420
 16777215
370
     9
  0
POLYLINE
  5
342
330
1F
100
AcDbEntity
  8
Bema_U+00DFung
 62
     7
420
 16777215
370
     9
100
AcDb2dPolyline
 66
     1
 10
0.0
 20
0.0
 30
0.0
  0
VERTEX
  5
343
330
342
100
AcDbEntity
  8
Bema_U+00DFung
 62
     7
420
 16777215
370
     9
100
AcDbVertex
100
AcDb2dVertex
 10
32.31293397731402
 20
-22.53323721597699
 30
0.0
  0
VERTEX
  5
344
330
342
100
AcDbEntity
  8
Bema_U+00DFung
 62
     7
420
 16777215
370
     9
100
AcDbVertex
100
AcDb2dVertex
 10
29.81293045994043
 20
-22.86237302589905
 30
0.0
  0
SEQEND
  5
345
330
342
100
AcDbEntity
  8
Bema_U+00DFung
 62
     7
420
 16777215
370
     9
  0
POLYLINE
  5
346
330
1F
100
AcDbEntity
  8
Bema_U+00DFung
 62
     7
420
 16777215
370
     9
100
AcDb2dPolyline
 66
     1
 10
0.0
 20
0.0
 30
0.0
  0
VERTEX
  5
347
330
346
100
AcDbEntity
  8
Bema_U+00DFung
 62
     7
420
 16777215
370
     9
100
AcDbVertex
100
AcDb2dVertex
 10
32.31293397731402
 20
-23.16715631710975
 30
0.0
  0
VERTEX
  5
348
330
346
100
AcDbEntity
  8
Bema_U+00DFung
 62
     7
420
 16777215
370
     9
100
AcDbVertex
100
AcDb2dVertex
 10
32.12811537045376
 20
-23.16715631710975
 30
0.0
  0
SEQEND
  5
349
330
346
100
AcDbEntity
  8
Bema_U+00DFung
 62
     7
420
 16777215
370
     9
  0
POLYLINE
  5
34A
330
1F
100
AcDbEntity
  8
Bema_U+00DFung
 62
     7
420
 16777215
370
     9
100
AcDb2dPolyline
 66
     1
 10
0.0
 20
0.0
 30
0.0
  0
VERTEX
  5
34B
330
34A
100
AcDbEntity
  8
Bema_U+00DFung
 62
     7
420
 16777215
370
     9
100
AcDbVertex
100
AcDb2dVertex
 10
32.31293397731402
 20
-23.16715631710975
 30
0.0
  0
VERTEX
  5
34C
330
34A
100
AcDbEntity
  8
Bema_U+00DFung
 62
     7
420
 16777215
370
     9
100
AcDbVertex
100
AcDb2dVertex
 10
32.12811537045376
 20
-23.16715631710975
 30
0.0
  0
SEQEND
  5
34D
330
34A
100
AcDbEntity
  8
Bema_U+00DFung
 62
     7
420
 16777215
370
     9
  0
POLYLINE
  5
34E
330
1F
100
AcDbEntity
  8
Bema_U+00DFung
 62
     7
420
 16777215
370
     9
100
AcDb2dPolyline
 66
     1
 10
0.0
 20
0.0
 30
0.0
  0
VERTEX
  5
34F
330
34E
100
AcDbEntity
  8
Bema_U+00DFung
 62
     7
420
 16777215
370
     9
100
AcDbVertex
100
AcDb2dVertex
 10
32.31293397731402
 20
-23.1163626905491
 30
0.0
  0
VERTEX
  5
350
330
34E
100
AcDbEntity
  8
Bema_U+00DFung
 62
     7
420
 16777215
370
     9
100
AcDbVertex
100
AcDb2dVertex
 10
31.74225391018238
 20
-23.1163626905491
 30
0.0
  0
SEQEND
  5
351
330
34E
100
AcDbEntity
  8
Bema_U+00DFung
 62
     7
420
 16777215
370
     9
  0
POLYLINE
  5
352
330
1F
100
AcDbEntity
  8
Bema_U+00DFung
 62
     7
420
 16777215
370
     9
100
AcDb2dPolyline
 66
     1
 10
0.0
 20
0.0
 30
0.0
  0
VERTEX
  5
353
330
352
100
AcDbEntity
  8
Bema_U+00DFung
 62
     7
420
 16777215
370
     9
100
AcDbVertex
100
AcDb2dVertex
 10
32.31293397731402
 20
-23.06556906398844
 30
0.0
  0
VERTEX
  5
354
330
352
100
AcDbEntity
  8
Bema_U+00DFung
 62
     7
420
 16777215
370
     9
100
AcDbVertex
100
AcDb2dVertex
 10
31.35638706694932
 20
-23.06556906398844
 30
0.0
  0
SEQEND
  5
355
330
352
100
AcDbEntity
  8
Bema_U+00DFung
 62
     7
420
 16777215
370
     9
  0
POLYLINE
  5
356
330
1F
100
AcDbEntity
  8
Bema_U+00DFung
 62
     7
420
 16777215
370
     9
100
AcDb2dPolyline
 66
     1
 10
0.0
 20
0.0
 30
0.0
  0
VERTEX
  5
357
330
356
100
AcDbEntity
  8
Bema_U+00DFung
 62
     7
420
 16777215
370
     9
100
AcDbVertex
100
AcDb2dVertex
 10
32.31293397731402
 20
-23.01475390558101
 30
0.0
  0
VERTEX
  5
358
330
356
100
AcDbEntity
  8
Bema_U+00DFung
 62
     7
420
 16777215
370
     9
100
AcDbVertex
100
AcDb2dVertex
 10
30.97052560667794
 20
-23.01475390558101
 30
0.0
  0
SEQEND
  5
359
330
356
100
AcDbEntity
  8
Bema_U+00DFung
 62
     7
420
 16777215
370
     9
  0
POLYLINE
  5
35A
330
1F
100
AcDbEntity
  8
Bema_U+00DFung
 62
     7
420
 16777215
370
     9
100
AcDb2dPolyline
 66
     1
 10
0.0
 20
0.0
 30
0.0
  0
VERTEX
  5
35B
330
35A
100
AcDbEntity
  8
Bema_U+00DFung
 62
     7
420
 16777215
370
     9
100
AcDbVertex
100
AcDb2dVertex
 10
32.31293397731402
 20
-22.96396027902036
 30
0.0
  0
VERTEX
  5
35C
330
35A
100
AcDbEntity
  8
Bema_U+00DFung
 62
     7
420
 16777215
370
     9
100
AcDbVertex
100
AcDb2dVertex
 10
30.58465876344487
 20
-22.96396027902036
 30
0.0
  0
SEQEND
  5
35D
330
35A
100
AcDbEntity
  8
Bema_U+00DFung
 62
     7
420
 16777215
370
     9
  0
POLYLINE
  5
35E
330
1F
100
AcDbEntity
  8
Bema_U+00DFung
 62
     7
420
 16777215
370
     9
100
AcDb2dPolyline
 66
     1
 10
0.0
 20
0.0
 30
0.0
  0
VERTEX
  5
35F
330
35E
100
AcDbEntity
  8
Bema_U+00DFung
 62
     7
420
 16777215
370
     9
100
AcDbVertex
100
AcDb2dVertex
 10
32.31293397731402
 20
-22.9131666524597
 30
0.0
  0
VERTEX
  5
360
330
35E
100
AcDbEntity
  8
Bema_U+00DFung
 62
     7
420
 16777215
370
     9
100
AcDbVertex
100
AcDb2dVertex
 10
30.1987973031735
 20
-22.9131666524597
 30
0.0
  0
SEQEND
  5
361
330
35E
100
AcDbEntity
  8
Bema_U+00DFung
 62
     7
420
 16777215
370
     9
  0
POLYLINE
  5
362
330
1F
100
AcDbEntity
  8
Bema_U+00DFung
 62
     7
420
 16777215
370
     9
100
AcDb2dPolyline
 66
     1
 10
0.0
 20
0.0
 30
0.0
  0
VERTEX
  5
363
330
362
100
AcDbEntity
  8
Bema_U+00DFung
 62
     7
420
 16777215
370
     9
100
AcDbVertex
100
AcDb2dVertex
 10
32.31293397731402
 20
-22.86237302589905
 30
0.0
  0
VERTEX
  5
364
330
362
100
AcDbEntity
  8
Bema_U+00DFung
 62
     7
420
 16777215
370
     9
100
AcDbVertex
100
AcDb2dVertex
 10
29.81293045994043
 20
-22.86237302589905
 30
0.0
  0
SEQEND
  5
365
330
362
100
AcDbEntity
  8
Bema_U+00DFung
 62
     7
420
 16777215
370
     9
  0
POLYLINE
  5
366
330
1F
100
AcDbEntity
  8
Bema_U+00DFung
 62
     7
420
 16777215
370
     9
100
AcDb2dPolyline
 66
     1
 10
0.0
 20
0.0
 30
0.0
  0
VERTEX
  5
367
330
366
100
AcDbEntity
  8
Bema_U+00DFung
 62
     7
420
 16777215
370
     9
100
AcDbVertex
100
AcDb2dVertex
 10
32.31293397731402
 20
-22.55756820284157
 30
0.0
  0
VERTEX
  5
368
330
366
100
AcDbEntity
  8
Bema_U+00DFung
 62
     7
420
 16777215
370
     9
100
AcDbVertex
100
AcDb2dVertex
 10
32.12811537045376
 20
-22.55756820284157
 30
0.0
  0
SEQEND
  5
369
330
366
100
AcDbEntity
  8
Bema_U+00DFung
 62
     7
420
 16777215
370
     9
  0
POLYLINE
  5
36A
330
1F
100
AcDbEntity
  8
Bema_U+00DFung
 62
     7
420
 16777215
370
     9
100
AcDb2dPolyline
 66
     1
 10
0.0
 20
0.0
 30
0.0
  0
VERTEX
  5
36B
330
36A
100
AcDbEntity
  8
Bema_U+00DFung
 62
     7
420
 16777215
370
     9
100
AcDbVertex
100
AcDb2dVertex
 10
32.31293397731402
 20
-22.55756820284157
 30
0.0
  0
VERTEX
  5
36C
330
36A
100
AcDbEntity
  8
Bema_U+00DFung
 62
     7
420
 16777215
370
     9
100
AcDbVertex
100
AcDb2dVertex
 10
32.12811537045376
 20
-22.55756820284157
 30
0.0
  0
SEQEND
  5
36D
330
36A
100
AcDbEntity
  8
Bema_U+00DFung
 62
     7
420
 16777215
370
     9
  0
POLYLINE
  5
36E
330
1F
100
AcDbEntity
  8
Bema_U+00DFung
 62
     7
420
 16777215
370
     9
100
AcDb2dPolyline
 66
     1
 10
0.0
 20
0.0
 30
0.0
  0
VERTEX
  5
36F
330
36E
100
AcDbEntity
  8
Bema_U+00DFung
 62
     7
420
 16777215
370
     9
100
AcDbVertex
100
AcDb2dVertex
 10
32.31293397731402
 20
-22.60836182940222
 30
0.0
  0
VERTEX
  5
370
330
36E
100
AcDbEntity
  8
Bema_U+00DFung
 62
     7
420
 16777215
370
     9
100
AcDbVertex
100
AcDb2dVertex
 10
31.74225391018238
 20
-22.60836182940222
 30
0.0
  0
SEQEND
  5
371
330
36E
100
AcDbEntity
  8
Bema_U+00DFung
 62
     7
420
 16777215
370
     9
  0
POLYLINE
  5
372
330
1F
100
AcDbEntity
  8
Bema_U+00DFung
 62
     7
420
 16777215
370
     9
100
AcDb2dPolyline
 66
     1
 10
0.0
 20
0.0
 30
0.0
  0
VERTEX
  5
373
330
372
100
AcDbEntity
  8
Bema_U+00DFung
 62
     7
420
 16777215
370
     9
100
AcDbVertex
100
AcDb2dVertex
 10
32.31293397731402
 20
-22.65915545596287
 30
0.0
  0
VERTEX
  5
374
330
372
100
AcDbEntity
  8
Bema_U+00DFung
 62
     7
420
 16777215
370
     9
100
AcDbVertex
100
AcDb2dVertex
 10
31.35638706694932
 20
-22.65915545596287
 30
0.0
  0
SEQEND
  5
375
330
372
100
AcDbEntity
  8
Bema_U+00DFung
 62
     7
420
 16777215
370
     9
  0
POLYLINE
  5
376
330
1F
100
AcDbEntity
  8
Bema_U+00DFung
 62
     7
420
 16777215
370
     9
100
AcDb2dPolyline
 66
     1
 10
0.0
 20
0.0
 30
0.0
  0
VERTEX
  5
377
330
376
100
AcDbEntity
  8
Bema_U+00DFung
 62
     7
420
 16777215
370
     9
100
AcDbVertex
100
AcDb2dVertex
 10
32.31293397731402
 20
-22.70997061437031
 30
0.0
  0
VERTEX
  5
378
330
376
100
AcDbEntity
  8
Bema_U+00DFung
 62
     7
420
 16777215
370
     9
100
AcDbVertex
100
AcDb2dVertex
 10
30.97052560667794
 20
-22.70997061437031
 30
0.0
  0
SEQEND
  5
379
330
376
100
AcDbEntity
  8
Bema_U+00DFung
 62
     7
420
 16777215
370
     9
  0
POLYLINE
  5
37A
330
1F
100
AcDbEntity
  8
Bema_U+00DFung
 62
     7
420
 16777215
370
     9
100
AcDb2dPolyline
 66
     1
 10
0.0
 20
0.0
 30
0.0
  0
VERTEX
  5
37B
330
37A
100
AcDbEntity
  8
Bema_U+00DFung
 62
     7
420
 16777215
370
     9
100
AcDbVertex
100
AcDb2dVertex
 10
32.31293397731402
 20
-22.76076424093096
 30
0.0
  0
VERTEX
  5
37C
330
37A
100
AcDbEntity
  8
Bema_U+00DFung
 62
     7
420
 16777215
370
     9
100
AcDbVertex
100
AcDb2dVertex
 10
30.58465876344487
 20
-22.76076424093096
 30
0.0
  0
SEQEND
  5
37D
330
37A
100
AcDbEntity
  8
Bema_U+00DFung
 62
     7
420
 16777215
370
     9
  0
POLYLINE
  5
37E
330
1F
100
AcDbEntity
  8
Bema_U+00DFung
 62
     7
420
 16777215
370
     9
100
AcDb2dPolyline
 66
     1
 10
0.0
 20
0.0
 30
0.0
  0
VERTEX
  5
37F
330
37E
100
AcDbEntity
  8
Bema_U+00DFung
 62
     7
420
 16777215
370
     9
100
AcDbVertex
100
AcDb2dVertex
 10
32.31293397731402
 20
-22.81155786749162
 30
0.0
  0
VERTEX
  5
380
330
37E
100
AcDbEntity
  8
Bema_U+00DFung
 62
     7
420
 16777215
370
     9
100
AcDbVertex
100
AcDb2dVertex
 10
30.1987973031735
 20
-22.81155786749162
 30
0.0
  0
SEQEND
  5
381
330
37E
100
AcDbEntity
  8
Bema_U+00DFung
 62
     7
420
 16777215
370
     9
  0
POLYLINE
  5
382
330
1F
100
AcDbEntity
  8
Bema_U+00DFung
 62
     7
420
 16777215
370
     9
100
AcDb2dPolyline
 66
     1
 10
0.0
 20
0.0
 30
0.0
  0
VERTEX
  5
383
330
382
100
AcDbEntity
  8
Bema_U+00DFung
 62
     7
420
 16777215
370
     9
100
AcDbVertex
100
AcDb2dVertex
 10
32.31293397731402
 20
-22.86237302589905
 30
0.0
  0
VERTEX
  5
384
330
382
100
AcDbEntity
  8
Bema_U+00DFung
 62
     7
420
 16777215
370
     9
100
AcDbVertex
100
AcDb2dVertex
 10
29.81293045994043
 20
-22.86237302589905
 30
0.0
  0
SEQEND
  5
385
330
382
100
AcDbEntity
  8
Bema_U+00DFung
 62
     7
420
 16777215
370
     9
  0
POLYLINE
  5
386
330
1F
100
AcDbEntity
  8
Bema_U+00DFung
 62
     7
420
 16777215
370
     9
100
AcDb2dPolyline
 66
     1
 10
0.0
 20
0.0
 30
0.0
  0
VERTEX
  5
387
330
386
100
AcDbEntity
  8
Bema_U+00DFung
 62
     7
420
 16777215
370
     9
100
AcDbVertex
100
AcDb2dVertex
 10
399.8129773306023
 20
-22.86237302589905
 30
0.0
  0
VERTEX
  5
388
330
386
100
AcDbEntity
  8
Bema_U+00DFung
 62
     7
420
 16777215
370
     9
100
AcDbVertex
100
AcDb2dVertex
 10
397.3129576643436
 20
-22.53323721597699
 30
0.0
  0
SEQEND
  5
389
330
386
100
AcDbEntity
  8
Bema_U+00DFung
 62
     7
420
 16777215
370
     9
  0
POLYLINE
  5
38A
330
1F
100
AcDbEntity
  8
Bema_U+00DFung
 62
     7
420
 16777215
370
     9
100
AcDb2dPolyline
 66
     1
 10
0.0
 20
0.0
 30
0.0
  0
VERTEX
  5
38B
330
38A
100
AcDbEntity
  8
Bema_U+00DFung
 62
     7
420
 16777215
370
     9
100
AcDbVertex
100
AcDb2dVertex
 10
397.3129576643436
 20
-22.53323721597699
 30
0.0
  0
VERTEX
  5
38C
330
38A
100
AcDbEntity
  8
Bema_U+00DFung
 62
     7
420
 16777215
370
     9
100
AcDbVertex
100
AcDb2dVertex
 10
397.3129576643436
 20
-23.19148730397432
 30
0.0
  0
SEQEND
  5
38D
330
38A
100
AcDbEntity
  8
Bema_U+00DFung
 62
     7
420
 16777215
370
     9
  0
POLYLINE
  5
38E
330
1F
100
AcDbEntity
  8
Bema_U+00DFung
 62
     7
420
 16777215
370
     9
100
AcDb2dPolyline
 66
     1
 10
0.0
 20
0.0
 30
0.0
  0
VERTEX
  5
38F
330
38E
100
AcDbEntity
  8
Bema_U+00DFung
 62
     7
420
 16777215
370
     9
100
AcDbVertex
100
AcDb2dVertex
 10
397.3129576643436
 20
-23.19148730397432
 30
0.0
  0
VERTEX
  5
390
330
38E
100
AcDbEntity
  8
Bema_U+00DFung
 62
     7
420
 16777215
370
     9
100
AcDbVertex
100
AcDb2dVertex
 10
399.8129773306023
 20
-22.86237302589905
 30
0.0
  0
SEQEND
  5
391
330
38E
100
AcDbEntity
  8
Bema_U+00DFung
 62
     7
420
 16777215
370
     9
  0
POLYLINE
  5
392
330
1F
100
AcDbEntity
  8
Bema_U+00DFung
 62
     7
420
 16777215
370
     9
100
AcDb2dPolyline
 66
     1
 10
0.0
 20
0.0
 30
0.0
  0
VERTEX
  5
393
330
392
100
AcDbEntity
  8
Bema_U+00DFung
 62
     7
420
 16777215
370
     9
100
AcDbVertex
100
AcDb2dVertex
 10
397.3129576643436
 20
-22.55756820284157
 30
0.0
  0
VERTEX
  5
394
330
392
100
AcDbEntity
  8
Bema_U+00DFung
 62
     7
420
 16777215
370
     9
100
AcDbVertex
100
AcDb2dVertex
 10
397.4977870371273
 20
-22.55756820284157
 30
0.0
  0
SEQEND
  5
395
330
392
100
AcDbEntity
  8
Bema_U+00DFung
 62
     7
420
 16777215
370
     9
  0
POLYLINE
  5
396
330
1F
100
AcDbEntity
  8
Bema_U+00DFung
 62
     7
420
 16777215
370
     9
100
AcDb2dPolyline
 66
     1
 10
0.0
 20
0.0
 30
0.0
  0
VERTEX
  5
397
330
396
100
AcDbEntity
  8
Bema_U+00DFung
 62
     7
420
 16777215
370
     9
100
AcDbVertex
100
AcDb2dVertex
 10
397.3129576643436
 20
-22.55756820284157
 30
0.0
  0
VERTEX
  5
398
330
396
100
AcDbEntity
  8
Bema_U+00DFung
 62
     7
420
 16777215
370
     9
100
AcDbVertex
100
AcDb2dVertex
 10
397.4977870371273
 20
-22.55756820284157
 30
0.0
  0
SEQEND
  5
399
330
396
100
AcDbEntity
  8
Bema_U+00DFung
 62
     7
420
 16777215
370
     9
  0
POLYLINE
  5
39A
330
1F
100
AcDbEntity
  8
Bema_U+00DFung
 62
     7
420
 16777215
370
     9
100
AcDb2dPolyline
 66
     1
 10
0.0
 20
0.0
 30
0.0
  0
VERTEX
  5
39B
330
39A
100
AcDbEntity
  8
Bema_U+00DFung
 62
     7
420
 16777215
370
     9
100
AcDbVertex
100
AcDb2dVertex
 10
397.3129576643436
 20
-22.60836182940222
 30
0.0
  0
VERTEX
  5
39C
330
39A
100
AcDbEntity
  8
Bema_U+00DFung
 62
     7
420
 16777215
370
     9
100
AcDbVertex
100
AcDb2dVertex
 10
397.8835946677817
 20
-22.60836182940222
 30
0.0
  0
SEQEND
  5
39D
330
39A
100
AcDbEntity
  8
Bema_U+00DFung
 62
     7
420
 16777215
370
     9
  0
POLYLINE
  5
39E
330
1F
100
AcDbEntity
  8
Bema_U+00DFung
 62
     7
420
 16777215
370
     9
100
AcDb2dPolyline
 66
     1
 10
0.0
 20
0.0
 30
0.0
  0
VERTEX
  5
39F
330
39E
100
AcDbEntity
  8
Bema_U+00DFung
 62
     7
420
 16777215
370
     9
100
AcDbVertex
100
AcDb2dVertex
 10
397.3129576643436
 20
-22.65915545596287
 30
0.0
  0
VERTEX
  5
3A0
330
39E
100
AcDbEntity
  8
Bema_U+00DFung
 62
     7
420
 16777215
370
     9
100
AcDbVertex
100
AcDb2dVertex
 10
398.2694884258233
 20
-22.65915545596287
 30
0.0
  0
SEQEND
  5
3A1
330
39E
100
AcDbEntity
  8
Bema_U+00DFung
 62
     7
420
 16777215
370
     9
  0
POLYLINE
  5
3A2
330
1F
100
AcDbEntity
  8
Bema_U+00DFung
 62
     7
420
 16777215
370
     9
100
AcDb2dPolyline
 66
     1
 10
0.0
 20
0.0
 30
0.0
  0
VERTEX
  5
3A3
330
3A2
100
AcDbEntity
  8
Bema_U+00DFung
 62
     7
420
 16777215
370
     9
100
AcDbVertex
100
AcDb2dVertex
 10
397.3129576643436
 20
-22.70997061437031
 30
0.0
  0
VERTEX
  5
3A4
330
3A2
100
AcDbEntity
  8
Bema_U+00DFung
 62
     7
420
 16777215
370
     9
100
AcDbVertex
100
AcDb2dVertex
 10
398.6553821838648
 20
-22.70997061437031
 30
0.0
  0
SEQEND
  5
3A5
330
3A2
100
AcDbEntity
  8
Bema_U+00DFung
 62
     7
420
 16777215
370
     9
  0
POLYLINE
  5
3A6
330
1F
100
AcDbEntity
  8
Bema_U+00DFung
 62
     7
420
 16777215
370
     9
100
AcDb2dPolyline
 66
     1
 10
0.0
 20
0.0
 30
0.0
  0
VERTEX
  5
3A7
330
3A6
100
AcDbEntity
  8
Bema_U+00DFung
 62
     7
420
 16777215
370
     9
100
AcDbVertex
100
AcDb2dVertex
 10
397.3129576643436
 20
-22.76076424093096
 30
0.0
  0
VERTEX
  5
3A8
330
3A6
100
AcDbEntity
  8
Bema_U+00DFung
 62
     7
420
 16777215
370
     9
100
AcDbVertex
100
AcDb2dVertex
 10
399.0411898145192
 20
-22.76076424093096
 30
0.0
  0
SEQEND
  5
3A9
330
3A6
100
AcDbEntity
  8
Bema_U+00DFung
 62
     7
420
 16777215
370
     9
  0
POLYLINE
  5
3AA
330
1F
100
AcDbEntity
  8
Bema_U+00DFung
 62
     7
420
 16777215
370
     9
100
AcDb2dPolyline
 66
     1
 10
0.0
 20
0.0
 30
0.0
  0
VERTEX
  5
3AB
330
3AA
100
AcDbEntity
  8
Bema_U+00DFung
 62
     7
420
 16777215
370
     9
100
AcDbVertex
100
AcDb2dVertex
 10
397.3129576643436
 20
-22.81155786749162
 30
0.0
  0
VERTEX
  5
3AC
330
3AA
100
AcDbEntity
  8
Bema_U+00DFung
 62
     7
420
 16777215
370
     9
100
AcDbVertex
100
AcDb2dVertex
 10
399.4270835725608
 20
-22.81155786749162
 30
0.0
  0
SEQEND
  5
3AD
330
3AA
100
AcDbEntity
  8
Bema_U+00DFung
 62
     7
420
 16777215
370
     9
  0
POLYLINE
  5
3AE
330
1F
100
AcDbEntity
  8
Bema_U+00DFung
 62
     7
420
 16777215
370
     9
100
AcDb2dPolyline
 66
     1
 10
0.0
 20
0.0
 30
0.0
  0
VERTEX
  5
3AF
330
3AE
100
AcDbEntity
  8
Bema_U+00DFung
 62
     7
420
 16777215
370
     9
100
AcDbVertex
100
AcDb2dVertex
 10
397.3129576643436
 20
-22.86237302589905
 30
0.0
  0
VERTEX
  5
3B0
330
3AE
100
AcDbEntity
  8
Bema_U+00DFung
 62
     7
420
 16777215
370
     9
100
AcDbVertex
100
AcDb2dVertex
 10
399.8129773306023
 20
-22.86237302589905
 30
0.0
  0
SEQEND
  5
3B1
330
3AE
100
AcDbEntity
  8
Bema_U+00DFung
 62
     7
420
 16777215
370
     9
  0
POLYLINE
  5
3B2
330
1F
100
AcDbEntity
  8
Bema_U+00DFung
 62
     7
420
 16777215
370
     9
100
AcDb2dPolyline
 66
     1
 10
0.0
 20
0.0
 30
0.0
  0
VERTEX
  5
3B3
330
3B2
100
AcDbEntity
  8
Bema_U+00DFung
 62
     7
420
 16777215
370
     9
100
AcDbVertex
100
AcDb2dVertex
 10
397.3129576643436
 20
-23.16715631710975
 30
0.0
  0
VERTEX
  5
3B4
330
3B2
100
AcDbEntity
  8
Bema_U+00DFung
 62
     7
420
 16777215
370
     9
100
AcDbVertex
100
AcDb2dVertex
 10
397.4977870371273
 20
-23.16715631710975
 30
0.0
  0
SEQEND
  5
3B5
330
3B2
100
AcDbEntity
  8
Bema_U+00DFung
 62
     7
420
 16777215
370
     9
  0
POLYLINE
  5
3B6
330
1F
100
AcDbEntity
  8
Bema_U+00DFung
 62
     7
420
 16777215
370
     9
100
AcDb2dPolyline
 66
     1
 10
0.0
 20
0.0
 30
0.0
  0
VERTEX
  5
3B7
330
3B6
100
AcDbEntity
  8
Bema_U+00DFung
 62
     7
420
 16777215
370
     9
100
AcDbVertex
100
AcDb2dVertex
 10
397.3129576643436
 20
-23.16715631710975
 30
0.0
  0
VERTEX
  5
3B8
330
3B6
100
AcDbEntity
  8
Bema_U+00DFung
 62
     7
420
 16777215
370
     9
100
AcDbVertex
100
AcDb2dVertex
 10
397.4977870371273
 20
-23.16715631710975
 30
0.0
  0
SEQEND
  5
3B9
330
3B6
100
AcDbEntity
  8
Bema_U+00DFung
 62
     7
420
 16777215
370
     9
  0
POLYLINE
  5
3BA
330
1F
100
AcDbEntity
  8
Bema_U+00DFung
 62
     7
420
 16777215
370
     9
100
AcDb2dPolyline
 66
     1
 10
0.0
 20
0.0
 30
0.0
  0
VERTEX
  5
3BB
330
3BA
100
AcDbEntity
  8
Bema_U+00DFung
 62
     7
420
 16777215
370
     9
100
AcDbVertex
100
AcDb2dVertex
 10
397.3129576643436
 20
-23.1163626905491
 30
0.0
  0
VERTEX
  5
3BC
330
3BA
100
AcDbEntity
  8
Bema_U+00DFung
 62
     7
420
 16777215
370
     9
100
AcDbVertex
100
AcDb2dVertex
 10
397.8835946677817
 20
-23.1163626905491
 30
0.0
  0
SEQEND
  5
3BD
330
3BA
100
AcDbEntity
  8
Bema_U+00DFung
 62
     7
420
 16777215
370
     9
  0
POLYLINE
  5
3BE
330
1F
100
AcDbEntity
  8
Bema_U+00DFung
 62
     7
420
 16777215
370
     9
100
AcDb2dPolyline
 66
     1
 10
0.0
 20
0.0
 30
0.0
  0
VERTEX
  5
3BF
330
3BE
100
AcDbEntity
  8
Bema_U+00DFung
 62
     7
420
 16777215
370
     9
100
AcDbVertex
100
AcDb2dVertex
 10
397.3129576643436
 20
-23.06556906398844
 30
0.0
  0
VERTEX
  5
3C0
330
3BE
100
AcDbEntity
  8
Bema_U+00DFung
 62
     7
420
 16777215
370
     9
100
AcDbVertex
100
AcDb2dVertex
 10
398.2694884258233
 20
-23.06556906398844
 30
0.0
  0
SEQEND
  5
3C1
330
3BE
100
AcDbEntity
  8
Bema_U+00DFung
 62
     7
420
 16777215
370
     9
  0
POLYLINE
  5
3C2
330
1F
100
AcDbEntity
  8
Bema_U+00DFung
 62
     7
420
 16777215
370
     9
100
AcDb2dPolyline
 66
     1
 10
0.0
 20
0.0
 30
0.0
  0
VERTEX
  5
3C3
330
3C2
100
AcDbEntity
  8
Bema_U+00DFung
 62
     7
420
 16777215
370
     9
100
AcDbVertex
100
AcDb2dVertex
 10
397.3129576643436
 20
-23.01475390558101
 30
0.0
  0
VERTEX
  5
3C4
330
3C2
100
AcDbEntity
  8
Bema_U+00DFung
 62
     7
420
 16777215
370
     9
100
AcDbVertex
100
AcDb2dVertex
 10
398.6553821838648
 20
-23.01475390558101
 30
0.0
  0
SEQEND
  5
3C5
330
3C2
100
AcDbEntity
  8
Bema_U+00DFung
 62
     7
420
 16777215
370
     9
  0
POLYLINE
  5
3C6
330
1F
100
AcDbEntity
  8
Bema_U+00DFung
 62
     7
420
 16777215
370
     9
100
AcDb2dPolyline
 66
     1
 10
0.0
 20
0.0
 30
0.0
  0
VERTEX
  5
3C7
330
3C6
100
AcDbEntity
  8
Bema_U+00DFung
 62
     7
420
 16777215
370
     9
100
AcDbVertex
100
AcDb2dVertex
 10
397.3129576643436
 20
-22.96396027902036
 30
0.0
  0
VERTEX
  5
3C8
330
3C6
100
AcDbEntity
  8
Bema_U+00DFung
 62
     7
420
 16777215
370
     9
100
AcDbVertex
100
AcDb2dVertex
 10
399.0411898145192
 20
-22.96396027902036
 30
0.0
  0
SEQEND
  5
3C9
330
3C6
100
AcDbEntity
  8
Bema_U+00DFung
 62
     7
420
 16777215
370
     9
  0
POLYLINE
  5
3CA
330
1F
100
AcDbEntity
  8
Bema_U+00DFung
 62
     7
420
 16777215
370
     9
100
AcDb2dPolyline
 66
     1
 10
0.0
 20
0.0
 30
0.0
  0
VERTEX
  5
3CB
330
3CA
100
AcDbEntity
  8
Bema_U+00DFung
 62
     7
420
 16777215
370
     9
100
AcDbVertex
100
AcDb2dVertex
 10
397.3129576643436
 20
-22.9131666524597
 30
0.0
  0
VERTEX
  5
3CC
330
3CA
100
AcDbEntity
  8
Bema_U+00DFung
 62
     7
420
 16777215
370
     9
100
AcDbVertex
100
AcDb2dVertex
 10
399.4270835725608
 20
-22.9131666524597
 30
0.0
  0
SEQEND
  5
3CD
330
3CA
100
AcDbEntity
  8
Bema_U+00DFung
 62
     7
420
 16777215
370
     9
  0
POLYLINE
  5
3CE
330
1F
100
AcDbEntity
  8
Bema_U+00DFung
 62
     7
420
 16777215
370
     9
100
AcDb2dPolyline
 66
     1
 10
0.0
 20
0.0
 30
0.0
  0
VERTEX
  5
3CF
330
3CE
100
AcDbEntity
  8
Bema_U+00DFung
 62
     7
420
 16777215
370
     9
100
AcDbVertex
100
AcDb2dVertex
 10
397.3129576643436
 20
-22.86237302589905
 30
0.0
  0
VERTEX
  5
3D0
330
3CE
100
AcDbEntity
  8
Bema_U+00DFung
 62
     7
420
 16777215
370
     9
100
AcDbVertex
100
AcDb2dVertex
 10
399.8129773306023
 20
-22.86237302589905
 30
0.0
  0
SEQEND
  5
3D1
330
3CE
100
AcDbEntity
  8
Bema_U+00DFung
 62
     7
420
 16777215
370
     9
  0
POLYLINE
  5
3D2
330
1F
100
AcDbEntity
  8
Bema_U+00DFung
 62
     7
420
 16777215
370
     9
100
AcDb2dPolyline
 66
     1
 10
0.0
 20
0.0
 30
0.0
  0
VERTEX
  5
3D3
330
3D2
100
AcDbEntity
  8
Bema_U+00DFung
 62
     7
420
 16777215
370
     9
100
AcDbVertex
100
AcDb2dVertex
 10
34.81293211172591
 20
90.03792578247642
 30
0.0
  0
VERTEX
  5
3D4
330
3D2
100
AcDbEntity
  8
Bema_U+00DFung
 62
     7
420
 16777215
370
     9
100
AcDbVertex
100
AcDb2dVertex
 10
7.812930189934518
 20
90.03792578247642
 30
0.0
  0
SEQEND
  5
3D5
330
3D2
100
AcDbEntity
  8
Bema_U+00DFung
 62
     7
420
 16777215
370
     9
  0
POLYLINE
  5
3D6
330
1F
100
AcDbEntity
  8
Bema_U+00DFung
 62
     7
420
 16777215
370
     9
100
AcDb2dPolyline
 66
     1
 10
0.0
 20
0.0
 30
0.0
  0
VERTEX
  5
3D7
330
3D6
100
AcDbEntity
  8
Bema_U+00DFung
 62
     7
420
 16777215
370
     9
100
AcDbVertex
100
AcDb2dVertex
 10
34.81293211172591
 20
-2.962060800447636
 30
0.0
  0
VERTEX
  5
3D8
330
3D6
100
AcDbEntity
  8
Bema_U+00DFung
 62
     7
420
 16777215
370
     9
100
AcDbVertex
100
AcDb2dVertex
 10
7.812930189934518
 20
-2.962060800447636
 30
0.0
  0
SEQEND
  5
3D9
330
3D6
100
AcDbEntity
  8
Bema_U+00DFung
 62
     7
420
 16777215
370
     9
  0
POLYLINE
  5
3DA
330
1F
100
AcDbEntity
  8
Bema_U+00DFung
 62
     7
420
 16777215
370
     9
100
AcDb2dPolyline
 66
     1
 10
0.0
 20
0.0
 30
0.0
  0
VERTEX
  5
3DB
330
3DA
100
AcDbEntity
  8
Bema_U+00DFung
 62
     7
420
 16777215
370
     9
100
AcDbVertex
100
AcDb2dVertex
 10
9.81293192724105
 20
90.03792578247642
 30
0.0
  0
VERTEX
  5
3DC
330
3DA
100
AcDbEntity
  8
Bema_U+00DFung
 62
     7
420
 16777215
370
     9
100
AcDbVertex
100
AcDb2dVertex
 10
9.81293192724105
 20
-2.962060800447636
 30
0.0
  0
SEQEND
  5
3DD
330
3DA
100
AcDbEntity
  8
Bema_U+00DFung
 62
     7
420
 16777215
370
     9
  0
POLYLINE
  5
3DE
330
1F
100
AcDbEntity
  8
Bema_U+00DFung
 62
     7
420
 16777215
370
     9
100
AcDb2dPolyline
 66
     1
 10
0.0
 20
0.0
 30
0.0
  0
VERTEX
  5
3DF
330
3DE
100
AcDbEntity
  8
Bema_U+00DFung
 62
     7
420
 16777215
370
     9
100
AcDbVertex
100
AcDb2dVertex
 10
9.81293192724105
 20
90.03792578247642
 30
0.0
  0
VERTEX
  5
3E0
330
3DE
100
AcDbEntity
  8
Bema_U+00DFung
 62
     7
420
 16777215
370
     9
100
AcDbVertex
100
AcDb2dVertex
 10
9.483801500280688
 20
87.53794917991131
 30
0.0
  0
SEQEND
  5
3E1
330
3DE
100
AcDbEntity
  8
Bema_U+00DFung
 62
     7
420
 16777215
370
     9
  0
POLYLINE
  5
3E2
330
1F
100
AcDbEntity
  8
Bema_U+00DFung
 62
     7
420
 16777215
370
     9
100
AcDb2dPolyline
 66
     1
 10
0.0
 20
0.0
 30
0.0
  0
VERTEX
  5
3E3
330
3E2
100
AcDbEntity
  8
Bema_U+00DFung
 62
     7
420
 16777215
370
     9
100
AcDbVertex
100
AcDb2dVertex
 10
9.483801500280688
 20
87.53794917991131
 30
0.0
  0
VERTEX
  5
3E4
330
3E2
100
AcDbEntity
  8
Bema_U+00DFung
 62
     7
420
 16777215
370
     9
100
AcDbVertex
100
AcDb2dVertex
 10
10.14206235420141
 20
87.53794917991131
 30
0.0
  0
SEQEND
  5
3E5
330
3E2
100
AcDbEntity
  8
Bema_U+00DFung
 62
     7
420
 16777215
370
     9
  0
POLYLINE
  5
3E6
330
1F
100
AcDbEntity
  8
Bema_U+00DFung
 62
     7
420
 16777215
370
     9
100
AcDb2dPolyline
 66
     1
 10
0.0
 20
0.0
 30
0.0
  0
VERTEX
  5
3E7
330
3E6
100
AcDbEntity
  8
Bema_U+00DFung
 62
     7
420
 16777215
370
     9
100
AcDbVertex
100
AcDb2dVertex
 10
10.14206235420141
 20
87.53794917991131
 30
0.0
  0
VERTEX
  5
3E8
330
3E6
100
AcDbEntity
  8
Bema_U+00DFung
 62
     7
420
 16777215
370
     9
100
AcDbVertex
100
AcDb2dVertex
 10
9.81293192724105
 20
90.03792578247642
 30
0.0
  0
SEQEND
  5
3E9
330
3E6
100
AcDbEntity
  8
Bema_U+00DFung
 62
     7
420
 16777215
370
     9
  0
POLYLINE
  5
3EA
330
1F
100
AcDbEntity
  8
Bema_U+00DFung
 62
     7
420
 16777215
370
     9
100
AcDb2dPolyline
 66
     1
 10
0.0
 20
0.0
 30
0.0
  0
VERTEX
  5
3EB
330
3EA
100
AcDbEntity
  8
Bema_U+00DFung
 62
     7
420
 16777215
370
     9
100
AcDbVertex
100
AcDb2dVertex
 10
9.508132487145266
 20
87.53794917991131
 30
0.0
  0
VERTEX
  5
3EC
330
3EA
100
AcDbEntity
  8
Bema_U+00DFung
 62
     7
420
 16777215
370
     9
100
AcDbVertex
100
AcDb2dVertex
 10
9.508132487145266
 20
87.7227354890014
 30
0.0
  0
SEQEND
  5
3ED
330
3EA
100
AcDbEntity
  8
Bema_U+00DFung
 62
     7
420
 16777215
370
     9
  0
POLYLINE
  5
3EE
330
1F
100
AcDbEntity
  8
Bema_U+00DFung
 62
     7
420
 16777215
370
     9
100
AcDb2dPolyline
 66
     1
 10
0.0
 20
0.0
 30
0.0
  0
VERTEX
  5
3EF
330
3EE
100
AcDbEntity
  8
Bema_U+00DFung
 62
     7
420
 16777215
370
     9
100
AcDbVertex
100
AcDb2dVertex
 10
9.508132487145266
 20
87.53794917991131
 30
0.0
  0
VERTEX
  5
3F0
330
3EE
100
AcDbEntity
  8
Bema_U+00DFung
 62
     7
420
 16777215
370
     9
100
AcDbVertex
100
AcDb2dVertex
 10
9.508132487145266
 20
87.7227354890014
 30
0.0
  0
SEQEND
  5
3F1
330
3EE
100
AcDbEntity
  8
Bema_U+00DFung
 62
     7
420
 16777215
370
     9
  0
POLYLINE
  5
3F2
330
1F
100
AcDbEntity
  8
Bema_U+00DFung
 62
     7
420
 16777215
370
     9
100
AcDb2dPolyline
 66
     1
 10
0.0
 20
0.0
 30
0.0
  0
VERTEX
  5
3F3
330
3F2
100
AcDbEntity
  8
Bema_U+00DFung
 62
     7
420
 16777215
370
     9
100
AcDbVertex
100
AcDb2dVertex
 10
9.558931496667613
 20
87.53794917991131
 30
0.0
  0
VERTEX
  5
3F4
330
3F2
100
AcDbEntity
  8
Bema_U+00DFung
 62
     7
420
 16777215
370
     9
100
AcDbVertex
100
AcDb2dVertex
 10
9.558931496667613
 20
88.10862924704294
 30
0.0
  0
SEQEND
  5
3F5
330
3F2
100
AcDbEntity
  8
Bema_U+00DFung
 62
     7
420
 16777215
370
     9
  0
POLYLINE
  5
3F6
330
1F
100
AcDbEntity
  8
Bema_U+00DFung
 62
     7
420
 16777215
370
     9
100
AcDb2dPolyline
 66
     1
 10
0.0
 20
0.0
 30
0.0
  0
VERTEX
  5
3F7
330
3F6
100
AcDbEntity
  8
Bema_U+00DFung
 62
     7
420
 16777215
370
     9
100
AcDbVertex
100
AcDb2dVertex
 10
9.609730506189962
 20
87.53794917991131
 30
0.0
  0
VERTEX
  5
3F8
330
3F6
100
AcDbEntity
  8
Bema_U+00DFung
 62
     7
420
 16777215
370
     9
100
AcDbVertex
100
AcDb2dVertex
 10
9.609730506189962
 20
88.49447994139092
 30
0.0
  0
SEQEND
  5
3F9
330
3F6
100
AcDbEntity
  8
Bema_U+00DFung
 62
     7
420
 16777215
370
     9
  0
POLYLINE
  5
3FA
330
1F
100
AcDbEntity
  8
Bema_U+00DFung
 62
     7
420
 16777215
370
     9
100
AcDb2dPolyline
 66
     1
 10
0.0
 20
0.0
 30
0.0
  0
VERTEX
  5
3FB
330
3FA
100
AcDbEntity
  8
Bema_U+00DFung
 62
     7
420
 16777215
370
     9
100
AcDbVertex
100
AcDb2dVertex
 10
9.660534898674005
 20
87.53794917991131
 30
0.0
  0
VERTEX
  5
3FC
330
3FA
100
AcDbEntity
  8
Bema_U+00DFung
 62
     7
420
 16777215
370
     9
100
AcDbVertex
100
AcDb2dVertex
 10
9.660534898674005
 20
88.8803306357389
 30
0.0
  0
SEQEND
  5
3FD
330
3FA
100
AcDbEntity
  8
Bema_U+00DFung
 62
     7
420
 16777215
370
     9
  0
POLYLINE
  5
3FE
330
1F
100
AcDbEntity
  8
Bema_U+00DFung
 62
     7
420
 16777215
370
     9
100
AcDb2dPolyline
 66
     1
 10
0.0
 20
0.0
 30
0.0
  0
VERTEX
  5
3FF
330
3FE
100
AcDbEntity
  8
Bema_U+00DFung
 62
     7
420
 16777215
370
     9
100
AcDbVertex
100
AcDb2dVertex
 10
9.711328525234658
 20
87.53794917991131
 30
0.0
  0
VERTEX
  5
400
330
3FE
100
AcDbEntity
  8
Bema_U+00DFung
 62
     7
420
 16777215
370
     9
100
AcDbVertex
100
AcDb2dVertex
 10
9.711328525234658
 20
89.26622439378045
 30
0.0
  0
SEQEND
  5
401
330
3FE
100
AcDbEntity
  8
Bema_U+00DFung
 62
     7
420
 16777215
370
     9
  0
POLYLINE
  5
402
330
1F
100
AcDbEntity
  8
Bema_U+00DFung
 62
     7
420
 16777215
370
     9
100
AcDb2dPolyline
 66
     1
 10
0.0
 20
0.0
 30
0.0
  0
VERTEX
  5
403
330
402
100
AcDbEntity
  8
Bema_U+00DFung
 62
     7
420
 16777215
370
     9
100
AcDbVertex
100
AcDb2dVertex
 10
9.7621329177187
 20
87.53794917991131
 30
0.0
  0
VERTEX
  5
404
330
402
100
AcDbEntity
  8
Bema_U+00DFung
 62
     7
420
 16777215
370
     9
100
AcDbVertex
100
AcDb2dVertex
 10
9.7621329177187
 20
89.65207508812844
 30
0.0
  0
SEQEND
  5
405
330
402
100
AcDbEntity
  8
Bema_U+00DFung
 62
     7
420
 16777215
370
     9
  0
POLYLINE
  5
406
330
1F
100
AcDbEntity
  8
Bema_U+00DFung
 62
     7
420
 16777215
370
     9
100
AcDb2dPolyline
 66
     1
 10
0.0
 20
0.0
 30
0.0
  0
VERTEX
  5
407
330
406
100
AcDbEntity
  8
Bema_U+00DFung
 62
     7
420
 16777215
370
     9
100
AcDbVertex
100
AcDb2dVertex
 10
9.81293192724105
 20
87.53794917991131
 30
0.0
  0
VERTEX
  5
408
330
406
100
AcDbEntity
  8
Bema_U+00DFung
 62
     7
420
 16777215
370
     9
100
AcDbVertex
100
AcDb2dVertex
 10
9.81293192724105
 20
90.03792578247642
 30
0.0
  0
SEQEND
  5
409
330
406
100
AcDbEntity
  8
Bema_U+00DFung
 62
     7
420
 16777215
370
     9
  0
POLYLINE
  5
40A
330
1F
100
AcDbEntity
  8
Bema_U+00DFung
 62
     7
420
 16777215
370
     9
100
AcDb2dPolyline
 66
     1
 10
0.0
 20
0.0
 30
0.0
  0
VERTEX
  5
40B
330
40A
100
AcDbEntity
  8
Bema_U+00DFung
 62
     7
420
 16777215
370
     9
100
AcDbVertex
100
AcDb2dVertex
 10
10.11773136733683
 20
87.53794917991131
 30
0.0
  0
VERTEX
  5
40C
330
40A
100
AcDbEntity
  8
Bema_U+00DFung
 62
     7
420
 16777215
370
     9
100
AcDbVertex
100
AcDb2dVertex
 10
10.11773136733683
 20
87.7227354890014
 30
0.0
  0
SEQEND
  5
40D
330
40A
100
AcDbEntity
  8
Bema_U+00DFung
 62
     7
420
 16777215
370
     9
  0
POLYLINE
  5
40E
330
1F
100
AcDbEntity
  8
Bema_U+00DFung
 62
     7
420
 16777215
370
     9
100
AcDb2dPolyline
 66
     1
 10
0.0
 20
0.0
 30
0.0
  0
VERTEX
  5
40F
330
40E
100
AcDbEntity
  8
Bema_U+00DFung
 62
     7
420
 16777215
370
     9
100
AcDbVertex
100
AcDb2dVertex
 10
10.11773136733683
 20
87.53794917991131
 30
0.0
  0
VERTEX
  5
410
330
40E
100
AcDbEntity
  8
Bema_U+00DFung
 62
     7
420
 16777215
370
     9
100
AcDbVertex
100
AcDb2dVertex
 10
10.11773136733683
 20
87.7227354890014
 30
0.0
  0
SEQEND
  5
411
330
40E
100
AcDbEntity
  8
Bema_U+00DFung
 62
     7
420
 16777215
370
     9
  0
POLYLINE
  5
412
330
1F
100
AcDbEntity
  8
Bema_U+00DFung
 62
     7
420
 16777215
370
     9
100
AcDb2dPolyline
 66
     1
 10
0.0
 20
0.0
 30
0.0
  0
VERTEX
  5
413
330
412
100
AcDbEntity
  8
Bema_U+00DFung
 62
     7
420
 16777215
370
     9
100
AcDbVertex
100
AcDb2dVertex
 10
10.06693235781449
 20
87.53794917991131
 30
0.0
  0
VERTEX
  5
414
330
412
100
AcDbEntity
  8
Bema_U+00DFung
 62
     7
420
 16777215
370
     9
100
AcDbVertex
100
AcDb2dVertex
 10
10.06693235781449
 20
88.10862924704294
 30
0.0
  0
SEQEND
  5
415
330
412
100
AcDbEntity
  8
Bema_U+00DFung
 62
     7
420
 16777215
370
     9
  0
POLYLINE
  5
416
330
1F
100
AcDbEntity
  8
Bema_U+00DFung
 62
     7
420
 16777215
370
     9
100
AcDb2dPolyline
 66
     1
 10
0.0
 20
0.0
 30
0.0
  0
VERTEX
  5
417
330
416
100
AcDbEntity
  8
Bema_U+00DFung
 62
     7
420
 16777215
370
     9
100
AcDbVertex
100
AcDb2dVertex
 10
10.01613334829214
 20
87.53794917991131
 30
0.0
  0
VERTEX
  5
418
330
416
100
AcDbEntity
  8
Bema_U+00DFung
 62
     7
420
 16777215
370
     9
100
AcDbVertex
100
AcDb2dVertex
 10
10.01613334829214
 20
88.49447994139092
 30
0.0
  0
SEQEND
  5
419
330
416
100
AcDbEntity
  8
Bema_U+00DFung
 62
     7
420
 16777215
370
     9
  0
POLYLINE
  5
41A
330
1F
100
AcDbEntity
  8
Bema_U+00DFung
 62
     7
420
 16777215
370
     9
100
AcDb2dPolyline
 66
     1
 10
0.0
 20
0.0
 30
0.0
  0
VERTEX
  5
41B
330
41A
100
AcDbEntity
  8
Bema_U+00DFung
 62
     7
420
 16777215
370
     9
100
AcDbVertex
100
AcDb2dVertex
 10
9.965328955808094
 20
87.53794917991131
 30
0.0
  0
VERTEX
  5
41C
330
41A
100
AcDbEntity
  8
Bema_U+00DFung
 62
     7
420
 16777215
370
     9
100
AcDbVertex
100
AcDb2dVertex
 10
9.965328955808094
 20
88.8803306357389
 30
0.0
  0
SEQEND
  5
41D
330
41A
100
AcDbEntity
  8
Bema_U+00DFung
 62
     7
420
 16777215
370
     9
  0
POLYLINE
  5
41E
330
1F
100
AcDbEntity
  8
Bema_U+00DFung
 62
     7
420
 16777215
370
     9
100
AcDb2dPolyline
 66
     1
 10
0.0
 20
0.0
 30
0.0
  0
VERTEX
  5
41F
330
41E
100
AcDbEntity
  8
Bema_U+00DFung
 62
     7
420
 16777215
370
     9
100
AcDbVertex
100
AcDb2dVertex
 10
9.91453532924744
 20
87.53794917991131
 30
0.0
  0
VERTEX
  5
420
330
41E
100
AcDbEntity
  8
Bema_U+00DFung
 62
     7
420
 16777215
370
     9
100
AcDbVertex
100
AcDb2dVertex
 10
9.91453532924744
 20
89.26622439378045
 30
0.0
  0
SEQEND
  5
421
330
41E
100
AcDbEntity
  8
Bema_U+00DFung
 62
     7
420
 16777215
370
     9
  0
POLYLINE
  5
422
330
1F
100
AcDbEntity
  8
Bema_U+00DFung
 62
     7
420
 16777215
370
     9
100
AcDb2dPolyline
 66
     1
 10
0.0
 20
0.0
 30
0.0
  0
VERTEX
  5
423
330
422
100
AcDbEntity
  8
Bema_U+00DFung
 62
     7
420
 16777215
370
     9
100
AcDbVertex
100
AcDb2dVertex
 10
9.863730936763398
 20
87.53794917991131
 30
0.0
  0
VERTEX
  5
424
330
422
100
AcDbEntity
  8
Bema_U+00DFung
 62
     7
420
 16777215
370
     9
100
AcDbVertex
100
AcDb2dVertex
 10
9.863730936763398
 20
89.65207508812844
 30
0.0
  0
SEQEND
  5
425
330
422
100
AcDbEntity
  8
Bema_U+00DFung
 62
     7
420
 16777215
370
     9
  0
POLYLINE
  5
426
330
1F
100
AcDbEntity
  8
Bema_U+00DFung
 62
     7
420
 16777215
370
     9
100
AcDb2dPolyline
 66
     1
 10
0.0
 20
0.0
 30
0.0
  0
VERTEX
  5
427
330
426
100
AcDbEntity
  8
Bema_U+00DFung
 62
     7
420
 16777215
370
     9
100
AcDbVertex
100
AcDb2dVertex
 10
9.81293192724105
 20
87.53794917991131
 30
0.0
  0
VERTEX
  5
428
330
426
100
AcDbEntity
  8
Bema_U+00DFung
 62
     7
420
 16777215
370
     9
100
AcDbVertex
100
AcDb2dVertex
 10
9.81293192724105
 20
90.03792578247642
 30
0.0
  0
SEQEND
  5
429
330
426
100
AcDbEntity
  8
Bema_U+00DFung
 62
     7
420
 16777215
370
     9
  0
POLYLINE
  5
42A
330
1F
100
AcDbEntity
  8
Bema_U+00DFung
 62
     7
420
 16777215
370
     9
100
AcDb2dPolyline
 66
     1
 10
0.0
 20
0.0
 30
0.0
  0
VERTEX
  5
42B
330
42A
100
AcDbEntity
  8
Bema_U+00DFung
 62
     7
420
 16777215
370
     9
100
AcDbVertex
100
AcDb2dVertex
 10
9.81293192724105
 20
-2.962060800447636
 30
0.0
  0
VERTEX
  5
42C
330
42A
100
AcDbEntity
  8
Bema_U+00DFung
 62
     7
420
 16777215
370
     9
100
AcDbVertex
100
AcDb2dVertex
 10
10.14206235420141
 20
-0.462062666035743
 30
0.0
  0
SEQEND
  5
42D
330
42A
100
AcDbEntity
  8
Bema_U+00DFung
 62
     7
420
 16777215
370
     9
  0
POLYLINE
  5
42E
330
1F
100
AcDbEntity
  8
Bema_U+00DFung
 62
     7
420
 16777215
370
     9
100
AcDb2dPolyline
 66
     1
 10
0.0
 20
0.0
 30
0.0
  0
VERTEX
  5
42F
330
42E
100
AcDbEntity
  8
Bema_U+00DFung
 62
     7
420
 16777215
370
     9
100
AcDbVertex
100
AcDb2dVertex
 10
10.14206235420141
 20
-0.462062666035743
 30
0.0
  0
VERTEX
  5
430
330
42E
100
AcDbEntity
  8
Bema_U+00DFung
 62
     7
420
 16777215
370
     9
100
AcDbVertex
100
AcDb2dVertex
 10
9.483801500280688
 20
-0.462062666035743
 30
0.0
  0
SEQEND
  5
431
330
42E
100
AcDbEntity
  8
Bema_U+00DFung
 62
     7
420
 16777215
370
     9
  0
POLYLINE
  5
432
330
1F
100
AcDbEntity
  8
Bema_U+00DFung
 62
     7
420
 16777215
370
     9
100
AcDb2dPolyline
 66
     1
 10
0.0
 20
0.0
 30
0.0
  0
VERTEX
  5
433
330
432
100
AcDbEntity
  8
Bema_U+00DFung
 62
     7
420
 16777215
370
     9
100
AcDbVertex
100
AcDb2dVertex
 10
9.483801500280688
 20
-0.462062666035743
 30
0.0
  0
VERTEX
  5
434
330
432
100
AcDbEntity
  8
Bema_U+00DFung
 62
     7
420
 16777215
370
     9
100
AcDbVertex
100
AcDb2dVertex
 10
9.81293192724105
 20
-2.962060800447636
 30
0.0
  0
SEQEND
  5
435
330
432
100
AcDbEntity
  8
Bema_U+00DFung
 62
     7
420
 16777215
370
     9
  0
POLYLINE
  5
436
330
1F
100
AcDbEntity
  8
Bema_U+00DFung
 62
     7
420
 16777215
370
     9
100
AcDb2dPolyline
 66
     1
 10
0.0
 20
0.0
 30
0.0
  0
VERTEX
  5
437
330
436
100
AcDbEntity
  8
Bema_U+00DFung
 62
     7
420
 16777215
370
     9
100
AcDbVertex
100
AcDb2dVertex
 10
10.11773136733683
 20
-0.462062666035743
 30
0.0
  0
VERTEX
  5
438
330
436
100
AcDbEntity
  8
Bema_U+00DFung
 62
     7
420
 16777215
370
     9
100
AcDbVertex
100
AcDb2dVertex
 10
10.11773136733683
 20
-0.6468920388193968
 30
0.0
  0
SEQEND
  5
439
330
436
100
AcDbEntity
  8
Bema_U+00DFung
 62
     7
420
 16777215
370
     9
  0
POLYLINE
  5
43A
330
1F
100
AcDbEntity
  8
Bema_U+00DFung
 62
     7
420
 16777215
370
     9
100
AcDb2dPolyline
 66
     1
 10
0.0
 20
0.0
 30
0.0
  0
VERTEX
  5
43B
330
43A
100
AcDbEntity
  8
Bema_U+00DFung
 62
     7
420
 16777215
370
     9
100
AcDbVertex
100
AcDb2dVertex
 10
10.11773136733683
 20
-0.462062666035743
 30
0.0
  0
VERTEX
  5
43C
330
43A
100
AcDbEntity
  8
Bema_U+00DFung
 62
     7
420
 16777215
370
     9
100
AcDbVertex
100
AcDb2dVertex
 10
10.11773136733683
 20
-0.6468920388193968
 30
0.0
  0
SEQEND
  5
43D
330
43A
100
AcDbEntity
  8
Bema_U+00DFung
 62
     7
420
 16777215
370
     9
  0
POLYLINE
  5
43E
330
1F
100
AcDbEntity
  8
Bema_U+00DFung
 62
     7
420
 16777215
370
     9
100
AcDb2dPolyline
 66
     1
 10
0.0
 20
0.0
 30
0.0
  0
VERTEX
  5
43F
330
43E
100
AcDbEntity
  8
Bema_U+00DFung
 62
     7
420
 16777215
370
     9
100
AcDbVertex
100
AcDb2dVertex
 10
10.06693235781449
 20
-0.462062666035743
 30
0.0
  0
VERTEX
  5
440
330
43E
100
AcDbEntity
  8
Bema_U+00DFung
 62
     7
420
 16777215
370
     9
100
AcDbVertex
100
AcDb2dVertex
 10
10.06693235781449
 20
-1.032742733167379
 30
0.0
  0
SEQEND
  5
441
330
43E
100
AcDbEntity
  8
Bema_U+00DFung
 62
     7
420
 16777215
370
     9
  0
POLYLINE
  5
442
330
1F
100
AcDbEntity
  8
Bema_U+00DFung
 62
     7
420
 16777215
370
     9
100
AcDb2dPolyline
 66
     1
 10
0.0
 20
0.0
 30
0.0
  0
VERTEX
  5
443
330
442
100
AcDbEntity
  8
Bema_U+00DFung
 62
     7
420
 16777215
370
     9
100
AcDbVertex
100
AcDb2dVertex
 10
10.01613334829214
 20
-0.462062666035743
 30
0.0
  0
VERTEX
  5
444
330
442
100
AcDbEntity
  8
Bema_U+00DFung
 62
     7
420
 16777215
370
     9
100
AcDbVertex
100
AcDb2dVertex
 10
10.01613334829214
 20
-1.418614959362143
 30
0.0
  0
SEQEND
  5
445
330
442
100
AcDbEntity
  8
Bema_U+00DFung
 62
     7
420
 16777215
370
     9
  0
POLYLINE
  5
446
330
1F
100
AcDbEntity
  8
Bema_U+00DFung
 62
     7
420
 16777215
370
     9
100
AcDb2dPolyline
 66
     1
 10
0.0
 20
0.0
 30
0.0
  0
VERTEX
  5
447
330
446
100
AcDbEntity
  8
Bema_U+00DFung
 62
     7
420
 16777215
370
     9
100
AcDbVertex
100
AcDb2dVertex
 10
9.965328955808094
 20
-0.462062666035743
 30
0.0
  0
VERTEX
  5
448
330
446
100
AcDbEntity
  8
Bema_U+00DFung
 62
     7
420
 16777215
370
     9
100
AcDbVertex
100
AcDb2dVertex
 10
9.965328955808094
 20
-1.804487185556908
 30
0.0
  0
SEQEND
  5
449
330
446
100
AcDbEntity
  8
Bema_U+00DFung
 62
     7
420
 16777215
370
     9
  0
POLYLINE
  5
44A
330
1F
100
AcDbEntity
  8
Bema_U+00DFung
 62
     7
420
 16777215
370
     9
100
AcDb2dPolyline
 66
     1
 10
0.0
 20
0.0
 30
0.0
  0
VERTEX
  5
44B
330
44A
100
AcDbEntity
  8
Bema_U+00DFung
 62
     7
420
 16777215
370
     9
100
AcDbVertex
100
AcDb2dVertex
 10
9.91453532924744
 20
-0.462062666035743
 30
0.0
  0
VERTEX
  5
44C
330
44A
100
AcDbEntity
  8
Bema_U+00DFung
 62
     7
420
 16777215
370
     9
100
AcDbVertex
100
AcDb2dVertex
 10
9.91453532924744
 20
-2.190337879904889
 30
0.0
  0
SEQEND
  5
44D
330
44A
100
AcDbEntity
  8
Bema_U+00DFung
 62
     7
420
 16777215
370
     9
  0
POLYLINE
  5
44E
330
1F
100
AcDbEntity
  8
Bema_U+00DFung
 62
     7
420
 16777215
370
     9
100
AcDb2dPolyline
 66
     1
 10
0.0
 20
0.0
 30
0.0
  0
VERTEX
  5
44F
330
44E
100
AcDbEntity
  8
Bema_U+00DFung
 62
     7
420
 16777215
370
     9
100
AcDbVertex
100
AcDb2dVertex
 10
9.863730936763398
 20
-0.462062666035743
 30
0.0
  0
VERTEX
  5
450
330
44E
100
AcDbEntity
  8
Bema_U+00DFung
 62
     7
420
 16777215
370
     9
100
AcDbVertex
100
AcDb2dVertex
 10
9.863730936763398
 20
-2.576210106099654
 30
0.0
  0
SEQEND
  5
451
330
44E
100
AcDbEntity
  8
Bema_U+00DFung
 62
     7
420
 16777215
370
     9
  0
POLYLINE
  5
452
330
1F
100
AcDbEntity
  8
Bema_U+00DFung
 62
     7
420
 16777215
370
     9
100
AcDb2dPolyline
 66
     1
 10
0.0
 20
0.0
 30
0.0
  0
VERTEX
  5
453
330
452
100
AcDbEntity
  8
Bema_U+00DFung
 62
     7
420
 16777215
370
     9
100
AcDbVertex
100
AcDb2dVertex
 10
9.81293192724105
 20
-0.462062666035743
 30
0.0
  0
VERTEX
  5
454
330
452
100
AcDbEntity
  8
Bema_U+00DFung
 62
     7
420
 16777215
370
     9
100
AcDbVertex
100
AcDb2dVertex
 10
9.81293192724105
 20
-2.962060800447636
 30
0.0
  0
SEQEND
  5
455
330
452
100
AcDbEntity
  8
Bema_U+00DFung
 62
     7
420
 16777215
370
     9
  0
POLYLINE
  5
456
330
1F
100
AcDbEntity
  8
Bema_U+00DFung
 62
     7
420
 16777215
370
     9
100
AcDb2dPolyline
 66
     1
 10
0.0
 20
0.0
 30
0.0
  0
VERTEX
  5
457
330
456
100
AcDbEntity
  8
Bema_U+00DFung
 62
     7
420
 16777215
370
     9
100
AcDbVertex
100
AcDb2dVertex
 10
9.508132487145266
 20
-0.462062666035743
 30
0.0
  0
VERTEX
  5
458
330
456
100
AcDbEntity
  8
Bema_U+00DFung
 62
     7
420
 16777215
370
     9
100
AcDbVertex
100
AcDb2dVertex
 10
9.508132487145266
 20
-0.6468920388193968
 30
0.0
  0
SEQEND
  5
459
330
456
100
AcDbEntity
  8
Bema_U+00DFung
 62
     7
420
 16777215
370
     9
  0
POLYLINE
  5
45A
330
1F
100
AcDbEntity
  8
Bema_U+00DFung
 62
     7
420
 16777215
370
     9
100
AcDb2dPolyline
 66
     1
 10
0.0
 20
0.0
 30
0.0
  0
VERTEX
  5
45B
330
45A
100
AcDbEntity
  8
Bema_U+00DFung
 62
     7
420
 16777215
370
     9
100
AcDbVertex
100
AcDb2dVertex
 10
9.508132487145266
 20
-0.462062666035743
 30
0.0
  0
VERTEX
  5
45C
330
45A
100
AcDbEntity
  8
Bema_U+00DFung
 62
     7
420
 16777215
370
     9
100
AcDbVertex
100
AcDb2dVertex
 10
9.508132487145266
 20
-0.6468920388193968
 30
0.0
  0
SEQEND
  5
45D
330
45A
100
AcDbEntity
  8
Bema_U+00DFung
 62
     7
420
 16777215
370
     9
  0
POLYLINE
  5
45E
330
1F
100
AcDbEntity
  8
Bema_U+00DFung
 62
     7
420
 16777215
370
     9
100
AcDb2dPolyline
 66
     1
 10
0.0
 20
0.0
 30
0.0
  0
VERTEX
  5
45F
330
45E
100
AcDbEntity
  8
Bema_U+00DFung
 62
     7
420
 16777215
370
     9
100
AcDbVertex
100
AcDb2dVertex
 10
9.558931496667613
 20
-0.462062666035743
 30
0.0
  0
VERTEX
  5
460
330
45E
100
AcDbEntity
  8
Bema_U+00DFung
 62
     7
420
 16777215
370
     9
100
AcDbVertex
100
AcDb2dVertex
 10
9.558931496667613
 20
-1.032742733167379
 30
0.0
  0
SEQEND
  5
461
330
45E
100
AcDbEntity
  8
Bema_U+00DFung
 62
     7
420
 16777215
370
     9
  0
POLYLINE
  5
462
330
1F
100
AcDbEntity
  8
Bema_U+00DFung
 62
     7
420
 16777215
370
     9
100
AcDb2dPolyline
 66
     1
 10
0.0
 20
0.0
 30
0.0
  0
VERTEX
  5
463
330
462
100
AcDbEntity
  8
Bema_U+00DFung
 62
     7
420
 16777215
370
     9
100
AcDbVertex
100
AcDb2dVertex
 10
9.609730506189962
 20
-0.462062666035743
 30
0.0
  0
VERTEX
  5
464
330
462
100
AcDbEntity
  8
Bema_U+00DFung
 62
     7
420
 16777215
370
     9
100
AcDbVertex
100
AcDb2dVertex
 10
9.609730506189962
 20
-1.418614959362143
 30
0.0
  0
SEQEND
  5
465
330
462
100
AcDbEntity
  8
Bema_U+00DFung
 62
     7
420
 16777215
370
     9
  0
POLYLINE
  5
466
330
1F
100
AcDbEntity
  8
Bema_U+00DFung
 62
     7
420
 16777215
370
     9
100
AcDb2dPolyline
 66
     1
 10
0.0
 20
0.0
 30
0.0
  0
VERTEX
  5
467
330
466
100
AcDbEntity
  8
Bema_U+00DFung
 62
     7
420
 16777215
370
     9
100
AcDbVertex
100
AcDb2dVertex
 10
9.660534898674005
 20
-0.462062666035743
 30
0.0
  0
VERTEX
  5
468
330
466
100
AcDbEntity
  8
Bema_U+00DFung
 62
     7
420
 16777215
370
     9
100
AcDbVertex
100
AcDb2dVertex
 10
9.660534898674005
 20
-1.804487185556908
 30
0.0
  0
SEQEND
  5
469
330
466
100
AcDbEntity
  8
Bema_U+00DFung
 62
     7
420
 16777215
370
     9
  0
POLYLINE
  5
46A
330
1F
100
AcDbEntity
  8
Bema_U+00DFung
 62
     7
420
 16777215
370
     9
100
AcDb2dPolyline
 66
     1
 10
0.0
 20
0.0
 30
0.0
  0
VERTEX
  5
46B
330
46A
100
AcDbEntity
  8
Bema_U+00DFung
 62
     7
420
 16777215
370
     9
100
AcDbVertex
100
AcDb2dVertex
 10
9.711328525234658
 20
-0.462062666035743
 30
0.0
  0
VERTEX
  5
46C
330
46A
100
AcDbEntity
  8
Bema_U+00DFung
 62
     7
420
 16777215
370
     9
100
AcDbVertex
100
AcDb2dVertex
 10
9.711328525234658
 20
-2.190337879904889
 30
0.0
  0
SEQEND
  5
46D
330
46A
100
AcDbEntity
  8
Bema_U+00DFung
 62
     7
420
 16777215
370
     9
  0
POLYLINE
  5
46E
330
1F
100
AcDbEntity
  8
Bema_U+00DFung
 62
     7
420
 16777215
370
     9
100
AcDb2dPolyline
 66
     1
 10
0.0
 20
0.0
 30
0.0
  0
VERTEX
  5
46F
330
46E
100
AcDbEntity
  8
Bema_U+00DFung
 62
     7
420
 16777215
370
     9
100
AcDbVertex
100
AcDb2dVertex
 10
9.7621329177187
 20
-0.462062666035743
 30
0.0
  0
VERTEX
  5
470
330
46E
100
AcDbEntity
  8
Bema_U+00DFung
 62
     7
420
 16777215
370
     9
100
AcDbVertex
100
AcDb2dVertex
 10
9.7621329177187
 20
-2.576210106099654
 30
0.0
  0
SEQEND
  5
471
330
46E
100
AcDbEntity
  8
Bema_U+00DFung
 62
     7
420
 16777215
370
     9
  0
POLYLINE
  5
472
330
1F
100
AcDbEntity
  8
Bema_U+00DFung
 62
     7
420
 16777215
370
     9
100
AcDb2dPolyline
 66
     1
 10
0.0
 20
0.0
 30
0.0
  0
VERTEX
  5
473
330
472
100
AcDbEntity
  8
Bema_U+00DFung
 62
     7
420
 16777215
370
     9
100
AcDbVertex
100
AcDb2dVertex
 10
9.81293192724105
 20
-0.462062666035743
 30
0.0
  0
VERTEX
  5
474
330
472
100
AcDbEntity
  8
Bema_U+00DFung
 62
     7
420
 16777215
370
     9
100
AcDbVertex
100
AcDb2dVertex
 10
9.81293192724105
 20
-2.962060800447636
 30
0.0
  0
SEQEND
  5
475
330
472
100
AcDbEntity
  8
Bema_U+00DFung
 62
     7
420
 16777215
370
     9
  0
POLYLINE
  5
476
330
1F
100
AcDbEntity
  8
Bema_U+00DFung
 62
     7
420
 16777215
370
     9
100
AcDb2dPolyline
 66
     1
 10
0.0
 20
0.0
 30
0.0
  0
VERTEX
  5
477
330
476
100
AcDbEntity
  8
Bema_U+00DFung
 62
     7
420
 16777215
370
     9
100
AcDbVertex
100
AcDb2dVertex
 10
116.3129369656863
 20
22.03794207551807
 30
0.0
  0
VERTEX
  5
478
330
476
100
AcDbEntity
  8
Bema_U+00DFung
 62
     7
420
 16777215
370
     9
100
AcDbVertex
100
AcDb2dVertex
 10
116.3129369656863
 20
-14.86236607667292
 30
0.0
  0
SEQEND
  5
479
330
476
100
AcDbEntity
  8
Bema_U+00DFung
 62
     7
420
 16777215
370
     9
  0
POLYLINE
  5
47A
330
1F
100
AcDbEntity
  8
Bema_U+00DFung
 62
     7
420
 16777215
370
     9
100
AcDb2dPolyline
 66
     1
 10
0.0
 20
0.0
 30
0.0
  0
VERTEX
  5
47B
330
47A
100
AcDbEntity
  8
Bema_U+00DFung
 62
     7
420
 16777215
370
     9
100
AcDbVertex
100
AcDb2dVertex
 10
29.81293045994043
 20
2.03793546837615
 30
0.0
  0
VERTEX
  5
47C
330
47A
100
AcDbEntity
  8
Bema_U+00DFung
 62
     7
420
 16777215
370
     9
100
AcDbVertex
100
AcDb2dVertex
 10
29.81293045994043
 20
-14.86236607667292
 30
0.0
  0
SEQEND
  5
47D
330
47A
100
AcDbEntity
  8
Bema_U+00DFung
 62
     7
420
 16777215
370
     9
  0
POLYLINE
  5
47E
330
1F
100
AcDbEntity
  8
Bema_U+00DFung
 62
     7
420
 16777215
370
     9
100
AcDb2dPolyline
 66
     1
 10
0.0
 20
0.0
 30
0.0
  0
VERTEX
  5
47F
330
47E
100
AcDbEntity
  8
Bema_U+00DFung
 62
     7
420
 16777215
370
     9
100
AcDbVertex
100
AcDb2dVertex
 10
116.3129369656863
 20
-12.86235895640469
 30
0.0
  0
VERTEX
  5
480
330
47E
100
AcDbEntity
  8
Bema_U+00DFung
 62
     7
420
 16777215
370
     9
100
AcDbVertex
100
AcDb2dVertex
 10
29.81293045994043
 20
-12.86235895640469
 30
0.0
  0
SEQEND
  5
481
330
47E
100
AcDbEntity
  8
Bema_U+00DFung
 62
     7
420
 16777215
370
     9
  0
POLYLINE
  5
482
330
1F
100
AcDbEntity
  8
Bema_U+00DFung
 62
     7
420
 16777215
370
     9
100
AcDb2dPolyline
 66
     1
 10
0.0
 20
0.0
 30
0.0
  0
VERTEX
  5
483
330
482
100
AcDbEntity
  8
Bema_U+00DFung
 62
     7
420
 16777215
370
     9
100
AcDbVertex
100
AcDb2dVertex
 10
116.3129369656863
 20
-12.86235895640469
 30
0.0
  0
VERTEX
  5
484
330
482
100
AcDbEntity
  8
Bema_U+00DFung
 62
     7
420
 16777215
370
     9
100
AcDbVertex
100
AcDb2dVertex
 10
113.812928065351
 20
-12.53322314648264
 30
0.0
  0
SEQEND
  5
485
330
482
100
AcDbEntity
  8
Bema_U+00DFung
 62
     7
420
 16777215
370
     9
  0
POLYLINE
  5
486
330
1F
100
AcDbEntity
  8
Bema_U+00DFung
 62
     7
420
 16777215
370
     9
100
AcDb2dPolyline
 66
     1
 10
0.0
 20
0.0
 30
0.0
  0
VERTEX
  5
487
330
486
100
AcDbEntity
  8
Bema_U+00DFung
 62
     7
420
 16777215
370
     9
100
AcDbVertex
100
AcDb2dVertex
 10
113.812928065351
 20
-12.53322314648264
 30
0.0
  0
VERTEX
  5
488
330
486
100
AcDbEntity
  8
Bema_U+00DFung
 62
     7
420
 16777215
370
     9
100
AcDbVertex
100
AcDb2dVertex
 10
113.812928065351
 20
-13.19149476632675
 30
0.0
  0
SEQEND
  5
489
330
486
100
AcDbEntity
  8
Bema_U+00DFung
 62
     7
420
 16777215
370
     9
  0
POLYLINE
  5
48A
330
1F
100
AcDbEntity
  8
Bema_U+00DFung
 62
     7
420
 16777215
370
     9
100
AcDb2dPolyline
 66
     1
 10
0.0
 20
0.0
 30
0.0
  0
VERTEX
  5
48B
330
48A
100
AcDbEntity
  8
Bema_U+00DFung
 62
     7
420
 16777215
370
     9
100
AcDbVertex
100
AcDb2dVertex
 10
113.812928065351
 20
-13.19149476632675
 30
0.0
  0
VERTEX
  5
48C
330
48A
100
AcDbEntity
  8
Bema_U+00DFung
 62
     7
420
 16777215
370
     9
100
AcDbVertex
100
AcDb2dVertex
 10
116.3129369656863
 20
-12.86235895640469
 30
0.0
  0
SEQEND
  5
48D
330
48A
100
AcDbEntity
  8
Bema_U+00DFung
 62
     7
420
 16777215
370
     9
  0
POLYLINE
  5
48E
330
1F
100
AcDbEntity
  8
Bema_U+00DFung
 62
     7
420
 16777215
370
     9
100
AcDb2dPolyline
 66
     1
 10
0.0
 20
0.0
 30
0.0
  0
VERTEX
  5
48F
330
48E
100
AcDbEntity
  8
Bema_U+00DFung
 62
     7
420
 16777215
370
     9
100
AcDbVertex
100
AcDb2dVertex
 10
113.812928065351
 20
-12.55755413334722
 30
0.0
  0
VERTEX
  5
490
330
48E
100
AcDbEntity
  8
Bema_U+00DFung
 62
     7
420
 16777215
370
     9
100
AcDbVertex
100
AcDb2dVertex
 10
113.9977466722113
 20
-12.55755413334722
 30
0.0
  0
SEQEND
  5
491
330
48E
100
AcDbEntity
  8
Bema_U+00DFung
 62
     7
420
 16777215
370
     9
  0
POLYLINE
  5
492
330
1F
100
AcDbEntity
  8
Bema_U+00DFung
 62
     7
420
 16777215
370
     9
100
AcDb2dPolyline
 66
     1
 10
0.0
 20
0.0
 30
0.0
  0
VERTEX
  5
493
330
492
100
AcDbEntity
  8
Bema_U+00DFung
 62
     7
420
 16777215
370
     9
100
AcDbVertex
100
AcDb2dVertex
 10
113.812928065351
 20
-12.55755413334722
 30
0.0
  0
VERTEX
  5
494
330
492
100
AcDbEntity
  8
Bema_U+00DFung
 62
     7
420
 16777215
370
     9
100
AcDbVertex
100
AcDb2dVertex
 10
113.9977466722113
 20
-12.55755413334722
 30
0.0
  0
SEQEND
  5
495
330
492
100
AcDbEntity
  8
Bema_U+00DFung
 62
     7
420
 16777215
370
     9
  0
POLYLINE
  5
496
330
1F
100
AcDbEntity
  8
Bema_U+00DFung
 62
     7
420
 16777215
370
     9
100
AcDb2dPolyline
 66
     1
 10
0.0
 20
0.0
 30
0.0
  0
VERTEX
  5
497
330
496
100
AcDbEntity
  8
Bema_U+00DFung
 62
     7
420
 16777215
370
     9
100
AcDbVertex
100
AcDb2dVertex
 10
113.812928065351
 20
-12.60836929175465
 30
0.0
  0
VERTEX
  5
498
330
496
100
AcDbEntity
  8
Bema_U+00DFung
 62
     7
420
 16777215
370
     9
100
AcDbVertex
100
AcDb2dVertex
 10
114.3836188984061
 20
-12.60836929175465
 30
0.0
  0
SEQEND
  5
499
330
496
100
AcDbEntity
  8
Bema_U+00DFung
 62
     7
420
 16777215
370
     9
  0
POLYLINE
  5
49A
330
1F
100
AcDbEntity
  8
Bema_U+00DFung
 62
     7
420
 16777215
370
     9
100
AcDb2dPolyline
 66
     1
 10
0.0
 20
0.0
 30
0.0
  0
VERTEX
  5
49B
330
49A
100
AcDbEntity
  8
Bema_U+00DFung
 62
     7
420
 16777215
370
     9
100
AcDbVertex
100
AcDb2dVertex
 10
113.812928065351
 20
-12.6591629183153
 30
0.0
  0
VERTEX
  5
49C
330
49A
100
AcDbEntity
  8
Bema_U+00DFung
 62
     7
420
 16777215
370
     9
100
AcDbVertex
100
AcDb2dVertex
 10
114.769469592754
 20
-12.6591629183153
 30
0.0
  0
SEQEND
  5
49D
330
49A
100
AcDbEntity
  8
Bema_U+00DFung
 62
     7
420
 16777215
370
     9
  0
POLYLINE
  5
49E
330
1F
100
AcDbEntity
  8
Bema_U+00DFung
 62
     7
420
 16777215
370
     9
100
AcDb2dPolyline
 66
     1
 10
0.0
 20
0.0
 30
0.0
  0
VERTEX
  5
49F
330
49E
100
AcDbEntity
  8
Bema_U+00DFung
 62
     7
420
 16777215
370
     9
100
AcDbVertex
100
AcDb2dVertex
 10
113.812928065351
 20
-12.70995654487596
 30
0.0
  0
VERTEX
  5
4A0
330
49E
100
AcDbEntity
  8
Bema_U+00DFung
 62
     7
420
 16777215
370
     9
100
AcDbVertex
100
AcDb2dVertex
 10
115.1553418189488
 20
-12.70995654487596
 30
0.0
  0
SEQEND
  5
4A1
330
49E
100
AcDbEntity
  8
Bema_U+00DFung
 62
     7
420
 16777215
370
     9
  0
POLYLINE
  5
4A2
330
1F
100
AcDbEntity
  8
Bema_U+00DFung
 62
     7
420
 16777215
370
     9
100
AcDb2dPolyline
 66
     1
 10
0.0
 20
0.0
 30
0.0
  0
VERTEX
  5
4A3
330
4A2
100
AcDbEntity
  8
Bema_U+00DFung
 62
     7
420
 16777215
370
     9
100
AcDbVertex
100
AcDb2dVertex
 10
113.812928065351
 20
-12.76077170328339
 30
0.0
  0
VERTEX
  5
4A4
330
4A2
100
AcDbEntity
  8
Bema_U+00DFung
 62
     7
420
 16777215
370
     9
100
AcDbVertex
100
AcDb2dVertex
 10
115.5412140451436
 20
-12.76077170328339
 30
0.0
  0
SEQEND
  5
4A5
330
4A2
100
AcDbEntity
  8
Bema_U+00DFung
 62
     7
420
 16777215
370
     9
  0
POLYLINE
  5
4A6
330
1F
100
AcDbEntity
  8
Bema_U+00DFung
 62
     7
420
 16777215
370
     9
100
AcDb2dPolyline
 66
     1
 10
0.0
 20
0.0
 30
0.0
  0
VERTEX
  5
4A7
330
4A6
100
AcDbEntity
  8
Bema_U+00DFung
 62
     7
420
 16777215
370
     9
100
AcDbVertex
100
AcDb2dVertex
 10
113.812928065351
 20
-12.81154379799726
 30
0.0
  0
VERTEX
  5
4A8
330
4A6
100
AcDbEntity
  8
Bema_U+00DFung
 62
     7
420
 16777215
370
     9
100
AcDbVertex
100
AcDb2dVertex
 10
115.9270647394915
 20
-12.81154379799726
 30
0.0
  0
SEQEND
  5
4A9
330
4A6
100
AcDbEntity
  8
Bema_U+00DFung
 62
     7
420
 16777215
370
     9
  0
POLYLINE
  5
4AA
330
1F
100
AcDbEntity
  8
Bema_U+00DFung
 62
     7
420
 16777215
370
     9
100
AcDb2dPolyline
 66
     1
 10
0.0
 20
0.0
 30
0.0
  0
VERTEX
  5
4AB
330
4AA
100
AcDbEntity
  8
Bema_U+00DFung
 62
     7
420
 16777215
370
     9
100
AcDbVertex
100
AcDb2dVertex
 10
113.812928065351
 20
-12.86235895640469
 30
0.0
  0
VERTEX
  5
4AC
330
4AA
100
AcDbEntity
  8
Bema_U+00DFung
 62
     7
420
 16777215
370
     9
100
AcDbVertex
100
AcDb2dVertex
 10
116.3129369656863
 20
-12.86235895640469
 30
0.0
  0
SEQEND
  5
4AD
330
4AA
100
AcDbEntity
  8
Bema_U+00DFung
 62
     7
420
 16777215
370
     9
  0
POLYLINE
  5
4AE
330
1F
100
AcDbEntity
  8
Bema_U+00DFung
 62
     7
420
 16777215
370
     9
100
AcDb2dPolyline
 66
     1
 10
0.0
 20
0.0
 30
0.0
  0
VERTEX
  5
4AF
330
4AE
100
AcDbEntity
  8
Bema_U+00DFung
 62
     7
420
 16777215
370
     9
100
AcDbVertex
100
AcDb2dVertex
 10
113.812928065351
 20
-13.16716377946218
 30
0.0
  0
VERTEX
  5
4B0
330
4AE
100
AcDbEntity
  8
Bema_U+00DFung
 62
     7
420
 16777215
370
     9
100
AcDbVertex
100
AcDb2dVertex
 10
113.9977466722113
 20
-13.16716377946218
 30
0.0
  0
SEQEND
  5
4B1
330
4AE
100
AcDbEntity
  8
Bema_U+00DFung
 62
     7
420
 16777215
370
     9
  0
POLYLINE
  5
4B2
330
1F
100
AcDbEntity
  8
Bema_U+00DFung
 62
     7
420
 16777215
370
     9
100
AcDb2dPolyline
 66
     1
 10
0.0
 20
0.0
 30
0.0
  0
VERTEX
  5
4B3
330
4B2
100
AcDbEntity
  8
Bema_U+00DFung
 62
     7
420
 16777215
370
     9
100
AcDbVertex
100
AcDb2dVertex
 10
113.812928065351
 20
-13.16716377946218
 30
0.0
  0
VERTEX
  5
4B4
330
4B2
100
AcDbEntity
  8
Bema_U+00DFung
 62
     7
420
 16777215
370
     9
100
AcDbVertex
100
AcDb2dVertex
 10
113.9977466722113
 20
-13.16716377946218
 30
0.0
  0
SEQEND
  5
4B5
330
4B2
100
AcDbEntity
  8
Bema_U+00DFung
 62
     7
420
 16777215
370
     9
  0
POLYLINE
  5
4B6
330
1F
100
AcDbEntity
  8
Bema_U+00DFung
 62
     7
420
 16777215
370
     9
100
AcDb2dPolyline
 66
     1
 10
0.0
 20
0.0
 30
0.0
  0
VERTEX
  5
4B7
330
4B6
100
AcDbEntity
  8
Bema_U+00DFung
 62
     7
420
 16777215
370
     9
100
AcDbVertex
100
AcDb2dVertex
 10
113.812928065351
 20
-13.11637015290152
 30
0.0
  0
VERTEX
  5
4B8
330
4B6
100
AcDbEntity
  8
Bema_U+00DFung
 62
     7
420
 16777215
370
     9
100
AcDbVertex
100
AcDb2dVertex
 10
114.3836188984061
 20
-13.11637015290152
 30
0.0
  0
SEQEND
  5
4B9
330
4B6
100
AcDbEntity
  8
Bema_U+00DFung
 62
     7
420
 16777215
370
     9
  0
POLYLINE
  5
4BA
330
1F
100
AcDbEntity
  8
Bema_U+00DFung
 62
     7
420
 16777215
370
     9
100
AcDb2dPolyline
 66
     1
 10
0.0
 20
0.0
 30
0.0
  0
VERTEX
  5
4BB
330
4BA
100
AcDbEntity
  8
Bema_U+00DFung
 62
     7
420
 16777215
370
     9
100
AcDbVertex
100
AcDb2dVertex
 10
113.812928065351
 20
-13.06555499449409
 30
0.0
  0
VERTEX
  5
4BC
330
4BA
100
AcDbEntity
  8
Bema_U+00DFung
 62
     7
420
 16777215
370
     9
100
AcDbVertex
100
AcDb2dVertex
 10
114.769469592754
 20
-13.06555499449409
 30
0.0
  0
SEQEND
  5
4BD
330
4BA
100
AcDbEntity
  8
Bema_U+00DFung
 62
     7
420
 16777215
370
     9
  0
POLYLINE
  5
4BE
330
1F
100
AcDbEntity
  8
Bema_U+00DFung
 62
     7
420
 16777215
370
     9
100
AcDb2dPolyline
 66
     1
 10
0.0
 20
0.0
 30
0.0
  0
VERTEX
  5
4BF
330
4BE
100
AcDbEntity
  8
Bema_U+00DFung
 62
     7
420
 16777215
370
     9
100
AcDbVertex
100
AcDb2dVertex
 10
113.812928065351
 20
-13.01476136793343
 30
0.0
  0
VERTEX
  5
4C0
330
4BE
100
AcDbEntity
  8
Bema_U+00DFung
 62
     7
420
 16777215
370
     9
100
AcDbVertex
100
AcDb2dVertex
 10
115.1553418189488
 20
-13.01476136793343
 30
0.0
  0
SEQEND
  5
4C1
330
4BE
100
AcDbEntity
  8
Bema_U+00DFung
 62
     7
420
 16777215
370
     9
  0
POLYLINE
  5
4C2
330
1F
100
AcDbEntity
  8
Bema_U+00DFung
 62
     7
420
 16777215
370
     9
100
AcDb2dPolyline
 66
     1
 10
0.0
 20
0.0
 30
0.0
  0
VERTEX
  5
4C3
330
4C2
100
AcDbEntity
  8
Bema_U+00DFung
 62
     7
420
 16777215
370
     9
100
AcDbVertex
100
AcDb2dVertex
 10
113.812928065351
 20
-12.96396774137278
 30
0.0
  0
VERTEX
  5
4C4
330
4C2
100
AcDbEntity
  8
Bema_U+00DFung
 62
     7
420
 16777215
370
     9
100
AcDbVertex
100
AcDb2dVertex
 10
115.5412140451436
 20
-12.96396774137278
 30
0.0
  0
SEQEND
  5
4C5
330
4C2
100
AcDbEntity
  8
Bema_U+00DFung
 62
     7
420
 16777215
370
     9
  0
POLYLINE
  5
4C6
330
1F
100
AcDbEntity
  8
Bema_U+00DFung
 62
     7
420
 16777215
370
     9
100
AcDb2dPolyline
 66
     1
 10
0.0
 20
0.0
 30
0.0
  0
VERTEX
  5
4C7
330
4C6
100
AcDbEntity
  8
Bema_U+00DFung
 62
     7
420
 16777215
370
     9
100
AcDbVertex
100
AcDb2dVertex
 10
113.812928065351
 20
-12.91317411481213
 30
0.0
  0
VERTEX
  5
4C8
330
4C6
100
AcDbEntity
  8
Bema_U+00DFung
 62
     7
420
 16777215
370
     9
100
AcDbVertex
100
AcDb2dVertex
 10
115.9270647394915
 20
-12.91317411481213
 30
0.0
  0
SEQEND
  5
4C9
330
4C6
100
AcDbEntity
  8
Bema_U+00DFung
 62
     7
420
 16777215
370
     9
  0
POLYLINE
  5
4CA
330
1F
100
AcDbEntity
  8
Bema_U+00DFung
 62
     7
420
 16777215
370
     9
100
AcDb2dPolyline
 66
     1
 10
0.0
 20
0.0
 30
0.0
  0
VERTEX
  5
4CB
330
4CA
100
AcDbEntity
  8
Bema_U+00DFung
 62
     7
420
 16777215
370
     9
100
AcDbVertex
100
AcDb2dVertex
 10
113.812928065351
 20
-12.86235895640469
 30
0.0
  0
VERTEX
  5
4CC
330
4CA
100
AcDbEntity
  8
Bema_U+00DFung
 62
     7
420
 16777215
370
     9
100
AcDbVertex
100
AcDb2dVertex
 10
116.3129369656863
 20
-12.86235895640469
 30
0.0
  0
SEQEND
  5
4CD
330
4CA
100
AcDbEntity
  8
Bema_U+00DFung
 62
     7
420
 16777215
370
     9
  0
POLYLINE
  5
4CE
330
1F
100
AcDbEntity
  8
Bema_U+00DFung
 62
     7
420
 16777215
370
     9
100
AcDb2dPolyline
 66
     1
 10
0.0
 20
0.0
 30
0.0
  0
VERTEX
  5
4CF
330
4CE
100
AcDbEntity
  8
Bema_U+00DFung
 62
     7
420
 16777215
370
     9
100
AcDbVertex
100
AcDb2dVertex
 10
29.81293045994043
 20
-12.86235895640469
 30
0.0
  0
VERTEX
  5
4D0
330
4CE
100
AcDbEntity
  8
Bema_U+00DFung
 62
     7
420
 16777215
370
     9
100
AcDbVertex
100
AcDb2dVertex
 10
32.31293397731402
 20
-13.19149476632675
 30
0.0
  0
SEQEND
  5
4D1
330
4CE
100
AcDbEntity
  8
Bema_U+00DFung
 62
     7
420
 16777215
370
     9
  0
POLYLINE
  5
4D2
330
1F
100
AcDbEntity
  8
Bema_U+00DFung
 62
     7
420
 16777215
370
     9
100
AcDb2dPolyline
 66
     1
 10
0.0
 20
0.0
 30
0.0
  0
VERTEX
  5
4D3
330
4D2
100
AcDbEntity
  8
Bema_U+00DFung
 62
     7
420
 16777215
370
     9
100
AcDbVertex
100
AcDb2dVertex
 10
32.31293397731402
 20
-13.19149476632675
 30
0.0
  0
VERTEX
  5
4D4
330
4D2
100
AcDbEntity
  8
Bema_U+00DFung
 62
     7
420
 16777215
370
     9
100
AcDbVertex
100
AcDb2dVertex
 10
32.31293397731402
 20
-12.53322314648264
 30
0.0
  0
SEQEND
  5
4D5
330
4D2
100
AcDbEntity
  8
Bema_U+00DFung
 62
     7
420
 16777215
370
     9
  0
POLYLINE
  5
4D6
330
1F
100
AcDbEntity
  8
Bema_U+00DFung
 62
     7
420
 16777215
370
     9
100
AcDb2dPolyline
 66
     1
 10
0.0
 20
0.0
 30
0.0
  0
VERTEX
  5
4D7
330
4D6
100
AcDbEntity
  8
Bema_U+00DFung
 62
     7
420
 16777215
370
     9
100
AcDbVertex
100
AcDb2dVertex
 10
32.31293397731402
 20
-12.53322314648264
 30
0.0
  0
VERTEX
  5
4D8
330
4D6
100
AcDbEntity
  8
Bema_U+00DFung
 62
     7
420
 16777215
370
     9
100
AcDbVertex
100
AcDb2dVertex
 10
29.81293045994043
 20
-12.86235895640469
 30
0.0
  0
SEQEND
  5
4D9
330
4D6
100
AcDbEntity
  8
Bema_U+00DFung
 62
     7
420
 16777215
370
     9
  0
POLYLINE
  5
4DA
330
1F
100
AcDbEntity
  8
Bema_U+00DFung
 62
     7
420
 16777215
370
     9
100
AcDb2dPolyline
 66
     1
 10
0.0
 20
0.0
 30
0.0
  0
VERTEX
  5
4DB
330
4DA
100
AcDbEntity
  8
Bema_U+00DFung
 62
     7
420
 16777215
370
     9
100
AcDbVertex
100
AcDb2dVertex
 10
32.31293397731402
 20
-13.16716377946218
 30
0.0
  0
VERTEX
  5
4DC
330
4DA
100
AcDbEntity
  8
Bema_U+00DFung
 62
     7
420
 16777215
370
     9
100
AcDbVertex
100
AcDb2dVertex
 10
32.12811537045376
 20
-13.16716377946218
 30
0.0
  0
SEQEND
  5
4DD
330
4DA
100
AcDbEntity
  8
Bema_U+00DFung
 62
     7
420
 16777215
370
     9
  0
POLYLINE
  5
4DE
330
1F
100
AcDbEntity
  8
Bema_U+00DFung
 62
     7
420
 16777215
370
     9
100
AcDb2dPolyline
 66
     1
 10
0.0
 20
0.0
 30
0.0
  0
VERTEX
  5
4DF
330
4DE
100
AcDbEntity
  8
Bema_U+00DFung
 62
     7
420
 16777215
370
     9
100
AcDbVertex
100
AcDb2dVertex
 10
32.31293397731402
 20
-13.16716377946218
 30
0.0
  0
VERTEX
  5
4E0
330
4DE
100
AcDbEntity
  8
Bema_U+00DFung
 62
     7
420
 16777215
370
     9
100
AcDbVertex
100
AcDb2dVertex
 10
32.12811537045376
 20
-13.16716377946218
 30
0.0
  0
SEQEND
  5
4E1
330
4DE
100
AcDbEntity
  8
Bema_U+00DFung
 62
     7
420
 16777215
370
     9
  0
POLYLINE
  5
4E2
330
1F
100
AcDbEntity
  8
Bema_U+00DFung
 62
     7
420
 16777215
370
     9
100
AcDb2dPolyline
 66
     1
 10
0.0
 20
0.0
 30
0.0
  0
VERTEX
  5
4E3
330
4E2
100
AcDbEntity
  8
Bema_U+00DFung
 62
     7
420
 16777215
370
     9
100
AcDbVertex
100
AcDb2dVertex
 10
32.31293397731402
 20
-13.11637015290152
 30
0.0
  0
VERTEX
  5
4E4
330
4E2
100
AcDbEntity
  8
Bema_U+00DFung
 62
     7
420
 16777215
370
     9
100
AcDbVertex
100
AcDb2dVertex
 10
31.74225391018238
 20
-13.11637015290152
 30
0.0
  0
SEQEND
  5
4E5
330
4E2
100
AcDbEntity
  8
Bema_U+00DFung
 62
     7
420
 16777215
370
     9
  0
POLYLINE
  5
4E6
330
1F
100
AcDbEntity
  8
Bema_U+00DFung
 62
     7
420
 16777215
370
     9
100
AcDb2dPolyline
 66
     1
 10
0.0
 20
0.0
 30
0.0
  0
VERTEX
  5
4E7
330
4E6
100
AcDbEntity
  8
Bema_U+00DFung
 62
     7
420
 16777215
370
     9
100
AcDbVertex
100
AcDb2dVertex
 10
32.31293397731402
 20
-13.06555499449409
 30
0.0
  0
VERTEX
  5
4E8
330
4E6
100
AcDbEntity
  8
Bema_U+00DFung
 62
     7
420
 16777215
370
     9
100
AcDbVertex
100
AcDb2dVertex
 10
31.35638706694932
 20
-13.06555499449409
 30
0.0
  0
SEQEND
  5
4E9
330
4E6
100
AcDbEntity
  8
Bema_U+00DFung
 62
     7
420
 16777215
370
     9
  0
POLYLINE
  5
4EA
330
1F
100
AcDbEntity
  8
Bema_U+00DFung
 62
     7
420
 16777215
370
     9
100
AcDb2dPolyline
 66
     1
 10
0.0
 20
0.0
 30
0.0
  0
VERTEX
  5
4EB
330
4EA
100
AcDbEntity
  8
Bema_U+00DFung
 62
     7
420
 16777215
370
     9
100
AcDbVertex
100
AcDb2dVertex
 10
32.31293397731402
 20
-13.01476136793343
 30
0.0
  0
VERTEX
  5
4EC
330
4EA
100
AcDbEntity
  8
Bema_U+00DFung
 62
     7
420
 16777215
370
     9
100
AcDbVertex
100
AcDb2dVertex
 10
30.97052560667794
 20
-13.01476136793343
 30
0.0
  0
SEQEND
  5
4ED
330
4EA
100
AcDbEntity
  8
Bema_U+00DFung
 62
     7
420
 16777215
370
     9
  0
POLYLINE
  5
4EE
330
1F
100
AcDbEntity
  8
Bema_U+00DFung
 62
     7
420
 16777215
370
     9
100
AcDb2dPolyline
 66
     1
 10
0.0
 20
0.0
 30
0.0
  0
VERTEX
  5
4EF
330
4EE
100
AcDbEntity
  8
Bema_U+00DFung
 62
     7
420
 16777215
370
     9
100
AcDbVertex
100
AcDb2dVertex
 10
32.31293397731402
 20
-12.96396774137278
 30
0.0
  0
VERTEX
  5
4F0
330
4EE
100
AcDbEntity
  8
Bema_U+00DFung
 62
     7
420
 16777215
370
     9
100
AcDbVertex
100
AcDb2dVertex
 10
30.58465876344487
 20
-12.96396774137278
 30
0.0
  0
SEQEND
  5
4F1
330
4EE
100
AcDbEntity
  8
Bema_U+00DFung
 62
     7
420
 16777215
370
     9
  0
POLYLINE
  5
4F2
330
1F
100
AcDbEntity
  8
Bema_U+00DFung
 62
     7
420
 16777215
370
     9
100
AcDb2dPolyline
 66
     1
 10
0.0
 20
0.0
 30
0.0
  0
VERTEX
  5
4F3
330
4F2
100
AcDbEntity
  8
Bema_U+00DFung
 62
     7
420
 16777215
370
     9
100
AcDbVertex
100
AcDb2dVertex
 10
32.31293397731402
 20
-12.91317411481213
 30
0.0
  0
VERTEX
  5
4F4
330
4F2
100
AcDbEntity
  8
Bema_U+00DFung
 62
     7
420
 16777215
370
     9
100
AcDbVertex
100
AcDb2dVertex
 10
30.1987973031735
 20
-12.91317411481213
 30
0.0
  0
SEQEND
  5
4F5
330
4F2
100
AcDbEntity
  8
Bema_U+00DFung
 62
     7
420
 16777215
370
     9
  0
POLYLINE
  5
4F6
330
1F
100
AcDbEntity
  8
Bema_U+00DFung
 62
     7
420
 16777215
370
     9
100
AcDb2dPolyline
 66
     1
 10
0.0
 20
0.0
 30
0.0
  0
VERTEX
  5
4F7
330
4F6
100
AcDbEntity
  8
Bema_U+00DFung
 62
     7
420
 16777215
370
     9
100
AcDbVertex
100
AcDb2dVertex
 10
32.31293397731402
 20
-12.86235895640469
 30
0.0
  0
VERTEX
  5
4F8
330
4F6
100
AcDbEntity
  8
Bema_U+00DFung
 62
     7
420
 16777215
370
     9
100
AcDbVertex
100
AcDb2dVertex
 10
29.81293045994043
 20
-12.86235895640469
 30
0.0
  0
SEQEND
  5
4F9
330
4F6
100
AcDbEntity
  8
Bema_U+00DFung
 62
     7
420
 16777215
370
     9
  0
POLYLINE
  5
4FA
330
1F
100
AcDbEntity
  8
Bema_U+00DFung
 62
     7
420
 16777215
370
     9
100
AcDb2dPolyline
 66
     1
 10
0.0
 20
0.0
 30
0.0
  0
VERTEX
  5
4FB
330
4FA
100
AcDbEntity
  8
Bema_U+00DFung
 62
     7
420
 16777215
370
     9
100
AcDbVertex
100
AcDb2dVertex
 10
32.31293397731402
 20
-12.55755413334722
 30
0.0
  0
VERTEX
  5
4FC
330
4FA
100
AcDbEntity
  8
Bema_U+00DFung
 62
     7
420
 16777215
370
     9
100
AcDbVertex
100
AcDb2dVertex
 10
32.12811537045376
 20
-12.55755413334722
 30
0.0
  0
SEQEND
  5
4FD
330
4FA
100
AcDbEntity
  8
Bema_U+00DFung
 62
     7
420
 16777215
370
     9
  0
POLYLINE
  5
4FE
330
1F
100
AcDbEntity
  8
Bema_U+00DFung
 62
     7
420
 16777215
370
     9
100
AcDb2dPolyline
 66
     1
 10
0.0
 20
0.0
 30
0.0
  0
VERTEX
  5
4FF
330
4FE
100
AcDbEntity
  8
Bema_U+00DFung
 62
     7
420
 16777215
370
     9
100
AcDbVertex
100
AcDb2dVertex
 10
32.31293397731402
 20
-12.55755413334722
 30
0.0
  0
VERTEX
  5
500
330
4FE
100
AcDbEntity
  8
Bema_U+00DFung
 62
     7
420
 16777215
370
     9
100
AcDbVertex
100
AcDb2dVertex
 10
32.12811537045376
 20
-12.55755413334722
 30
0.0
  0
SEQEND
  5
501
330
4FE
100
AcDbEntity
  8
Bema_U+00DFung
 62
     7
420
 16777215
370
     9
  0
POLYLINE
  5
502
330
1F
100
AcDbEntity
  8
Bema_U+00DFung
 62
     7
420
 16777215
370
     9
100
AcDb2dPolyline
 66
     1
 10
0.0
 20
0.0
 30
0.0
  0
VERTEX
  5
503
330
502
100
AcDbEntity
  8
Bema_U+00DFung
 62
     7
420
 16777215
370
     9
100
AcDbVertex
100
AcDb2dVertex
 10
32.31293397731402
 20
-12.60836929175465
 30
0.0
  0
VERTEX
  5
504
330
502
100
AcDbEntity
  8
Bema_U+00DFung
 62
     7
420
 16777215
370
     9
100
AcDbVertex
100
AcDb2dVertex
 10
31.74225391018238
 20
-12.60836929175465
 30
0.0
  0
SEQEND
  5
505
330
502
100
AcDbEntity
  8
Bema_U+00DFung
 62
     7
420
 16777215
370
     9
  0
POLYLINE
  5
506
330
1F
100
AcDbEntity
  8
Bema_U+00DFung
 62
     7
420
 16777215
370
     9
100
AcDb2dPolyline
 66
     1
 10
0.0
 20
0.0
 30
0.0
  0
VERTEX
  5
507
330
506
100
AcDbEntity
  8
Bema_U+00DFung
 62
     7
420
 16777215
370
     9
100
AcDbVertex
100
AcDb2dVertex
 10
32.31293397731402
 20
-12.6591629183153
 30
0.0
  0
VERTEX
  5
508
330
506
100
AcDbEntity
  8
Bema_U+00DFung
 62
     7
420
 16777215
370
     9
100
AcDbVertex
100
AcDb2dVertex
 10
31.35638706694932
 20
-12.6591629183153
 30
0.0
  0
SEQEND
  5
509
330
506
100
AcDbEntity
  8
Bema_U+00DFung
 62
     7
420
 16777215
370
     9
  0
POLYLINE
  5
50A
330
1F
100
AcDbEntity
  8
Bema_U+00DFung
 62
     7
420
 16777215
370
     9
100
AcDb2dPolyline
 66
     1
 10
0.0
 20
0.0
 30
0.0
  0
VERTEX
  5
50B
330
50A
100
AcDbEntity
  8
Bema_U+00DFung
 62
     7
420
 16777215
370
     9
100
AcDbVertex
100
AcDb2dVertex
 10
32.31293397731402
 20
-12.70995654487596
 30
0.0
  0
VERTEX
  5
50C
330
50A
100
AcDbEntity
  8
Bema_U+00DFung
 62
     7
420
 16777215
370
     9
100
AcDbVertex
100
AcDb2dVertex
 10
30.97052560667794
 20
-12.70995654487596
 30
0.0
  0
SEQEND
  5
50D
330
50A
100
AcDbEntity
  8
Bema_U+00DFung
 62
     7
420
 16777215
370
     9
  0
POLYLINE
  5
50E
330
1F
100
AcDbEntity
  8
Bema_U+00DFung
 62
     7
420
 16777215
370
     9
100
AcDb2dPolyline
 66
     1
 10
0.0
 20
0.0
 30
0.0
  0
VERTEX
  5
50F
330
50E
100
AcDbEntity
  8
Bema_U+00DFung
 62
     7
420
 16777215
370
     9
100
AcDbVertex
100
AcDb2dVertex
 10
32.31293397731402
 20
-12.76077170328339
 30
0.0
  0
VERTEX
  5
510
330
50E
100
AcDbEntity
  8
Bema_U+00DFung
 62
     7
420
 16777215
370
     9
100
AcDbVertex
100
AcDb2dVertex
 10
30.58465876344487
 20
-12.76077170328339
 30
0.0
  0
SEQEND
  5
511
330
50E
100
AcDbEntity
  8
Bema_U+00DFung
 62
     7
420
 16777215
370
     9
  0
POLYLINE
  5
512
330
1F
100
AcDbEntity
  8
Bema_U+00DFung
 62
     7
420
 16777215
370
     9
100
AcDb2dPolyline
 66
     1
 10
0.0
 20
0.0
 30
0.0
  0
VERTEX
  5
513
330
512
100
AcDbEntity
  8
Bema_U+00DFung
 62
     7
420
 16777215
370
     9
100
AcDbVertex
100
AcDb2dVertex
 10
32.31293397731402
 20
-12.81154379799726
 30
0.0
  0
VERTEX
  5
514
330
512
100
AcDbEntity
  8
Bema_U+00DFung
 62
     7
420
 16777215
370
     9
100
AcDbVertex
100
AcDb2dVertex
 10
30.1987973031735
 20
-12.81154379799726
 30
0.0
  0
SEQEND
  5
515
330
512
100
AcDbEntity
  8
Bema_U+00DFung
 62
     7
420
 16777215
370
     9
  0
POLYLINE
  5
516
330
1F
100
AcDbEntity
  8
Bema_U+00DFung
 62
     7
420
 16777215
370
     9
100
AcDb2dPolyline
 66
     1
 10
0.0
 20
0.0
 30
0.0
  0
VERTEX
  5
517
330
516
100
AcDbEntity
  8
Bema_U+00DFung
 62
     7
420
 16777215
370
     9
100
AcDbVertex
100
AcDb2dVertex
 10
32.31293397731402
 20
-12.86235895640469
 30
0.0
  0
VERTEX
  5
518
330
516
100
AcDbEntity
  8
Bema_U+00DFung
 62
     7
420
 16777215
370
     9
100
AcDbVertex
100
AcDb2dVertex
 10
29.81293045994043
 20
-12.86235895640469
 30
0.0
  0
SEQEND
  5
519
330
516
100
AcDbEntity
  8
Bema_U+00DFung
 62
     7
420
 16777215
370
     9
  0
MTEXT
  5
51B
330
1F
100
AcDbEntity
  8
Text
 62
     7
420
 16777215
100
AcDbMText
 10
17.35750380697019
 20
41.8276432729601
 30
0.0
 40
3.447529173370601
 41
0.0
 46
0.0
 71
     7
 72
     1
  1
\fINDEX Univers 45 Light|b0|i0|c0|p34;\W1;68
 11
6.123233995736766E-17
 21
1.0
 31
0.0
 73
     1
 44
1.0
  0
MTEXT
  5
51C
330
1F
100
AcDbEntity
  8
Text
 62
     7
420
 16777215
100
AcDbMText
 10
201.4577651948644
 20
-22.46171690570363
 30
0.0
 40
3.447529173370601
 41
0.0
 46
0.0
 71
     7
 72
     1
  1
\fINDEX Univers 45 Light|b0|i0|c0|p34;\W1;370
 73
     1
 44
1.0
  0
MTEXT
  5
51D
330
1F
100
AcDbEntity
  8
Text
 62
     7
420
 16777215
100
AcDbMText
 10
7.357468205629049
 20
41.8276432729601
 30
0.0
 40
3.447529173370601
 41
0.0
 46
0.0
 71
     7
 72
     1
  1
\fINDEX Univers 45 Light|b0|i0|c0|p34;\W1;93
 11
6.123233995736766E-17
 21
1.0
 31
0.0
 73
     1
 44
1.0
  0
MTEXT
  5
51E
330
1F
100
AcDbEntity
  8
Text
 62
     7
420
 16777215
100
AcDbMText
 10
67.65008967594815
 20
-12.25830224557544
 30
0.0
 40
3.447529173370601
 41
0.0
 46
0.0
 71
     7
 72
     1
  1
\fINDEX Univers 45 Light|b0|i0|c0|p34;\W1;86,5
 73
     1
 44
1.0
  0
ENDSEC
  0
SECTION
  2
OBJECTS
  0
DICTIONARY
  5
C
330
0
100
AcDbDictionary
281
     1
  3
ACAD_GROUP
350
D
  3
ACAD_LAYOUT
350
1A
  3
ACAD_MATERIAL
350
3B
  3
ACAD_MLEADERSTYLE
350
520
  3
ACAD_MLINESTYLE
350
17
  3
ACAD_PLOTSETTINGS
350
19
  3
ACAD_PLOTSTYLENAME
350
E
  3
ACAD_TABLESTYLE
350
51F
  3
ACAD_VISUALSTYLE
350
2A
  0
SUN
  5
3F
330
29
100
AcDbSun
 90
        1
290
     0
 63
     7
421
 16777215
 40
1.0
291
     1
 91
  2455826
 92
 54000000
292
     0
 70
     2
 71
   256
280
     1
  0
DICTIONARY
  5
D
102
{ACAD_REACTORS
330
C
102
}
330
C
100
AcDbDictionary
281
     1
  0
DICTIONARY
  5
1A
102
{ACAD_REACTORS
330
C
102
}
330
C
100
AcDbDictionary
281
     1
  3
Layout1
350
1E
  3
Layout2
350
26
  3
Model
350
22
  0
DICTIONARY
  5
3B
102
{ACAD_REACTORS
330
C
102
}
330
C
100
AcDbDictionary
281
     1
  3
ByBlock
350
3D
  3
ByLayer
350
3C
  3
Global
350
3E
  0
DICTIONARY
  5
520
102
{ACAD_REACTORS
330
C
102
}
330
C
100
AcDbDictionary
281
     1
  0
DICTIONARY
  5
17
102
{ACAD_REACTORS
330
C
102
}
330
C
100
AcDbDictionary
281
     1
  3
Standard
350
18
  0
DICTIONARY
  5
19
102
{ACAD_REACTORS
330
C
102
}
330
C
100
AcDbDictionary
281
     1
  0
ACDBDICTIONARYWDFLT
  5
E
102
{ACAD_REACTORS
330
C
102
}
330
C
100
AcDbDictionary
281
     1
  3
Normal
350
F
100
AcDbDictionaryWithDefault
340
F
  0
DICTIONARY
  5
51F
102
{ACAD_REACTORS
330
C
102
}
330
C
100
AcDbDictionary
281
     1
  0
DICTIONARY
  5
2A
102
{ACAD_REACTORS
330
C
102
}
330
C
100
AcDbDictionary
281
     1
  3
2dWireframe
350
2F
  3
3D Hidden
350
31
  3
3dWireframe
350
30
  3
Basic
350
32
  3
Brighten
350
36
  3
ColorChange
350
3A
  3
Conceptual
350
34
  3
Dim
350
35
  3
Facepattern
350
39
  3
Flat
350
2B
  3
FlatWithEdges
350
2C
  3
Gouraud
350
2D
  3
GouraudWithEdges
350
2E
  3
Linepattern
350
38
  3
Realistic
350
33
  3
Thicken
350
37
  0
LAYOUT
  5
1E
102
{ACAD_REACTORS
330
1A
102
}
330
1A
100
AcDbPlotSettings
  1

  2
none_device
  4

  6

 40
0.0
 41
0.0
 42
0.0
 43
0.0
 44
0.0
 45
0.0
 46
0.0
 47
0.0
 48
0.0
 49
0.0
140
0.0
141
0.0
142
1.0
143
1.0
 70
   688
 72
     0
 73
     0
 74
     5
  7

 75
    16
 76
     0
 77
     2
 78
   300
147
1.0
148
0.0
149
0.0
100
AcDbLayout
  1
Layout1
 70
     1
 71
     1
 10
0.0
 20
0.0
 11
12.0
 21
9.0
 12
0.0
 22
0.0
 32
0.0
 14
1.000000000000000E+20
 24
1.000000000000000E+20
 34
1.000000000000000E+20
 15
-1.000000000000000E+20
 25
-1.000000000000000E+20
 35
-1.000000000000000E+20
146
0.0
 13
0.0
 23
0.0
 33
0.0
 16
1.0
 26
0.0
 36
0.0
 17
0.0
 27
1.0
 37
0.0
 76
     0
330
1B
  0
LAYOUT
  5
26
102
{ACAD_REACTORS
330
1A
102
}
330
1A
100
AcDbPlotSettings
  1

  2
none_device
  4

  6

 40
0.0
 41
0.0
 42
0.0
 43
0.0
 44
0.0
 45
0.0
 46
0.0
 47
0.0
 48
0.0
 49
0.0
140
0.0
141
0.0
142
1.0
143
1.0
 70
   688
 72
     0
 73
     0
 74
     5
  7

 75
    16
 76
     0
 77
     2
 78
   300
147
1.0
148
0.0
149
0.0
100
AcDbLayout
  1
Layout2
 70
     1
 71
     2
 10
0.0
 20
0.0
 11
0.0
 21
0.0
 12
0.0
 22
0.0
 32
0.0
 14
0.0
 24
0.0
 34
0.0
 15
0.0
 25
0.0
 35
0.0
146
0.0
 13
0.0
 23
0.0
 33
0.0
 16
1.0
 26
0.0
 36
0.0
 17
0.0
 27
1.0
 37
0.0
 76
     0
330
23
  0
LAYOUT
  5
22
102
{ACAD_REACTORS
330
1A
102
}
330
1A
100
AcDbPlotSettings
  1

  2
none_device
  4

  6

 40
0.0
 41
0.0
 42
0.0
 43
0.0
 44
0.0
 45
0.0
 46
0.0
 47
0.0
 48
0.0
 49
0.0
140
0.0
141
0.0
142
1.0
143
1.0
 70
  1712
 72
     0
 73
     0
 74
     0
  7

 75
     0
 76
     0
 77
     2
 78
   300
147
1.0
148
0.0
149
0.0
100
AcDbLayout
  1
Model
 70
     1
 71
     0
 10
0.0
 20
0.0
 11
12.0
 21
9.0
 12
0.0
 22
0.0
 32
0.0
 14
1.000000000000000E+20
 24
1.000000000000000E+20
 34
1.000000000000000E+20
 15
-1.000000000000000E+20
 25
-1.000000000000000E+20
 35
-1.000000000000000E+20
146
0.0
 13
0.0
 23
0.0
 33
0.0
 16
1.0
 26
0.0
 36
0.0
 17
0.0
 27
1.0
 37
0.0
 76
     0
330
1F
331
29
  0
MATERIAL
  5
3D
102
{ACAD_REACTORS
330
3B
102
}
330
3B
100
AcDbMaterial
  1
ByBlock
 72
     1
 94
      127
  0
MATERIAL
  5
3C
102
{ACAD_REACTORS
330
3B
102
}
330
3B
100
AcDbMaterial
  1
ByLayer
 72
     1
 94
      127
  0
MATERIAL
  5
3E
102
{ACAD_REACTORS
330
3B
102
}
330
3B
100
AcDbMaterial
  1
Global
 72
     1
 94
      127
  0
MLINESTYLE
  5
18
102
{ACAD_REACTORS
330
17
102
}
330
17
100
AcDbMlineStyle
  2
Standard
 70
     0
  3

 62
   256
 51
90.0
 52
90.0
 71
     2
 49
0.5
 62
   256
  6
BYLAYER
 49
-0.5
 62
   256
  6
BYLAYER
  0
ACDBPLACEHOLDER
  5
F
102
{ACAD_REACTORS
330
E
102
}
330
E
  0
VISUALSTYLE
  5
2F
102
{ACAD_REACTORS
330
2A
102
}
330
2A
100
AcDbVisualStyle
  2
2dWireframe
 70
     4
177
     2
291
     0
 71
     0
176
     1
 72
     2
176
     1
 73
     0
176
     1
 90
        0
176
     1
 40
-0.6
176
     1
 41
-30.0
176
     1
 62
     5
 63
     7
421
 16777215
176
     1
 74
     1
176
     1
 91
        4
176
     1
 64
     7
176
     1
 65
   257
176
     1
 75
     1
176
     1
175
     1
176
     1
 42
1.0
176
     1
 92
        0
176
     1
 66
   257
176
     1
 43
1.0
176
     1
 76
     1
176
     1
 77
     6
176
     1
 78
     2
176
     1
 67
     7
176
     1
 79
     5
176
     1
170
     0
176
     1
171
     0
176
     1
290
     0
176
     1
 93
        1
176
     1
 44
0.0
176
     1
173
     0
176
     1
  0
VISUALSTYLE
  5
31
102
{ACAD_REACTORS
330
2A
102
}
330
2A
100
AcDbVisualStyle
  2
3D Hidden
 70
     6
177
     2
291
     0
 71
     1
176
     1
 72
     2
176
     1
 73
     2
176
     1
 90
        0
176
     1
 40
-0.6
176
     1
 41
-30.0
176
     1
 62
     5
 63
     7
421
 16777215
176
     1
 74
     2
176
     1
 91
        2
176
     1
 64
     7
176
     1
 65
   257
176
     1
 75
     2
176
     1
175
     1
176
     1
 42
40.0
176
     1
 92
        0
176
     1
 66
   257
176
     1
 43
1.0
176
     1
 76
     1
176
     1
 77
     6
176
     1
 78
     2
176
     1
 67
     7
176
     1
 79
     3
176
     1
170
     0
176
     1
171
     0
176
     1
290
     0
176
     1
 93
        1
176
     1
 44
0.0
176
     1
173
     0
176
     1
  0
VISUALSTYLE
  5
30
102
{ACAD_REACTORS
330
2A
102
}
330
2A
100
AcDbVisualStyle
  2
3dWireframe
 70
     5
177
     2
291
     0
 71
     0
176
     1
 72
     2
176
     1
 73
     0
176
     1
 90
        0
176
     1
 40
-0.6
176
     1
 41
-30.0
176
     1
 62
     5
 63
     7
421
 16777215
176
     1
 74
     1
176
     1
 91
        4
176
     1
 64
     7
176
     1
 65
   257
176
     1
 75
     1
176
     1
175
     1
176
     1
 42
1.0
176
     1
 92
        0
176
     1
 66
   257
176
     1
 43
1.0
176
     1
 76
     1
176
     1
 77
     6
176
     1
 78
     2
176
     1
 67
     7
176
     1
 79
     5
176
     1
170
     0
176
     1
171
     0
176
     1
290
     0
176
     1
 93
        1
176
     1
 44
0.0
176
     1
173
     0
176
     1
  0
VISUALSTYLE
  5
32
102
{ACAD_REACTORS
330
2A
102
}
330
2A
100
AcDbVisualStyle
  2
Basic
 70
     7
177
     2
291
     1
 71
     1
176
     1
 72
     0
176
     1
 73
     1
176
     1
 90
        0
176
     1
 40
-0.6
176
     1
 41
-30.0
176
     1
 62
     5
 63
     7
421
 16777215
176
     1
 74
     0
176
     1
 91
        4
176
     1
 64
     7
176
     1
 65
   257
176
     1
 75
     1
176
     1
175
     1
176
     1
 42
1.0
176
     1
 92
        8
176
     1
 66
     7
176
     1
 43
1.0
176
     1
 76
     1
176
     1
 77
     6
176
     1
 78
     2
176
     1
 67
     7
176
     1
 79
     5
176
     1
170
     0
176
     1
171
     0
176
     1
290
     0
176
     1
 93
        1
176
     1
 44
0.0
176
     1
173
     0
176
     1
  0
VISUALSTYLE
  5
36
102
{ACAD_REACTORS
330
2A
102
}
330
2A
100
AcDbVisualStyle
  2
Brighten
 70
    12
177
     2
291
     1
 71
     2
176
     1
 72
     2
176
     1
 73
     0
176
     1
 90
        0
176
     1
 40
-0.6
176
     1
 41
-30.0
176
     1
 62
     5
 63
     7
421
 16777215
176
     1
 74
     1
176
     1
 91
        4
176
     1
 64
     7
176
     1
 65
   257
176
     1
 75
     1
176
     1
175
     1
176
     1
 42
1.0
176
     1
 92
        8
176
     1
 66
     7
176
     1
 43
1.0
176
     1
 76
     1
176
     1
 77
     6
176
     1
 78
     2
176
     1
 67
     7
176
     1
 79
     5
176
     1
170
     0
176
     1
171
     0
176
     1
290
     0
176
     1
 93
        1
176
     1
 44
50.0
176
     1
173
     0
176
     1
  0
VISUALSTYLE
  5
3A
102
{ACAD_REACTORS
330
2A
102
}
330
2A
100
AcDbVisualStyle
  2
ColorChange
 70
    16
177
     2
291
     1
 71
     2
176
     1
 72
     2
176
     1
 73
     3
176
     1
 90
        0
176
     1
 40
-0.6
176
     1
 41
-30.0
176
     1
 62
     5
 63
     8
421
  8421504
176
     1
 74
     1
176
     1
 91
        4
176
     1
 64
     7
176
     1
 65
   257
176
     1
 75
     1
176
     1
175
     1
176
     1
 42
1.0
176
     1
 92
        8
176
     1
 66
     8
424
  8421504
176
     1
 43
1.0
176
     1
 76
     1
176
     1
 77
     6
176
     1
 78
     2
176
     1
 67
     7
176
     1
 79
     5
176
     1
170
     0
176
     1
171
     0
176
     1
290
     0
176
     1
 93
        1
176
     1
 44
0.0
176
     1
173
     0
176
     1
  0
VISUALSTYLE
  5
34
102
{ACAD_REACTORS
330
2A
102
}
330
2A
100
AcDbVisualStyle
  2
Conceptual
 70
     9
177
     2
291
     0
 71
     3
176
     1
 72
     2
176
     1
 73
     0
176
     1
 90
        0
176
     1
 40
-0.6
176
     1
 41
-30.0
176
     1
 62
     5
 63
     7
421
 16777215
176
     1
 74
     2
176
     1
 91
        2
176
     1
 64
     7
176
     1
 65
   257
176
     1
 75
     1
176
     1
175
     1
176
     1
 42
40.0
176
     1
 92
        8
176
     1
 66
     7
176
     1
 43
1.0
176
     1
 76
     1
176
     1
 77
     6
176
     1
 78
     2
176
     1
 67
     7
176
     1
 79
     3
176
     1
170
     0
176
     1
171
     0
176
     1
290
     0
176
     1
 93
        1
176
     1
 44
0.0
176
     1
173
     0
176
     1
  0
VISUALSTYLE
  5
35
102
{ACAD_REACTORS
330
2A
102
}
330
2A
100
AcDbVisualStyle
  2
Dim
 70
    11
177
     2
291
     1
 71
     2
176
     1
 72
     2
176
     1
 73
     0
176
     1
 90
        0
176
     1
 40
-0.6
176
     1
 41
-30.0
176
     1
 62
     5
 63
     7
421
 16777215
176
     1
 74
     1
176
     1
 91
        4
176
     1
 64
     7
176
     1
 65
   257
176
     1
 75
     1
176
     1
175
     1
176
     1
 42
1.0
176
     1
 92
        8
176
     1
 66
     7
176
     1
 43
1.0
176
     1
 76
     1
176
     1
 77
     6
176
     1
 78
     2
176
     1
 67
     7
176
     1
 79
     5
176
     1
170
     0
176
     1
171
     0
176
     1
290
     0
176
     1
 93
        1
176
     1
 44
-50.0
176
     1
173
     0
176
     1
  0
VISUALSTYLE
  5
39
102
{ACAD_REACTORS
330
2A
102
}
330
2A
100
AcDbVisualStyle
  2
Facepattern
 70
    15
177
     2
291
     1
 71
     2
176
     1
 72
     2
176
     1
 73
     0
176
     1
 90
        0
176
     1
 40
-0.6
176
     1
 41
-30.0
176
     1
 62
     5
 63
     7
421
 16777215
176
     1
 74
     1
176
     1
 91
        4
176
     1
 64
     7
176
     1
 65
   257
176
     1
 75
     1
176
     1
175
     1
176
     1
 42
1.0
176
     1
 92
        8
176
     1
 66
     7
176
     1
 43
1.0
176
     1
 76
     1
176
     1
 77
     6
176
     1
 78
     2
176
     1
 67
     7
176
     1
 79
     5
176
     1
170
     0
176
     1
171
     0
176
     1
290
     0
176
     1
 93
        1
176
     1
 44
0.0
176
     1
173
     0
176
     1
  0
VISUALSTYLE
  5
2B
102
{ACAD_REACTORS
330
2A
102
}
330
2A
100
AcDbVisualStyle
  2
Flat
 70
     0
177
     2
291
     1
 71
     2
176
     1
 72
     1
176
     1
 73
     1
176
     1
 90
        2
176
     1
 40
-0.6
176
     1
 41
30.0
176
     1
 62
     5
 63
     7
421
 16777215
176
     1
 74
     0
176
     1
 91
        4
176
     1
 64
     7
176
     1
 65
   257
176
     1
 75
     1
176
     1
175
     1
176
     1
 42
1.0
176
     1
 92
        8
176
     1
 66
     7
176
     1
 43
1.0
176
     1
 76
     1
176
     1
 77
     6
176
     1
 78
     2
176
     1
 67
     7
176
     1
 79
     5
176
     1
170
     0
176
     1
171
     0
176
     1
290
     0
176
     1
 93
       13
176
     1
 44
0.0
176
     1
173
     0
176
     1
  0
VISUALSTYLE
  5
2C
102
{ACAD_REACTORS
330
2A
102
}
330
2A
100
AcDbVisualStyle
  2
FlatWithEdges
 70
     1
177
     2
291
     1
 71
     2
176
     1
 72
     1
176
     1
 73
     1
176
     1
 90
        2
176
     1
 40
-0.6
176
     1
 41
30.0
176
     1
 62
     5
 63
     7
421
 16777215
176
     1
 74
     1
176
     1
 91
        4
176
     1
 64
     7
176
     1
 65
   257
176
     1
 75
     1
176
     1
175
     1
176
     1
 42
1.0
176
     1
 92
        0
176
     1
 66
   257
176
     1
 43
1.0
176
     1
 76
     1
176
     1
 77
     6
176
     1
 78
     2
176
     1
 67
     7
176
     1
 79
     5
176
     1
170
     0
176
     1
171
     0
176
     1
290
     0
176
     1
 93
       13
176
     1
 44
0.0
176
     1
173
     0
176
     1
  0
VISUALSTYLE
  5
2D
102
{ACAD_REACTORS
330
2A
102
}
330
2A
100
AcDbVisualStyle
  2
Gouraud
 70
     2
177
     2
291
     1
 71
     2
176
     1
 72
     2
176
     1
 73
     1
176
     1
 90
        2
176
     1
 40
-0.6
176
     1
 41
30.0
176
     1
 62
     5
 63
     7
421
 16777215
176
     1
 74
     0
176
     1
 91
        4
176
     1
 64
     7
176
     1
 65
   257
176
     1
 75
     1
176
     1
175
     1
176
     1
 42
1.0
176
     1
 92
        0
176
     1
 66
     7
176
     1
 43
1.0
176
     1
 76
     1
176
     1
 77
     6
176
     1
 78
     2
176
     1
 67
     7
176
     1
 79
     5
176
     1
170
     0
176
     1
171
     0
176
     1
290
     0
176
     1
 93
       13
176
     1
 44
0.0
176
     1
173
     0
176
     1
  0
VISUALSTYLE
  5
2E
102
{ACAD_REACTORS
330
2A
102
}
330
2A
100
AcDbVisualStyle
  2
GouraudWithEdges
 70
     3
177
     2
291
     1
 71
     2
176
     1
 72
     2
176
     1
 73
     1
176
     1
 90
        2
176
     1
 40
-0.6
176
     1
 41
30.0
176
     1
 62
     5
 63
     7
421
 16777215
176
     1
 74
     1
176
     1
 91
        4
176
     1
 64
     7
176
     1
 65
   257
176
     1
 75
     1
176
     1
175
     1
176
     1
 42
1.0
176
     1
 92
        0
176
     1
 66
   257
176
     1
 43
1.0
176
     1
 76
     1
176
     1
 77
     6
176
     1
 78
     2
176
     1
 67
     7
176
     1
 79
     5
176
     1
170
     0
176
     1
171
     0
176
     1
290
     0
176
     1
 93
       13
176
     1
 44
0.0
176
     1
173
     0
176
     1
  0
VISUALSTYLE
  5
38
102
{ACAD_REACTORS
330
2A
102
}
330
2A
100
AcDbVisualStyle
  2
Linepattern
 70
    14
177
     2
291
     1
 71
     2
176
     1
 72
     2
176
     1
 73
     0
176
     1
 90
        0
176
     1
 40
-0.6
176
     1
 41
-30.0
176
     1
 62
     5
 63
     7
421
 16777215
176
     1
 74
     1
176
     1
 91
        4
176
     1
 64
     7
176
     1
 65
   257
176
     1
 75
     7
176
     1
175
     7
176
     1
 42
1.0
176
     1
 92
        8
176
     1
 66
     7
176
     1
 43
1.0
176
     1
 76
     1
176
     1
 77
     6
176
     1
 78
     2
176
     1
 67
     7
176
     1
 79
     5
176
     1
170
     0
176
     1
171
     0
176
     1
290
     0
176
     1
 93
        1
176
     1
 44
0.0
176
     1
173
     0
176
     1
  0
VISUALSTYLE
  5
33
102
{ACAD_REACTORS
330
2A
102
}
330
2A
100
AcDbVisualStyle
  2
Realistic
 70
     8
177
     2
291
     0
 71
     2
176
     1
 72
     2
176
     1
 73
     0
176
     1
 90
        0
176
     1
 40
-0.6
176
     1
 41
-30.0
176
     1
 62
     5
 63
     7
421
 16777215
176
     1
 74
     1
176
     1
 91
        0
176
     1
 64
     7
176
     1
 65
   257
176
     1
 75
     1
176
     1
175
     1
176
     1
 42
1.0
176
     1
 92
        8
176
     1
 66
     8
424
  7895160
176
     1
 43
1.0
176
     1
 76
     1
176
     1
 77
     6
176
     1
 78
     2
176
     1
 67
     7
176
     1
 79
     5
176
     1
170
     0
176
     1
171
     0
176
     1
290
     0
176
     1
 93
       13
176
     1
 44
0.0
176
     1
173
     0
176
     1
  0
VISUALSTYLE
  5
37
102
{ACAD_REACTORS
330
2A
102
}
330
2A
100
AcDbVisualStyle
  2
Thicken
 70
    13
177
     2
291
     1
 71
     2
176
     1
 72
     2
176
     1
 73
     0
176
     1
 90
        0
176
     1
 40
-0.6
176
     1
 41
-30.0
176
     1
 62
     5
 63
     7
421
 16777215
176
     1
 74
     1
176
     1
 91
        4
176
     1
 64
     7
176
     1
 65
   257
176
     1
 75
     1
176
     1
175
     1
176
     1
 42
1.0
176
     1
 92
       12
176
     1
 66
     7
176
     1
 43
1.0
176
     1
 76
     1
176
     1
 77
     6
176
     1
 78
     2
176
     1
 67
     7
176
     1
 79
     5
176
     1
170
     0
176
     1
171
     0
176
     1
290
     0
176
     1
 93
        1
176
     1
 44
0.0
176
     1
173
     0
176
     1
  0
ENDSEC
  0
EOF
