  0
SECTION
  2
HEADER
  9
$ACADVER
  1
AC1032
  9
$ACADMAINTVER
 90
      228
  9
$DWGCODEPAGE
  3
ANSI_1252
  9
$REQUIREDVERSIONS
160
                 0
  9
$INSBASE
 10
0.0
 20
0.0
 30
0.0
  9
$EXTMIN
 10
1.000000000000000E+20
 20
1.000000000000000E+20
 30
1.000000000000000E+20
  9
$EXTMAX
 10
-1.000000000000000E+20
 20
-1.000000000000000E+20
 30
-1.000000000000000E+20
  9
$LIMMIN
 10
0.0
 20
0.0
  9
$LIMMAX
 10
12.0
 20
9.0
  9
$ORTHOMODE
 70
     0
  9
$REGENMODE
 70
     1
  9
$FILLMODE
 70
     1
  9
$QTEXTMODE
 70
     0
  9
$MIRRTEXT
 70
     0
  9
$LTSCALE
 40
1.0
  9
$ATTMODE
 70
     1
  9
$TEXTSIZE
 40
0.2
  9
$TRACEWID
 40
0.05
  9
$TEXTSTYLE
  7
Standard
  9
$CLAYER
  8
0
  9
$CELTYPE
  6
ByLayer
  9
$CECOLOR
 62
   256
  9
$CELTSCALE
 40
1.0
  9
$DISPSILH
 70
     0
  9
$DIMSCALE
 40
1.0
  9
$DIMASZ
 40
0.18
  9
$DIMEXO
 40
0.0625
  9
$DIMDLI
 40
0.38
  9
$DIMRND
 40
0.0
  9
$DIMDLE
 40
0.0
  9
$DIMEXE
 40
0.18
  9
$DIMTP
 40
0.0
  9
$DIMTM
 40
0.0
  9
$DIMTXT
 40
0.18
  9
$DIMCEN
 40
0.09
  9
$DIMTSZ
 40
0.0
  9
$DIMTOL
 70
     0
  9
$DIMLIM
 70
     0
  9
$DIMTIH
 70
     1
  9
$DIMTOH
 70
     1
  9
$DIMSE1
 70
     0
  9
$DIMSE2
 70
     0
  9
$DIMTAD
 70
     0
  9
$DIMZIN
 70
     0
  9
$DIMBLK
  1

  9
$DIMASO
 70
     1
  9
$DIMSHO
 70
     1
  9
$DIMPOST
  1

  9
$DIMAPOST
  1

  9
$DIMALT
 70
     0
  9
$DIMALTD
 70
     2
  9
$DIMALTF
 40
25.4
  9
$DIMLFAC
 40
1.0
  9
$DIMTOFL
 70
     0
  9
$DIMTVP
 40
0.0
  9
$DIMTIX
 70
     0
  9
$DIMSOXD
 70
     0
  9
$DIMSAH
 70
     0
  9
$DIMBLK1
  1

  9
$DIMBLK2
  1

  9
$DIMSTYLE
  2
Standard
  9
$DIMCLRD
 70
     0
  9
$DIMCLRE
 70
     0
  9
$DIMCLRT
 70
     0
  9
$DIMTFAC
 40
1.0
  9
$DIMGAP
 40
0.09
  9
$DIMJUST
 70
     0
  9
$DIMSD1
 70
     0
  9
$DIMSD2
 70
     0
  9
$DIMTOLJ
 70
     1
  9
$DIMTZIN
 70
     0
  9
$DIMALTZ
 70
     0
  9
$DIMALTTZ
 70
     0
  9
$DIMUPT
 70
     0
  9
$DIMDEC
 70
     4
  9
$DIMTDEC
 70
     4
  9
$DIMALTU
 70
     2
  9
$DIMALTTD
 70
     2
  9
$DIMTXSTY
  7
Standard
  9
$DIMAUNIT
 70
     0
  9
$DIMADEC
 70
     0
  9
$DIMALTRND
 40
0.0
  9
$DIMAZIN
 70
     0
  9
$DIMDSEP
 70
    46
  9
$DIMATFIT
 70
     3
  9
$DIMFRAC
 70
     0
  9
$DIMLDRBLK
  1

  9
$DIMLUNIT
 70
     2
  9
$DIMLWD
 70
    -2
  9
$DIMLWE
 70
    -2
  9
$DIMTMOVE
 70
     0
  9
$DIMFXL
 40
1.0
  9
$DIMFXLON
 70
     0
  9
$DIMJOGANG
 40
0.7853981633974483
  9
$DIMTFILL
 70
     0
  9
$DIMTFILLCLR
 70
     0
  9
$DIMARCSYM
 70
     0
  9
$DIMLTYPE
  6

  9
$DIMLTEX1
  6

  9
$DIMLTEX2
  6

  9
$DIMTXTDIRECTION
 70
     0
  9
$LUNITS
 70
     2
  9
$LUPREC
 70
     4
  9
$SKETCHINC
 40
0.1
  9
$FILLETRAD
 40
0.0
  9
$AUNITS
 70
     0
  9
$AUPREC
 70
     0
  9
$MENU
  1
.
  9
$ELEVATION
 40
0.0
  9
$PELEVATION
 40
0.0
  9
$THICKNESS
 40
0.0
  9
$LIMCHECK
 70
     0
  9
$CHAMFERA
 40
0.0
  9
$CHAMFERB
 40
0.0
  9
$CHAMFERC
 40
0.0
  9
$CHAMFERD
 40
0.0
  9
$SKPOLY
 70
     0
  9
$TDCREATE
 40
2460101.432777778
  9
$TDUCREATE
 40
2460101.349444444
  9
$TDUPDATE
 40
2460101.432777778
  9
$TDUUPDATE
 40
2460101.349444444
  9
$TDINDWG
 40
0.0000000000
  9
$TDUSRTIMER
 40
0.0000000000
  9
$USRTIMER
 70
     1
  9
$ANGBASE
 50
0.0
  9
$ANGDIR
 70
     0
  9
$PDMODE
 70
     0
  9
$PDSIZE
 40
0.0
  9
$PLINEWID
 40
0.0
  9
$SPLFRAME
 70
     0
  9
$SPLINETYPE
 70
     6
  9
$SPLINESEGS
 70
     8
  9
$HANDSEED
  5
2B0
  9
$SURFTAB1
 70
     6
  9
$SURFTAB2
 70
     6
  9
$SURFTYPE
 70
     6
  9
$SURFU
 70
     6
  9
$SURFV
 70
     6
  9
$UCSBASE
  2

  9
$UCSNAME
  2

  9
$UCSORG
 10
0.0
 20
0.0
 30
0.0
  9
$UCSXDIR
 10
1.0
 20
0.0
 30
0.0
  9
$UCSYDIR
 10
0.0
 20
1.0
 30
0.0
  9
$UCSORTHOREF
  2

  9
$UCSORTHOVIEW
 70
     0
  9
$UCSORGTOP
 10
0.0
 20
0.0
 30
0.0
  9
$UCSORGBOTTOM
 10
0.0
 20
0.0
 30
0.0
  9
$UCSORGLEFT
 10
0.0
 20
0.0
 30
0.0
  9
$UCSORGRIGHT
 10
0.0
 20
0.0
 30
0.0
  9
$UCSORGFRONT
 10
0.0
 20
0.0
 30
0.0
  9
$UCSORGBACK
 10
0.0
 20
0.0
 30
0.0
  9
$PUCSBASE
  2

  9
$PUCSNAME
  2

  9
$PUCSORG
 10
0.0
 20
0.0
 30
0.0
  9
$PUCSXDIR
 10
1.0
 20
0.0
 30
0.0
  9
$PUCSYDIR
 10
0.0
 20
1.0
 30
0.0
  9
$PUCSORTHOREF
  2

  9
$PUCSORTHOVIEW
 70
     0
  9
$PUCSORGTOP
 10
0.0
 20
0.0
 30
0.0
  9
$PUCSORGBOTTOM
 10
0.0
 20
0.0
 30
0.0
  9
$PUCSORGLEFT
 10
0.0
 20
0.0
 30
0.0
  9
$PUCSORGRIGHT
 10
0.0
 20
0.0
 30
0.0
  9
$PUCSORGFRONT
 10
0.0
 20
0.0
 30
0.0
  9
$PUCSORGBACK
 10
0.0
 20
0.0
 30
0.0
  9
$USERI1
 70
     0
  9
$USERI2
 70
     0
  9
$USERI3
 70
     0
  9
$USERI4
 70
     0
  9
$USERI5
 70
     0
  9
$USERR1
 40
0.0
  9
$USERR2
 40
0.0
  9
$USERR3
 40
0.0
  9
$USERR4
 40
0.0
  9
$USERR5
 40
0.0
  9
$WORLDVIEW
 70
     1
  9
$SHADEDGE
 70
     3
  9
$SHADEDIF
 70
    70
  9
$TILEMODE
 70
     1
  9
$MAXACTVP
 70
    64
  9
$PINSBASE
 10
0.0
 20
0.0
 30
0.0
  9
$PLIMCHECK
 70
     0
  9
$PEXTMIN
 10
1.000000000000000E+20
 20
1.000000000000000E+20
 30
1.000000000000000E+20
  9
$PEXTMAX
 10
-1.000000000000000E+20
 20
-1.000000000000000E+20
 30
-1.000000000000000E+20
  9
$PLIMMIN
 10
0.0
 20
0.0
  9
$PLIMMAX
 10
12.0
 20
9.0
  9
$UNITMODE
 70
     0
  9
$VISRETAIN
 70
     1
  9
$PLINEGEN
 70
     0
  9
$PSLTSCALE
 70
     1
  9
$TREEDEPTH
 70
  3020
  9
$CMLSTYLE
  2
Standard
  9
$CMLJUST
 70
     0
  9
$CMLSCALE
 40
1.0
  9
$PROXYGRAPHICS
 70
     1
  9
$MEASUREMENT
 70
     0
  9
$CELWEIGHT
370
    -1
  9
$ENDCAPS
280
     0
  9
$JOINSTYLE
280
     0
  9
$LWDISPLAY
290
     1
  9
$INSUNITS
 70
     4
  9
$HYPERLINKBASE
  1

  9
$STYLESHEET
  1

  9
$XEDIT
290
     1
  9
$CEPSNTYPE
380
     0
  9
$PSTYLEMODE
290
     1
  9
$FINGERPRINTGUID
  2
{9793EFD8-F04F-594B-94DA-3D1A04695E65}
  9
$VERSIONGUID
  2
{8DE3D99E-2A1D-2741-9BE7-D829E6BE93FF}
  9
$EXTNAMES
290
     1
  9
$PSVPSCALE
 40
0.0
  9
$OLESTARTUP
290
     0
  9
$SORTENTS
280
   127
  9
$INDEXCTL
280
     0
  9
$HIDETEXT
280
     1
  9
$XCLIPFRAME
280
     2
  9
$HALOGAP
280
     0
  9
$OBSCOLOR
 70
   257
  9
$OBSLTYPE
280
     0
  9
$INTERSECTIONDISPLAY
280
     0
  9
$INTERSECTIONCOLOR
 70
   257
  9
$DIMASSOC
280
     2
  9
$PROJECTNAME
  1

  9
$CAMERADISPLAY
290
     0
  9
$LENSLENGTH
 40
50.0
  9
$CAMERAHEIGHT
 40
0.0
  9
$STEPSPERSEC
 40
2.0
  9
$STEPSIZE
 40
6.0
  9
$3DDWFPREC
 40
2.0
  9
$PSOLWIDTH
 40
0.25
  9
$PSOLHEIGHT
 40
4.0
  9
$LOFTANG1
 40
1.570796326794896
  9
$LOFTANG2
 40
1.570796326794896
  9
$LOFTMAG1
 40
0.0
  9
$LOFTMAG2
 40
0.0
  9
$LOFTPARAM
 70
     7
  9
$LOFTNORMALS
280
     1
  9
$LATITUDE
 40
37.795
  9
$LONGITUDE
 40
-122.394
  9
$NORTHDIRECTION
 40
0.0
  9
$TIMEZONE
 70
 -8000
  9
$LIGHTGLYPHDISPLAY
280
     1
  9
$TILEMODELIGHTSYNCH
280
     1
  9
$CMATERIAL
347
11
  9
$SOLIDHIST
280
     0
  9
$SHOWHIST
280
     1
  9
$DWFFRAME
280
     2
  9
$DGNFRAME
280
     0
  9
$REALWORLDSCALE
290
     1
  9
$INTERFERECOLOR
 62
     1
  9
$INTERFEREOBJVS
345
33
  9
$INTERFEREVPVS
346
30
  9
$CSHADOW
280
     0
  9
$SHADOWPLANELOCATION
 40
0.0
  0
ENDSEC
  0
SECTION
  2
CLASSES
  0
CLASS
  1
ACDBDICTIONARYWDFLT
  2
AcDbDictionaryWithDefault
  3
ObjectDBX Classes
 90
        0
 91
        1
280
     0
281
     0
  0
CLASS
  1
MATERIAL
  2
AcDbMaterial
  3
ObjectDBX Classes
 90
     1153
 91
        3
280
     0
281
     0
  0
CLASS
  1
VISUALSTYLE
  2
AcDbVisualStyle
  3
ObjectDBX Classes
 90
     4095
 91
       24
280
     0
281
     0
  0
CLASS
  1
SCALE
  2
AcDbScale
  3
ObjectDBX Classes
 90
     1153
 91
       17
280
     0
281
     0
  0
CLASS
  1
TABLESTYLE
  2
AcDbTableStyle
  3
ObjectDBX Classes
 90
     4095
 91
        1
280
     0
281
     0
  0
CLASS
  1
MLEADERSTYLE
  2
AcDbMLeaderStyle
  3
ACDB_MLEADERSTYLE_CLASS
 90
     4095
 91
        1
280
     0
281
     0
  0
CLASS
  1
ACDBSECTIONVIEWSTYLE
  2
AcDbSectionViewStyle
  3
ObjectDBX Classes
 90
     1025
 91
        1
280
     0
281
     0
  0
CLASS
  1
ACDBDETAILVIEWSTYLE
  2
AcDbDetailViewStyle
  3
ObjectDBX Classes
 90
     1025
 91
        1
280
     0
281
     0
  0
CLASS
  1
DICTIONARYVAR
  2
AcDbDictionaryVar
  3
ObjectDBX Classes
 90
        0
 91
        5
280
     0
281
     0
  0
CLASS
  1
CELLSTYLEMAP
  2
AcDbCellStyleMap
  3
ObjectDBX Classes
 90
     1152
 91
        1
280
     0
281
     0
  0
ENDSEC
  0
SECTION
  2
TABLES
  0
TABLE
  2
VPORT
  5
8
330
0
100
AcDbSymbolTable
 70
     1
  0
VPORT
  5
57
330
8
100
AcDbSymbolTableRecord
100
AcDbViewportTableRecord
  2
*Active
 70
     0
 10
0.0
 20
0.0
 11
1.0
 21
1.0
 12
0.0
 22
0.0
 13
0.0
 23
0.0
 14
1.0
 24
1.0
 15
0.0
 25
0.0
 16
0.0
 26
0.0
 36
1.0
 17
-79.51625220234365
 27
-102.2006394188938
 37
0.0
 40
183.6047747724328
 41
0.9292947315165324
 42
50.0
 43
0.0
 44
0.0
 50
0.0
 51
0.0
 71
     0
 72
   100
 73
     1
 74
     1
 75
     0
 76
     0
 77
     0
 78
     0
281
     0
 65
     1
110
0.0
120
0.0
130
0.0
111
1.0
121
0.0
131
0.0
112
0.0
122
1.0
132
0.0
 79
     0
146
0.0
 60
     3
 61
     5
292
     1
282
     1
141
0.0
142
0.0
 63
   250
421
  3355443
  0
ENDTAB
  0
TABLE
  2
LTYPE
  5
5
330
0
100
AcDbSymbolTable
 70
     6
  0
LTYPE
  5
5B
330
5
100
AcDbSymbolTableRecord
100
AcDbLinetypeTableRecord
  2
ByBlock
 70
     0
  3

 72
    65
 73
     0
 40
0.0
  0
LTYPE
  5
5C
330
5
100
AcDbSymbolTableRecord
100
AcDbLinetypeTableRecord
  2
ByLayer
 70
     0
  3

 72
    65
 73
     0
 40
0.0
  0
LTYPE
  5
5D
330
5
100
AcDbSymbolTableRecord
100
AcDbLinetypeTableRecord
  2
Continuous
 70
     0
  3
Solid line
 72
    65
 73
     0
 40
0.0
  0
LTYPE
  5
124
330
5
100
AcDbSymbolTableRecord
100
AcDbLinetypeTableRecord
  2
AI-Linetype-0
 70
     0
  3
Adobe Illustrator Linetype No. 0
 72
    65
 73
     4
 40
8.819444442239584
 49
7.055555553791666
 74
     0
 49
-0.7055555553791667
 74
     0
 49
0.3527777776895833
 74
     0
 49
-0.7055555553791667
 74
     0
  0
LTYPE
  5
126
330
5
100
AcDbSymbolTableRecord
100
AcDbLinetypeTableRecord
  2
AI-Linetype-1
 70
     0
  3
Adobe Illustrator Linetype No. 1
 72
    65
 73
     4
 40
8.819444442239584
 49
7.055555553791666
 74
     0
 49
-0.7055555553791667
 74
     0
 49
0.3527777776895833
 74
     0
 49
-0.7055555553791667
 74
     0
  0
LTYPE
  5
128
330
5
100
AcDbSymbolTableRecord
100
AcDbLinetypeTableRecord
  2
AI-Linetype-2
 70
     0
  3
Adobe Illustrator Linetype No. 2
 72
    65
 73
     4
 40
8.819444442239584
 49
7.055555553791666
 74
     0
 49
-0.7055555553791667
 74
     0
 49
0.3527777776895833
 74
     0
 49
-0.7055555553791667
 74
     0
  0
LTYPE
  5
12A
330
5
100
AcDbSymbolTableRecord
100
AcDbLinetypeTableRecord
  2
AI-Linetype-3
 70
     0
  3
Adobe Illustrator Linetype No. 3
 72
    65
 73
     4
 40
8.819444442239584
 49
7.055555553791666
 74
     0
 49
-0.7055555553791667
 74
     0
 49
0.3527777776895833
 74
     0
 49
-0.7055555553791667
 74
     0
  0
LTYPE
  5
12C
330
5
100
AcDbSymbolTableRecord
100
AcDbLinetypeTableRecord
  2
AI-Linetype-4
 70
     0
  3
Adobe Illustrator Linetype No. 4
 72
    65
 73
     4
 40
8.819444442239584
 49
7.055555553791666
 74
     0
 49
-0.7055555553791667
 74
     0
 49
0.3527777776895833
 74
     0
 49
-0.7055555553791667
 74
     0
  0
ENDTAB
  0
TABLE
  2
LAYER
  5
2
330
0
100
AcDbSymbolTable
 70
     6
  0
LAYER
  5
54
330
2
100
AcDbSymbolTableRecord
100
AcDbLayerTableRecord
  2
0
 70
     0
 62
     7
  6
Continuous
370
    -3
390
F
347
21
348
0
  0
LAYER
  5
78
330
2
100
AcDbSymbolTableRecord
100
AcDbLayerTableRecord
  2
grau 10%
 70
     1
 62
     7
  6
Continuous
370
     0
390
F
347
21
348
0
  0
LAYER
  5
7D
330
2
100
AcDbSymbolTableRecord
100
AcDbLayerTableRecord
  2
Ebene 5
 70
     1
 62
     7
  6
Continuous
370
     0
390
F
347
21
348
0
  0
LAYER
  5
C9
330
2
100
AcDbSymbolTableRecord
100
AcDbLayerTableRecord
  2
Standardebene
 70
     0
 62
     7
  6
Continuous
370
     0
390
F
347
21
348
0
  0
LAYER
  5
1C4
330
2
100
AcDbSymbolTableRecord
100
AcDbLayerTableRecord
  2
Bemaßung
 70
     1
 62
     7
  6
Continuous
370
     0
390
F
347
21
348
0
  0
LAYER
  5
2A0
330
2
100
AcDbSymbolTableRecord
100
AcDbLayerTableRecord
  2
Text
 70
     1
 62
     7
  6
Continuous
370
     0
390
F
347
21
348
0
  0
ENDTAB
  0
TABLE
  2
STYLE
  5
3
330
0
100
AcDbSymbolTable
 70
     2
  0
STYLE
  5
55
330
3
100
AcDbSymbolTableRecord
100
AcDbTextStyleTableRecord
  2
Standard
 70
     0
 40
0.0
 41
1.0
 50
0.0
 71
     0
 42
0.2
  3
txt
  4

  0
STYLE
  5
5A
330
3
100
AcDbSymbolTableRecord
100
AcDbTextStyleTableRecord
  2
Annotative
 70
     0
 40
0.0
 41
1.0
 50
0.0
 71
     0
 42
0.2
  3
txt
  4

1001
AcadAnnotative
1000
AnnotativeData
1002
{
1070
     1
1070
     1
1002
}
  0
ENDTAB
  0
TABLE
  2
VIEW
  5
6
330
0
100
AcDbSymbolTable
 70
     0
  0
ENDTAB
  0
TABLE
  2
UCS
  5
7
330
0
100
AcDbSymbolTable
 70
     0
  0
ENDTAB
  0
TABLE
  2
APPID
  5
9
330
0
100
AcDbSymbolTable
 70
     2
  0
APPID
  5
56
330
9
100
AcDbSymbolTableRecord
100
AcDbRegAppTableRecord
  2
ACAD
 70
     0
  0
APPID
  5
5E
330
9
100
AcDbSymbolTableRecord
100
AcDbRegAppTableRecord
  2
AcadAnnotative
 70
     0
  0
ENDTAB
  0
TABLE
  2
DIMSTYLE
  5
A
330
0
100
AcDbSymbolTable
 70
     2
100
AcDbDimStyleTable
 71
     0
  0
DIMSTYLE
105
58
330
A
100
AcDbSymbolTableRecord
100
AcDbDimStyleTableRecord
  2
Standard
 70
     0
340
55
  0
DIMSTYLE
105
59
330
A
100
AcDbSymbolTableRecord
100
AcDbDimStyleTableRecord
  2
Annotative
 70
     0
340
55
1001
AcadAnnotative
1000
AnnotativeData
1002
{
1070
     1
1070
     1
1002
}
  0
ENDTAB
  0
TABLE
  2
BLOCK_RECORD
  5
1
330
0
100
AcDbSymbolTable
 70
     1
  0
BLOCK_RECORD
  5
70
330
1
100
AcDbSymbolTableRecord
100
AcDbBlockTableRecord
  2
*Model_Space
340
73
 70
     0
280
     1
281
     0
  0
BLOCK_RECORD
  5
6C
330
1
100
AcDbSymbolTableRecord
100
AcDbBlockTableRecord
  2
*Paper_Space
340
6F
 70
     0
280
     1
281
     0
  0
BLOCK_RECORD
  5
74
330
1
100
AcDbSymbolTableRecord
100
AcDbBlockTableRecord
  2
*Paper_Space0
340
77
 70
     0
280
     1
281
     0
  0
ENDTAB
  0
ENDSEC
  0
SECTION
  2
BLOCKS
  0
BLOCK
  5
71
330
70
100
AcDbEntity
  8
0
100
AcDbBlockBegin
  2
*Model_Space
 70
     0
 10
0.0
 20
0.0
 30
0.0
  3
*Model_Space
  1

  0
ENDBLK
  5
72
330
70
100
AcDbEntity
  8
0
100
AcDbBlockEnd
  0
BLOCK
  5
6D
330
6C
100
AcDbEntity
 67
     1
  8
0
100
AcDbBlockBegin
  2
*Paper_Space
 70
     0
 10
0.0
 20
0.0
 30
0.0
  3
*Paper_Space
  1

  0
ENDBLK
  5
6E
330
6C
100
AcDbEntity
 67
     1
  8
0
100
AcDbBlockEnd
  0
BLOCK
  5
75
330
74
100
AcDbEntity
 67
     1
  8
0
100
AcDbBlockBegin
  2
*Paper_Space0
 70
     0
 10
0.0
 20
0.0
 30
0.0
  3
*Paper_Space0
  1

  0
ENDBLK
  5
76
330
74
100
AcDbEntity
 67
     1
  8
0
100
AcDbBlockEnd
  0
ENDSEC
  0
SECTION
  2
ENTITIES
  0
SPLINE
  5
79
330
70
100
AcDbEntity
  8
grau 10%
100
AcDbSpline
210
0.0
220
0.0
230
1.0
 70
    11
 71
     3
 72
   224
 73
   220
 74
     0
 42
0.0000000001
 43
0.0000000001
 40
0.0
 40
0.0
 40
0.0
 40
0.0
 40
1.0
 40
1.0
 40
1.0
 40
2.0
 40
2.0
 40
2.0
 40
3.0
 40
3.0
 40
3.0
 40
4.0
 40
4.0
 40
4.0
 40
5.0
 40
5.0
 40
5.0
 40
6.0
 40
6.0
 40
6.0
 40
7.0
 40
7.0
 40
7.0
 40
8.0
 40
8.0
 40
8.0
 40
9.0
 40
9.0
 40
9.0
 40
10.0
 40
10.0
 40
10.0
 40
11.0
 40
11.0
 40
11.0
 40
12.0
 40
12.0
 40
12.0
 40
13.0
 40
13.0
 40
13.0
 40
14.0
 40
14.0
 40
14.0
 40
15.0
 40
15.0
 40
15.0
 40
16.0
 40
16.0
 40
16.0
 40
17.0
 40
17.0
 40
17.0
 40
18.0
 40
18.0
 40
18.0
 40
19.0
 40
19.0
 40
19.0
 40
20.0
 40
20.0
 40
20.0
 40
21.0
 40
21.0
 40
21.0
 40
22.0
 40
22.0
 40
22.0
 40
23.0
 40
23.0
 40
23.0
 40
24.0
 40
24.0
 40
24.0
 40
25.0
 40
25.0
 40
25.0
 40
26.0
 40
26.0
 40
26.0
 40
27.0
 40
27.0
 40
27.0
 40
28.0
 40
28.0
 40
28.0
 40
29.0
 40
29.0
 40
29.0
 40
30.0
 40
30.0
 40
30.0
 40
31.0
 40
31.0
 40
31.0
 40
32.0
 40
32.0
 40
32.0
 40
33.0
 40
33.0
 40
33.0
 40
34.0
 40
34.0
 40
34.0
 40
35.0
 40
35.0
 40
35.0
 40
36.0
 40
36.0
 40
36.0
 40
37.0
 40
37.0
 40
37.0
 40
38.0
 40
38.0
 40
38.0
 40
39.0
 40
39.0
 40
39.0
 40
40.0
 40
40.0
 40
40.0
 40
41.0
 40
41.0
 40
41.0
 40
42.0
 40
42.0
 40
42.0
 40
43.0
 40
43.0
 40
43.0
 40
44.0
 40
44.0
 40
44.0
 40
45.0
 40
45.0
 40
45.0
 40
46.0
 40
46.0
 40
46.0
 40
47.0
 40
47.0
 40
47.0
 40
48.0
 40
48.0
 40
48.0
 40
49.0
 40
49.0
 40
49.0
 40
50.0
 40
50.0
 40
50.0
 40
51.0
 40
51.0
 40
51.0
 40
52.0
 40
52.0
 40
52.0
 40
53.0
 40
53.0
 40
53.0
 40
54.0
 40
54.0
 40
54.0
 40
55.0
 40
55.0
 40
55.0
 40
56.0
 40
56.0
 40
56.0
 40
57.0
 40
57.0
 40
57.0
 40
58.0
 40
58.0
 40
58.0
 40
59.0
 40
59.0
 40
59.0
 40
60.0
 40
60.0
 40
60.0
 40
61.0
 40
61.0
 40
61.0
 40
62.0
 40
62.0
 40
62.0
 40
63.0
 40
63.0
 40
63.0
 40
64.0
 40
64.0
 40
64.0
 40
65.0
 40
65.0
 40
65.0
 40
66.0
 40
66.0
 40
66.0
 40
67.0
 40
67.0
 40
67.0
 40
68.0
 40
68.0
 40
68.0
 40
69.0
 40
69.0
 40
69.0
 40
70.0
 40
70.0
 40
70.0
 40
71.0
 40
71.0
 40
71.0
 40
72.0
 40
72.0
 40
72.0
 40
73.0
 40
73.0
 40
73.0
 40
73.0
 10
-88.63195942228653
 20
-100.6589652526132
 30
0.0
 10
-88.63195942228653
 20
-100.6589652526132
 30
0.0
 10
-82.71174859043309
 20
-100.6589652526132
 30
0.0
 10
-82.71174859043309
 20
-100.6589652526132
 30
0.0
 10
-82.71174859043309
 20
-100.6589652526132
 30
0.0
 10
-82.71174859043309
 20
-107.299901084286
 30
0.0
 10
-82.71174859043309
 20
-107.299901084286
 30
0.0
 10
-82.71174859043309
 20
-107.299901084286
 30
0.0
 10
-88.53999025564291
 20
-107.299901084286
 30
0.0
 10
-88.53999025564291
 20
-107.299901084286
 30
0.0
 10
-88.53999025564291
 20
-107.299901084286
 30
0.0
 10
-88.63195942228653
 20
-107.3307338620562
 30
0.0
 10
-88.63195942228653
 20
-107.3307338620562
 30
0.0
 10
-88.63195942228653
 20
-107.3307338620562
 30
0.0
 10
-88.63195942228653
 20
-147.1774071854277
 30
0.0
 10
-88.63195942228653
 20
-147.1774071854277
 30
0.0
 10
-88.63195942228653
 20
-147.1774071854277
 30
0.0
 10
-88.84676581112177
 20
-148.8798069072247
 30
0.0
 10
-88.84676581112177
 20
-148.8798069072247
 30
0.0
 10
-88.84676581112177
 20
-148.8798069072247
 30
0.0
 10
-88.64748164450482
 20
-149.2325846849143
 30
0.0
 10
-88.64748164450482
 20
-149.2325846849143
 30
0.0
 10
-88.64748164450482
 20
-149.2325846849143
 30
0.0
 10
-88.64748164450482
 20
-149.6006730181552
 30
0.0
 10
-88.64748164450482
 20
-149.6006730181552
 30
0.0
 10
-88.64748164450482
 20
-149.6006730181552
 30
0.0
 10
-88.83145525556988
 20
-149.9381402402935
 30
0.0
 10
-88.83145525556988
 20
-149.9381402402935
 30
0.0
 10
-88.83145525556988
 20
-149.9381402402935
 30
0.0
 10
-89.16888719993004
 20
-150.1527702402395
 30
0.0
 10
-89.16888719993004
 20
-150.1527702402395
 30
0.0
 10
-89.16888719993004
 20
-150.1527702402395
 30
0.0
 10
-103.8468769184827
 20
-150.1527702402395
 30
0.0
 10
-103.8468769184827
 20
-150.1527702402395
 30
0.0
 10
-103.8468769184827
 20
-150.1527702402395
 30
0.0
 10
-104.1995135850612
 20
-149.8768274625309
 30
0.0
 10
-104.1995135850612
 20
-149.8768274625309
 30
0.0
 10
-104.1995135850612
 20
-149.8768274625309
 30
0.0
 10
-104.3376613628044
 20
-149.6160188514846
 30
0.0
 10
-104.3376613628044
 20
-149.6160188514846
 30
0.0
 10
-104.3376613628044
 20
-149.6160188514846
 30
0.0
 10
-104.2914827517048
 20
-149.3092432960057
 30
0.0
 10
-104.2914827517048
 20
-149.3092432960057
 30
0.0
 10
-104.2914827517048
 20
-149.3092432960057
 30
0.0
 10
-104.0921985850882
 20
-148.9104632961054
 30
0.0
 10
-104.0921985850882
 20
-148.9104632961054
 30
0.0
 10
-104.0921985850882
 20
-148.9104632961054
 30
0.0
 10
-104.0921985850882
 20
-148.5576855184158
 30
0.0
 10
-104.0921985850882
 20
-148.5576855184158
 30
0.0
 10
-104.0921985850882
 20
-148.5576855184158
 30
0.0
 10
-104.0461963628775
 20
-147.882786351918
 30
0.0
 10
-104.0461963628775
 20
-147.882786351918
 30
0.0
 10
-104.0461963628775
 20
-147.882786351918
 30
0.0
 10
-104.245656918383
 20
-147.65284579642
 30
0.0
 10
-104.245656918383
 20
-147.65284579642
 30
0.0
 10
-104.245656918383
 20
-147.65284579642
 30
0.0
 10
-104.245656918383
 20
-145.3828619080985
 30
0.0
 10
-104.245656918383
 20
-145.3828619080985
 30
0.0
 10
-104.245656918383
 20
-145.3828619080985
 30
0.0
 10
-104.3069696961456
 20
-144.7079627416006
 30
0.0
 10
-104.3069696961456
 20
-144.7079627416006
 30
0.0
 10
-104.3069696961456
 20
-144.7079627416006
 30
0.0
 10
-104.322315529475
 20
-138.6189124653451
 30
0.0
 10
-104.322315529475
 20
-138.6189124653451
 30
0.0
 10
-104.322315529475
 20
-138.6189124653451
 30
0.0
 10
-104.13834191841
 20
-137.8980463544147
 30
0.0
 10
-104.13834191841
 20
-137.8980463544147
 30
0.0
 10
-104.13834191841
 20
-137.8980463544147
 30
0.0
 10
-104.2303463628314
 20
-137.76007496556
 30
0.0
 10
-104.2303463628314
 20
-137.76007496556
 30
0.0
 10
-104.2303463628314
 20
-137.76007496556
 30
0.0
 10
-104.245656918383
 20
-135.6435846883114
 30
0.0
 10
-104.245656918383
 20
-135.6435846883114
 30
0.0
 10
-104.245656918383
 20
-135.6435846883114
 30
0.0
 10
-104.1843441406207
 20
-135.5207474661198
 30
0.0
 10
-104.1843441406207
 20
-135.5207474661198
 30
0.0
 10
-104.1843441406207
 20
-135.5207474661198
 30
0.0
 10
-104.322315529475
 20
-134.7540555218669
 30
0.0
 10
-104.322315529475
 20
-134.7540555218669
 30
0.0
 10
-104.322315529475
 20
-134.7540555218669
 30
0.0
 10
-104.3069696961456
 20
-107.3000774731749
 30
0.0
 10
-104.3069696961456
 20
-107.3000774731749
 30
0.0
 10
-104.3069696961456
 20
-107.3000774731749
 30
0.0
 10
-105.5186202513981
 20
-107.2694210842936
 30
0.0
 10
-105.5186202513981
 20
-107.2694210842936
 30
0.0
 10
-105.5186202513981
 20
-107.2694210842936
 30
0.0
 10
-105.5186202513981
 20
-100.6283088637319
 30
0.0
 10
-105.5186202513981
 20
-100.6283088637319
 30
0.0
 10
-105.5186202513981
 20
-100.6283088637319
 30
0.0
 10
-104.3069696961456
 20
-100.6283088637319
 30
0.0
 10
-104.3069696961456
 20
-100.6283088637319
 30
0.0
 10
-104.3069696961456
 20
-100.6283088637319
 30
0.0
 10
-104.3069696961456
 20
-68.26680387182223
 30
0.0
 10
-104.3069696961456
 20
-68.26680387182223
 30
0.0
 10
-104.3069696961456
 20
-68.26680387182223
 30
0.0
 10
-103.7394208073986
 20
-67.68390914974583
 30
0.0
 10
-103.7394208073986
 20
-67.68390914974583
 30
0.0
 10
-103.7394208073986
 20
-67.68390914974583
 30
0.0
 10
-107.957231917455
 20
-67.65339387197555
 30
0.0
 10
-107.957231917455
 20
-67.65339387197555
 30
0.0
 10
-107.957231917455
 20
-67.65339387197555
 30
0.0
 10
-108.033890528547
 20
-65.5980752613782
 30
0.0
 10
-108.033890528547
 20
-65.5980752613782
 30
0.0
 10
-108.033890528547
 20
-65.5980752613782
 30
0.0
 10
-108.402014139566
 20
-66.4416022056117
 30
0.0
 10
-108.402014139566
 20
-66.4416022056117
 30
0.0
 10
-108.402014139566
 20
-66.4416022056117
 30
0.0
 10
-110.963427750037
 20
-66.48760442782242
 30
0.0
 10
-110.963427750037
 20
-66.48760442782242
 30
0.0
 10
-110.963427750037
 20
-66.48760442782242
 30
0.0
 10
-111.4081746943702
 20
-65.73604665023252
 30
0.0
 10
-111.4081746943702
 20
-65.73604665023252
 30
0.0
 10
-111.4081746943702
 20
-65.73604665023252
 30
0.0
 10
-111.4541769165809
 20
-64.61640053940148
 30
0.0
 10
-111.4541769165809
 20
-64.61640053940148
 30
0.0
 10
-111.4541769165809
 20
-64.61640053940148
 30
0.0
 10
-111.6074941387647
 20
-64.4170810950067
 30
0.0
 10
-111.6074941387647
 20
-64.4170810950067
 30
0.0
 10
-111.6074941387647
 20
-64.4170810950067
 30
0.0
 10
-111.8069546942705
 20
-64.35576831724438
 30
0.0
 10
-111.8069546942705
 20
-64.35576831724438
 30
0.0
 10
-111.8069546942705
 20
-64.35576831724438
 30
0.0
 10
-118.1566019149053
 20
-64.40159415056623
 30
0.0
 10
-118.1566019149053
 20
-64.40159415056623
 30
0.0
 10
-118.1566019149053
 20
-64.40159415056623
 30
0.0
 10
-118.7854988591924
 20
-63.78818415071955
 30
0.0
 10
-118.7854988591924
 20
-63.78818415071955
 30
0.0
 10
-118.7854988591924
 20
-63.78818415071955
 30
0.0
 10
-120.3499271921348
 20
-63.77283831739013
 30
0.0
 10
-120.3499271921348
 20
-63.77283831739013
 30
0.0
 10
-120.3499271921348
 20
-63.77283831739013
 30
0.0
 10
-120.9173349697707
 20
-64.34042248391498
 30
0.0
 10
-120.9173349697707
 20
-64.34042248391498
 30
0.0
 10
-120.9173349697707
 20
-64.34042248391498
 30
0.0
 10
-123.6627221913065
 20
-64.38624831723682
 30
0.0
 10
-123.6627221913065
 20
-64.38624831723682
 30
0.0
 10
-123.6627221913065
 20
-64.38624831723682
 30
0.0
 10
-124.0461916356552
 20
-64.11030553952783
 30
0.0
 10
-124.0461916356552
 20
-64.11030553952783
 30
0.0
 10
-124.0461916356552
 20
-64.11030553952783
 30
0.0
 10
-124.2609627467126
 20
-63.80352998404897
 30
0.0
 10
-124.2609627467126
 20
-63.80352998404897
 30
0.0
 10
-124.2609627467126
 20
-63.80352998404897
 30
0.0
 10
-124.2609627467126
 20
-63.55806720633273
 30
0.0
 10
-124.2609627467126
 20
-63.55806720633273
 30
0.0
 10
-124.2609627467126
 20
-63.55806720633273
 30
0.0
 10
-124.2609627467126
 20
-58.22075109655601
 30
0.0
 10
-124.2609627467126
 20
-58.22075109655601
 30
0.0
 10
-124.2609627467126
 20
-58.22075109655601
 30
0.0
 10
-124.1228149689691
 20
-57.76065831889309
 30
0.0
 10
-123.4634380246895
 20
-57.76065831889309
 30
0.0
 10
-123.4634380246895
 20
-57.76065831889309
 30
0.0
 10
-120.9633371919815
 20
-57.76065831889309
 30
0.0
 10
-120.9633371919815
 20
-57.76065831889309
 30
0.0
 10
-120.9633371919815
 20
-57.76065831889309
 30
0.0
 10
-120.3652730254642
 20
-58.31272026319963
 30
0.0
 10
-120.3652730254642
 20
-58.31272026319963
 30
0.0
 10
-120.3652730254642
 20
-58.31272026319963
 30
0.0
 10
-118.7241860814301
 20
-58.32806609652904
 30
0.0
 10
-118.7241860814301
 20
-58.32806609652904
 30
0.0
 10
-118.7241860814301
 20
-58.32806609652904
 30
0.0
 10
-118.202604137116
 20
-57.74531248556368
 30
0.0
 10
-118.202604137116
 20
-57.74531248556368
 30
0.0
 10
-118.202604137116
 20
-57.74531248556368
 30
0.0
 10
-111.7149855276269
 20
-57.74531248556368
 30
0.0
 10
-111.7149855276269
 20
-57.74531248556368
 30
0.0
 10
-111.7149855276269
 20
-57.74531248556368
 30
0.0
 10
-111.5001791387917
 20
-57.68382331891249
 30
0.0
 10
-111.5001791387917
 20
-57.68382331891249
 30
0.0
 10
-111.5001791387917
 20
-57.68382331891249
 30
0.0
 10
-111.4695227499103
 20
-57.36187831899278
 30
0.0
 10
-111.4695227499103
 20
-57.36187831899278
 30
0.0
 10
-111.4695227499103
 20
-57.36187831899278
 30
0.0
 10
-111.4695227499103
 20
-56.48751859698909
 30
0.0
 10
-111.4695227499103
 20
-56.48751859698909
 30
0.0
 10
-111.4695227499103
 20
-56.48751859698909
 30
0.0
 10
-110.9787383055886
 20
-55.68995859718847
 30
0.0
 10
-110.9787383055886
 20
-55.68995859718847
 30
0.0
 10
-110.9787383055886
 20
-55.68995859718847
 30
0.0
 10
-108.402014139566
 20
-55.64399165275559
 30
0.0
 10
-108.402014139566
 20
-55.64399165275559
 30
0.0
 10
-108.402014139566
 20
-55.64399165275559
 30
0.0
 10
-108.0492363618764
 20
-56.38020359701606
 30
0.0
 10
-108.0492363618764
 20
-56.38020359701606
 30
0.0
 10
-108.0492363618764
 20
-56.38020359701606
 30
0.0
 10
-108.0647233063172
 20
-54.50917609748368
 30
0.0
 10
-108.0647233063172
 20
-54.50917609748368
 30
0.0
 10
-108.0647233063172
 20
-54.50917609748368
 30
0.0
 10
-102.2824838633181
 20
-54.44765165305466
 30
0.0
 10
-102.2824838633181
 20
-54.44765165305466
 30
0.0
 10
-102.2824838633181
 20
-54.44765165305466
 30
0.0
 10
-102.2516510855482
 20
-54.24836748643803
 30
0.0
 10
-102.2516510855482
 20
-54.24836748643803
 30
0.0
 10
-102.2516510855482
 20
-54.24836748643803
 30
0.0
 10
-102.0063646967205
 20
-53.95690248651074
 30
0.0
 10
-102.0063646967205
 20
-53.95690248651074
 30
0.0
 10
-102.0063646967205
 20
-53.95690248651074
 30
0.0
 10
-90.93277608837796
 20
-53.95690248651074
 30
0.0
 10
-90.93277608837796
 20
-53.95690248651074
 30
0.0
 10
-90.93277608837796
 20
-53.95690248651074
 30
0.0
 10
-90.70265914399113
 20
-54.23302165310829
 30
0.0
 10
-90.70265914399113
 20
-54.23302165310829
 30
0.0
 10
-90.70265914399113
 20
-54.23302165310829
 30
0.0
 10
-90.70265914399113
 20
-54.43234109750309
 30
0.0
 10
-90.70265914399113
 20
-54.43234109750309
 30
0.0
 10
-90.70265914399113
 20
-54.43234109750309
 30
0.0
 10
-89.59849997760022
 20
-54.50917609748368
 30
0.0
 10
-89.59849997760022
 20
-54.50917609748368
 30
0.0
 10
-89.59849997760022
 20
-54.50917609748368
 30
0.0
 10
-89.59849997760022
 20
-67.60725053865378
 30
0.0
 10
-89.59849997760022
 20
-67.60725053865378
 30
0.0
 10
-89.59849997760022
 20
-67.60725053865378
 30
0.0
 10
-89.16888719993004
 20
-67.60725053865378
 30
0.0
 10
-89.16888719993004
 20
-67.60725053865378
 30
0.0
 10
-89.16888719993004
 20
-67.60725053865378
 30
0.0
 10
-88.63213581117539
 20
-68.20531470517105
 30
0.0
 10
-88.63213581117539
 20
-68.20531470517105
 30
0.0
 10
-88.63213581117539
 20
-68.20531470517105
 30
0.0
 10
-88.63195942228653
 20
-100.6589652526132
 30
0.0
 10
-88.63195942228653
 20
-100.6589652526132
 30
0.0
  0
HATCH
  5
7A
330
70
100
AcDbEntity
  8
grau 10%
 62
   255
440
 33554687
100
AcDbHatch
 10
0.0
 20
0.0
 30
0.0
210
0.0
220
0.0
230
1.0
  2
SOLID
 70
     1
 71
     1
 91
        1
 92
        1
 93
        1
 72
     4
 94
        3
 73
     0
 74
     0
 95
      224
 96
      220
 40
0.0
 40
0.0
 40
0.0
 40
0.0
 40
1.0
 40
1.0
 40
1.0
 40
2.0
 40
2.0
 40
2.0
 40
3.0
 40
3.0
 40
3.0
 40
4.0
 40
4.0
 40
4.0
 40
5.0
 40
5.0
 40
5.0
 40
6.0
 40
6.0
 40
6.0
 40
7.0
 40
7.0
 40
7.0
 40
8.0
 40
8.0
 40
8.0
 40
9.0
 40
9.0
 40
9.0
 40
10.0
 40
10.0
 40
10.0
 40
11.0
 40
11.0
 40
11.0
 40
12.0
 40
12.0
 40
12.0
 40
13.0
 40
13.0
 40
13.0
 40
14.0
 40
14.0
 40
14.0
 40
15.0
 40
15.0
 40
15.0
 40
16.0
 40
16.0
 40
16.0
 40
17.0
 40
17.0
 40
17.0
 40
18.0
 40
18.0
 40
18.0
 40
19.0
 40
19.0
 40
19.0
 40
20.0
 40
20.0
 40
20.0
 40
21.0
 40
21.0
 40
21.0
 40
22.0
 40
22.0
 40
22.0
 40
23.0
 40
23.0
 40
23.0
 40
24.0
 40
24.0
 40
24.0
 40
25.0
 40
25.0
 40
25.0
 40
26.0
 40
26.0
 40
26.0
 40
27.0
 40
27.0
 40
27.0
 40
28.0
 40
28.0
 40
28.0
 40
29.0
 40
29.0
 40
29.0
 40
30.0
 40
30.0
 40
30.0
 40
31.0
 40
31.0
 40
31.0
 40
32.0
 40
32.0
 40
32.0
 40
33.0
 40
33.0
 40
33.0
 40
34.0
 40
34.0
 40
34.0
 40
35.0
 40
35.0
 40
35.0
 40
36.0
 40
36.0
 40
36.0
 40
37.0
 40
37.0
 40
37.0
 40
38.0
 40
38.0
 40
38.0
 40
39.0
 40
39.0
 40
39.0
 40
40.0
 40
40.0
 40
40.0
 40
41.0
 40
41.0
 40
41.0
 40
42.0
 40
42.0
 40
42.0
 40
43.0
 40
43.0
 40
43.0
 40
44.0
 40
44.0
 40
44.0
 40
45.0
 40
45.0
 40
45.0
 40
46.0
 40
46.0
 40
46.0
 40
47.0
 40
47.0
 40
47.0
 40
48.0
 40
48.0
 40
48.0
 40
49.0
 40
49.0
 40
49.0
 40
50.0
 40
50.0
 40
50.0
 40
51.0
 40
51.0
 40
51.0
 40
52.0
 40
52.0
 40
52.0
 40
53.0
 40
53.0
 40
53.0
 40
54.0
 40
54.0
 40
54.0
 40
55.0
 40
55.0
 40
55.0
 40
56.0
 40
56.0
 40
56.0
 40
57.0
 40
57.0
 40
57.0
 40
58.0
 40
58.0
 40
58.0
 40
59.0
 40
59.0
 40
59.0
 40
60.0
 40
60.0
 40
60.0
 40
61.0
 40
61.0
 40
61.0
 40
62.0
 40
62.0
 40
62.0
 40
63.0
 40
63.0
 40
63.0
 40
64.0
 40
64.0
 40
64.0
 40
65.0
 40
65.0
 40
65.0
 40
66.0
 40
66.0
 40
66.0
 40
67.0
 40
67.0
 40
67.0
 40
68.0
 40
68.0
 40
68.0
 40
69.0
 40
69.0
 40
69.0
 40
70.0
 40
70.0
 40
70.0
 40
71.0
 40
71.0
 40
71.0
 40
72.0
 40
72.0
 40
72.0
 40
73.0
 40
73.0
 40
73.0
 40
73.0
 10
-88.63195942228653
 20
-100.6589652526132
 10
-88.63195942228653
 20
-100.6589652526132
 10
-82.71174859043309
 20
-100.6589652526132
 10
-82.71174859043309
 20
-100.6589652526132
 10
-82.71174859043309
 20
-100.6589652526132
 10
-82.71174859043309
 20
-107.299901084286
 10
-82.71174859043309
 20
-107.299901084286
 10
-82.71174859043309
 20
-107.299901084286
 10
-88.53999025564291
 20
-107.299901084286
 10
-88.53999025564291
 20
-107.299901084286
 10
-88.53999025564291
 20
-107.299901084286
 10
-88.63195942228653
 20
-107.3307338620562
 10
-88.63195942228653
 20
-107.3307338620562
 10
-88.63195942228653
 20
-107.3307338620562
 10
-88.63195942228653
 20
-147.1774071854277
 10
-88.63195942228653
 20
-147.1774071854277
 10
-88.63195942228653
 20
-147.1774071854277
 10
-88.84676581112177
 20
-148.8798069072247
 10
-88.84676581112177
 20
-148.8798069072247
 10
-88.84676581112177
 20
-148.8798069072247
 10
-88.64748164450482
 20
-149.2325846849143
 10
-88.64748164450482
 20
-149.2325846849143
 10
-88.64748164450482
 20
-149.2325846849143
 10
-88.64748164450482
 20
-149.6006730181552
 10
-88.64748164450482
 20
-149.6006730181552
 10
-88.64748164450482
 20
-149.6006730181552
 10
-88.83145525556988
 20
-149.9381402402935
 10
-88.83145525556988
 20
-149.9381402402935
 10
-88.83145525556988
 20
-149.9381402402935
 10
-89.16888719993004
 20
-150.1527702402395
 10
-89.16888719993004
 20
-150.1527702402395
 10
-89.16888719993004
 20
-150.1527702402395
 10
-103.8468769184827
 20
-150.1527702402395
 10
-103.8468769184827
 20
-150.1527702402395
 10
-103.8468769184827
 20
-150.1527702402395
 10
-104.1995135850612
 20
-149.8768274625309
 10
-104.1995135850612
 20
-149.8768274625309
 10
-104.1995135850612
 20
-149.8768274625309
 10
-104.3376613628044
 20
-149.6160188514846
 10
-104.3376613628044
 20
-149.6160188514846
 10
-104.3376613628044
 20
-149.6160188514846
 10
-104.2914827517048
 20
-149.3092432960057
 10
-104.2914827517048
 20
-149.3092432960057
 10
-104.2914827517048
 20
-149.3092432960057
 10
-104.0921985850882
 20
-148.9104632961054
 10
-104.0921985850882
 20
-148.9104632961054
 10
-104.0921985850882
 20
-148.9104632961054
 10
-104.0921985850882
 20
-148.5576855184158
 10
-104.0921985850882
 20
-148.5576855184158
 10
-104.0921985850882
 20
-148.5576855184158
 10
-104.0461963628775
 20
-147.882786351918
 10
-104.0461963628775
 20
-147.882786351918
 10
-104.0461963628775
 20
-147.882786351918
 10
-104.245656918383
 20
-147.65284579642
 10
-104.245656918383
 20
-147.65284579642
 10
-104.245656918383
 20
-147.65284579642
 10
-104.245656918383
 20
-145.3828619080985
 10
-104.245656918383
 20
-145.3828619080985
 10
-104.245656918383
 20
-145.3828619080985
 10
-104.3069696961456
 20
-144.7079627416006
 10
-104.3069696961456
 20
-144.7079627416006
 10
-104.3069696961456
 20
-144.7079627416006
 10
-104.322315529475
 20
-138.6189124653451
 10
-104.322315529475
 20
-138.6189124653451
 10
-104.322315529475
 20
-138.6189124653451
 10
-104.13834191841
 20
-137.8980463544147
 10
-104.13834191841
 20
-137.8980463544147
 10
-104.13834191841
 20
-137.8980463544147
 10
-104.2303463628314
 20
-137.76007496556
 10
-104.2303463628314
 20
-137.76007496556
 10
-104.2303463628314
 20
-137.76007496556
 10
-104.245656918383
 20
-135.6435846883114
 10
-104.245656918383
 20
-135.6435846883114
 10
-104.245656918383
 20
-135.6435846883114
 10
-104.1843441406207
 20
-135.5207474661198
 10
-104.1843441406207
 20
-135.5207474661198
 10
-104.1843441406207
 20
-135.5207474661198
 10
-104.322315529475
 20
-134.7540555218669
 10
-104.322315529475
 20
-134.7540555218669
 10
-104.322315529475
 20
-134.7540555218669
 10
-104.3069696961456
 20
-107.3000774731749
 10
-104.3069696961456
 20
-107.3000774731749
 10
-104.3069696961456
 20
-107.3000774731749
 10
-105.5186202513981
 20
-107.2694210842936
 10
-105.5186202513981
 20
-107.2694210842936
 10
-105.5186202513981
 20
-107.2694210842936
 10
-105.5186202513981
 20
-100.6283088637319
 10
-105.5186202513981
 20
-100.6283088637319
 10
-105.5186202513981
 20
-100.6283088637319
 10
-104.3069696961456
 20
-100.6283088637319
 10
-104.3069696961456
 20
-100.6283088637319
 10
-104.3069696961456
 20
-100.6283088637319
 10
-104.3069696961456
 20
-68.26680387182223
 10
-104.3069696961456
 20
-68.26680387182223
 10
-104.3069696961456
 20
-68.26680387182223
 10
-103.7394208073986
 20
-67.68390914974583
 10
-103.7394208073986
 20
-67.68390914974583
 10
-103.7394208073986
 20
-67.68390914974583
 10
-107.957231917455
 20
-67.65339387197555
 10
-107.957231917455
 20
-67.65339387197555
 10
-107.957231917455
 20
-67.65339387197555
 10
-108.033890528547
 20
-65.5980752613782
 10
-108.033890528547
 20
-65.5980752613782
 10
-108.033890528547
 20
-65.5980752613782
 10
-108.402014139566
 20
-66.4416022056117
 10
-108.402014139566
 20
-66.4416022056117
 10
-108.402014139566
 20
-66.4416022056117
 10
-110.963427750037
 20
-66.48760442782242
 10
-110.963427750037
 20
-66.48760442782242
 10
-110.963427750037
 20
-66.48760442782242
 10
-111.4081746943702
 20
-65.73604665023252
 10
-111.4081746943702
 20
-65.73604665023252
 10
-111.4081746943702
 20
-65.73604665023252
 10
-111.4541769165809
 20
-64.61640053940148
 10
-111.4541769165809
 20
-64.61640053940148
 10
-111.4541769165809
 20
-64.61640053940148
 10
-111.6074941387647
 20
-64.4170810950067
 10
-111.6074941387647
 20
-64.4170810950067
 10
-111.6074941387647
 20
-64.4170810950067
 10
-111.8069546942705
 20
-64.35576831724438
 10
-111.8069546942705
 20
-64.35576831724438
 10
-111.8069546942705
 20
-64.35576831724438
 10
-118.1566019149053
 20
-64.40159415056623
 10
-118.1566019149053
 20
-64.40159415056623
 10
-118.1566019149053
 20
-64.40159415056623
 10
-118.7854988591924
 20
-63.78818415071955
 10
-118.7854988591924
 20
-63.78818415071955
 10
-118.7854988591924
 20
-63.78818415071955
 10
-120.3499271921348
 20
-63.77283831739013
 10
-120.3499271921348
 20
-63.77283831739013
 10
-120.3499271921348
 20
-63.77283831739013
 10
-120.9173349697707
 20
-64.34042248391498
 10
-120.9173349697707
 20
-64.34042248391498
 10
-120.9173349697707
 20
-64.34042248391498
 10
-123.6627221913065
 20
-64.38624831723682
 10
-123.6627221913065
 20
-64.38624831723682
 10
-123.6627221913065
 20
-64.38624831723682
 10
-124.0461916356552
 20
-64.11030553952783
 10
-124.0461916356552
 20
-64.11030553952783
 10
-124.0461916356552
 20
-64.11030553952783
 10
-124.2609627467126
 20
-63.80352998404897
 10
-124.2609627467126
 20
-63.80352998404897
 10
-124.2609627467126
 20
-63.80352998404897
 10
-124.2609627467126
 20
-63.55806720633273
 10
-124.2609627467126
 20
-63.55806720633273
 10
-124.2609627467126
 20
-63.55806720633273
 10
-124.2609627467126
 20
-58.22075109655601
 10
-124.2609627467126
 20
-58.22075109655601
 10
-124.2609627467126
 20
-58.22075109655601
 10
-124.1228149689691
 20
-57.76065831889309
 10
-123.4634380246895
 20
-57.76065831889309
 10
-123.4634380246895
 20
-57.76065831889309
 10
-120.9633371919815
 20
-57.76065831889309
 10
-120.9633371919815
 20
-57.76065831889309
 10
-120.9633371919815
 20
-57.76065831889309
 10
-120.3652730254642
 20
-58.31272026319963
 10
-120.3652730254642
 20
-58.31272026319963
 10
-120.3652730254642
 20
-58.31272026319963
 10
-118.7241860814301
 20
-58.32806609652904
 10
-118.7241860814301
 20
-58.32806609652904
 10
-118.7241860814301
 20
-58.32806609652904
 10
-118.202604137116
 20
-57.74531248556368
 10
-118.202604137116
 20
-57.74531248556368
 10
-118.202604137116
 20
-57.74531248556368
 10
-111.7149855276269
 20
-57.74531248556368
 10
-111.7149855276269
 20
-57.74531248556368
 10
-111.7149855276269
 20
-57.74531248556368
 10
-111.5001791387917
 20
-57.68382331891249
 10
-111.5001791387917
 20
-57.68382331891249
 10
-111.5001791387917
 20
-57.68382331891249
 10
-111.4695227499103
 20
-57.36187831899278
 10
-111.4695227499103
 20
-57.36187831899278
 10
-111.4695227499103
 20
-57.36187831899278
 10
-111.4695227499103
 20
-56.48751859698909
 10
-111.4695227499103
 20
-56.48751859698909
 10
-111.4695227499103
 20
-56.48751859698909
 10
-110.9787383055886
 20
-55.68995859718847
 10
-110.9787383055886
 20
-55.68995859718847
 10
-110.9787383055886
 20
-55.68995859718847
 10
-108.402014139566
 20
-55.64399165275559
 10
-108.402014139566
 20
-55.64399165275559
 10
-108.402014139566
 20
-55.64399165275559
 10
-108.0492363618764
 20
-56.38020359701606
 10
-108.0492363618764
 20
-56.38020359701606
 10
-108.0492363618764
 20
-56.38020359701606
 10
-108.0647233063172
 20
-54.50917609748368
 10
-108.0647233063172
 20
-54.50917609748368
 10
-108.0647233063172
 20
-54.50917609748368
 10
-102.2824838633181
 20
-54.44765165305466
 10
-102.2824838633181
 20
-54.44765165305466
 10
-102.2824838633181
 20
-54.44765165305466
 10
-102.2516510855482
 20
-54.24836748643803
 10
-102.2516510855482
 20
-54.24836748643803
 10
-102.2516510855482
 20
-54.24836748643803
 10
-102.0063646967205
 20
-53.95690248651074
 10
-102.0063646967205
 20
-53.95690248651074
 10
-102.0063646967205
 20
-53.95690248651074
 10
-90.93277608837796
 20
-53.95690248651074
 10
-90.93277608837796
 20
-53.95690248651074
 10
-90.93277608837796
 20
-53.95690248651074
 10
-90.70265914399113
 20
-54.23302165310829
 10
-90.70265914399113
 20
-54.23302165310829
 10
-90.70265914399113
 20
-54.23302165310829
 10
-90.70265914399113
 20
-54.43234109750309
 10
-90.70265914399113
 20
-54.43234109750309
 10
-90.70265914399113
 20
-54.43234109750309
 10
-89.59849997760022
 20
-54.50917609748368
 10
-89.59849997760022
 20
-54.50917609748368
 10
-89.59849997760022
 20
-54.50917609748368
 10
-89.59849997760022
 20
-67.60725053865378
 10
-89.59849997760022
 20
-67.60725053865378
 10
-89.59849997760022
 20
-67.60725053865378
 10
-89.16888719993004
 20
-67.60725053865378
 10
-89.16888719993004
 20
-67.60725053865378
 10
-89.16888719993004
 20
-67.60725053865378
 10
-88.63213581117539
 20
-68.20531470517105
 10
-88.63213581117539
 20
-68.20531470517105
 10
-88.63213581117539
 20
-68.20531470517105
 10
-88.63195942228653
 20
-100.6589652526132
 10
-88.63195942228653
 20
-100.6589652526132
 97
        0
 97
        1
330
79
 75
     0
 76
     1
 98
        1
 10
0.0
 20
0.0
450
        0
451
        0
460
0.0
461
0.0
452
        0
462
0.0
453
        0
470

  0
LWPOLYLINE
  5
7B
330
70
100
AcDbEntity
  8
grau 10%
100
AcDbPolyline
 90
       45
 70
     1
 43
0.0
 10
-57.29022915234381
 20
-67.6639066497508
 10
-54.65042831967075
 20
-67.68390914974583
 10
-55.21797720841775
 20
-68.26680387182223
 10
-55.21797720841775
 20
-100.6283088637319
 10
-61.07362970695399
 20
-100.6283088637319
 10
-61.07362970695399
 20
-107.2694210842936
 10
-55.21797720841775
 20
-107.3000774731749
 10
-55.23332304174715
 20
-134.7540555218669
 10
-55.21642498619598
 20
-135.2945816328427
 10
-55.19215387509061
 20
-135.7069788549625
 10
-55.22866637508187
 20
-139.9554463538998
 10
-55.09912637511404
 20
-140.7152591314877
 10
-55.20541831953226
 20
-140.8546063536752
 10
-55.13944887510434
 20
-143.0146999642465
 10
-55.3297724861675
 20
-143.9853680195589
 10
-55.22196359730568
 20
-147.2020310743108
 10
-55.10773415288975
 20
-148.0965696851978
 10
-55.00320609736033
 20
-148.5576855184158
 10
-55.00320609736033
 20
-148.9104632961054
 10
-55.20249026397697
 20
-149.3092432960057
 10
-55.24866887507657
 20
-149.6160188514846
 10
-55.11052109733368
 20
-149.8768274625309
 10
-54.75788443075481
 20
-150.1527702402395
 10
-40.07989471220249
 20
-150.1527702402395
 10
-39.74246276784233
 20
-149.9381402402935
 10
-39.55831276788806
 20
-149.6006730181552
 10
-39.55831276788806
 20
-149.2325846849143
 10
-39.75777332339358
 20
-148.8798069072247
 10
-39.54296693455865
 20
-147.1774071854277
 10
-39.54296693455865
 20
-107.3307338620562
 10
-39.45099776791472
 20
-107.299901084286
 10
-33.62275610270553
 20
-107.299901084286
 10
-33.62275610270553
 20
-100.6589652526132
 10
-39.54296693455865
 20
-100.6589652526132
 10
-39.54314332344753
 20
-68.20531470517105
 10
-40.07989471220249
 20
-67.60725053865378
 10
-37.46697554618857
 20
-67.60725053865378
 10
-37.46697554618857
 20
-54.50917609748368
 10
-41.61366665626294
 20
-54.43234109750309
 10
-41.61366665626294
 20
-54.23302165310829
 10
-41.84378360065041
 20
-53.95690248651074
 10
-52.91737220899302
 20
-53.95690248651074
 10
-53.16265859782038
 20
-54.24836748643803
 10
-53.1933149867017
 20
-54.44765165305466
 10
-57.22545915236054
 20
-54.5022616530411
  0
HATCH
  5
7C
330
70
100
AcDbEntity
  8
grau 10%
 62
   255
440
 33554687
100
AcDbHatch
 10
0.0
 20
0.0
 30
0.0
210
0.0
220
0.0
230
1.0
  2
SOLID
 70
     1
 71
     1
 91
        1
 92
        1
 93
       45
 72
     1
 10
-57.29022915234381
 20
-67.6639066497508
 11
-54.65042831967075
 21
-67.68390914974583
 72
     1
 10
-54.65042831967075
 20
-67.68390914974583
 11
-55.21797720841775
 21
-68.26680387182223
 72
     1
 10
-55.21797720841775
 20
-68.26680387182223
 11
-55.21797720841775
 21
-100.6283088637319
 72
     1
 10
-55.21797720841775
 20
-100.6283088637319
 11
-61.07362970695399
 21
-100.6283088637319
 72
     1
 10
-61.07362970695399
 20
-100.6283088637319
 11
-61.07362970695399
 21
-107.2694210842936
 72
     1
 10
-61.07362970695399
 20
-107.2694210842936
 11
-55.21797720841775
 21
-107.3000774731749
 72
     1
 10
-55.21797720841775
 20
-107.3000774731749
 11
-55.23332304174715
 21
-134.7540555218669
 72
     1
 10
-55.23332304174715
 20
-134.7540555218669
 11
-55.21642498619598
 21
-135.2945816328427
 72
     1
 10
-55.21642498619598
 20
-135.2945816328427
 11
-55.19215387509061
 21
-135.7069788549625
 72
     1
 10
-55.19215387509061
 20
-135.7069788549625
 11
-55.22866637508187
 21
-139.9554463538998
 72
     1
 10
-55.22866637508187
 20
-139.9554463538998
 11
-55.09912637511404
 21
-140.7152591314877
 72
     1
 10
-55.09912637511404
 20
-140.7152591314877
 11
-55.20541831953226
 21
-140.8546063536752
 72
     1
 10
-55.20541831953226
 20
-140.8546063536752
 11
-55.13944887510434
 21
-143.0146999642465
 72
     1
 10
-55.13944887510434
 20
-143.0146999642465
 11
-55.3297724861675
 21
-143.9853680195589
 72
     1
 10
-55.3297724861675
 20
-143.9853680195589
 11
-55.22196359730568
 21
-147.2020310743108
 72
     1
 10
-55.22196359730568
 20
-147.2020310743108
 11
-55.10773415288975
 21
-148.0965696851978
 72
     1
 10
-55.10773415288975
 20
-148.0965696851978
 11
-55.00320609736033
 21
-148.5576855184158
 72
     1
 10
-55.00320609736033
 20
-148.5576855184158
 11
-55.00320609736033
 21
-148.9104632961054
 72
     1
 10
-55.00320609736033
 20
-148.9104632961054
 11
-55.20249026397697
 21
-149.3092432960057
 72
     1
 10
-55.20249026397697
 20
-149.3092432960057
 11
-55.24866887507657
 21
-149.6160188514846
 72
     1
 10
-55.24866887507657
 20
-149.6160188514846
 11
-55.11052109733368
 21
-149.8768274625309
 72
     1
 10
-55.11052109733368
 20
-149.8768274625309
 11
-54.75788443075481
 21
-150.1527702402395
 72
     1
 10
-54.75788443075481
 20
-150.1527702402395
 11
-40.07989471220249
 21
-150.1527702402395
 72
     1
 10
-40.07989471220249
 20
-150.1527702402395
 11
-39.74246276784233
 21
-149.9381402402935
 72
     1
 10
-39.74246276784233
 20
-149.9381402402935
 11
-39.55831276788806
 21
-149.6006730181552
 72
     1
 10
-39.55831276788806
 20
-149.6006730181552
 11
-39.55831276788806
 21
-149.2325846849143
 72
     1
 10
-39.55831276788806
 20
-149.2325846849143
 11
-39.75777332339358
 21
-148.8798069072247
 72
     1
 10
-39.75777332339358
 20
-148.8798069072247
 11
-39.54296693455865
 21
-147.1774071854277
 72
     1
 10
-39.54296693455865
 20
-147.1774071854277
 11
-39.54296693455865
 21
-107.3307338620562
 72
     1
 10
-39.54296693455865
 20
-107.3307338620562
 11
-39.45099776791472
 21
-107.299901084286
 72
     1
 10
-39.45099776791472
 20
-107.299901084286
 11
-33.62275610270553
 21
-107.299901084286
 72
     1
 10
-33.62275610270553
 20
-107.299901084286
 11
-33.62275610270553
 21
-100.6589652526132
 72
     1
 10
-33.62275610270553
 20
-100.6589652526132
 11
-39.54296693455865
 21
-100.6589652526132
 72
     1
 10
-39.54296693455865
 20
-100.6589652526132
 11
-39.54314332344753
 21
-68.20531470517105
 72
     1
 10
-39.54314332344753
 20
-68.20531470517105
 11
-40.07989471220249
 21
-67.60725053865378
 72
     1
 10
-40.07989471220249
 20
-67.60725053865378
 11
-37.46697554618857
 21
-67.60725053865378
 72
     1
 10
-37.46697554618857
 20
-67.60725053865378
 11
-37.46697554618857
 21
-54.50917609748368
 72
     1
 10
-37.46697554618857
 20
-54.50917609748368
 11
-41.61366665626294
 21
-54.43234109750309
 72
     1
 10
-41.61366665626294
 20
-54.43234109750309
 11
-41.61366665626294
 21
-54.23302165310829
 72
     1
 10
-41.61366665626294
 20
-54.23302165310829
 11
-41.84378360065041
 21
-53.95690248651074
 72
     1
 10
-41.84378360065041
 20
-53.95690248651074
 11
-52.91737220899302
 21
-53.95690248651074
 72
     1
 10
-52.91737220899302
 20
-53.95690248651074
 11
-53.16265859782038
 21
-54.24836748643803
 72
     1
 10
-53.16265859782038
 20
-54.24836748643803
 11
-53.1933149867017
 21
-54.44765165305466
 72
     1
 10
-53.1933149867017
 20
-54.44765165305466
 11
-57.22545915236054
 21
-54.5022616530411
 72
     1
 10
-57.22545915236054
 20
-54.5022616530411
 11
-57.29022915234381
 21
-67.6639066497508
 97
        1
330
7B
 75
     0
 76
     1
 98
        1
 10
0.0
 20
0.0
450
        0
451
        0
460
0.0
461
0.0
452
        0
462
0.0
453
        0
470

  0
LINE
  5
7E
330
70
100
AcDbEntity
  8
Ebene 5
 62
     7
370
     9
100
AcDbLine
 10
-70.92365508050938
 20
-150.1867408490462
 30
0.0
 11
-54.60234808642467
 21
-150.1867408490462
 31
0.0
  0
LINE
  5
7F
330
70
100
AcDbEntity
  8
Ebene 5
 62
     7
370
     9
100
AcDbLine
 10
-70.92365508050905
 20
-136.7118997413035
 30
0.0
 11
-46.67450256381844
 21
-136.7118997413035
 31
0.0
  0
LINE
  5
80
330
70
100
AcDbEntity
  8
Ebene 5
 62
     7
370
     9
100
AcDbLine
 10
-69.51323193226142
 20
-150.1867408490462
 30
0.0
 11
-69.51323193226142
 21
-136.9618997411272
 31
0.0
  0
LWPOLYLINE
  5
81
330
70
100
AcDbEntity
  8
Ebene 5
 62
     7
370
     9
100
AcDbPolyline
 90
        4
 70
     0
 43
0.0
 10
-69.51323193226142
 20
-150.1867408490462
 10
-69.33220401563978
 20
-148.8118600160564
 10
-69.69425984888308
 20
-148.8118600160564
 10
-69.51323193226142
 20
-150.1867408490462
  0
LINE
  5
82
330
70
100
AcDbEntity
  8
Ebene 5
 62
     7
370
     9
100
AcDbLine
 10
-69.3453979045251
 20
-148.8118600160564
 30
0.0
 11
-69.3453979045251
 21
-148.9135305715868
 31
0.0
  0
LINE
  5
83
330
70
100
AcDbEntity
  8
Ebene 5
 62
     7
370
     9
100
AcDbLine
 10
-69.3453979045251
 20
-148.8118600160564
 30
0.0
 11
-69.3453979045251
 21
-148.9135305715868
 31
0.0
  0
LINE
  5
84
330
70
100
AcDbEntity
  8
Ebene 5
 62
     7
370
     9
100
AcDbLine
 10
-69.37333790451816
 20
-148.8118600160564
 30
0.0
 11
-69.37333790451816
 21
-149.125602932645
 31
0.0
  0
LINE
  5
85
330
70
100
AcDbEntity
  8
Ebene 5
 62
     7
370
     9
100
AcDbLine
 10
-69.40127790451121
 20
-148.8118600160564
 30
0.0
 11
-69.40127790451121
 21
-149.3378693214806
 31
0.0
  0
LINE
  5
86
330
70
100
AcDbEntity
  8
Ebene 5
 62
     7
370
     9
100
AcDbLine
 10
-69.42921790450395
 20
-148.8118600160564
 30
0.0
 11
-69.42921790450395
 21
-149.5501357103162
 31
0.0
  0
LINE
  5
87
330
70
100
AcDbEntity
  8
Ebene 5
 62
     7
370
     9
100
AcDbLine
 10
-69.4573519322753
 20
-148.8118600160564
 30
0.0
 11
-69.4573519322753
 21
-149.7624020991524
 31
0.0
  0
LINE
  5
88
330
70
100
AcDbEntity
  8
Ebene 5
 62
     7
370
     9
100
AcDbLine
 10
-69.48529193226836
 20
-148.8118600160564
 30
0.0
 11
-69.48529193226836
 21
-149.9744744602106
 31
0.0
  0
LINE
  5
89
330
70
100
AcDbEntity
  8
Ebene 5
 62
     7
370
     9
100
AcDbLine
 10
-69.51323193226142
 20
-148.8118600160564
 30
0.0
 11
-69.51323193226142
 21
-150.1867408490462
 31
0.0
  0
LINE
  5
8A
330
70
100
AcDbEntity
  8
Ebene 5
 62
     7
370
     9
100
AcDbLine
 10
-69.68087193221979
 20
-148.8118600160564
 30
0.0
 11
-69.68087193221979
 21
-148.9135305715868
 31
0.0
  0
LINE
  5
8B
330
70
100
AcDbEntity
  8
Ebene 5
 62
     7
370
     9
100
AcDbLine
 10
-69.68087193221979
 20
-148.8118600160564
 30
0.0
 11
-69.68087193221979
 21
-148.9135305715868
 31
0.0
  0
LINE
  5
8C
330
70
100
AcDbEntity
  8
Ebene 5
 62
     7
370
     9
100
AcDbLine
 10
-69.65293193222672
 20
-148.8118600160564
 30
0.0
 11
-69.65293193222672
 21
-149.125602932645
 31
0.0
  0
LINE
  5
8D
330
70
100
AcDbEntity
  8
Ebene 5
 62
     7
370
     9
100
AcDbLine
 10
-69.62499193223367
 20
-148.8118600160564
 30
0.0
 11
-69.62499193223367
 21
-149.3378693214806
 31
0.0
  0
LINE
  5
8E
330
70
100
AcDbEntity
  8
Ebene 5
 62
     7
370
     9
100
AcDbLine
 10
-69.5970519322406
 20
-148.8118600160564
 30
0.0
 11
-69.5970519322406
 21
-149.5501357103162
 31
0.0
  0
LINE
  5
8F
330
70
100
AcDbEntity
  8
Ebene 5
 62
     7
370
     9
100
AcDbLine
 10
-69.56911193224754
 20
-148.8118600160564
 30
0.0
 11
-69.56911193224754
 21
-149.7624020991524
 31
0.0
  0
LINE
  5
90
330
70
100
AcDbEntity
  8
Ebene 5
 62
     7
370
     9
100
AcDbLine
 10
-69.54117193225449
 20
-148.8118600160564
 30
0.0
 11
-69.54117193225449
 21
-149.9744744602106
 31
0.0
  0
LINE
  5
91
330
70
100
AcDbEntity
  8
Ebene 5
 62
     7
370
     9
100
AcDbLine
 10
-69.51323193226142
 20
-148.8118600160564
 30
0.0
 11
-69.51323193226142
 21
-150.1867408490462
 31
0.0
  0
LWPOLYLINE
  5
92
330
70
100
AcDbEntity
  8
Ebene 5
 62
     7
370
     9
100
AcDbPolyline
 90
        4
 70
     0
 43
0.0
 10
-69.51323193226142
 20
-136.7118997413035
 10
-69.69425984888308
 20
-138.0867805742933
 10
-69.33220401563978
 20
-138.0867805742933
 10
-69.51323193226142
 20
-136.7118997413035
  0
LINE
  5
93
330
70
100
AcDbEntity
  8
Ebene 5
 62
     7
370
     9
100
AcDbLine
 10
-69.68087193221979
 20
-138.0867805742933
 30
0.0
 11
-69.68087193221979
 21
-137.9851100187635
 31
0.0
  0
LINE
  5
94
330
70
100
AcDbEntity
  8
Ebene 5
 62
     7
370
     9
100
AcDbLine
 10
-69.68087193221979
 20
-138.0867805742933
 30
0.0
 11
-69.68087193221979
 21
-137.9851100187635
 31
0.0
  0
LINE
  5
95
330
70
100
AcDbEntity
  8
Ebene 5
 62
     7
370
     9
100
AcDbLine
 10
-69.65293193222672
 20
-138.0867805742933
 30
0.0
 11
-69.65293193222672
 21
-137.7730376577053
 31
0.0
  0
LINE
  5
96
330
70
100
AcDbEntity
  8
Ebene 5
 62
     7
370
     9
100
AcDbLine
 10
-69.62499193223367
 20
-138.0867805742933
 30
0.0
 11
-69.62499193223367
 21
-137.5607712688691
 31
0.0
  0
LINE
  5
97
330
70
100
AcDbEntity
  8
Ebene 5
 62
     7
370
     9
100
AcDbLine
 10
-69.5970519322406
 20
-138.0867805742933
 30
0.0
 11
-69.5970519322406
 21
-137.3485048800335
 31
0.0
  0
LINE
  5
98
330
70
100
AcDbEntity
  8
Ebene 5
 62
     7
370
     9
100
AcDbLine
 10
-69.56911193224754
 20
-138.0867805742933
 30
0.0
 11
-69.56911193224754
 21
-137.136238491198
 31
0.0
  0
LINE
  5
99
330
70
100
AcDbEntity
  8
Ebene 5
 62
     7
370
     9
100
AcDbLine
 10
-69.54117193225449
 20
-138.0867805742933
 30
0.0
 11
-69.54117193225449
 21
-136.9241661301397
 31
0.0
  0
LINE
  5
9A
330
70
100
AcDbEntity
  8
Ebene 5
 62
     7
370
     9
100
AcDbLine
 10
-69.51323193226142
 20
-138.0867805742933
 30
0.0
 11
-69.51323193226142
 21
-136.7118997413035
 31
0.0
  0
LINE
  5
9B
330
70
100
AcDbEntity
  8
Ebene 5
 62
     7
370
     9
100
AcDbLine
 10
-69.3453979045251
 20
-138.0867805742933
 30
0.0
 11
-69.3453979045251
 21
-137.9851100187635
 31
0.0
  0
LINE
  5
9C
330
70
100
AcDbEntity
  8
Ebene 5
 62
     7
370
     9
100
AcDbLine
 10
-69.3453979045251
 20
-138.0867805742933
 30
0.0
 11
-69.3453979045251
 21
-137.9851100187635
 31
0.0
  0
LINE
  5
9D
330
70
100
AcDbEntity
  8
Ebene 5
 62
     7
370
     9
100
AcDbLine
 10
-69.37333790451816
 20
-138.0867805742933
 30
0.0
 11
-69.37333790451816
 21
-137.7730376577053
 31
0.0
  0
LINE
  5
9E
330
70
100
AcDbEntity
  8
Ebene 5
 62
     7
370
     9
100
AcDbLine
 10
-69.40127790451121
 20
-138.0867805742933
 30
0.0
 11
-69.40127790451121
 21
-137.5607712688691
 31
0.0
  0
LINE
  5
9F
330
70
100
AcDbEntity
  8
Ebene 5
 62
     7
370
     9
100
AcDbLine
 10
-69.42921790450395
 20
-138.0867805742933
 30
0.0
 11
-69.42921790450395
 21
-137.3485048800335
 31
0.0
  0
LINE
  5
A0
330
70
100
AcDbEntity
  8
Ebene 5
 62
     7
370
     9
100
AcDbLine
 10
-69.4573519322753
 20
-138.0867805742933
 30
0.0
 11
-69.4573519322753
 21
-137.136238491198
 31
0.0
  0
LINE
  5
A1
330
70
100
AcDbEntity
  8
Ebene 5
 62
     7
370
     9
100
AcDbLine
 10
-69.48529193226836
 20
-138.0867805742933
 30
0.0
 11
-69.48529193226836
 21
-136.9241661301397
 31
0.0
  0
LINE
  5
A2
330
70
100
AcDbEntity
  8
Ebene 5
 62
     7
370
     9
100
AcDbLine
 10
-69.51323193226142
 20
-138.0867805742933
 30
0.0
 11
-69.51323193226142
 21
-136.7118997413035
 31
0.0
  0
LINE
  5
A3
330
70
100
AcDbEntity
  8
Ebene 5
 62
     7
370
     9
100
AcDbLine
 10
-63.90896569156243
 20
-146.611779044384
 30
0.0
 11
-46.17679902476448
 21
-146.611779044384
 31
0.0
  0
LINE
  5
A4
330
70
100
AcDbEntity
  8
Ebene 5
 62
     7
370
     9
100
AcDbLine
 10
-62.97297815910783
 20
-136.7118997413035
 30
0.0
 11
-62.97297815910783
 21
-146.611779044384
 31
0.0
  0
LWPOLYLINE
  5
A5
330
70
100
AcDbEntity
  8
Ebene 5
 62
     7
370
     9
100
AcDbPolyline
 90
        4
 70
     0
 43
0.0
 10
-62.97297815910783
 20
-136.7118997413035
 10
-63.15400607572884
 20
-138.0867805742933
 10
-62.79195024248618
 20
-138.0867805742933
 10
-62.97297815910783
 20
-136.7118997413035
  0
LINE
  5
A6
330
70
100
AcDbEntity
  8
Ebene 5
 62
     7
370
     9
100
AcDbLine
 10
-63.14081218684351
 20
-138.0867805742933
 30
0.0
 11
-63.14081218684351
 21
-137.9851100187635
 31
0.0
  0
LINE
  5
A7
330
70
100
AcDbEntity
  8
Ebene 5
 62
     7
370
     9
100
AcDbLine
 10
-63.14081218684351
 20
-138.0867805742933
 30
0.0
 11
-63.14081218684351
 21
-137.9851100187635
 31
0.0
  0
LINE
  5
A8
330
70
100
AcDbEntity
  8
Ebene 5
 62
     7
370
     9
100
AcDbLine
 10
-63.11267815907314
 20
-138.0867805742933
 30
0.0
 11
-63.11267815907314
 21
-137.7730376577053
 31
0.0
  0
LINE
  5
A9
330
70
100
AcDbEntity
  8
Ebene 5
 62
     7
370
     9
100
AcDbLine
 10
-63.08473815908008
 20
-138.0867805742933
 30
0.0
 11
-63.08473815908008
 21
-137.5607712688691
 31
0.0
  0
LINE
  5
AA
330
70
100
AcDbEntity
  8
Ebene 5
 62
     7
370
     9
100
AcDbLine
 10
-63.05679815908701
 20
-138.0867805742933
 30
0.0
 11
-63.05679815908701
 21
-137.3485048800335
 31
0.0
  0
LINE
  5
AB
330
70
100
AcDbEntity
  8
Ebene 5
 62
     7
370
     9
100
AcDbLine
 10
-63.02885815909395
 20
-138.0867805742933
 30
0.0
 11
-63.02885815909395
 21
-137.136238491198
 31
0.0
  0
LINE
  5
AC
330
70
100
AcDbEntity
  8
Ebene 5
 62
     7
370
     9
100
AcDbLine
 10
-63.00091815910089
 20
-138.0867805742933
 30
0.0
 11
-63.00091815910089
 21
-136.9241661301397
 31
0.0
  0
LINE
  5
AD
330
70
100
AcDbEntity
  8
Ebene 5
 62
     7
370
     9
100
AcDbLine
 10
-62.97297815910783
 20
-138.0867805742933
 30
0.0
 11
-62.97297815910783
 21
-136.7118997413035
 31
0.0
  0
LINE
  5
AE
330
70
100
AcDbEntity
  8
Ebene 5
 62
     7
370
     9
100
AcDbLine
 10
-62.80553218692679
 20
-138.0867805742933
 30
0.0
 11
-62.80553218692679
 21
-137.9851100187635
 31
0.0
  0
LINE
  5
AF
330
70
100
AcDbEntity
  8
Ebene 5
 62
     7
370
     9
100
AcDbLine
 10
-62.80553218692679
 20
-138.0867805742933
 30
0.0
 11
-62.80553218692679
 21
-137.9851100187635
 31
0.0
  0
LINE
  5
B0
330
70
100
AcDbEntity
  8
Ebene 5
 62
     7
370
     9
100
AcDbLine
 10
-62.8334721869205
 20
-138.0867805742933
 30
0.0
 11
-62.8334721869205
 21
-137.7730376577053
 31
0.0
  0
LINE
  5
B1
330
70
100
AcDbEntity
  8
Ebene 5
 62
     7
370
     9
100
AcDbLine
 10
-62.8612181591356
 20
-138.0867805742933
 30
0.0
 11
-62.8612181591356
 21
-137.5607712688691
 31
0.0
  0
LINE
  5
B2
330
70
100
AcDbEntity
  8
Ebene 5
 62
     7
370
     9
100
AcDbLine
 10
-62.88915815912865
 20
-138.0867805742933
 30
0.0
 11
-62.88915815912865
 21
-137.3485048800335
 31
0.0
  0
LINE
  5
B3
330
70
100
AcDbEntity
  8
Ebene 5
 62
     7
370
     9
100
AcDbLine
 10
-62.91709815912171
 20
-138.0867805742933
 30
0.0
 11
-62.91709815912171
 21
-137.136238491198
 31
0.0
  0
LINE
  5
B4
330
70
100
AcDbEntity
  8
Ebene 5
 62
     7
370
     9
100
AcDbLine
 10
-62.94503815911477
 20
-138.0867805742933
 30
0.0
 11
-62.94503815911477
 21
-136.9241661301397
 31
0.0
  0
LINE
  5
B5
330
70
100
AcDbEntity
  8
Ebene 5
 62
     7
370
     9
100
AcDbLine
 10
-62.97297815910783
 20
-138.0867805742933
 30
0.0
 11
-62.97297815910783
 21
-136.7118997413035
 31
0.0
  0
LWPOLYLINE
  5
B6
330
70
100
AcDbEntity
  8
Ebene 5
 62
     7
370
     9
100
AcDbPolyline
 90
        4
 70
     0
 43
0.0
 10
-62.97297815910783
 20
-146.611779044384
 10
-62.79195024248618
 20
-145.2367041836176
 10
-63.15400607572884
 20
-145.2367041836176
 10
-62.97297815910783
 20
-146.611779044384
  0
LINE
  5
B7
330
70
100
AcDbEntity
  8
Ebene 5
 62
     7
370
     9
100
AcDbLine
 10
-62.80553218692679
 20
-145.2367041836176
 30
0.0
 11
-62.80553218692679
 21
-145.3383747391474
 31
0.0
  0
LINE
  5
B8
330
70
100
AcDbEntity
  8
Ebene 5
 62
     7
370
     9
100
AcDbLine
 10
-62.80553218692679
 20
-145.2367041836176
 30
0.0
 11
-62.80553218692679
 21
-145.3383747391474
 31
0.0
  0
LINE
  5
B9
330
70
100
AcDbEntity
  8
Ebene 5
 62
     7
370
     9
100
AcDbLine
 10
-62.8334721869205
 20
-145.2367041836176
 30
0.0
 11
-62.8334721869205
 21
-145.5506411279829
 31
0.0
  0
LINE
  5
BA
330
70
100
AcDbEntity
  8
Ebene 5
 62
     7
370
     9
100
AcDbLine
 10
-62.8612181591356
 20
-145.2367041836176
 30
0.0
 11
-62.8612181591356
 21
-145.7629075168185
 31
0.0
  0
LINE
  5
BB
330
70
100
AcDbEntity
  8
Ebene 5
 62
     7
370
     9
100
AcDbLine
 10
-62.88915815912865
 20
-145.2367041836176
 30
0.0
 11
-62.88915815912865
 21
-145.9749798778774
 31
0.0
  0
LINE
  5
BC
330
70
100
AcDbEntity
  8
Ebene 5
 62
     7
370
     9
100
AcDbLine
 10
-62.91709815912171
 20
-145.2367041836176
 30
0.0
 11
-62.91709815912171
 21
-146.1872462667129
 31
0.0
  0
LINE
  5
BD
330
70
100
AcDbEntity
  8
Ebene 5
 62
     7
370
     9
100
AcDbLine
 10
-62.94503815911477
 20
-145.2367041836176
 30
0.0
 11
-62.94503815911477
 21
-146.3995126555485
 31
0.0
  0
LINE
  5
BE
330
70
100
AcDbEntity
  8
Ebene 5
 62
     7
370
     9
100
AcDbLine
 10
-62.97297815910783
 20
-145.2367041836176
 30
0.0
 11
-62.97297815910783
 21
-146.611779044384
 31
0.0
  0
LINE
  5
BF
330
70
100
AcDbEntity
  8
Ebene 5
 62
     7
370
     9
100
AcDbLine
 10
-63.14081218684351
 20
-145.2367041836176
 30
0.0
 11
-63.14081218684351
 21
-145.3383747391474
 31
0.0
  0
LINE
  5
C0
330
70
100
AcDbEntity
  8
Ebene 5
 62
     7
370
     9
100
AcDbLine
 10
-63.14081218684351
 20
-145.2367041836176
 30
0.0
 11
-63.14081218684351
 21
-145.3383747391474
 31
0.0
  0
LINE
  5
C1
330
70
100
AcDbEntity
  8
Ebene 5
 62
     7
370
     9
100
AcDbLine
 10
-63.11267815907314
 20
-145.2367041836176
 30
0.0
 11
-63.11267815907314
 21
-145.5506411279829
 31
0.0
  0
LINE
  5
C2
330
70
100
AcDbEntity
  8
Ebene 5
 62
     7
370
     9
100
AcDbLine
 10
-63.08473815908008
 20
-145.2367041836176
 30
0.0
 11
-63.08473815908008
 21
-145.7629075168185
 31
0.0
  0
LINE
  5
C3
330
70
100
AcDbEntity
  8
Ebene 5
 62
     7
370
     9
100
AcDbLine
 10
-63.05679815908701
 20
-145.2367041836176
 30
0.0
 11
-63.05679815908701
 21
-145.9749798778774
 31
0.0
  0
LINE
  5
C4
330
70
100
AcDbEntity
  8
Ebene 5
 62
     7
370
     9
100
AcDbLine
 10
-63.02885815909395
 20
-145.2367041836176
 30
0.0
 11
-63.02885815909395
 21
-146.1872462667129
 31
0.0
  0
LINE
  5
C5
330
70
100
AcDbEntity
  8
Ebene 5
 62
     7
370
     9
100
AcDbLine
 10
-63.00091815910089
 20
-145.2367041836176
 30
0.0
 11
-63.00091815910089
 21
-146.3995126555485
 31
0.0
  0
LINE
  5
C6
330
70
100
AcDbEntity
  8
Ebene 5
 62
     7
370
     9
100
AcDbLine
 10
-62.97297815910783
 20
-145.2367041836176
 30
0.0
 11
-62.97297815910783
 21
-146.611779044384
 31
0.0
  0
MTEXT
  5
C7
330
70
100
AcDbEntity
  8
Ebene 5
100
AcDbMText
 10
-70.158723834523
 20
-146.6303478298246
 30
0.0
 40
0.2
 41
0.0
 46
0.0
 71
     7
 72
     1
  1
\C7;\FINDEX Univers 45 Light|b0|i0|c1;\H2.497667;\W1.000000;24,5
 11
0.0000000000000001
 21
1.0
 31
0.0
 73
     1
 44
1.0
  0
MTEXT
  5
C8
330
70
100
AcDbEntity
  8
Ebene 5
100
AcDbMText
 10
-63.61848845582638
 20
-144.1426659117725
 30
0.0
 40
0.2
 41
0.0
 46
0.0
 71
     7
 72
     1
  1
\C7;\FINDEX Univers 45 Light|b0|i0|c1;\H2.497667;\W1.000000;18
 11
0.0000000000000001
 21
1.0
 31
0.0
 73
     1
 44
1.0
  0
SPLINE
  5
CA
330
70
100
AcDbEntity
  8
Standardebene
 62
     7
370
     9
100
AcDbSpline
210
0.0
220
0.0
230
1.0
 70
     8
 71
     3
 72
    17
 73
    13
 74
     0
 42
0.0000000001
 43
0.0000000001
 40
0.0
 40
0.0
 40
0.0
 40
0.0
 40
1.0
 40
1.0
 40
1.0
 40
2.0
 40
2.0
 40
2.0
 40
3.0
 40
3.0
 40
3.0
 40
4.0
 40
4.0
 40
4.0
 40
4.0
 10
-23.35878457641576
 20
-164.2940843805706
 30
0.0
 10
-23.41580623655197
 20
-164.5060715422675
 30
0.0
 10
-23.44178348329506
 20
-164.7194056723141
 30
0.0
 10
-23.44024409089588
 20
-164.9113807328165
 30
0.0
 10
-23.44024409089588
 20
-166.2295496163365
 30
0.0
 10
-22.3719699069122
 20
-167.2984652138203
 30
0.0
 10
-21.05373688204247
 20
-167.2984652138203
 30
0.0
 10
-19.73582456392149
 20
-167.2984652138203
 30
0.0
 10
-18.66722967318907
 20
-166.2295496163365
 30
0.0
 10
-18.66722967318907
 20
-164.9113807328165
 30
0.0
 10
-18.66722967318907
 20
-163.813024255691
 30
0.0
 10
-19.4088319617034
 20
-162.8881701302718
 30
0.0
 10
-20.43579911629661
 20
-162.6065896038423
 30
0.0
  0
SPLINE
  5
CB
330
70
100
AcDbEntity
  8
Standardebene
 62
     7
370
     9
100
AcDbSpline
210
0.0
220
0.0
230
1.0
 70
     8
 71
     3
 72
    17
 73
    13
 74
     0
 42
0.0000000001
 43
0.0000000001
 40
0.0
 40
0.0
 40
0.0
 40
0.0
 40
1.0
 40
1.0
 40
1.0
 40
2.0
 40
2.0
 40
2.0
 40
3.0
 40
3.0
 40
3.0
 40
4.0
 40
4.0
 40
4.0
 40
4.0
 10
-23.35878457641576
 20
-182.2940714265703
 30
0.0
 10
-23.41580623655197
 20
-182.5060585882678
 30
0.0
 10
-23.44178348329506
 20
-182.7196492837148
 30
0.0
 10
-23.44024409089588
 20
-182.9119450509659
 30
0.0
 10
-23.44024409089588
 20
-184.2295366623369
 30
0.0
 10
-22.3719699069122
 20
-185.2981315530699
 30
0.0
 10
-21.05373688204247
 20
-185.2981315530699
 30
0.0
 10
-19.73582456392149
 20
-185.2981315530699
 30
0.0
 10
-18.66722967318907
 20
-184.2295366623369
 30
0.0
 10
-18.66722967318907
 20
-182.9119450509659
 30
0.0
 10
-18.66722967318907
 20
-181.813267867091
 30
0.0
 10
-19.4088319617034
 20
-180.8884137416725
 30
0.0
 10
-20.43579911629661
 20
-180.6068973565926
 30
0.0
  0
SPLINE
  5
CC
330
70
100
AcDbEntity
  8
Standardebene
 62
     7
370
     9
100
AcDbSpline
210
0.0
220
0.0
230
1.0
 70
     8
 71
     3
 72
     8
 73
     4
 74
     0
 42
0.0000000001
 43
0.0000000001
 40
0.0
 40
0.0
 40
0.0
 40
0.0
 40
1.0
 40
1.0
 40
1.0
 40
1.0
 10
-20.15550141686647
 20
-163.7099491062662
 30
0.0
 10
-20.25569020554107
 20
-163.6357375643347
 30
0.0
 10
-20.36158757436509
 20
-163.5749957059001
 30
0.0
 10
-20.4617763630397
 20
-163.53362453516
 30
0.0
  0
SPLINE
  5
CD
330
70
100
AcDbEntity
  8
Standardebene
 62
     7
370
     9
100
AcDbSpline
210
0.0
220
0.0
230
1.0
 70
     9
 71
     3
 72
    17
 73
    13
 74
     0
 42
0.0000000001
 43
0.0000000001
 40
0.0
 40
0.0
 40
0.0
 40
0.0
 40
1.0
 40
1.0
 40
1.0
 40
2.0
 40
2.0
 40
2.0
 40
3.0
 40
3.0
 40
3.0
 40
4.0
 40
4.0
 40
4.0
 40
4.0
 10
-21.05373688204247
 20
-162.9742478219508
 30
0.0
 10
-22.12329389302494
 20
-162.9742478219508
 30
0.0
 10
-22.99080565155721
 20
-163.841503015084
 30
0.0
 10
-22.99080565155721
 20
-164.9113807328165
 30
0.0
 10
-22.99080565155721
 20
-165.9818357226994
 30
0.0
 10
-22.12329389302494
 20
-166.8496681879816
 30
0.0
 10
-21.05373688204247
 20
-166.8496681879816
 30
0.0
 10
-19.98353845755997
 20
-166.8496681879816
 30
0.0
 10
-19.11602669902642
 20
-165.9818357226994
 30
0.0
 10
-19.11602669902642
 20
-164.9113807328165
 30
0.0
 10
-19.11602669902642
 20
-163.841503015084
 30
0.0
 10
-19.98353845755997
 20
-162.9742478219508
 30
0.0
 10
-21.05373688204247
 20
-162.9742478219508
 30
0.0
  0
LWPOLYLINE
  5
CE
330
70
100
AcDbEntity
  8
Standardebene
 62
     7
370
     9
100
AcDbPolyline
 90
        3
 70
     0
 43
0.0
 10
-20.15550141686647
 20
-163.7099491062662
 10
-19.56418231136501
 20
-164.0516300776304
 10
-19.56418231136501
 20
-164.7350561617102
  0
SPLINE
  5
CF
330
70
100
AcDbEntity
  8
Standardebene
 62
     7
370
     9
100
AcDbSpline
210
0.0
220
0.0
230
1.0
 70
     8
 71
     3
 72
     8
 73
     4
 74
     0
 42
0.0000000001
 43
0.0000000001
 40
0.0
 40
0.0
 40
0.0
 40
0.0
 40
1.0
 40
1.0
 40
1.0
 40
1.0
 10
-19.56418231136501
 20
-165.0880260106727
 30
0.0
 10
-19.5494939422183
 20
-164.9646180533033
 30
0.0
 10
-19.5503919211181
 20
-164.8427494883338
 30
0.0
 10
-19.56418231136501
 20
-164.7350561617102
 30
0.0
  0
LWPOLYLINE
  5
D0
330
70
100
AcDbEntity
  8
Standardebene
 62
     7
370
     9
100
AcDbPolyline
 90
        3
 70
     0
 43
0.0
 10
-19.56418231136501
 20
-165.0880260106727
 10
-19.56418231136501
 20
-165.7835748098985
 10
-21.06406363938881
 20
-166.6498678827815
  0
LINE
  5
D1
330
70
100
AcDbEntity
  8
Standardebene
 62
     7
370
     9
100
AcDbLine
 10
-22.56394496741453
 20
-165.7835748098985
 30
0.0
 11
-21.06406363938881
 21
-166.6498678827815
 31
0.0
  0
LINE
  5
D2
330
70
100
AcDbEntity
  8
Standardebene
 62
     7
370
     9
100
AcDbLine
 10
-22.56394496741453
 20
-164.0516300776304
 30
0.0
 11
-22.56394496741453
 21
-165.7835748098985
 31
0.0
  0
LINE
  5
D3
330
70
100
AcDbEntity
  8
Standardebene
 62
     7
370
     9
100
AcDbLine
 10
-21.06406363938881
 20
-163.1856577114973
 30
0.0
 11
-22.56394496741453
 21
-164.0516300776304
 31
0.0
  0
LINE
  5
D4
330
70
100
AcDbEntity
  8
Standardebene
 62
     7
370
     9
100
AcDbLine
 10
-21.06406363938881
 20
-163.1856577114973
 30
0.0
 11
-20.4617763630397
 21
-163.5329831216612
 31
0.0
  0
SPLINE
  5
D5
330
70
100
AcDbEntity
  8
Standardebene
 62
     7
370
     9
100
AcDbSpline
210
0.0
220
0.0
230
1.0
 70
     8
 71
     3
 72
    14
 73
    10
 74
     0
 42
0.0000000001
 43
0.0000000001
 40
0.0
 40
0.0
 40
0.0
 40
0.0
 40
1.0
 40
1.0
 40
1.0
 40
2.0
 40
2.0
 40
2.0
 40
3.0
 40
3.0
 40
3.0
 40
3.0
 10
-21.05373688204247
 20
-163.4121408182907
 30
0.0
 10
-21.88212241708477
 20
-163.4121408182907
 30
0.0
 10
-22.55361821006692
 20
-164.0833159045241
 30
0.0
 10
-22.55361821006692
 20
-164.9113807328165
 30
0.0
 10
-22.55361821006692
 20
-165.7403435400091
 30
0.0
 10
-21.88212241708477
 20
-166.4121600397407
 30
0.0
 10
-21.05373688204247
 20
-166.4121600397407
 30
0.0
 10
-20.28705532568356
 20
-166.4121600397407
 30
0.0
 10
-19.65532716969142
 20
-165.8374535438841
 30
0.0
 10
-19.56418231136501
 20
-165.0880260106727
 30
0.0
  0
SPLINE
  5
D6
330
70
100
AcDbEntity
  8
Standardebene
 62
     7
370
     9
100
AcDbSpline
210
0.0
220
0.0
230
1.0
 70
     8
 71
     3
 72
     8
 73
     4
 74
     0
 42
0.0000000001
 43
0.0000000001
 40
0.0
 40
0.0
 40
0.0
 40
0.0
 40
1.0
 40
1.0
 40
1.0
 40
1.0
 10
-19.56418231136501
 20
-164.7350561617102
 30
0.0
 10
-19.61402014030223
 20
-164.3106328488659
 30
0.0
 10
-19.8379375930962
 20
-163.9482983628071
 30
0.0
 10
-20.15550141686647
 20
-163.7099491062662
 30
0.0
  0
SPLINE
  5
D7
330
70
100
AcDbEntity
  8
Standardebene
 62
     7
370
     9
100
AcDbSpline
210
0.0
220
0.0
230
1.0
 70
     8
 71
     3
 72
     8
 73
     4
 74
     0
 42
0.0000000001
 43
0.0000000001
 40
0.0
 40
0.0
 40
0.0
 40
0.0
 40
1.0
 40
1.0
 40
1.0
 40
1.0
 10
-20.4617763630397
 20
-163.53362453516
 30
0.0
 10
-20.65785646994072
 20
-163.4490862358815
 30
0.0
 10
-20.8629805071893
 20
-163.4098958710419
 30
0.0
 10
-21.05373688204247
 20
-163.4121408182907
 30
0.0
  0
SPLINE
  5
D8
330
70
100
AcDbEntity
  8
Standardebene
 62
     7
370
     9
100
AcDbSpline
210
0.0
220
0.0
230
1.0
 70
     9
 71
     3
 72
    17
 73
    13
 74
     0
 42
0.0000000001
 43
0.0000000001
 40
0.0
 40
0.0
 40
0.0
 40
0.0
 40
1.0
 40
1.0
 40
1.0
 40
2.0
 40
2.0
 40
2.0
 40
3.0
 40
3.0
 40
3.0
 40
4.0
 40
4.0
 40
4.0
 40
4.0
 10
-21.05373688204247
 20
-161.9116180767669
 30
0.0
 10
-22.71018724537769
 20
-161.9116180767669
 30
0.0
 10
-24.05343539674238
 20
-163.2546096627299
 30
0.0
 10
-24.05343539674238
 20
-164.9113807328165
 30
0.0
 10
-24.05343539674238
 20
-166.5687932164024
 30
0.0
 10
-22.71018724537769
 20
-167.9117206610164
 30
0.0
 10
-21.05373688204247
 20
-167.9117206610164
 30
0.0
 10
-19.39696581195595
 20
-167.9117206610164
 30
0.0
 10
-18.05333281249163
 20
-166.5687932164024
 30
0.0
 10
-18.05333281249163
 20
-164.9113807328165
 30
0.0
 10
-18.05333281249163
 20
-163.2546096627299
 30
0.0
 10
-19.39696581195595
 20
-161.9116180767669
 30
0.0
 10
-21.05373688204247
 20
-161.9116180767669
 30
0.0
  0
SPLINE
  5
D9
330
70
100
AcDbEntity
  8
Standardebene
 62
     7
370
     9
100
AcDbSpline
210
0.0
220
0.0
230
1.0
 70
     9
 71
     3
 72
    17
 73
    13
 74
     0
 42
0.0000000001
 43
0.0000000001
 40
0.0
 40
0.0
 40
0.0
 40
0.0
 40
1.0
 40
1.0
 40
1.0
 40
2.0
 40
2.0
 40
2.0
 40
3.0
 40
3.0
 40
3.0
 40
4.0
 40
4.0
 40
4.0
 40
4.0
 10
-21.05373688204247
 20
-180.9745555747011
 30
0.0
 10
-22.12329389302494
 20
-180.9745555747011
 30
0.0
 10
-22.99080565155721
 20
-181.8414900610843
 30
0.0
 10
-22.99080565155721
 20
-182.9119450509659
 30
0.0
 10
-22.99080565155721
 20
-183.981822768699
 30
0.0
 10
-22.12329389302494
 20
-184.8490779618322
 30
0.0
 10
-21.05373688204247
 20
-184.8490779618322
 30
0.0
 10
-19.98353845755997
 20
-184.8490779618322
 30
0.0
 10
-19.11602669902642
 20
-183.981822768699
 30
0.0
 10
-19.11602669902642
 20
-182.9119450509659
 30
0.0
 10
-19.11602669902642
 20
-181.8414900610843
 30
0.0
 10
-19.98353845755997
 20
-180.9745555747011
 30
0.0
 10
-21.05373688204247
 20
-180.9745555747011
 30
0.0
  0
SPLINE
  5
DA
330
70
100
AcDbEntity
  8
Standardebene
 62
     7
370
     9
100
AcDbSpline
210
0.0
220
0.0
230
1.0
 70
     8
 71
     3
 72
     8
 73
     4
 74
     0
 42
0.0000000001
 43
0.0000000001
 40
0.0
 40
0.0
 40
0.0
 40
0.0
 40
1.0
 40
1.0
 40
1.0
 40
1.0
 10
-20.15550141686647
 20
-181.7102568590165
 30
0.0
 10
-20.25569020554107
 20
-181.6360453170844
 30
0.0
 10
-20.36158757436509
 20
-181.5752393173008
 30
0.0
 10
-20.4617763630397
 20
-181.5332908744103
 30
0.0
  0
LWPOLYLINE
  5
DB
330
70
100
AcDbEntity
  8
Standardebene
 62
     7
370
     9
100
AcDbPolyline
 90
        3
 70
     0
 43
0.0
 10
-20.15550141686647
 20
-181.7102568590165
 10
-19.56418231136501
 20
-182.0516171236307
 10
-19.56418231136501
 20
-182.7350432077105
  0
SPLINE
  5
DC
330
70
100
AcDbEntity
  8
Standardebene
 62
     7
370
     9
100
AcDbSpline
210
0.0
220
0.0
230
1.0
 70
     8
 71
     3
 72
     8
 73
     4
 74
     0
 42
0.0000000001
 43
0.0000000001
 40
0.0
 40
0.0
 40
0.0
 40
0.0
 40
1.0
 40
1.0
 40
1.0
 40
1.0
 10
-19.56418231136501
 20
-183.0882696220721
 30
0.0
 10
-19.5494939422183
 20
-182.9642843925536
 30
0.0
 10
-19.5503919211181
 20
-182.8427365343335
 30
0.0
 10
-19.56418231136501
 20
-182.7350432077105
 30
0.0
  0
LWPOLYLINE
  5
DD
330
70
100
AcDbEntity
  8
Standardebene
 62
     7
370
     9
100
AcDbPolyline
 90
        3
 70
     0
 43
0.0
 10
-19.56418231136501
 20
-183.0882696220721
 10
-19.56418231136501
 20
-183.7835618558988
 10
-21.06406363938881
 20
-184.6501756355319
  0
LINE
  5
DE
330
70
100
AcDbEntity
  8
Standardebene
 62
     7
370
     9
100
AcDbLine
 10
-22.56394496741453
 20
-183.7835618558988
 30
0.0
 11
-21.06406363938881
 21
-184.6501756355319
 31
0.0
  0
LINE
  5
DF
330
70
100
AcDbEntity
  8
Standardebene
 62
     7
370
     9
100
AcDbLine
 10
-22.56394496741453
 20
-182.0516171236307
 30
0.0
 11
-22.56394496741453
 21
-183.7835618558988
 31
0.0
  0
LINE
  5
E0
330
70
100
AcDbEntity
  8
Standardebene
 62
     7
370
     9
100
AcDbLine
 10
-21.06406363938881
 20
-181.1853240507476
 30
0.0
 11
-22.56394496741453
 21
-182.0516171236307
 31
0.0
  0
LINE
  5
E1
330
70
100
AcDbEntity
  8
Standardebene
 62
     7
370
     9
100
AcDbLine
 10
-21.06406363938881
 20
-181.1853240507476
 30
0.0
 11
-20.4617763630397
 21
-181.5332908744103
 31
0.0
  0
SPLINE
  5
E2
330
70
100
AcDbEntity
  8
Standardebene
 62
     7
370
     9
100
AcDbSpline
210
0.0
220
0.0
230
1.0
 70
     8
 71
     3
 72
    14
 73
    10
 74
     0
 42
0.0000000001
 43
0.0000000001
 40
0.0
 40
0.0
 40
0.0
 40
0.0
 40
1.0
 40
1.0
 40
1.0
 40
2.0
 40
2.0
 40
2.0
 40
3.0
 40
3.0
 40
3.0
 40
3.0
 10
-21.05373688204247
 20
-181.411807157541
 30
0.0
 10
-21.88212241708477
 20
-181.411807157541
 30
0.0
 10
-22.55361821006692
 20
-182.0835595159229
 30
0.0
 10
-22.55361821006692
 20
-182.9119450509659
 30
0.0
 10
-22.55361821006692
 20
-183.7397533138591
 30
0.0
 10
-21.88212241708477
 20
-184.4115056722409
 30
0.0
 10
-21.05373688204247
 20
-184.4115056722409
 30
0.0
 10
-20.28705532568356
 20
-184.4115056722409
 30
0.0
 10
-19.65532716969142
 20
-183.8374405898844
 30
0.0
 10
-19.56418231136501
 20
-183.0882696220721
 30
0.0
  0
SPLINE
  5
E3
330
70
100
AcDbEntity
  8
Standardebene
 62
     7
370
     9
100
AcDbSpline
210
0.0
220
0.0
230
1.0
 70
     8
 71
     3
 72
     8
 73
     4
 74
     0
 42
0.0000000001
 43
0.0000000001
 40
0.0
 40
0.0
 40
0.0
 40
0.0
 40
1.0
 40
1.0
 40
1.0
 40
1.0
 10
-19.56418231136501
 20
-182.7350432077105
 30
0.0
 10
-19.61402014030223
 20
-182.3100426227171
 30
0.0
 10
-19.8379375930962
 20
-181.9482854088068
 30
0.0
 10
-20.15550141686647
 20
-181.7102568590165
 30
0.0
  0
SPLINE
  5
E4
330
70
100
AcDbEntity
  8
Standardebene
 62
     7
370
     9
100
AcDbSpline
210
0.0
220
0.0
230
1.0
 70
     8
 71
     3
 72
     8
 73
     4
 74
     0
 42
0.0000000001
 43
0.0000000001
 40
0.0
 40
0.0
 40
0.0
 40
0.0
 40
1.0
 40
1.0
 40
1.0
 40
1.0
 10
-20.4617763630397
 20
-181.5332908744103
 30
0.0
 10
-20.65785646994072
 20
-181.4493939886318
 30
0.0
 10
-20.8629805071893
 20
-181.410203623791
 30
0.0
 10
-21.05373688204247
 20
-181.411807157541
 30
0.0
  0
SPLINE
  5
E5
330
70
100
AcDbEntity
  8
Standardebene
 62
     7
370
     9
100
AcDbSpline
210
0.0
220
0.0
230
1.0
 70
     9
 71
     3
 72
    17
 73
    13
 74
     0
 42
0.0000000001
 43
0.0000000001
 40
0.0
 40
0.0
 40
0.0
 40
0.0
 40
1.0
 40
1.0
 40
1.0
 40
2.0
 40
2.0
 40
2.0
 40
3.0
 40
3.0
 40
3.0
 40
4.0
 40
4.0
 40
4.0
 40
4.0
 10
-21.05373688204247
 20
-179.9116051227659
 30
0.0
 10
-22.71018724537769
 20
-179.9116051227659
 30
0.0
 10
-24.05343539674238
 20
-181.2548532741306
 30
0.0
 10
-24.05343539674238
 20
-182.9119450509659
 30
0.0
 10
-24.05343539674238
 20
-184.5690368278018
 30
0.0
 10
-22.71018724537769
 20
-185.9117077070167
 30
0.0
 10
-21.05373688204247
 20
-185.9117077070167
 30
0.0
 10
-19.39696581195595
 20
-185.9117077070167
 30
0.0
 10
-18.05333281249163
 20
-184.5690368278018
 30
0.0
 10
-18.05333281249163
 20
-182.9119450509659
 30
0.0
 10
-18.05333281249163
 20
-181.2548532741306
 30
0.0
 10
-19.39696581195595
 20
-179.9116051227659
 30
0.0
 10
-21.05373688204247
 20
-179.9116051227659
 30
0.0
  0
LINE
  5
E6
330
70
100
AcDbEntity
  8
Standardebene
 62
     7
370
     9
100
AcDbLine
 10
-119.2758234837868
 20
-188.4121940947916
 30
0.0
 11
-119.2758234837868
 21
-187.8970107717199
 31
0.0
  0
LINE
  5
E7
330
70
100
AcDbEntity
  8
Standardebene
 62
     7
370
     9
100
AcDbLine
 10
-119.2758234837868
 20
-186.8688249314762
 30
0.0
 11
-119.2758234837868
 21
-185.8396769709838
 31
0.0
  0
LINE
  5
E8
330
70
100
AcDbEntity
  8
Standardebene
 62
     7
370
     9
100
AcDbLine
 10
-119.2758234837868
 20
-184.8108497172414
 30
0.0
 11
-119.2758234837868
 21
-183.7820224634983
 31
0.0
  0
LINE
  5
E9
330
70
100
AcDbEntity
  8
Standardebene
 62
     7
370
     9
100
AcDbLine
 10
-119.2758234837868
 20
-182.7528745030059
 30
0.0
 11
-119.2758234837868
 21
-181.7243679560134
 31
0.0
  0
LINE
  5
EA
330
70
100
AcDbEntity
  8
Standardebene
 62
     7
370
     9
100
AcDbLine
 10
-119.2758234837868
 20
-180.6952199955198
 30
0.0
 11
-119.2758234837868
 21
-179.6667134485273
 31
0.0
  0
LINE
  5
EB
330
70
100
AcDbEntity
  8
Standardebene
 62
     7
370
     9
100
AcDbLine
 10
-119.2758234837868
 20
-178.6375654880349
 30
0.0
 11
-119.2758234837868
 21
-177.6087382342912
 31
0.0
  0
LINE
  5
EC
330
70
100
AcDbEntity
  8
Standardebene
 62
     7
370
     9
100
AcDbLine
 10
-119.2758234837868
 20
-176.5799109805488
 30
0.0
 11
-119.2758234837868
 21
-175.550763020057
 31
0.0
  0
LINE
  5
ED
330
70
100
AcDbEntity
  8
Standardebene
 62
     7
370
     9
100
AcDbLine
 10
-119.2758234837868
 20
-174.5219357663133
 30
0.0
 11
-119.2758234837868
 21
-173.493429219321
 31
0.0
  0
LINE
  5
EE
330
70
100
AcDbEntity
  8
Standardebene
 62
     7
370
     9
100
AcDbLine
 10
-119.2758234837868
 20
-172.4645378242276
 30
0.0
 11
-119.2758234837868
 21
-171.4357105704852
 31
0.0
  0
LINE
  5
EF
330
70
100
AcDbEntity
  8
Standardebene
 62
     7
370
     9
100
AcDbLine
 10
-119.2758234837868
 20
-170.4066267513424
 30
0.0
 11
-119.2758234837868
 21
-169.3777353562491
 31
0.0
  0
LINE
  5
F0
330
70
100
AcDbEntity
  8
Standardebene
 62
     7
370
     9
100
AcDbLine
 10
-119.2758234837868
 20
-168.3492288092567
 30
0.0
 11
-119.2758234837868
 21
-167.3198242833639
 31
0.0
  0
LINE
  5
F1
330
70
100
AcDbEntity
  8
Standardebene
 62
     7
370
     9
100
AcDbLine
 10
-119.2758234837868
 20
-166.2912535950212
 30
0.0
 11
-119.2758234837868
 21
-165.2624263412788
 31
0.0
  0
LINE
  5
F2
330
70
100
AcDbEntity
  8
Standardebene
 62
     7
370
     9
100
AcDbLine
 10
-119.2758234837868
 20
-164.2332783807864
 30
0.0
 11
-119.2758234837868
 21
-163.2044511270427
 31
0.0
  0
LINE
  5
F3
330
70
100
AcDbEntity
  8
Standardebene
 62
     7
370
     9
100
AcDbLine
 10
-119.2758234837868
 20
-162.1759445800503
 30
0.0
 11
-119.2758234837868
 21
-161.1464759128078
 31
0.0
  0
LINE
  5
F4
330
70
100
AcDbEntity
  8
Standardebene
 62
     7
370
     9
100
AcDbLine
 10
-119.2758234837868
 20
-160.1182900725642
 30
0.0
 11
-119.2758234837868
 21
-159.0891421120724
 31
0.0
  0
LINE
  5
F5
330
70
100
AcDbEntity
  8
Standardebene
 62
     7
370
     9
100
AcDbLine
 10
-119.2758234837868
 20
-158.0599941515787
 30
0.0
 11
-119.2758234837868
 21
-157.0318083113363
 31
0.0
  0
LINE
  5
F6
330
70
100
AcDbEntity
  8
Standardebene
 62
     7
370
     9
100
AcDbLine
 10
-119.2758234837868
 20
-156.0023396440938
 30
0.0
 11
-119.2758234837868
 21
-154.9741538038502
 31
0.0
  0
LINE
  5
F7
330
70
100
AcDbEntity
  8
Standardebene
 62
     7
370
     9
100
AcDbLine
 10
-119.2758234837868
 20
-153.9450058433578
 30
0.0
 11
-119.2758234837868
 21
-153.4307204991871
 31
0.0
  0
LINE
  5
F8
330
70
100
AcDbEntity
  8
Standardebene
 62
     7
370
     9
100
AcDbLine
 10
-101.2764778512865
 20
-188.4121940947916
 30
0.0
 11
-101.2764778512865
 21
-187.8970107717199
 31
0.0
  0
LINE
  5
F9
330
70
100
AcDbEntity
  8
Standardebene
 62
     7
370
     9
100
AcDbLine
 10
-101.2764778512865
 20
-186.8688249314762
 30
0.0
 11
-101.2764778512865
 21
-185.8396769709838
 31
0.0
  0
LINE
  5
FA
330
70
100
AcDbEntity
  8
Standardebene
 62
     7
370
     9
100
AcDbLine
 10
-101.2764778512865
 20
-184.8108497172414
 30
0.0
 11
-101.2764778512865
 21
-183.7820224634983
 31
0.0
  0
LINE
  5
FB
330
70
100
AcDbEntity
  8
Standardebene
 62
     7
370
     9
100
AcDbLine
 10
-101.2764778512865
 20
-182.7528745030059
 30
0.0
 11
-101.2764778512865
 21
-181.7243679560134
 31
0.0
  0
LINE
  5
FC
330
70
100
AcDbEntity
  8
Standardebene
 62
     7
370
     9
100
AcDbLine
 10
-101.2764778512865
 20
-180.6952199955198
 30
0.0
 11
-101.2764778512865
 21
-179.6667134485273
 31
0.0
  0
LINE
  5
FD
330
70
100
AcDbEntity
  8
Standardebene
 62
     7
370
     9
100
AcDbLine
 10
-101.2764778512865
 20
-178.6375654880349
 30
0.0
 11
-101.2764778512865
 21
-177.6087382342912
 31
0.0
  0
LINE
  5
FE
330
70
100
AcDbEntity
  8
Standardebene
 62
     7
370
     9
100
AcDbLine
 10
-101.2764778512865
 20
-176.5799109805488
 30
0.0
 11
-101.2764778512865
 21
-175.550763020057
 31
0.0
  0
LINE
  5
FF
330
70
100
AcDbEntity
  8
Standardebene
 62
     7
370
     9
100
AcDbLine
 10
-101.2764778512865
 20
-174.5219357663133
 30
0.0
 11
-101.2764778512865
 21
-173.493429219321
 31
0.0
  0
LINE
  5
100
330
70
100
AcDbEntity
  8
Standardebene
 62
     7
370
     9
100
AcDbLine
 10
-101.2764778512865
 20
-172.4645378242276
 30
0.0
 11
-101.2764778512865
 21
-171.4357105704852
 31
0.0
  0
LINE
  5
101
330
70
100
AcDbEntity
  8
Standardebene
 62
     7
370
     9
100
AcDbLine
 10
-101.2764778512865
 20
-170.4066267513424
 30
0.0
 11
-101.2764778512865
 21
-169.3777353562491
 31
0.0
  0
LINE
  5
102
330
70
100
AcDbEntity
  8
Standardebene
 62
     7
370
     9
100
AcDbLine
 10
-101.2764778512865
 20
-168.3492288092567
 30
0.0
 11
-101.2764778512865
 21
-167.3198242833639
 31
0.0
  0
LINE
  5
103
330
70
100
AcDbEntity
  8
Standardebene
 62
     7
370
     9
100
AcDbLine
 10
-101.2764778512865
 20
-166.2912535950212
 30
0.0
 11
-101.2764778512865
 21
-165.2624263412788
 31
0.0
  0
LINE
  5
104
330
70
100
AcDbEntity
  8
Standardebene
 62
     7
370
     9
100
AcDbLine
 10
-101.2764778512865
 20
-164.2332783807864
 30
0.0
 11
-101.2764778512865
 21
-163.2044511270427
 31
0.0
  0
LINE
  5
105
330
70
100
AcDbEntity
  8
Standardebene
 62
     7
370
     9
100
AcDbLine
 10
-101.2764778512865
 20
-162.1759445800503
 30
0.0
 11
-101.2764778512865
 21
-161.1464759128078
 31
0.0
  0
LINE
  5
106
330
70
100
AcDbEntity
  8
Standardebene
 62
     7
370
     9
100
AcDbLine
 10
-101.2764778512865
 20
-160.1182900725642
 30
0.0
 11
-101.2764778512865
 21
-159.0891421120724
 31
0.0
  0
LINE
  5
107
330
70
100
AcDbEntity
  8
Standardebene
 62
     7
370
     9
100
AcDbLine
 10
-101.2764778512865
 20
-158.0599941515787
 30
0.0
 11
-101.2764778512865
 21
-157.0318083113363
 31
0.0
  0
LINE
  5
108
330
70
100
AcDbEntity
  8
Standardebene
 62
     7
370
     9
100
AcDbLine
 10
-101.2764778512865
 20
-156.0023396440938
 30
0.0
 11
-101.2764778512865
 21
-154.9741538038502
 31
0.0
  0
LINE
  5
109
330
70
100
AcDbEntity
  8
Standardebene
 62
     7
370
     9
100
AcDbLine
 10
-101.2764778512865
 20
-153.9450058433578
 30
0.0
 11
-101.2764778512865
 21
-153.4307204991871
 31
0.0
  0
LINE
  5
10A
330
70
100
AcDbEntity
  8
Standardebene
 62
     7
370
     9
100
AcDbLine
 10
-119.2758234837868
 20
-188.4121940947916
 30
0.0
 11
-119.4207829347499
 21
-188.6615115221789
 31
0.0
  0
LINE
  5
10B
330
70
100
AcDbEntity
  8
Standardebene
 62
     7
370
     9
100
AcDbLine
 10
-119.7095472923778
 20
-189.1616857693539
 30
0.0
 11
-119.8536087644417
 21
-189.4115804688916
 31
0.0
  0
LINE
  5
10C
330
70
100
AcDbEntity
  8
Standardebene
 62
     7
370
     9
100
AcDbLine
 10
-101.2764778512865
 20
-188.4121940947916
 30
0.0
 11
-101.1320956724719
 21
-188.6615115221789
 31
0.0
  0
LINE
  5
10D
330
70
100
AcDbEntity
  8
Standardebene
 62
     7
370
     9
100
AcDbLine
 10
-100.8430106080946
 20
-189.1616857693539
 30
0.0
 11
-100.6986284292807
 21
-189.4115804688916
 31
0.0
  0
LINE
  5
10E
330
70
100
AcDbEntity
  8
Standardebene
 62
     7
370
     9
100
AcDbLine
 10
-119.2758234837868
 20
-153.4307204991871
 30
0.0
 11
-118.7762906501111
 21
-153.4307204991871
 31
0.0
  0
LINE
  5
10F
330
70
100
AcDbEntity
  8
Standardebene
 62
     7
370
     9
100
AcDbLine
 10
-117.7759421557611
 20
-153.4307204991871
 30
0.0
 11
-116.7765557816617
 21
-153.4307204991871
 31
0.0
  0
LINE
  5
110
330
70
100
AcDbEntity
  8
Standardebene
 62
     7
370
     9
100
AcDbLine
 10
-115.7762072873116
 20
-153.4307204991871
 30
0.0
 11
-114.7761794997115
 21
-153.4307204991871
 31
0.0
  0
LINE
  5
111
330
70
100
AcDbEntity
  8
Standardebene
 62
     7
370
     9
100
AcDbLine
 10
-113.7764724188615
 20
-153.4307204991871
 30
0.0
 11
-112.775867359111
 21
-153.4307204991871
 31
0.0
  0
LINE
  5
112
330
70
100
AcDbEntity
  8
Standardebene
 62
     7
370
     9
100
AcDbLine
 10
-111.7764809850116
 20
-153.4307204991871
 30
0.0
 11
-110.7764531974116
 21
-153.4307204991871
 31
0.0
  0
LINE
  5
113
330
70
100
AcDbEntity
  8
Standardebene
 62
     7
370
     9
100
AcDbLine
 10
-109.7757839963115
 20
-153.4307204991871
 30
0.0
 11
-108.7763976222115
 21
-153.4307204991871
 31
0.0
  0
LINE
  5
114
330
70
100
AcDbEntity
  8
Standardebene
 62
     7
370
     9
100
AcDbLine
 10
-107.776113269211
 20
-153.4307204991871
 30
0.0
 11
-106.7757647748616
 21
-153.4307204991871
 31
0.0
  0
LINE
  5
115
330
70
100
AcDbEntity
  8
Standardebene
 62
     7
370
     9
100
AcDbLine
 10
-105.7763784007615
 20
-153.4307204991871
 30
0.0
 11
-104.7760299064115
 21
-153.4307204991871
 31
0.0
  0
LINE
  5
116
330
70
100
AcDbEntity
  8
Standardebene
 62
     7
370
     9
100
AcDbLine
 10
-103.7763228255614
 20
-153.4307204991871
 30
0.0
 11
-102.7759743312113
 21
-153.4307204991871
 31
0.0
  0
LINE
  5
117
330
70
100
AcDbEntity
  8
Standardebene
 62
     7
370
     9
100
AcDbLine
 10
-101.7760106849615
 20
-153.4307204991871
 30
0.0
 11
-101.2764778512865
 21
-153.4307204991871
 31
0.0
  0
LINE
  5
118
330
70
100
AcDbEntity
  8
Standardebene
 62
     7
370
     9
100
AcDbLine
 10
-124.266469501989
 20
-180.6970800946702
 30
0.0
 11
-124.4259248980493
 21
-180.9745555747011
 31
0.0
  0
LINE
  5
119
330
70
100
AcDbEntity
  8
Standardebene
 62
     7
370
     9
100
AcDbLine
 10
-124.4259248980493
 20
-184.8490779618322
 30
0.0
 11
-124.1261923695738
 21
-185.3689436034524
 31
0.0
  0
LINE
  5
11A
330
70
100
AcDbEntity
  8
Standardebene
 62
     7
370
     9
100
AcDbLine
 10
-124.2674316222384
 20
-162.6995945613192
 30
0.0
 11
-124.4259248980493
 21
-162.9742478219508
 31
0.0
  0
LINE
  5
11B
330
70
100
AcDbEntity
  8
Standardebene
 62
     7
370
     9
100
AcDbLine
 10
-124.4259248980493
 20
-166.8490909158325
 30
0.0
 11
-124.2674316222384
 21
-167.1243855899629
 31
0.0
  0
LINE
  5
11C
330
70
100
AcDbEntity
  8
Standardebene
 62
     7
370
     9
100
AcDbLine
 10
-124.1666014200638
 20
-185.2981315530699
 30
0.0
 11
-124.1261923695738
 21
-185.2981315530699
 31
0.0
  0
SPLINE
  5
11D
330
70
100
AcDbEntity
  8
Standardebene
 62
     7
370
     9
100
AcDbSpline
210
0.0
220
0.0
230
1.0
 70
     8
 71
     3
 72
    17
 73
    13
 74
     0
 42
0.0000000001
 43
0.0000000001
 40
0.0
 40
0.0
 40
0.0
 40
0.0
 40
1.0
 40
1.0
 40
1.0
 40
2.0
 40
2.0
 40
2.0
 40
3.0
 40
3.0
 40
3.0
 40
4.0
 40
4.0
 40
4.0
 40
4.0
 10
-112.2080239877034
 20
-104.8941271287707
 30
0.0
 10
-112.2553603039914
 20
-105.0719910922762
 30
0.0
 10
-112.2778739178359
 20
-105.2501757625316
 30
0.0
 10
-112.2760138186867
 20
-105.4118119644911
 30
0.0
 10
-112.2760138186867
 20
-106.5164542939151
 30
0.0
 10
-111.3809212796599
 20
-107.4118033983416
 30
0.0
 10
-110.2759582434865
 20
-107.4118033983416
 30
0.0
 10
-109.1719573275625
 20
-107.4118033983416
 30
0.0
 10
-108.2762233750364
 20
-106.5164542939151
 30
0.0
 10
-108.2762233750364
 20
-105.4118119644911
 30
0.0
 10
-108.2762233750364
 20
-104.4916401576211
 30
0.0
 10
-108.898266187181
 20
-103.716171236315
 30
0.0
 10
-109.7585941145155
 20
-103.4800669270242
 30
0.0
  0
LWPOLYLINE
  5
11E
330
70
100
AcDbEntity
  8
Standardebene
 62
     7
370
     9
100
AcDbPolyline
 90
        5
 70
     0
 43
0.0
 10
-124.4259248980493
 20
-164.9113807328165
 10
-124.4259248980493
 20
-164.1706764232013
 10
-124.4259248980493
 20
-163.541770486609
 10
-124.4259248980493
 20
-163.1217729269134
 10
-124.4259248980493
 20
-162.9742478219508
  0
LWPOLYLINE
  5
11F
330
70
100
AcDbEntity
  8
Standardebene
 62
     7
370
     9
100
AcDbPolyline
 90
        5
 70
     0
 43
0.0
 10
-124.4259248980493
 20
-166.8490909158325
 10
-124.4259248980493
 20
-166.7015658108686
 10
-124.4259248980493
 20
-166.281888957923
 10
-124.4259248980493
 20
-165.6529830213307
 10
-124.4259248980493
 20
-164.9113807328165
  0
LWPOLYLINE
  5
120
330
70
100
AcDbEntity
  8
Standardebene
 62
     7
370
     9
100
AcDbPolyline
 90
        5
 70
     0
 43
0.0
 10
-124.4259248980493
 20
-182.9119450509659
 10
-124.4259248980493
 20
-182.1703427624516
 10
-124.4259248980493
 20
-181.5417575326087
 10
-124.4259248980493
 20
-181.1220806796637
 10
-124.4259248980493
 20
-180.9745555747011
  0
LWPOLYLINE
  5
121
330
70
100
AcDbEntity
  8
Standardebene
 62
     7
370
     9
100
AcDbPolyline
 90
        5
 70
     0
 43
0.0
 10
-124.4259248980493
 20
-184.8490779618322
 10
-124.4259248980493
 20
-184.7015528568683
 10
-124.4259248980493
 20
-184.2821967106733
 10
-124.4259248980493
 20
-183.6529700673304
 10
-124.4259248980493
 20
-182.9119450509659
  0
SPLINE
  5
122
330
70
100
AcDbEntity
  8
Standardebene
 62
     7
370
     9
100
AcDbSpline
210
0.0
220
0.0
230
1.0
 70
     9
 71
     3
 72
    17
 73
    13
 74
     0
 42
0.0000000001
 43
0.0000000001
 40
0.0
 40
0.0
 40
0.0
 40
0.0
 40
1.0
 40
1.0
 40
1.0
 40
2.0
 40
2.0
 40
2.0
 40
3.0
 40
3.0
 40
3.0
 40
4.0
 40
4.0
 40
4.0
 40
4.0
 10
-91.27594340988682
 20
-103.4029690243438
 30
0.0
 10
-92.38590947135868
 20
-103.4029690243438
 30
0.0
 10
-93.28568432893453
 20
-104.3021666097686
 30
0.0
 10
-93.28568432893453
 20
-105.4118119644911
 30
0.0
 10
-93.28568432893453
 20
-106.5214573192136
 30
0.0
 10
-92.38590947135868
 20
-107.4212321767888
 30
0.0
 10
-91.27594340988682
 20
-107.4212321767888
 30
0.0
 10
-90.16668290326396
 20
-107.4212321767888
 30
0.0
 10
-89.26716461108853
 20
-106.5214573192136
 30
0.0
 10
-89.26716461108853
 20
-105.4118119644911
 30
0.0
 10
-89.26716461108853
 20
-104.3021666097686
 30
0.0
 10
-90.16668290326396
 20
-103.4029690243438
 30
0.0
 10
-91.27594340988682
 20
-103.4029690243438
 30
0.0
  0
LINE
  5
123
330
70
100
AcDbEntity
  8
Standardebene
  6
AI-Linetype-0
 62
     7
370
     9
100
AcDbLine
 10
-110.2759582434865
 20
-67.12244066751399
 30
0.0
 11
-110.2759582434865
 21
-12.24239606638304
 31
0.0
  0
LINE
  5
125
330
70
100
AcDbEntity
  8
Standardebene
  6
AI-Linetype-1
 62
     7
370
     9
100
AcDbLine
 10
-110.2759582434865
 20
-192.1588827714046
 30
0.0
 11
-110.2759582434865
 21
-77.38191373879832
 31
0.0
  0
LINE
  5
127
330
70
100
AcDbEntity
  8
Standardebene
  6
AI-Linetype-2
 62
     7
370
     9
100
AcDbLine
 10
-163.1108559003782
 20
-27.41208190299108
 30
0.0
 11
-102.9034873349794
 21
-27.41208190299108
 31
0.0
  0
LINE
  5
129
330
70
100
AcDbEntity
  8
Standardebene
  6
AI-Linetype-3
 62
     7
370
     9
100
AcDbLine
 10
-21.05373688204247
 20
-66.73938852540974
 30
0.0
 11
-21.05373688204247
 21
-12.24239606638304
 31
0.0
  0
LINE
  5
12B
330
70
100
AcDbEntity
  8
Standardebene
  6
AI-Linetype-4
 62
     7
370
     9
100
AcDbLine
 10
-21.05373688204247
 20
-191.9236764410129
 30
0.0
 11
-21.05373688204247
 21
-76.9995030101941
 31
0.0
  0
LINE
  5
12D
330
70
100
AcDbEntity
  8
Standardebene
 62
     7
370
    35
100
AcDbLine
 10
-6.803581438805073
 20
-40.41167344559132
 30
0.0
 11
-7.803288519655117
 21
-39.41164565799127
 31
0.0
  0
LINE
  5
12E
330
70
100
AcDbEntity
  8
Standardebene
 62
     7
370
    35
100
AcDbLine
 10
-34.30322312417978
 20
-39.41164565799127
 30
0.0
 11
-35.30389232527987
 21
-40.41167344559132
 31
0.0
  0
LINE
  5
12F
330
70
100
AcDbEntity
  8
Standardebene
 62
     7
370
    35
100
AcDbLine
 10
-35.30389232527987
 20
-170.0552733538057
 30
0.0
 11
-35.30389232527987
 21
-183.9119728385659
 31
0.0
  0
LINE
  5
130
330
70
100
AcDbEntity
  8
Standardebene
 62
     7
370
    35
100
AcDbLine
 10
-35.30389232527987
 20
-40.41167344559132
 30
0.0
 11
-35.30389232527987
 21
-99.41324877264085
 31
0.0
  0
LINE
  5
131
330
70
100
AcDbEntity
  8
Standardebene
 62
     7
370
    35
100
AcDbLine
 10
-35.30389232527987
 20
-111.4109524284912
 30
0.0
 11
-35.30389232527987
 21
-170.9092383698171
 31
0.0
  0
LINE
  5
132
330
70
100
AcDbEntity
  8
Standardebene
 62
     7
370
    35
100
AcDbLine
 10
-6.803581438805073
 20
-183.9119728385659
 30
0.0
 11
-6.803581438805073
 21
-111.4131332343904
 31
0.0
  0
LINE
  5
133
330
70
100
AcDbEntity
  8
Standardebene
 62
     7
370
    35
100
AcDbLine
 10
-6.803581438805073
 20
-99.41267150049107
 30
0.0
 11
-6.803581438805073
 21
-40.41167344559132
 31
0.0
  0
LINE
  5
134
330
70
100
AcDbEntity
  8
Standardebene
 62
     7
370
    35
100
AcDbLine
 10
-35.30389232527987
 20
-183.9119728385659
 30
0.0
 11
-34.90615181402957
 21
-187.1447610191079
 31
0.0
  0
LINE
  5
135
330
70
100
AcDbEntity
  8
Standardebene
 62
     7
370
    35
100
AcDbLine
 10
-7.200359829805329
 20
-187.1447610191079
 30
0.0
 11
-6.803581438805073
 21
-183.9119728385659
 31
0.0
  0
LINE
  5
136
330
70
100
AcDbEntity
  8
Standardebene
 62
     7
370
    35
100
AcDbLine
 10
-6.934173227371476
 20
-187.6668074666267
 30
0.0
 11
-7.200359829805329
 21
-187.1447610191079
 31
0.0
  0
LINE
  5
137
330
70
100
AcDbEntity
  8
Standardebene
 62
     7
370
    35
100
AcDbLine
 10
-34.90615181402957
 20
-187.1447610191079
 30
0.0
 11
-35.17265912321215
 21
-187.6668074666267
 31
0.0
  0
LINE
  5
138
330
70
100
AcDbEntity
  8
Standardebene
 62
     7
370
    35
100
AcDbLine
 10
-31.55374001576759
 20
-15.01163471059131
 30
0.0
 11
-31.55374001576759
 21
-15.41187673449151
 31
0.0
  0
LWPOLYLINE
  5
139
330
70
100
AcDbEntity
  8
Standardebene
 62
     7
370
    35
100
AcDbPolyline
 90
        3
 70
     0
 43
0.0
 10
-10.55373374831735
 20
-15.41187673449151
 10
-10.55373374831735
 20
-15.01163471059131
 10
-11.05326658199236
 20
-14.51210187691631
  0
LINE
  5
13A
330
70
100
AcDbEntity
  8
Standardebene
 62
     7
370
    35
100
AcDbLine
 10
-31.05356576859255
 20
-14.51210187691631
 30
0.0
 11
-31.55374001576759
 21
-15.01163471059131
 31
0.0
  0
LINE
  5
13B
330
70
100
AcDbEntity
  8
Standardebene
 62
     7
370
    35
100
AcDbLine
 10
-39.05308251454274
 20
-15.41187673449151
 30
0.0
 11
-39.05308251454274
 21
-39.41164565799127
 31
0.0
  0
LINE
  5
13C
330
70
100
AcDbEntity
  8
Standardebene
 62
     7
370
    35
100
AcDbLine
 10
-3.053749836042165
 20
-39.41164565799127
 30
0.0
 11
-3.053749836042165
 21
-15.41187673449151
 31
0.0
  0
LINE
  5
13D
330
70
100
AcDbEntity
  8
Standardebene
 62
     7
370
    35
100
AcDbLine
 10
3.946059829057345
 20
-103.2116353773409
 30
0.0
 11
3.946059829057345
 21
-99.61183039219111
 31
0.0
  0
LINE
  5
13E
330
70
100
AcDbEntity
  8
Standardebene
 62
     7
370
    35
100
AcDbLine
 10
3.946059829057345
 20
-111.2117935367911
 30
0.0
 11
3.946059829057345
 21
-107.5847284778982
 31
0.0
  0
SPLINE
  5
13F
330
70
100
AcDbEntity
  8
Standardebene
 62
     7
370
    35
100
AcDbSpline
210
0.0
220
0.0
230
1.0
 70
     8
 71
     3
 72
    11
 73
     7
 74
     0
 42
0.0000000001
 43
0.0000000001
 40
0.0
 40
0.0
 40
0.0
 40
0.0
 40
1.0
 40
1.0
 40
1.0
 40
2.0
 40
2.0
 40
2.0
 40
2.0
 10
-35.17265912321215
 20
-187.6668074666267
 30
0.0
 10
-35.26348327478983
 20
-187.844094157983
 30
0.0
 10
-35.30479030417903
 20
-188.0335677058361
 30
0.0
 10
-35.30389232527987
 20
-188.2120730828415
 30
0.0
 10
-35.30389232527987
 20
-188.8744608041259
 30
0.0
 10
-34.76613124701405
 20
-189.4115804688916
 30
0.0
 10
-34.1034228189797
 20
-189.4115804688916
 30
0.0
  0
SPLINE
  5
140
330
70
100
AcDbEntity
  8
Standardebene
 62
     7
370
    35
100
AcDbSpline
210
0.0
220
0.0
230
1.0
 70
     8
 71
     3
 72
    11
 73
     7
 74
     0
 42
0.0000000001
 43
0.0000000001
 40
0.0
 40
0.0
 40
0.0
 40
0.0
 40
1.0
 40
1.0
 40
1.0
 40
2.0
 40
2.0
 40
2.0
 40
2.0
 10
-8.003409531605212
 20
-189.4115804688916
 30
0.0
 10
-7.340380396820842
 20
-189.4115804688916
 30
0.0
 10
-6.803581438805073
 20
-188.8744608041259
 30
0.0
 10
-6.803581438805073
 20
-188.2120730828415
 30
0.0
 10
-6.803581438805073
 20
-188.0129141911402
 30
0.0
 10
-6.852136440742226
 20
-187.8253007424376
 30
0.0
 10
-6.934173227371476
 20
-187.6668074666267
 30
0.0
  0
LWPOLYLINE
  5
141
330
70
100
AcDbEntity
  8
Standardebene
 62
     7
370
    35
100
AcDbPolyline
 90
       29
 70
     0
 43
0.0
 10
-21.05373688204247
 20
-168.4118949081914
 10
-20.47556675328661
 20
-168.363339906253
 10
-19.91432994092694
 20
-168.2211385333382
 10
-18.90397539597989
 20
-167.6740128179755
 10
-18.11567820467633
 20
-166.8133641838909
 10
-17.83570121199621
 20
-166.2881748102228
 10
-17.64872917679364
 20
-165.7216142658134
 10
-17.561625223515
 20
-165.1421613100587
 10
-17.57201612221288
 20
-164.5555886644547
 10
-17.87110723718777
 20
-163.4559493603305
 10
-18.51123791002742
 20
-162.5054386949176
 10
-18.95220969116767
 20
-162.1130219157151
 10
-19.45302535184275
 20
-161.7991782902446
 10
-20.00233187310408
 20
-161.5737214450502
 10
-20.58396563475923
 20
-161.4430655151329
 10
-21.16489384156345
 20
-161.4139453422411
 10
-21.74242255681928
 20
-161.4803316394736
 10
-22.8076179560033
 20
-161.8828186106233
 10
-23.69706605623152
 20
-162.6185198949387
 10
-24.04625156554404
 20
-163.0979764860702
 10
-24.31025736207738
 20
-163.6297724187862
 10
-24.47939810198591
 20
-164.1972950834444
 10
-24.55110813126754
 20
-164.7861126762979
 10
-24.40326231955429
 20
-165.9257761828132
 10
-23.90065070108091
 20
-166.9470988986079
 10
-23.0763060710864
 20
-167.7683006024512
 10
-22.56266214041446
 20
-168.0695725233272
 10
-22.00456825420406
 20
-168.2800202926236
 10
-21.05373688204247
 20
-168.4118949081914
  0
LWPOLYLINE
  5
142
330
70
100
AcDbEntity
  8
Standardebene
 62
     7
370
    35
100
AcDbPolyline
 90
       19
 70
     0
 43
0.0
 10
-17.69914427787999
 20
-183.9119728385659
 10
-17.55630149146715
 20
-182.7776330640991
 10
-17.78560681765987
 20
-181.6579816587791
 10
-18.36313553291441
 20
-180.6726422403263
 10
-18.77588512006145
 20
-180.2551461932806
 10
-19.25258363314263
 20
-179.9109637092666
 10
-19.78688107850916
 20
-179.6491387186311
 10
-20.35908606171585
 20
-179.480960098974
 10
-20.94033497527009
 20
-179.4139323882408
 10
-21.52350812932443
 20
-179.4433732678832
 10
-22.61339794825212
 20
-179.7788325282997
 10
-23.54421721921915
 20
-180.4525091271811
 10
-23.92252290142467
 20
-180.9069505918176
 10
-24.21943321050099
 20
-181.4193116954901
 10
-24.42551936799898
 20
-181.97554548255
 10
-24.5357783486208
 20
-182.5605787357548
 10
-24.54578439921904
 20
-183.1402882569098
 10
-24.4602839796905
 20
-183.713711925765
 10
-24.40768807270364
 20
-183.9119728385659
  0
LWPOLYLINE
  5
143
330
70
100
AcDbEntity
  8
Standardebene
 62
     7
370
    35
100
AcDbPolyline
 90
       12
 70
     0
 43
0.0
 10
-17.69914427787999
 20
-183.9119728385659
 10
-16.04955703899246
 20
-183.9119728385659
 10
-14.4729626563879
 20
-183.9119728385659
 10
-12.99347827765766
 20
-183.9119728385659
 10
-11.63137256939796
 20
-183.9119728385659
 10
-10.40838944925399
 20
-183.9119728385659
 10
-9.34101324417074
 20
-183.9119728385659
 10
-8.445599998393989
 20
-183.9119728385659
 10
-7.735298688671252
 20
-183.9119728385659
 10
-7.219794658850756
 20
-183.9119728385659
 10
-6.908195980628383
 20
-183.9119728385659
 10
-6.803581438805073
 20
-183.9119728385659
  0
LWPOLYLINE
  5
144
330
70
100
AcDbEntity
  8
Standardebene
 62
     7
370
    35
100
AcDbPolyline
 90
       12
 70
     0
 43
0.0
 10
-35.30389232527987
 20
-183.9119728385659
 10
-35.19863636995653
 20
-183.9119728385659
 10
-34.88703769173416
 20
-183.9119728385659
 10
-34.37185436866239
 20
-183.9119728385659
 10
-33.66148891759004
 20
-183.9119728385659
 10
-32.76607567181329
 20
-183.9119728385659
 10
-31.69934088023008
 20
-183.9119728385659
 10
-30.47539563983669
 20
-183.9119728385659
 10
-29.11399548642729
 20
-183.9119728385659
 10
-27.63386969419701
 20
-183.9119728385659
 10
-26.05727531159117
 20
-183.9119728385659
 10
-24.40768807270364
 20
-183.9119728385659
  0
LWPOLYLINE
  5
145
330
70
100
AcDbEntity
  8
Standardebene
 62
     7
370
    35
100
AcDbPolyline
 90
       14
 70
     0
 43
0.0
 10
-21.05373688204247
 20
-40.41167344559132
 10
-22.77092910381296
 20
-40.41167344559132
 10
-24.46374761258979
 20
-40.41167344559132
 10
-26.10704899917878
 20
-40.41167344559132
 10
-27.67613884383625
 20
-40.41167344559132
 10
-29.1484393913688
 20
-40.41167344559132
 10
-30.50329712707925
 20
-40.41167344559132
 10
-31.72005853627557
 20
-40.41167344559132
 10
-32.78114888906027
 20
-40.41167344559132
 10
-33.67155910953726
 20
-40.41167344559132
 10
-34.37775537286131
 20
-40.41167344559132
 10
-34.8895392043834
 20
-40.41167344559132
 10
-35.19991919695531
 20
-40.41167344559132
 10
-35.30389232527987
 20
-40.41167344559132
  0
LWPOLYLINE
  5
146
330
70
100
AcDbEntity
  8
Standardebene
 62
     7
370
    35
100
AcDbPolyline
 90
       14
 70
     0
 43
0.0
 10
-6.803581438805073
 20
-40.41167344559132
 10
-6.907875273878365
 20
-40.41167344559132
 10
-7.21761385295025
 20
-40.41167344559132
 10
-7.729654249872737
 20
-40.41167344559132
 10
-8.435914654545763
 20
-40.41167344559132
 10
-9.325683461524
 20
-40.41167344559132
 10
-10.38741522780937
 20
-40.41167344559132
 10
-11.60443320240482
 20
-40.41167344559132
 10
-12.95871366596613
 20
-40.41167344559132
 10
-14.43133492024741
 20
-40.41167344559132
 10
-16.00068133030528
 20
-40.41167344559132
 10
-17.64308473799512
 20
-40.41167344559132
 10
-19.33590324677195
 20
-40.41167344559132
 10
-21.05373688204247
 20
-40.41167344559132
  0
LWPOLYLINE
  5
147
330
70
100
AcDbEntity
  8
Standardebene
 62
     7
370
    35
100
AcDbPolyline
 90
       12
 70
     0
 43
0.0
 10
-24.40768807270364
 20
-183.9119728385659
 10
-24.19563676965712
 20
-184.452235429481
 10
-23.89808504708077
 20
-184.9505495775068
 10
-23.07880758373563
 20
-185.7663634079527
 10
-22.02400308324949
 20
-186.2746836065755
 10
-21.44551224774361
 20
-186.388983492247
 10
-20.85547596924158
 20
-186.4055961018932
 10
-19.71767256187613
 20
-186.1465933306577
 10
-18.72765082487367
 20
-185.5271161725126
 10
-18.32080224192555
 20
-185.0980105411192
 10
-17.99169297515786
 20
-184.6075857791426
 10
-17.69914427787999
 20
-183.9119728385659
  0
LWPOLYLINE
  5
148
330
70
100
AcDbEntity
  8
Standardebene
 62
     7
370
    35
100
AcDbPolyline
 90
       26
 70
     0
 43
0.0
 10
-34.90615181402957
 20
-187.1447610191079
 10
-34.79743222580629
 20
-187.1447610191079
 10
-34.47140174383696
 20
-187.1447610191079
 10
-33.93364066557243
 20
-187.1447610191079
 10
-33.19325706270727
 20
-187.1447610191079
 10
-32.26121910608978
 20
-187.1447610191079
 10
-31.15189445811795
 20
-187.1447610191079
 10
-29.88414067568421
 20
-187.1447610191079
 10
-28.47662289163599
 20
-187.1447610191079
 10
-26.95204714386725
 20
-187.1447610191079
 10
-25.33472300402135
 20
-187.1447610191079
 10
-23.64947317454314
 20
-187.1447610191079
 10
-21.92375015322398
 20
-187.1447610191079
 10
-20.18365946951007
 20
-187.1447610191079
 10
-18.45800058954052
 20
-187.1447610191079
 10
-16.77275076006231
 20
-187.1447610191079
 10
-15.1551059134664
 20
-187.1447610191079
 10
-13.63078673109805
 20
-187.1447610191079
 10
-12.22333308839945
 20
-187.1447610191079
 10
-10.95493789246696
 20
-187.1447610191079
 10
-9.846190516644259
 20
-187.1447610191079
 10
-8.914473266776797
 20
-187.1447610191079
 10
-8.173127543661586
 20
-187.1447610191079
 10
-7.635687172147064
 20
-187.1447610191079
 10
-7.309977396927761
 20
-187.1447610191079
 10
-7.200359829805329
 20
-187.1447610191079
  0
LWPOLYLINE
  5
149
330
70
100
AcDbEntity
  8
Standardebene
 62
     7
370
    35
100
AcDbPolyline
 90
       26
 70
     0
 43
0.0
 10
-34.1034228189797
 20
-189.4115804688916
 10
-34.00066837630559
 20
-189.4115804688916
 10
-33.69343130988231
 20
-189.4115804688916
 10
-33.18703535175898
 20
-189.4115804688916
 10
-32.48924160528309
 20
-189.4115804688916
 10
-31.61108238265253
 20
-189.4115804688916
 10
-30.56686120491441
 20
-189.4115804688916
 10
-29.37171543066273
 20
-189.4115804688916
 10
-28.045977867844
 20
-189.4115804688916
 10
-26.61004546575308
 20
-189.4115804688916
 10
-25.08604699013411
 20
-189.4115804688916
 10
-23.49880514343127
 20
-189.4115804688916
 10
-21.87301434538761
 20
-189.4115804688916
 10
-20.23407457059642
 20
-189.4115804688916
 10
-18.60802720715364
 20
-189.4115804688916
 10
-17.02078536045081
 20
-189.4115804688916
 10
-15.49678688483183
 20
-189.4115804688916
 10
-14.06111104814002
 20
-189.4115804688916
 10
-12.73479621317217
 20
-189.4115804688916
 10
-11.54086912456966
 20
-189.4115804688916
 10
-10.49574996793109
 20
-189.4115804688916
 10
-9.617270038550529
 20
-189.4115804688916
 10
-8.919476292075918
 20
-189.4115804688916
 10
-8.413336899352987
 20
-189.4115804688916
 10
-8.106099832929057
 20
-189.4115804688916
 10
-8.003409531605212
 20
-189.4115804688916
  0
LINE
  5
14A
330
70
100
AcDbEntity
  8
Standardebene
 62
     7
370
    35
100
AcDbLine
 10
-11.90198492497988
 20
-15.41187673449151
 30
0.0
 11
-11.90198492497988
 21
-39.41164565799127
 31
0.0
  0
LINE
  5
14B
330
70
100
AcDbEntity
  8
Standardebene
 62
     7
370
    35
100
AcDbLine
 10
-30.20484742560375
 20
-15.41187673449151
 30
0.0
 11
-11.90198492497988
 21
-15.41187673449151
 31
0.0
  0
LINE
  5
14C
330
70
100
AcDbEntity
  8
Standardebene
 62
     7
370
    35
100
AcDbLine
 10
-30.20484742560375
 20
-39.41164565799127
 30
0.0
 11
-30.20484742560375
 21
-15.41187673449151
 31
0.0
  0
LINE
  5
14D
330
70
100
AcDbEntity
  8
Standardebene
 62
     7
370
    35
100
AcDbLine
 10
-11.90198492497988
 20
-39.41164565799127
 30
0.0
 11
-30.20484742560375
 21
-39.41164565799127
 31
0.0
  0
LWPOLYLINE
  5
14E
330
70
100
AcDbEntity
  8
Standardebene
 62
     7
370
    35
100
AcDbPolyline
 90
       10
 70
     0
 43
0.0
 10
-30.20484742560375
 20
-15.41187673449151
 10
-31.92704267267335
 20
-15.41187673449151
 10
-33.50459917552925
 20
-15.41187673449151
 10
-34.91737655027634
 20
-15.41187673449151
 10
-36.14606825056973
 20
-15.41187673449151
 10
-37.17393338406209
 20
-15.41187673449151
 10
-37.98788711535872
 20
-15.41187673449151
 10
-38.57734612171098
 20
-15.41187673449151
 10
-38.93435687572187
 20
-15.41187673449151
 10
-39.05308251454274
 20
-15.41187673449151
  0
LWPOLYLINE
  5
14F
330
70
100
AcDbEntity
  8
Standardebene
 62
     7
370
    35
100
AcDbPolyline
 90
       10
 70
     0
 43
0.0
 10
-3.053749836042165
 20
-15.41187673449151
 10
-3.173052747012179
 20
-15.41187673449151
 10
-3.529486228872656
 20
-15.41187673449151
 10
-4.118560387125271
 20
-15.41187673449151
 10
-4.932898966521542
 20
-15.41187673449151
 10
-5.961084806765202
 20
-15.41187673449151
 10
-7.189712365707693
 20
-15.41187673449151
 10
-8.602233175055671
 20
-15.41187673449151
 10
-10.17978967791028
 20
-15.41187673449151
 10
-11.90198492497988
 20
-15.41187673449151
  0
LWPOLYLINE
  5
150
330
70
100
AcDbEntity
  8
Standardebene
 62
     7
370
    35
100
AcDbPolyline
 90
       10
 70
     0
 43
0.0
 10
-11.90198492497988
 20
-39.41164565799127
 10
-10.17978967791028
 20
-39.41164565799127
 10
-8.602233175055671
 20
-39.41164565799127
 10
-7.189712365707693
 20
-39.41164565799127
 10
-5.961084806765202
 20
-39.41164565799127
 10
-4.932898966521542
 20
-39.41164565799127
 10
-4.118560387125271
 20
-39.41164565799127
 10
-3.529486228872656
 20
-39.41164565799127
 10
-3.173052747012179
 20
-39.41164565799127
 10
-3.053749836042165
 20
-39.41164565799127
  0
LWPOLYLINE
  5
151
330
70
100
AcDbEntity
  8
Standardebene
 62
     7
370
    35
100
AcDbPolyline
 90
       10
 70
     0
 43
0.0
 10
-39.05308251454274
 20
-39.41164565799127
 10
-38.93435687572187
 20
-39.41164565799127
 10
-38.57734612171098
 20
-39.41164565799127
 10
-37.98788711535872
 20
-39.41164565799127
 10
-37.17393338406209
 20
-39.41164565799127
 10
-36.14606825056973
 20
-39.41164565799127
 10
-34.91737655027634
 20
-39.41164565799127
 10
-33.50459917552925
 20
-39.41164565799127
 10
-31.92704267267335
 20
-39.41164565799127
 10
-30.20484742560375
 20
-39.41164565799127
  0
LWPOLYLINE
  5
152
330
70
100
AcDbEntity
  8
Standardebene
 62
     7
370
    35
100
AcDbPolyline
 90
       20
 70
     0
 43
0.0
 10
-21.05373688204247
 20
-26.01213279824085
 10
-21.70265491982927
 20
-26.12053167971411
 10
-22.27832353593654
 20
-26.43059096553665
 10
-22.72930136767246
 20
-26.92069502076384
 10
-22.99831018950622
 20
-27.54517520420737
 10
-23.04340155854408
 20
-28.21044928624186
 10
-22.87554364563691
 20
-28.83589158993481
 10
-22.51410713847731
 20
-29.37833498674909
 10
-21.97859100746097
 20
-29.78479872159822
 10
-21.33217448232213
 20
-29.99184699934626
 10
-20.67132615343826
 20
-29.9745929762007
 10
-20.06435655853877
 20
-29.75035481665607
 10
-19.55449696751678
 20
-29.33574513036047
 10
-19.19934631265574
 20
-28.76007651425385
 10
-19.05554140599091
 20
-28.09986959886874
 10
-19.13385799432175
 20
-27.45031014758126
 10
-19.41357842160212
 20
-26.86713699352692
 10
-19.87834664358624
 20
-26.39390211334567
 10
-20.48749704438304
 20
-26.09359231272097
 10
-21.05373688204247
 20
-26.01213279824085
  0
LWPOLYLINE
  5
153
330
70
100
AcDbEntity
  8
Standardebene
 62
     7
370
    35
100
AcDbPolyline
 90
       23
 70
     0
 43
0.0
 10
-31.05356576859255
 20
-14.51210187691631
 10
-30.95209415291787
 20
-14.51210187691631
 10
-30.64832071939324
 20
-14.51210187691631
 10
-30.14968586461803
 20
-14.51210187691631
 10
-29.46600321513971
 20
-14.51210187691631
 10
-28.61131972660301
 20
-14.51210187691631
 10
-27.60224800865476
 20
-14.51210187691631
 10
-26.46001884813996
 20
-14.51210187691631
 10
-25.20727414160358
 20
-14.51210187691631
 10
-23.87120982143724
 20
-14.51210187691631
 10
-22.47684101413654
 20
-14.51210187691631
 10
-21.05373688204247
 20
-14.51210187691631
 10
-19.63056860859814
 20
-14.51210187691631
 10
-18.2365846493958
 20
-14.51210187691631
 10
-16.89955820898068
 20
-14.51210187691631
 10
-15.6474549159437
 20
-14.51210187691631
 10
-14.5052257554289
 20
-14.51210187691631
 10
-13.49615403748194
 20
-14.51210187691631
 10
-12.64082913544521
 20
-14.51210187691631
 10
-11.95714648596624
 20
-14.51210187691631
 10
-11.45851163119039
 20
-14.51210187691631
 10
-11.15537961116707
 20
-14.51210187691631
 10
-11.05326658199236
 20
-14.51210187691631
  0
LWPOLYLINE
  5
154
330
70
100
AcDbEntity
  8
Standardebene
 62
     7
370
    35
100
AcDbPolyline
 90
       12
 70
     0
 43
0.0
 10
-21.05373688204247
 20
-15.01163471059131
 10
-22.54829447801842
 20
-15.01163471059131
 10
-24.01180766060189
 20
-15.01163471059131
 10
-25.41522039825142
 20
-15.01163471059131
 10
-26.73031049697315
 20
-15.01163471059131
 10
-27.92949717627325
 20
-15.01163471059131
 10
-28.98872742990874
 20
-15.01163471059131
 10
-29.88696289508347
 20
-15.01163471059131
 10
-30.60476874275392
 20
-15.01163471059131
 10
-31.1284187240241
 20
-15.01163471059131
 10
-31.44694466804314
 20
-15.01163471059131
 10
-31.55374001576759
 20
-15.01163471059131
  0
LWPOLYLINE
  5
155
330
70
100
AcDbEntity
  8
Standardebene
 62
     7
370
    35
100
AcDbPolyline
 90
       12
 70
     0
 43
0.0
 10
-10.55373374831735
 20
-15.01163471059131
 10
-10.66052909604053
 20
-15.01163471059131
 10
-10.97899089871123
 20
-15.01163471059131
 10
-11.50270502132974
 20
-15.01163471059131
 10
-12.2205108690002
 20
-15.01163471059131
 10
-13.11810492067617
 20
-15.01163471059131
 10
-14.1779765878117
 20
-15.01163471059131
 10
-15.37652185361177
 20
-15.01163471059131
 10
-16.69161195233221
 20
-15.01163471059131
 10
-18.09502468998174
 20
-15.01163471059131
 10
-19.55949999281526
 20
-15.01163471059131
 10
-21.05373688204247
 20
-15.01163471059131
  0
LWPOLYLINE
  5
156
330
70
100
AcDbEntity
  8
Standardebene
 62
     7
370
    35
100
AcDbPolyline
 90
        3
 70
     0
 43
0.0
 10
3.945097708808575
 20
-99.61183039219111
 10
3.945739122307328
 20
-99.61183039219111
 10
3.946059829057345
 20
-99.61183039219111
  0
LINE
  5
157
330
70
100
AcDbEntity
  8
Standardebene
 62
     7
370
    35
100
AcDbLine
 10
3.945097708808575
 20
-99.41203008699105
 30
0.0
 11
3.945097708808575
 21
-99.61183039219111
 31
0.0
  0
LINE
  5
158
330
70
100
AcDbEntity
  8
Standardebene
 62
     7
370
    35
100
AcDbLine
 10
-2.271995062437555
 20
-99.41203008699105
 30
0.0
 11
-2.271995062437555
 21
-111.4115938419912
 31
0.0
  0
LWPOLYLINE
  5
159
330
70
100
AcDbEntity
  8
Standardebene
 62
     7
370
    35
100
AcDbPolyline
 90
        8
 70
     0
 43
0.0
 10
3.945097708808575
 20
-99.41203008699105
 10
3.791030186147036
 20
-99.41203008699105
 10
3.381038677049001
 20
-99.41203008699105
 10
2.718650955764666
 20
-99.41203008699105
 10
1.812269539141544
 20
-99.41203008699105
 10
0.6697838132269905
 20
-99.41203008699105
 10
-0.6960420933311133
 20
-99.41203008699105
 10
-2.271995062437555
 20
-99.41203008699105
  0
LINE
  5
15A
330
70
100
AcDbEntity
  8
Standardebene
 62
     7
370
    35
100
AcDbLine
 10
3.945097708808575
 20
-111.2117935367911
 30
0.0
 11
3.945097708808575
 21
-111.4115938419912
 31
0.0
  0
LWPOLYLINE
  5
15B
330
70
100
AcDbEntity
  8
Standardebene
 62
     7
370
    35
100
AcDbPolyline
 90
        8
 70
     0
 43
0.0
 10
-2.271995062437555
 20
-111.4115938419912
 10
-0.6960420933311133
 20
-111.4115938419912
 10
0.6697838132269905
 20
-111.4115938419912
 10
1.812269539141544
 20
-111.4115938419912
 10
2.718650955764666
 20
-111.4115938419912
 10
3.381038677049001
 20
-111.4115938419912
 10
3.791030186147036
 20
-111.4115938419912
 10
3.945097708808575
 20
-111.4115938419912
  0
LWPOLYLINE
  5
15C
330
70
100
AcDbEntity
  8
Standardebene
 62
     7
370
    35
100
AcDbPolyline
 90
        3
 70
     0
 43
0.0
 10
3.946059829057345
 20
-111.2117935367911
 10
3.945739122307328
 20
-111.2117935367911
 10
3.945097708808575
 20
-111.2117935367911
  0
LWPOLYLINE
  5
15D
330
70
100
AcDbEntity
  8
Standardebene
 62
     7
370
    35
100
AcDbPolyline
 90
       10
 70
     0
 43
0.0
 10
3.946059829057345
 20
-103.2116353773409
 10
3.93573307171101
 20
-103.3353640414602
 10
3.90879370471658
 20
-103.6914768165713
 10
3.877172019175614
 20
-104.2420661648334
 10
3.851451337831636
 20
-105.4146341838904
 10
3.850874065681219
 20
-105.6620273707788
 10
3.867743240727788
 20
-106.3689291889519
 10
3.898146240620227
 20
-106.9692922248015
 10
3.928228533762007
 20
-107.3955756367951
 10
3.944199729908141
 20
-107.5847284778982
  0
LINE
  5
15E
330
70
100
AcDbEntity
  8
Standardebene
 62
     7
370
    35
100
AcDbLine
 10
-39.83509385354647
 20
-111.4115938419912
 30
0.0
 11
-39.83509385354647
 21
-99.41203008699105
 31
0.0
  0
LWPOLYLINE
  5
15F
330
70
100
AcDbEntity
  8
Standardebene
 62
     7
370
    35
100
AcDbPolyline
 90
        8
 70
     0
 43
0.0
 10
-45.97303619891223
 20
-111.4115938419912
 10
-45.68484911343409
 20
-111.4115938419912
 10
-45.19128142530762
 20
-111.4115938419912
 10
-44.49541191933183
 20
-111.4115938419912
 10
-43.60371887185477
 20
-111.4115938419912
 10
-42.52383510352468
 20
-111.4115938419912
 10
-41.26390656578932
 20
-111.4115938419912
 10
-39.83509385354647
 20
-111.4115938419912
  0
LINE
  5
160
330
70
100
AcDbEntity
  8
Standardebene
 62
     7
370
    35
100
AcDbLine
 10
-45.97303619891223
 20
-111.4115938419912
 30
0.0
 11
-45.97303619891223
 21
-99.41203008699105
 31
0.0
  0
LWPOLYLINE
  5
161
330
70
100
AcDbEntity
  8
Standardebene
 62
     7
370
    35
100
AcDbPolyline
 90
        8
 70
     0
 43
0.0
 10
-39.83509385354647
 20
-99.41203008699105
 10
-41.26390656578932
 20
-99.41203008699105
 10
-42.52383510352468
 20
-99.41203008699105
 10
-43.60371887185477
 20
-99.41203008699105
 10
-44.49541191933183
 20
-99.41203008699105
 10
-45.19128142530762
 20
-99.41203008699105
 10
-45.68484911343409
 20
-99.41203008699105
 10
-45.97303619891223
 20
-99.41203008699105
  0
LINE
  5
162
330
70
100
AcDbEntity
  8
Standardebene
 62
     7
370
    35
100
AcDbLine
 10
-39.83509385354647
 20
-99.41203008699105
 30
0.0
 11
-2.271995062437555
 21
-99.41203008699105
 31
0.0
  0
LINE
  5
163
330
70
100
AcDbEntity
  8
Standardebene
 62
     7
370
    35
100
AcDbLine
 10
-2.271995062437555
 20
-111.4115938419912
 30
0.0
 11
-39.83509385354647
 21
-111.4115938419912
 31
0.0
  0
LWPOLYLINE
  5
164
330
70
100
AcDbEntity
  8
Standardebene
 62
     7
370
    35
100
AcDbPolyline
 90
        7
 70
     0
 43
0.0
 10
-21.05373688204247
 20
-37.2268629948374
 10
-23.13582924387185
 20
-36.02453338938803
 10
-24.21257008605202
 20
-35.40345269749288
 10
-25.30342202522976
 20
-34.77300736850082
 10
-25.60591263175369
 20
-34.59886360329445
 10
-27.58281317960933
 20
-33.45727585627969
 10
-29.55368444056683
 20
-32.31915174216423
  0
LWPOLYLINE
  5
165
330
70
100
AcDbEntity
  8
Standardebene
 62
     7
370
    35
100
AcDbPolyline
 90
        7
 70
     0
 43
0.0
 10
-12.5534044754172
 20
-32.31915174216423
 10
-14.63613825074661
 20
-33.52116064086423
 10
-15.71287909292678
 20
-34.14320345300814
 10
-16.80341032535451
 20
-34.77300736850082
 10
-17.1053236597293
 20
-34.9474718404572
 10
-19.08280147973536
 20
-36.08873888072194
 10
-21.05373688204247
 20
-37.2268629948374
  0
LWPOLYLINE
  5
166
330
70
100
AcDbEntity
  8
Standardebene
 62
     7
370
    35
100
AcDbPolyline
 90
        7
 70
     0
 43
0.0
 10
-12.5534044754172
 20
-22.50469135706792
 10
-12.5534044754172
 20
-24.276467867675
 10
-12.5534044754172
 20
-26.09731251102001
 10
-12.5534044754172
 20
-27.41208190299108
 10
-12.5534044754172
 20
-29.25832652092943
 10
-12.5534044754172
 20
-31.10585396586719
 10
-12.5534044754172
 20
-32.31915174216423
  0
LWPOLYLINE
  5
167
330
70
100
AcDbEntity
  8
Standardebene
 62
     7
370
    35
100
AcDbPolyline
 90
        7
 70
     0
 43
0.0
 10
-21.05373688204247
 20
-17.59672353899498
 10
-18.97164452021246
 20
-18.7996945579444
 10
-17.89426226453161
 20
-19.4210318152393
 10
-16.80341032535451
 20
-20.05057916533158
 10
-16.50149699098036
 20
-20.22530020268771
 10
-14.52433987772431
 20
-21.36624653620244
 10
-12.5534044754172
 20
-22.50469135706792
  0
LWPOLYLINE
  5
168
330
70
100
AcDbEntity
  8
Standardebene
 62
     7
370
    35
100
AcDbPolyline
 90
        7
 70
     0
 43
0.0
 10
-29.55368444056683
 20
-22.50469135706792
 10
-27.4713355133377
 20
-21.30204104486917
 10
-26.394851236556
 20
-20.68070378757427
 10
-25.30342202522976
 20
-20.05057916533158
 10
-25.00118798410559
 20
-19.8761146933752
 10
-23.02428743624867
 20
-18.73484765311046
 10
-21.05373688204247
 20
-17.59672353899498
  0
LWPOLYLINE
  5
169
330
70
100
AcDbEntity
  8
Standardebene
 62
     7
370
    35
100
AcDbPolyline
 90
        7
 70
     0
 43
0.0
 10
-29.55368444056683
 20
-32.31915174216423
 10
-29.55368444056683
 20
-31.10585396586719
 10
-29.55368444056683
 20
-29.28244366852396
 10
-29.55368444056683
 20
-27.41208190299108
 10
-29.55368444056683
 20
-26.09731251102001
 10
-29.55368444056683
 20
-24.2930163359709
 10
-29.55368444056683
 20
-22.50469135706792
  0
SPLINE
  5
16A
330
70
100
AcDbEntity
  8
Standardebene
 62
     7
370
    35
100
AcDbSpline
210
0.0
220
0.0
230
1.0
 70
     9
 71
     3
 72
    17
 73
    13
 74
     0
 42
0.0000000001
 43
0.0000000001
 40
0.0
 40
0.0
 40
0.0
 40
0.0
 40
1.0
 40
1.0
 40
1.0
 40
2.0
 40
2.0
 40
2.0
 40
3.0
 40
3.0
 40
3.0
 40
4.0
 40
4.0
 40
4.0
 40
4.0
 10
-21.05373688204247
 20
-18.91213434446609
 30
0.0
 10
-25.7477932979184
 20
-18.91213434446609
 30
0.0
 10
-29.55368444056683
 20
-22.7177047803645
 30
0.0
 10
-29.55368444056683
 20
-27.41208190299108
 30
0.0
 10
-29.55368444056683
 20
-32.1058817534679
 30
0.0
 10
-25.7477932979184
 20
-35.9120936028657
 30
0.0
 10
-21.05373688204247
 20
-35.9120936028657
 30
0.0
 10
-16.3589749113156
 20
-35.9120936028657
 30
0.0
 10
-12.5534044754172
 20
-32.1058817534679
 30
0.0
 10
-12.5534044754172
 20
-27.41208190299108
 30
0.0
 10
-12.5534044754172
 20
-22.7177047803645
 30
0.0
 10
-16.3589749113156
 20
-18.91213434446609
 30
0.0
 10
-21.05373688204247
 20
-18.91213434446609
 30
0.0
  0
SPLINE
  5
16B
330
70
100
AcDbEntity
  8
Standardebene
 62
     7
370
    35
100
AcDbSpline
210
0.0
220
0.0
230
1.0
 70
     9
 71
     3
 72
    17
 73
    13
 74
     0
 42
0.0000000001
 43
0.0000000001
 40
0.0
 40
0.0
 40
0.0
 40
0.0
 40
1.0
 40
1.0
 40
1.0
 40
2.0
 40
2.0
 40
2.0
 40
3.0
 40
3.0
 40
3.0
 40
4.0
 40
4.0
 40
4.0
 40
4.0
 10
-21.05373688204247
 20
-23.91188843436612
 30
0.0
 10
-22.98612333300875
 20
-23.91188843436612
 30
0.0
 10
-24.55360964391742
 20
-25.47879747312438
 30
0.0
 10
-24.55360964391742
 20
-27.41208190299108
 30
0.0
 10
-24.55360964391742
 20
-29.344468353958
 30
0.0
 10
-22.98612333300875
 20
-30.91169809946628
 30
0.0
 10
-21.05373688204247
 20
-30.91169809946628
 30
0.0
 10
-19.12038831082486
 20
-30.91169809946628
 30
0.0
 10
-17.55379997881662
 20
-29.344468353958
 30
0.0
 10
-17.55379997881662
 20
-27.41208190299108
 30
0.0
 10
-17.55379997881662
 20
-25.47879747312438
 30
0.0
 10
-19.12038831082486
 20
-23.91188843436612
 30
0.0
 10
-21.05373688204247
 20
-23.91188843436612
 30
0.0
  0
SPLINE
  5
16C
330
70
100
AcDbEntity
  8
Standardebene
 62
     7
370
    35
100
AcDbSpline
210
0.0
220
0.0
230
1.0
 70
     9
 71
     3
 72
    17
 73
    13
 74
     0
 42
0.0000000001
 43
0.0000000001
 40
0.0
 40
0.0
 40
0.0
 40
0.0
 40
1.0
 40
1.0
 40
1.0
 40
2.0
 40
2.0
 40
2.0
 40
3.0
 40
3.0
 40
3.0
 40
4.0
 40
4.0
 40
4.0
 40
4.0
 10
-21.05373688204247
 20
-21.41197931874097
 30
0.0
 10
-24.36695831546358
 20
-21.41197931874097
 30
0.0
 10
-27.05351875954193
 20
-24.09853976281932
 30
0.0
 10
-27.05351875954193
 20
-27.41208190299108
 30
0.0
 10
-27.05351875954193
 20
-30.72562404316285
 30
0.0
 10
-24.36695831546358
 20
-33.41218448724119
 30
0.0
 10
-21.05373688204247
 20
-33.41218448724119
 30
0.0
 10
-17.73987403512005
 20
-33.41218448724119
 30
0.0
 10
-15.0533135910417
 20
-30.72562404316285
 30
0.0
 10
-15.0533135910417
 20
-27.41208190299108
 30
0.0
 10
-15.0533135910417
 20
-24.09853976281932
 30
0.0
 10
-17.73987403512005
 20
-21.41197931874097
 30
0.0
 10
-21.05373688204247
 20
-21.41197931874097
 30
0.0
  0
SPLINE
  5
16D
330
70
100
AcDbEntity
  8
Standardebene
 62
     7
370
    35
100
AcDbSpline
210
0.0
220
0.0
230
1.0
 70
     9
 71
     3
 72
    17
 73
    13
 74
     0
 42
0.0000000001
 43
0.0000000001
 40
0.0
 40
0.0
 40
0.0
 40
0.0
 40
1.0
 40
1.0
 40
1.0
 40
2.0
 40
2.0
 40
2.0
 40
3.0
 40
3.0
 40
3.0
 40
4.0
 40
4.0
 40
4.0
 40
4.0
 10
-21.05373688204247
 20
-24.41174197479114
 30
0.0
 10
-22.71018724537769
 20
-24.41174197479114
 30
0.0
 10
-24.05343539674238
 20
-25.75466941940581
 30
0.0
 10
-24.05343539674238
 20
-27.41208190299108
 30
0.0
 10
-24.05343539674238
 20
-29.06853226632695
 30
0.0
 10
-22.71018724537769
 20
-30.41184455904125
 30
0.0
 10
-21.05373688204247
 20
-30.41184455904125
 30
0.0
 10
-19.39696581195595
 20
-30.41184455904125
 30
0.0
 10
-18.05333281249163
 20
-29.06853226632695
 30
0.0
 10
-18.05333281249163
 20
-27.41208190299108
 30
0.0
 10
-18.05333281249163
 20
-25.75466941940581
 30
0.0
 10
-19.39696581195595
 20
-24.41174197479114
 30
0.0
 10
-21.05373688204247
 20
-24.41174197479114
 30
0.0
  0
LINE
  5
16E
330
70
100
AcDbEntity
  8
Standardebene
 62
     7
370
    35
100
AcDbLine
 10
-124.5261136867239
 20
-168.4118949081914
 30
0.0
 11
-124.5261136867239
 21
-179.4195768270393
 31
0.0
  0
LINE
  5
16F
330
70
100
AcDbEntity
  8
Standardebene
 62
     7
370
    35
100
AcDbLine
 10
-124.5261136867239
 20
-40.41167344559132
 30
0.0
 11
-124.5261136867239
 21
-99.41203008699105
 31
0.0
  0
LINE
  5
170
330
70
100
AcDbEntity
  8
Standardebene
 62
     7
370
    35
100
AcDbLine
 10
-124.5261136867239
 20
-111.4109524284912
 30
0.0
 11
-124.5261136867239
 21
-161.418948367539
 31
0.0
  0
LINE
  5
171
330
70
100
AcDbEntity
  8
Standardebene
 62
     7
370
    35
100
AcDbLine
 10
-96.02612350699853
 20
-183.9119728385659
 30
0.0
 11
-96.02612350699853
 21
-111.4131332343904
 31
0.0
  0
LINE
  5
172
330
70
100
AcDbEntity
  8
Standardebene
 62
     7
370
    35
100
AcDbLine
 10
-96.02612350699853
 20
-99.41267150049107
 30
0.0
 11
-96.02612350699853
 21
-40.41167344559132
 31
0.0
  0
LINE
  5
173
330
70
100
AcDbEntity
  8
Standardebene
 62
     7
370
    35
100
AcDbLine
 10
-124.2207367194505
 20
-186.4005930765934
 30
0.0
 11
-124.129335295723
 21
-187.1447610191079
 31
0.0
  0
LINE
  5
174
330
70
100
AcDbEntity
  8
Standardebene
 62
     7
370
    35
100
AcDbLine
 10
-96.42296603935033
 20
-187.1447610191079
 30
0.0
 11
-96.02612350699853
 21
-183.9119728385659
 31
0.0
  0
LINE
  5
175
330
70
100
AcDbEntity
  8
Standardebene
 62
     7
370
    35
100
AcDbLine
 10
-96.02612350699853
 20
-40.41167344559132
 30
0.0
 11
-97.02647200134862
 21
-39.41164565799127
 31
0.0
  0
LINE
  5
176
330
70
100
AcDbEntity
  8
Standardebene
 62
     7
370
    35
100
AcDbLine
 10
-123.5260858991239
 20
-39.41164565799127
 30
0.0
 11
-124.5261136867239
 21
-40.41167344559132
 31
0.0
  0
LINE
  5
177
330
70
100
AcDbEntity
  8
Standardebene
 62
     7
370
    35
100
AcDbLine
 10
-96.15703600231624
 20
-187.6668074666267
 30
0.0
 11
-96.42296603935033
 21
-187.1447610191079
 31
0.0
  0
LINE
  5
178
330
70
100
AcDbEntity
  8
Standardebene
 62
     7
370
    35
100
AcDbLine
 10
-124.129335295723
 20
-187.1447610191079
 30
0.0
 11
-124.3955218981562
 21
-187.6668074666267
 31
0.0
  0
LINE
  5
179
330
70
100
AcDbEntity
  8
Standardebene
 62
     7
370
    35
100
AcDbLine
 10
-120.776282083961
 20
-15.01163471059131
 30
0.0
 11
-120.776282083961
 21
-15.41187673449151
 31
0.0
  0
LWPOLYLINE
  5
17A
330
70
100
AcDbEntity
  8
Standardebene
 62
     7
370
    35
100
AcDbPolyline
 90
        3
 70
     0
 43
0.0
 10
-99.77595510976208
 20
-15.41187673449151
 10
-99.77595510976208
 20
-15.01163471059131
 10
-100.2758086501864
 20
-14.51210187691631
  0
LINE
  5
17B
330
70
100
AcDbEntity
  8
Standardebene
 62
     7
370
    35
100
AcDbLine
 10
-120.276107836786
 20
-14.51210187691631
 30
0.0
 11
-120.776282083961
 21
-15.01163471059131
 31
0.0
  0
LINE
  5
17C
330
70
100
AcDbEntity
  8
Standardebene
 62
     7
370
    35
100
AcDbLine
 10
-97.77622024131133
 20
-39.41164565799127
 30
0.0
 11
-97.77622024131133
 21
-15.41187673449151
 31
0.0
  0
LINE
  5
17D
330
70
100
AcDbEntity
  8
Standardebene
 62
     7
370
    35
100
AcDbLine
 10
-149.7764465108615
 20
-21.41197931874097
 30
0.0
 11
-150.7761535917109
 21
-22.41200710634104
 31
0.0
  0
LWPOLYLINE
  5
17E
330
70
100
AcDbEntity
  8
Standardebene
 62
     7
370
    35
100
AcDbPolyline
 90
        3
 70
     0
 43
0.0
 10
-150.7761535917109
 20
-32.41215669964113
 10
-149.7764465108615
 20
-33.41218448724119
 10
-138.2760948827863
 20
-33.41218448724119
  0
LINE
  5
17F
330
70
100
AcDbEntity
  8
Standardebene
 62
     7
370
    35
100
AcDbLine
 10
-138.2760948827863
 20
-21.41197931874097
 30
0.0
 11
-149.7764465108615
 21
-21.41197931874097
 31
0.0
  0
LINE
  5
180
330
70
100
AcDbEntity
  8
Standardebene
 62
     7
370
    35
100
AcDbLine
 10
-159.5764750922115
 20
-33.41218448724119
 30
0.0
 11
-154.7762006007615
 21
-33.41218448724119
 31
0.0
  0
LINE
  5
181
330
70
100
AcDbEntity
  8
Standardebene
 62
     7
370
    35
100
AcDbLine
 10
-154.7762006007615
 20
-21.41197931874097
 30
0.0
 11
-159.5764750922115
 21
-21.41197931874097
 31
0.0
  0
LINE
  5
182
330
70
100
AcDbEntity
  8
Standardebene
 62
     7
370
    35
100
AcDbLine
 10
-154.7762006007615
 20
-33.41218448724119
 30
0.0
 11
-153.7762369545111
 21
-32.41215669964113
 31
0.0
  0
LINE
  5
183
330
70
100
AcDbEntity
  8
Standardebene
 62
     7
370
    35
100
AcDbLine
 10
-153.7762369545111
 20
-22.41200710634104
 30
0.0
 11
-154.7762006007615
 21
-21.41197931874097
 31
0.0
  0
LINE
  5
184
330
70
100
AcDbEntity
  8
Standardebene
 62
     7
370
    35
100
AcDbLine
 10
-153.7762369545111
 20
-32.41215669964113
 30
0.0
 11
-150.7761535917109
 21
-32.41215669964113
 31
0.0
  0
LINE
  5
185
330
70
100
AcDbEntity
  8
Standardebene
 62
     7
370
    35
100
AcDbLine
 10
-150.7761535917109
 20
-22.41200710634104
 30
0.0
 11
-153.7762369545111
 21
-22.41200710634104
 31
0.0
  0
LINE
  5
186
330
70
100
AcDbEntity
  8
Standardebene
 62
     7
370
    35
100
AcDbLine
 10
-131.2762852176861
 20
-18.91213434446609
 30
0.0
 11
-132.0351415293467
 21
-17.59672353899498
 31
0.0
  0
LINE
  5
187
330
70
100
AcDbEntity
  8
Standardebene
 62
     7
370
    35
100
AcDbLine
 10
-136.717075230076
 20
-17.59672353899498
 30
0.0
 11
-137.4759315417366
 21
-18.91213434446609
 31
0.0
  0
LINE
  5
188
330
70
100
AcDbEntity
  8
Standardebene
 62
     7
370
    35
100
AcDbLine
 10
-132.0351415293467
 20
-37.2268629948374
 30
0.0
 11
-131.2762852176861
 21
-35.9120936028657
 31
0.0
  0
LINE
  5
189
330
70
100
AcDbEntity
  8
Standardebene
 62
     7
370
    35
100
AcDbLine
 10
-137.4759315417366
 20
-35.9120936028657
 30
0.0
 11
-136.717075230076
 21
-37.2268629948374
 31
0.0
  0
SPLINE
  5
18A
330
70
100
AcDbEntity
  8
Standardebene
 62
     7
370
    35
100
AcDbSpline
210
0.0
220
0.0
230
1.0
 70
     8
 71
     3
 72
    11
 73
     7
 74
     0
 42
0.0000000001
 43
0.0000000001
 40
0.0
 40
0.0
 40
0.0
 40
0.0
 40
1.0
 40
1.0
 40
1.0
 40
2.0
 40
2.0
 40
2.0
 40
2.0
 10
-124.3955218981562
 20
-187.6668074666267
 30
0.0
 10
-124.4851273640841
 20
-187.844094157983
 30
0.0
 10
-124.5279737858738
 20
-188.0335677058361
 30
0.0
 10
-124.5261136867239
 20
-188.2120730828415
 30
0.0
 10
-124.5261136867239
 20
-188.8744608041259
 30
0.0
 10
-123.9886733152081
 20
-189.4115804688916
 30
0.0
 10
-123.3262855939238
 20
-189.4115804688916
 30
0.0
  0
SPLINE
  5
18B
330
70
100
AcDbEntity
  8
Standardebene
 62
     7
370
    35
100
AcDbSpline
210
0.0
220
0.0
230
1.0
 70
     8
 71
     3
 72
    11
 73
     7
 74
     0
 42
0.0000000001
 43
0.0000000001
 40
0.0
 40
0.0
 40
0.0
 40
0.0
 40
1.0
 40
1.0
 40
1.0
 40
2.0
 40
2.0
 40
2.0
 40
2.0
 10
-97.22659301329869
 20
-189.4115804688916
 30
0.0
 10
-96.56324317176432
 20
-189.4115804688916
 30
0.0
 10
-96.02612350699853
 20
-188.8744608041259
 30
0.0
 10
-96.02612350699853
 20
-188.2120730828415
 30
0.0
 10
-96.02612350699853
 20
-188.0129141911402
 30
0.0
 10
-96.07467850893698
 20
-187.8253007424376
 30
0.0
 10
-96.15703600231624
 20
-187.6668074666267
 30
0.0
  0
SPLINE
  5
18C
330
70
100
AcDbEntity
  8
Standardebene
 62
     7
370
    35
100
AcDbSpline
210
0.0
220
0.0
230
1.0
 70
     8
 71
     3
 72
     8
 73
     4
 74
     0
 42
0.0000000001
 43
0.0000000001
 40
0.0
 40
0.0
 40
0.0
 40
0.0
 40
1.0
 40
1.0
 40
1.0
 40
1.0
 10
-137.4759315417366
 20
-34.21144984939112
 30
0.0
 10
-137.4759315417366
 20
-33.76983665475148
 30
0.0
 10
-137.8345458294969
 20
-33.41218448724119
 30
0.0
 10
-138.2760948827863
 20
-33.41218448724119
 30
0.0
  0
SPLINE
  5
18D
330
70
100
AcDbEntity
  8
Standardebene
 62
     7
370
    35
100
AcDbSpline
210
0.0
220
0.0
230
1.0
 70
     8
 71
     3
 72
     8
 73
     4
 74
     0
 42
0.0000000001
 43
0.0000000001
 40
0.0
 40
0.0
 40
0.0
 40
0.0
 40
1.0
 40
1.0
 40
1.0
 40
1.0
 10
-138.2760948827863
 20
-21.41197931874097
 30
0.0
 10
-137.8345458294969
 20
-21.41197931874097
 30
0.0
 10
-137.4759315417366
 20
-21.05368573773065
 30
0.0
 10
-137.4759315417366
 20
-20.61213668444127
 30
0.0
  0
SPLINE
  5
18E
330
70
100
AcDbEntity
  8
Standardebene
 62
     7
370
    35
100
AcDbSpline
210
0.0
220
0.0
230
1.0
 70
     8
 71
     3
 72
     8
 73
     4
 74
     0
 42
0.0000000001
 43
0.0000000001
 40
0.0
 40
0.0
 40
0.0
 40
0.0
 40
1.0
 40
1.0
 40
1.0
 40
1.0
 10
-160.7757259128612
 20
-32.21203568769104
 30
0.0
 10
-160.7757259128612
 20
-32.87442340897537
 30
0.0
 10
-160.2385421067458
 20
-33.41218448724119
 30
0.0
 10
-159.5764750922115
 20
-33.41218448724119
 30
0.0
  0
SPLINE
  5
18F
330
70
100
AcDbEntity
  8
Standardebene
 62
     7
370
    35
100
AcDbSpline
210
0.0
220
0.0
230
1.0
 70
     8
 71
     3
 72
     8
 73
     4
 74
     0
 42
0.0000000001
 43
0.0000000001
 40
0.0
 40
0.0
 40
0.0
 40
0.0
 40
1.0
 40
1.0
 40
1.0
 40
1.0
 10
-159.5764750922115
 20
-21.41197931874097
 30
0.0
 10
-160.2385421067458
 20
-21.41197931874097
 30
0.0
 10
-160.7757259128612
 20
-21.94909898350676
 30
0.0
 10
-160.7757259128612
 20
-22.61180741154111
 30
0.0
  0
LWPOLYLINE
  5
190
330
70
100
AcDbEntity
  8
Standardebene
 62
     7
370
    35
100
AcDbPolyline
 90
       26
 70
     0
 43
0.0
 10
-123.5260858991239
 20
-39.41164565799127
 10
-123.4217920640499
 20
-39.41164565799127
 10
-123.1098726790782
 20
-39.41164565799127
 10
-122.5955873349062
 20
-39.41164565799127
 10
-121.8872102656836
 20
-39.41164565799127
 10
-120.9955172182065
 20
-39.41164565799127
 10
-119.9347475721719
 20
-39.41164565799127
 10
-118.7224119161249
 20
-39.41164565799127
 10
-117.3757001318615
 20
-39.41164565799127
 10
-115.9174465399763
 20
-39.41164565799127
 10
-114.3702930370128
 20
-39.41164565799127
 10
-112.7589340427155
 20
-39.41164565799127
 10
-111.1081281181781
 20
-39.41164565799127
 10
-109.4441090755443
 20
-39.41164565799127
 10
-107.7933031510076
 20
-39.41164565799127
 10
-106.1816234499602
 20
-39.41164565799127
 10
-104.6347906537468
 20
-39.41164565799127
 10
-103.1766012032112
 20
-39.41164565799127
 10
-101.8301459843482
 20
-39.41164565799127
 10
-100.6171689148012
 20
-39.41164565799127
 10
-99.55704068226658
 20
-39.41164565799127
 10
-98.66477036263912
 20
-39.41164565799127
 10
-97.95632915206622
 20
-39.41164565799127
 10
-97.44236451464491
 20
-39.41164565799127
 10
-97.13076583642255
 20
-39.41164565799127
 10
-97.02647200134862
 20
-39.41164565799127
  0
LWPOLYLINE
  5
191
330
70
100
AcDbEntity
  8
Standardebene
 62
     7
370
    35
100
AcDbPolyline
 90
       15
 70
     0
 43
0.0
 10
-124.5261136867239
 20
-168.4118949081914
 10
-124.5142475369765
 20
-168.363339906253
 10
-124.4803809041854
 20
-168.2211385333382
 10
-124.3632587991146
 20
-167.6740128179755
 10
-124.2195180338007
 20
-166.8133641838909
 10
-124.158134761866
 20
-166.2881748102228
 10
-124.1133640995769
 20
-165.7216142658134
 10
-124.0920691713823
 20
-165.1421613100587
 10
-124.0939292705321
 20
-164.5555886644547
 10
-124.1662807133138
 20
-163.4559493603305
 10
-124.2975139153809
 20
-162.5054386949176
 10
-124.3698653581632
 20
-162.1130219157151
 10
-124.4362516553963
 20
-161.7991782902446
 10
-124.486987463234
 20
-161.5737214450502
 10
-124.5245742943247
 20
-161.419589781039
  0
LWPOLYLINE
  5
192
330
70
100
AcDbEntity
  8
Standardebene
 62
     7
370
    35
100
AcDbPolyline
 90
        9
 70
     0
 43
0.0
 10
-124.1255509560737
 20
-183.9119728385659
 10
-124.0901449308828
 20
-182.7776330640991
 10
-124.146204470769
 20
-181.6579816587791
 10
-124.2699331348883
 20
-180.6726422403263
 10
-124.3432466979194
 20
-180.2551461932806
 10
-124.411813801053
 20
-179.9109637092666
 10
-124.4697334400884
 20
-179.6491387186311
 10
-124.5091803703284
 20
-179.480960098974
 10
-124.5245742943247
 20
-179.4195768270393
  0
LWPOLYLINE
  5
193
330
70
100
AcDbEntity
  8
Standardebene
 62
     7
370
    35
100
AcDbPolyline
 90
       25
 70
     0
 43
0.0
 10
-124.1255509560737
 20
-183.9119728385659
 10
-123.6200529768508
 20
-183.9119728385659
 10
-122.9182183253259
 20
-183.9119728385659
 10
-122.0324904233973
 20
-183.9119728385659
 10
-120.9745429967619
 20
-183.9119728385659
 10
-119.7602831002155
 20
-183.9119728385659
 10
-118.4070288982538
 20
-183.9119728385659
 10
-116.9347283507219
 20
-183.9119728385659
 10
-115.3656385060644
 20
-183.9119728385659
 10
-113.7216957059754
 20
-183.9119728385659
 10
-112.0273378047988
 20
-183.9119728385659
 10
-110.3075799290288
 20
-183.9119728385659
 10
-108.586924074359
 20
-183.9119728385659
 10
-106.8919247596823
 20
-183.9119728385659
 10
-105.245480446944
 20
-183.9119728385659
 10
-103.6733118174869
 20
-183.9119728385659
 10
-102.1972269303063
 20
-183.9119728385659
 10
-100.839226268446
 20
-183.9119728385659
 10
-99.61964263985105
 20
-183.9119728385659
 10
-98.55579420901607
 20
-183.9119728385659
 10
-97.66288247588985
 20
-183.9119728385659
 10
-96.95508267881635
 20
-183.9119728385659
 10
-96.44143874814506
 20
-183.9119728385659
 10
-96.1304173420731
 20
-183.9119728385659
 10
-96.02612350699853
 20
-183.9119728385659
  0
LWPOLYLINE
  5
194
330
70
100
AcDbEntity
  8
Standardebene
 62
     7
370
    35
100
AcDbPolyline
 90
       27
 70
     0
 43
0.0
 10
-96.02612350699853
 20
-40.41167344559132
 10
-96.12977592857307
 20
-40.41167344559132
 10
-96.44015592114563
 20
-40.41167344559132
 10
-96.95193975266708
 20
-40.41167344559132
 10
-97.65845672274114
 20
-40.41167344559132
 10
-98.5482255297181
 20
-40.41167344559132
 10
-99.60963658925281
 20
-40.41167344559132
 10
-100.8270394119485
 20
-40.41167344559132
 10
-102.1809350274102
 20
-40.41167344559132
 10
-103.6541976951915
 20
-40.41167344559132
 10
-105.2232875398496
 20
-40.41167344559132
 10
-106.8656268061892
 20
-40.41167344559132
 10
-108.558445314966
 20
-40.41167344559132
 10
-110.2759582434865
 20
-40.41167344559132
 10
-111.9941125855071
 20
-40.41167344559132
 10
-113.6862896807839
 20
-40.41167344559132
 10
-115.3289496538735
 20
-40.41167344559132
 10
-116.898680912031
 20
-40.41167344559132
 10
-118.3713021663129
 20
-40.41167344559132
 10
-119.7258391952746
 20
-40.41167344559132
 10
-120.9422798977203
 20
-40.41167344559132
 10
-122.0040116640044
 20
-40.41167344559132
 10
-122.893780470982
 20
-40.41167344559132
 10
-123.600040875655
 20
-40.41167344559132
 10
-124.1124019793275
 20
-40.41167344559132
 10
-124.42246126515
 20
-40.41167344559132
 10
-124.5261136867239
 20
-40.41167344559132
  0
LWPOLYLINE
  5
195
330
70
100
AcDbEntity
  8
Standardebene
 62
     7
370
    35
100
AcDbPolyline
 90
        7
 70
     0
 43
0.0
 10
-124.2176579346515
 20
-186.4005930765934
 10
-124.2185559135513
 20
-186.4055961018932
 10
-124.1875756415084
 20
-186.1465933306577
 10
-124.1343383210221
 20
-185.5271161725126
 10
-124.1133640995769
 20
-185.0980105411192
 10
-124.1057954202789
 20
-184.6075857791426
 10
-124.1255509560737
 20
-183.9119728385659
  0
LWPOLYLINE
  5
196
330
70
100
AcDbEntity
  8
Standardebene
 62
     7
370
    35
100
AcDbPolyline
 90
       26
 70
     0
 43
0.0
 10
-124.129335295723
 20
-187.1447610191079
 10
-124.0197177286006
 20
-187.1447610191079
 10
-123.6936872466326
 20
-187.1447610191079
 10
-123.1565675818661
 20
-187.1447610191079
 10
-122.4158632722516
 20
-187.1447610191079
 10
-121.4835046088847
 20
-187.1447610191079
 10
-120.3745006676616
 20
-187.1447610191079
 10
-119.1060413303795
 20
-187.1447610191079
 10
-117.6992291011803
 20
-187.1447610191079
 10
-116.174589212062
 20
-187.1447610191079
 10
-114.5566236587167
 20
-187.1447610191079
 10
-112.8720152427372
 20
-187.1447610191079
 10
-111.1460356560189
 20
-187.1447610191079
 10
-109.4062656790538
 20
-187.1447610191079
 10
-107.6802219509858
 20
-187.1447610191079
 10
-105.9952928282564
 20
-187.1447610191079
 10
-104.3776479816611
 20
-187.1447610191079
 10
-102.8536495060421
 20
-187.1447610191079
 10
-101.4461958633435
 20
-187.1447610191079
 10
-100.1778006674111
 20
-187.1447610191079
 10
-99.06879672618861
 20
-187.1447610191079
 10
-98.13669462822089
 20
-187.1447610191079
 10
-97.39631102535636
 20
-187.1447610191079
 10
-96.85861408844079
 20
-187.1447610191079
 10
-96.53258360647212
 20
-187.1447610191079
 10
-96.42296603935033
 20
-187.1447610191079
  0
LWPOLYLINE
  5
197
330
70
100
AcDbEntity
  8
Standardebene
 62
     7
370
    35
100
AcDbPolyline
 90
       26
 70
     0
 43
0.0
 10
-123.3262855939238
 20
-189.4115804688916
 10
-123.2235952925999
 20
-189.4115804688916
 10
-122.9162940848264
 20
-189.4115804688916
 10
-122.409577419953
 20
-189.4115804688916
 10
-121.7121043802272
 20
-189.4115804688916
 10
-120.8336244508466
 20
-189.4115804688916
 10
-119.7891467077081
 20
-189.4115804688916
 10
-118.5946423469571
 20
-189.4115804688916
 10
-117.2689047841384
 20
-189.4115804688916
 10
-115.8322668271978
 20
-189.4115804688916
 10
-114.3092304718282
 20
-189.4115804688916
 10
-112.7216679183747
 20
-189.4115804688916
 10
-111.0952998481819
 20
-189.4115804688916
 10
-109.4566807801414
 20
-189.4115804688916
 10
-107.8305692753477
 20
-189.4115804688916
 10
-106.2430067218949
 20
-189.4115804688916
 10
-104.7199703665253
 20
-189.4115804688916
 10
-103.2833965509343
 20
-189.4115804688916
 10
-101.9579796948663
 20
-189.4115804688916
 10
-100.7631546273646
 20
-189.4115804688916
 10
-99.71835617747544
 20
-189.4115804688916
 10
-98.84013281349529
 20
-189.4115804688916
 10
-98.14233906702003
 20
-189.4115804688916
 10
-97.63626381564671
 20
-189.4115804688916
 10
-97.32902674922343
 20
-189.4115804688916
 10
-97.22659301329869
 20
-189.4115804688916
  0
LINE
  5
198
330
70
100
AcDbEntity
  8
Standardebene
 62
     7
370
    35
100
AcDbLine
 10
-131.2762852176861
 20
-15.41187673449151
 30
0.0
 11
-131.2762852176861
 21
-39.41164565799127
 31
0.0
  0
LWPOLYLINE
  5
199
330
70
100
AcDbEntity
  8
Standardebene
 62
     7
370
    35
100
AcDbPolyline
 90
       25
 70
     0
 43
0.0
 10
-97.77622024131133
 20
-15.41187673449151
 10
-97.88269488228449
 20
-15.41187673449151
 10
-98.20000214065563
 20
-15.41187673449151
 10
-98.72397282867455
 20
-15.41187673449151
 10
-99.44992462779275
 20
-15.41187673449151
 10
-100.3691343144133
 20
-15.41187673449151
 10
-101.469030183938
 20
-15.41187673449151
 10
-102.7384516414708
 20
-15.41187673449151
 10
-104.1612350668149
 20
-15.41187673449151
 10
-105.7215375465252
 20
-15.41187673449151
 10
-107.3996035448057
 20
-15.41187673449151
 10
-109.1772810596111
 20
-15.41187673449151
 10
-111.0323130424972
 20
-15.41187673449151
 10
-112.9437252720195
 20
-15.41187673449151
 10
-114.8889399929833
 20
-15.41187673449151
 10
-116.8442249058943
 20
-15.41187673449151
 10
-118.7869381142088
 20
-15.41187673449151
 10
-120.6936038838324
 20
-15.41187673449151
 10
-122.5429914279194
 20
-15.41187673449151
 10
-124.3122022845276
 20
-15.41187673449151
 10
-125.9805829389605
 20
-15.41187673449151
 10
-127.5283778554233
 20
-15.41187673449151
 10
-128.9376915972711
 20
-15.41187673449151
 10
-130.1920398375576
 20
-15.41187673449151
 10
-131.2762852176861
 20
-15.41187673449151
  0
LWPOLYLINE
  5
19A
330
70
100
AcDbEntity
  8
Standardebene
 62
     7
370
    35
100
AcDbPolyline
 90
       21
 70
     0
 43
0.0
 10
-131.2762852176861
 20
-39.41164565799127
 10
-130.1980049831061
 20
-39.41164565799127
 10
-128.9511612807674
 20
-39.41164565799127
 10
-127.549993490368
 20
-39.41164565799127
 10
-126.0115632110027
 20
-39.41164565799127
 10
-124.3535734552676
 20
-39.41164565799127
 10
-122.5955873349062
 20
-39.41164565799127
 10
-120.7574886684156
 20
-39.41164565799127
 10
-118.8611496561403
 20
-39.41164565799127
 10
-116.9294046186734
 20
-39.41164565799127
 10
-114.9838691909596
 20
-39.41164565799127
 10
-113.0470569868434
 20
-39.41164565799127
 10
-111.1428927298697
 20
-39.41164565799127
 10
-109.292543065532
 20
-39.41164565799127
 10
-107.5180084768759
 20
-39.41164565799127
 10
-105.8396217718454
 20
-39.41164565799127
 10
-104.2780364651356
 20
-39.41164565799127
 10
-102.8505707212431
 20
-39.41164565799127
 10
-101.5733240190119
 20
-39.41164565799127
 10
-100.4627806853896
 20
-39.41164565799127
 10
-99.53164070767263
 20
-39.41164565799127
  0
LWPOLYLINE
  5
19B
330
70
100
AcDbEntity
  8
Standardebene
 62
     7
370
    35
100
AcDbPolyline
 90
       23
 70
     0
 43
0.0
 10
-120.276107836786
 20
-14.51210187691631
 10
-120.1743155143619
 20
-14.51210187691631
 10
-119.870862787588
 20
-14.51210187691631
 10
-119.3722920741624
 20
-14.51210187691631
 10
-118.6885452833331
 20
-14.51210187691631
 10
-117.8338617947971
 20
-14.51210187691631
 10
-116.8247900768488
 20
-14.51210187691631
 10
-115.6828816230847
 20
-14.51210187691631
 10
-114.4301369165477
 20
-14.51210187691631
 10
-113.0934311828819
 20
-14.51210187691631
 10
-111.6991265169309
 20
-14.51210187691631
 10
-110.2759582434865
 20
-14.51210187691631
 10
-108.8531748181425
 20
-14.51210187691631
 10
-107.4588060108411
 20
-14.51210187691631
 10
-106.1221002771748
 20
-14.51210187691631
 10
-104.8696762773884
 20
-14.51210187691631
 10
-103.7274471168736
 20
-14.51210187691631
 10
-102.718696105676
 20
-14.51210187691631
 10
-101.8633712036399
 20
-14.51210187691631
 10
-101.1803299676603
 20
-14.51210187691631
 10
-100.6813744061351
 20
-14.51210187691631
 10
-100.3779216793605
 20
-14.51210187691631
 10
-100.2758086501864
 20
-14.51210187691631
  0
LWPOLYLINE
  5
19C
330
70
100
AcDbEntity
  8
Standardebene
 62
     7
370
    35
100
AcDbPolyline
 90
       23
 70
     0
 43
0.0
 10
-99.77595510976208
 20
-15.01163471059131
 10
-99.88307116423463
 20
-15.01163471059131
 10
-100.2015971082549
 20
-15.01163471059131
 10
-100.7255677962738
 20
-15.01163471059131
 10
-101.4427322304449
 20
-15.01163471059131
 10
-102.3406469888702
 20
-15.01163471059131
 10
-103.4001979492551
 20
-15.01163471059131
 10
-104.5993846285559
 20
-15.01163471059131
 10
-105.9141540205269
 20
-15.01163471059131
 10
-107.3182081716758
 20
-15.01163471059131
 10
-108.7817213542606
 20
-15.01163471059131
 10
-110.2759582434865
 20
-15.01163471059131
 10
-111.7701951327124
 20
-15.01163471059131
 10
-113.2343497287972
 20
-15.01163471059131
 10
-114.6384038799455
 20
-15.01163471059131
 10
-115.9528525651672
 20
-15.01163471059131
 10
-117.1520392444673
 20
-15.01163471059131
 10
-118.2119109116029
 20
-15.01163471059131
 10
-119.1091842565282
 20
-15.01163471059131
 10
-119.8276315176987
 20
-15.01163471059131
 10
-120.3506400854675
 20
-15.01163471059131
 10
-120.6691660294885
 20
-15.01163471059131
 10
-120.776282083961
 20
-15.01163471059131
  0
LINE
  5
19D
330
70
100
AcDbEntity
  8
Standardebene
 62
     7
370
    35
100
AcDbLine
 10
-110.0263842506988
 20
-99.61183039219111
 30
0.0
 11
-110.0263842506988
 21
-99.41203008699105
 31
0.0
  0
LWPOLYLINE
  5
19E
330
70
100
AcDbEntity
  8
Standardebene
 62
     7
370
    35
100
AcDbPolyline
 90
        3
 70
     0
 43
0.0
 10
-110.5259170843738
 20
-99.61183039219111
 10
-110.2759582434865
 20
-99.61183039219111
 10
-110.0263842506988
 20
-99.61183039219111
  0
LINE
  5
19F
330
70
100
AcDbEntity
  8
Standardebene
 62
     7
370
    35
100
AcDbLine
 10
-110.5259170843738
 20
-99.41203008699105
 30
0.0
 11
-110.5259170843738
 21
-99.61183039219111
 31
0.0
  0
LINE
  5
1A0
330
70
100
AcDbEntity
  8
Standardebene
 62
     7
370
    35
100
AcDbLine
 10
-126.7760639614617
 20
-99.41203008699105
 30
0.0
 11
-126.7760639614617
 21
-111.4115938419912
 31
0.0
  0
LWPOLYLINE
  5
1A1
330
70
100
AcDbEntity
  8
Standardebene
 62
     7
370
    35
100
AcDbPolyline
 90
        8
 70
     0
 43
0.0
 10
-110.5259170843738
 20
-99.41203008699105
 10
-113.0593079846911
 20
-99.41203008699105
 10
-115.5632580053647
 20
-99.41203008699105
 10
-118.0133292920519
 20
-99.41203008699105
 10
-120.3829031845098
 20
-99.41203008699105
 10
-122.6485680899934
 20
-99.41203008699105
 10
-124.7870406984589
 20
-99.41203008699105
 10
-126.7760639614617
 20
-99.41203008699105
  0
LINE
  5
1A2
330
70
100
AcDbEntity
  8
Standardebene
 62
     7
370
    35
100
AcDbLine
 10
-110.5259170843738
 20
-111.2117935367911
 30
0.0
 11
-110.5259170843738
 21
-111.4115938419912
 31
0.0
  0
LWPOLYLINE
  5
1A3
330
70
100
AcDbEntity
  8
Standardebene
 62
     7
370
    35
100
AcDbPolyline
 90
        8
 70
     0
 43
0.0
 10
-126.7760639614617
 20
-111.4115938419912
 10
-124.7870406984589
 20
-111.4115938419912
 10
-122.6485680899934
 20
-111.4115938419912
 10
-120.3829031845098
 20
-111.4115938419912
 10
-118.0133292920519
 20
-111.4115938419912
 10
-115.5632580053647
 20
-111.4115938419912
 10
-113.0593079846911
 20
-111.4115938419912
 10
-110.5259170843738
 20
-111.4115938419912
  0
LWPOLYLINE
  5
1A4
330
70
100
AcDbEntity
  8
Standardebene
 62
     7
370
    35
100
AcDbPolyline
 90
        4
 70
     0
 43
0.0
 10
-110.0263842506988
 20
-111.4115938419912
 10
-110.0263842506988
 20
-111.2117935367911
 10
-110.2759582434865
 20
-111.2117935367911
 10
-110.5259170843738
 20
-111.2117935367911
  0
LWPOLYLINE
  5
1A5
330
70
100
AcDbEntity
  8
Standardebene
 62
     7
370
    35
100
AcDbPolyline
 90
       17
 70
     0
 43
0.0
 10
-110.0263842506988
 20
-111.4115938419912
 10
-107.6552068244915
 20
-111.4115938419912
 10
-105.3068637188787
 20
-111.4115938419912
 10
-103.0039968304046
 20
-111.4115938419912
 10
-100.7665541189137
 20
-111.4115938419912
 10
-98.6158946539513
 20
-111.4115938419912
 10
-96.56952902406287
 20
-111.4115938419912
 10
-94.64714862369355
 20
-111.4115938419912
 10
-92.86575091058915
 20
-111.4115938419912
 10
-91.24117879819529
 20
-111.4115938419912
 10
-89.78927519995824
 20
-111.4115938419912
 10
-88.52177798292553
 20
-111.4115938419912
 10
-87.4515795584424
 20
-111.4115938419912
 10
-86.58656931255936
 20
-111.4115938419912
 10
-85.93514976212139
 20
-111.4115938419912
 10
-85.50386332482936
 20
-111.4115938419912
 10
-85.29591706818154
 20
-111.4115938419912
  0
LINE
  5
1A6
330
70
100
AcDbEntity
  8
Standardebene
 62
     7
370
    35
100
AcDbLine
 10
-85.29591706818154
 20
-99.41203008699105
 30
0.0
 11
-85.29591706818154
 21
-111.4115938419912
 31
0.0
  0
LWPOLYLINE
  5
1A7
330
70
100
AcDbEntity
  8
Standardebene
 62
     7
370
    35
100
AcDbPolyline
 90
       17
 70
     0
 43
0.0
 10
-85.29591706818154
 20
-99.41203008699105
 10
-85.50386332482936
 20
-99.41203008699105
 10
-85.93514976212139
 20
-99.41203008699105
 10
-86.58656931255936
 20
-99.41203008699105
 10
-87.4515795584424
 20
-99.41203008699105
 10
-88.52177798292553
 20
-99.41203008699105
 10
-89.78927519995824
 20
-99.41203008699105
 10
-91.24117879819529
 20
-99.41203008699105
 10
-92.86575091058915
 20
-99.41203008699105
 10
-94.64714862369355
 20
-99.41203008699105
 10
-96.56952902406287
 20
-99.41203008699105
 10
-98.6158946539513
 20
-99.41203008699105
 10
-100.7665541189137
 20
-99.41203008699105
 10
-103.0039968304046
 20
-99.41203008699105
 10
-105.3068637188787
 20
-99.41203008699105
 10
-107.6552068244915
 20
-99.41203008699105
 10
-110.0263842506988
 20
-99.41203008699105
  0
LWPOLYLINE
  5
1A8
330
70
100
AcDbEntity
  8
Standardebene
 62
     7
370
    35
100
AcDbPolyline
 90
       26
 70
     0
 43
0.0
 10
-89.17601975276147
 20
-105.4118119644911
 10
-89.21456870410166
 20
-105.0131093329907
 10
-89.34862412556865
 20
-104.5777819906496
 10
-89.66965158223819
 20
-104.0591350346792
 10
-90.00318660215461
 20
-103.7415712109083
 10
-90.37270491941233
 20
-103.5160502243649
 10
-91.2437444521948
 20
-103.3118883073657
 10
-91.69658238308121
 20
-103.3541574570056
 10
-92.15288394686693
 20
-103.5035426611181
 10
-92.75080961141759
 20
-103.9169336617645
 10
-93.12565166072381
 20
-104.4171079089395
 10
-93.32173176762548
 20
-104.9372942573098
 10
-93.37310898896189
 20
-105.5204674113635
 10
-93.28164342388545
 20
-106.033149221786
 10
-93.07716080013628
 20
-106.492593711721
 10
-92.65498243454143
 20
-106.9962315917953
 10
-92.31734236822633
 20
-107.2354788272354
 10
-91.96469322601453
 20
-107.3955756367951
 10
-91.46766190498812
 20
-107.503268963418
 10
-90.98159875481
 20
-107.4907614001718
 10
-90.50740175437871
 20
-107.3663913225525
 10
-90.06829007238831
 20
-107.1293248930116
 10
-89.58440772810941
 20
-106.6557693060803
 10
-89.32226203072463
 20
-106.1809950334986
 10
-89.20674345940392
 20
-105.7710035244012
 10
-89.17601975276147
 20
-105.4118119644911
  0
LWPOLYLINE
  5
1A9
330
70
100
AcDbEntity
  8
Standardebene
 62
     7
370
    35
100
AcDbPolyline
 90
       20
 70
     0
 43
0.0
 10
-110.2759582434865
 20
-103.2116353773409
 10
-111.0025514561048
 20
-103.3353640414602
 10
-111.6477492955938
 20
-103.6914768165713
 10
-112.1394568845704
 20
-104.2420661648334
 10
-112.4216146831504
 20
-104.925428107563
 10
-112.4617030268904
 20
-105.6620273707788
 10
-112.2568996963912
 20
-106.3689291889519
 10
-111.8297183054979
 20
-106.9692922248015
 10
-111.2267896156488
 20
-107.3955756367951
 10
-110.5152696202769
 20
-107.5988395748944
 10
-109.7795683359608
 20
-107.5546461847551
 10
-109.1005680050303
 20
-107.2715262659263
 10
-108.5524801694168
 20
-106.778856556699
 10
-108.1963673943064
 20
-106.1302592256616
 10
-108.0761023630863
 20
-105.4014852071435
 10
-108.2029739533543
 20
-104.6764313869251
 10
-108.5612675343653
 20
-104.0337350600853
 10
-109.1140376885265
 20
-103.5436310048581
 10
-109.7986824582556
 20
-103.2642312843284
 10
-110.2759582434865
 20
-103.2116353773409
  0
SPLINE
  5
1AA
330
70
100
AcDbEntity
  8
Standardebene
 62
     7
370
    35
100
AcDbSpline
210
0.0
220
0.0
230
1.0
 70
     9
 71
     3
 72
    17
 73
    13
 74
     0
 42
0.0000000001
 43
0.0000000001
 40
0.0
 40
0.0
 40
0.0
 40
0.0
 40
1.0
 40
1.0
 40
1.0
 40
2.0
 40
2.0
 40
2.0
 40
3.0
 40
3.0
 40
3.0
 40
4.0
 40
4.0
 40
4.0
 40
4.0
 10
-110.2759582434865
 20
-103.7619040188535
 30
0.0
 10
-111.1873426854081
 20
-103.7619040188535
 30
0.0
 10
-111.9261868958741
 20
-104.5004275225689
 30
0.0
 10
-111.9261868958741
 20
-105.4118119644911
 30
0.0
 10
-111.9261868958741
 20
-106.3231964064133
 30
0.0
 10
-111.1873426854081
 20
-107.0617199101287
 30
0.0
 10
-110.2759582434865
 20
-107.0617199101287
 30
0.0
 10
-109.3652152150637
 20
-107.0617199101287
 30
0.0
 10
-108.6257937324492
 20
-106.3231964064133
 30
0.0
 10
-108.6257937324492
 20
-105.4118119644911
 30
0.0
 10
-108.6257937324492
 20
-104.5004275225689
 30
0.0
 10
-109.3652152150637
 20
-103.7619040188535
 30
0.0
 10
-110.2759582434865
 20
-103.7619040188535
 30
0.0
  0
LWPOLYLINE
  5
1AB
330
70
100
AcDbEntity
  8
Standardebene
 62
     7
370
    35
100
AcDbPolyline
 90
       18
 70
     0
 43
0.0
 10
-149.7764465108615
 20
-21.41197931874097
 10
-149.7764465108615
 20
-21.51409234791569
 10
-149.7764465108615
 20
-21.81664709578987
 10
-149.7764465108615
 20
-22.31053549066636
 10
-149.7764465108615
 20
-22.97766967185006
 10
-149.7764465108615
 20
-23.79598501494514
 10
-149.7764465108615
 20
-24.7374517500098
 10
-149.7764465108615
 20
-25.77006334340153
 10
-149.7764465108615
 20
-26.85809306318001
 10
-149.7764465108615
 20
-27.9658141774024
 10
-149.7764465108615
 20
-29.05416460393026
 10
-149.7764465108615
 20
-30.08613478382259
 10
-149.7764465108615
 20
-31.02785808428701
 10
-149.7764465108615
 20
-31.84623756873235
 10
-149.7764465108615
 20
-32.51305104316603
 10
-149.7764465108615
 20
-33.0066187312925
 10
-149.7764465108615
 20
-33.30981489266608
 10
-149.7764465108615
 20
-33.41218448724119
  0
LINE
  5
1AC
330
70
100
AcDbEntity
  8
Standardebene
 62
     7
370
    35
100
AcDbLine
 10
-132.0351415293467
 20
-37.2268629948374
 30
0.0
 11
-136.717075230076
 21
-37.2268629948374
 31
0.0
  0
LWPOLYLINE
  5
1AD
330
70
100
AcDbEntity
  8
Standardebene
 62
     7
370
    35
100
AcDbPolyline
 90
        8
 70
     0
 43
0.0
 10
-132.0351415293467
 20
-32.31915174216423
 10
-136.717075230076
 20
-32.31915174216423
 10
-137.2676645783387
 20
-33.52116064086423
 10
-137.4226942212497
 20
-34.14320345300814
 10
-137.4759315417366
 20
-34.77300736850082
 10
-137.4718264953372
 20
-34.9474718404572
 10
-137.2463696501441
 20
-36.08873888072194
 10
-136.717075230076
 20
-37.2268629948374
  0
LWPOLYLINE
  5
1AE
330
70
100
AcDbEntity
  8
Standardebene
 62
     7
370
    35
100
AcDbPolyline
 90
        4
 70
     0
 43
0.0
 10
-131.2762852176861
 20
-34.77300736850082
 10
-131.2800695573355
 20
-34.9474718404572
 10
-131.5059112506289
 20
-36.08873888072194
 10
-132.0351415293467
 20
-37.2268629948374
  0
LINE
  5
1AF
330
70
100
AcDbEntity
  8
Standardebene
 62
     7
370
    35
100
AcDbLine
 10
-132.0351415293467
 20
-22.50469135706792
 30
0.0
 11
-136.717075230076
 21
-22.50469135706792
 31
0.0
  0
LWPOLYLINE
  5
1B0
330
70
100
AcDbEntity
  8
Standardebene
 62
     7
370
    35
100
AcDbPolyline
 90
        4
 70
     0
 43
0.0
 10
-132.0351415293467
 20
-32.31915174216423
 10
-131.484872887834
 20
-33.52116064086423
 10
-131.3295225381737
 20
-34.14320345300814
 10
-131.2762852176861
 20
-34.77300736850082
  0
LWPOLYLINE
  5
1B1
330
70
100
AcDbEntity
  8
Standardebene
 62
     7
370
    35
100
AcDbPolyline
 90
        7
 70
     0
 43
0.0
 10
-136.717075230076
 20
-22.50469135706792
 10
-137.1530439859172
 20
-24.276467867675
 10
-137.4176270546009
 20
-26.09731251102001
 10
-137.4759315417366
 20
-27.41208190299108
 10
-137.3615675147148
 20
-29.25832652092943
 10
-137.0330355200969
 20
-31.10585396586719
 10
-136.717075230076
 20
-32.31915174216423
  0
LWPOLYLINE
  5
1B2
330
70
100
AcDbEntity
  8
Standardebene
 62
     7
370
    35
100
AcDbPolyline
 90
        4
 70
     0
 43
0.0
 10
-131.2762852176861
 20
-27.41208190299108
 10
-131.3906492447079
 20
-29.25832652092943
 10
-131.7195019460752
 20
-31.10585396586719
 10
-132.0351415293467
 20
-32.31915174216423
  0
LINE
  5
1B3
330
70
100
AcDbEntity
  8
Standardebene
 62
     7
370
    35
100
AcDbLine
 10
-132.0351415293467
 20
-17.59672353899498
 30
0.0
 11
-136.717075230076
 21
-17.59672353899498
 31
0.0
  0
LWPOLYLINE
  5
1B4
330
70
100
AcDbEntity
  8
Standardebene
 62
     7
370
    35
100
AcDbPolyline
 90
        4
 70
     0
 43
0.0
 10
-132.0351415293467
 20
-22.50469135706792
 10
-131.5994934802555
 20
-24.276467867675
 10
-131.3339482913217
 20
-26.09731251102001
 10
-131.2762852176861
 20
-27.41208190299108
  0
LWPOLYLINE
  5
1B5
330
70
100
AcDbEntity
  8
Standardebene
 62
     7
370
    35
100
AcDbPolyline
 90
        7
 70
     0
 43
0.0
 10
-136.717075230076
 20
-17.59672353899498
 10
-137.2676645783387
 20
-18.7996945579444
 10
-137.4226942212497
 20
-19.4210318152393
 10
-137.4759315417366
 20
-20.05057916533158
 10
-137.4718264953372
 20
-20.22530020268771
 10
-137.2463696501441
 20
-21.36624653620244
 10
-136.717075230076
 20
-22.50469135706792
  0
LWPOLYLINE
  5
1B6
330
70
100
AcDbEntity
  8
Standardebene
 62
     7
370
    35
100
AcDbPolyline
 90
        4
 70
     0
 43
0.0
 10
-131.2762852176861
 20
-20.05057916533158
 10
-131.2800695573355
 20
-20.22530020268771
 10
-131.5059112506289
 20
-21.36624653620244
 10
-132.0351415293467
 20
-22.50469135706792
  0
LWPOLYLINE
  5
1B7
330
70
100
AcDbEntity
  8
Standardebene
 62
     7
370
    35
100
AcDbPolyline
 90
        4
 70
     0
 43
0.0
 10
-132.0351415293467
 20
-17.59672353899498
 10
-131.484872887834
 20
-18.7996945579444
 10
-131.3295225381737
 20
-19.4210318152393
 10
-131.2762852176861
 20
-20.05057916533158
  0
LWPOLYLINE
  5
1B8
330
70
100
AcDbEntity
  8
Standardebene
 62
     7
370
    35
100
AcDbPolyline
 90
        4
 70
     0
 43
0.0
 10
-137.4759315417366
 20
-20.05057916533158
 10
-137.4759315417366
 20
-19.42449544813795
 10
-137.4759315417366
 20
-19.04112259928369
 10
-137.4759315417366
 20
-18.91213434446609
  0
LWPOLYLINE
  5
1B9
330
70
100
AcDbEntity
  8
Standardebene
 62
     7
370
    35
100
AcDbPolyline
 90
        7
 70
     0
 43
0.0
 10
-137.4759315417366
 20
-27.41208190299108
 10
-137.4759315417366
 20
-25.93606115716013
 10
-137.4759315417366
 20
-24.50506763901806
 10
-137.4759315417366
 20
-23.16181948765338
 10
-137.4759315417366
 20
-21.94852171135699
 10
-137.4759315417366
 20
-20.90025962856915
 10
-137.4759315417366
 20
-20.05057916533158
  0
LWPOLYLINE
  5
1BA
330
70
100
AcDbEntity
  8
Standardebene
 62
     7
370
    35
100
AcDbPolyline
 90
        7
 70
     0
 43
0.0
 10
-137.4759315417366
 20
-34.77300736850082
 10
-137.4759315417366
 20
-33.92300619851323
 10
-137.4759315417366
 20
-32.87570623597544
 10
-137.4759315417366
 20
-31.66208775292903
 10
-137.4759315417366
 20
-30.31941687371412
 10
-137.4759315417366
 20
-28.8881667901723
 10
-137.4759315417366
 20
-27.41208190299108
  0
LWPOLYLINE
  5
1BB
330
70
100
AcDbEntity
  8
Standardebene
 62
     7
370
    35
100
AcDbPolyline
 90
        4
 70
     0
 43
0.0
 10
-137.4759315417366
 20
-35.9120936028657
 10
-137.4759315417366
 20
-35.78272049994846
 10
-137.4759315417366
 20
-35.39941179244446
 10
-137.4759315417366
 20
-34.77300736850082
  0
LWPOLYLINE
  5
1BC
330
70
100
AcDbEntity
  8
Standardebene
 62
     7
370
    35
100
AcDbPolyline
 90
        8
 70
     0
 43
0.0
 10
-153.7762369545111
 20
-27.41208190299108
 10
-153.7762369545111
 20
-26.29967847021895
 10
-153.7762369545111
 20
-25.2423083157333
 10
-153.7762369545111
 20
-24.29461986972035
 10
-153.7762369545111
 20
-23.50285904551878
 10
-153.7762369545111
 20
-22.9071783282176
 10
-153.7762369545111
 20
-22.5375958696096
 10
-153.7762369545111
 20
-22.41200710634104
  0
LWPOLYLINE
  5
1BD
330
70
100
AcDbEntity
  8
Standardebene
 62
     7
370
    35
100
AcDbPolyline
 90
        8
 70
     0
 43
0.0
 10
-153.7762369545111
 20
-32.41215669964113
 10
-153.7762369545111
 20
-32.28656793637192
 10
-153.7762369545111
 20
-31.91672891236482
 10
-153.7762369545111
 20
-31.32104819506363
 10
-153.7762369545111
 20
-30.52960807761144
 10
-153.7762369545111
 20
-29.58095751134907
 10
-153.7762369545111
 20
-28.52487018386285
 10
-153.7762369545111
 20
-27.41208190299108
  0
LWPOLYLINE
  5
1BE
330
70
100
AcDbEntity
  8
Standardebene
 62
     7
370
    35
100
AcDbPolyline
 90
        8
 70
     0
 43
0.0
 10
-150.7761535917109
 20
-27.41208190299108
 10
-150.7761535917109
 20
-26.29967847021895
 10
-150.7761535917109
 20
-25.2423083157333
 10
-150.7761535917109
 20
-24.29461986972035
 10
-150.7761535917109
 20
-23.50285904551878
 10
-150.7761535917109
 20
-22.9071783282176
 10
-150.7761535917109
 20
-22.5375958696096
 10
-150.7761535917109
 20
-22.41200710634104
  0
LWPOLYLINE
  5
1BF
330
70
100
AcDbEntity
  8
Standardebene
 62
     7
370
    35
100
AcDbPolyline
 90
        8
 70
     0
 43
0.0
 10
-150.7761535917109
 20
-32.41215669964113
 10
-150.7761535917109
 20
-32.28656793637192
 10
-150.7761535917109
 20
-31.91672891236482
 10
-150.7761535917109
 20
-31.32104819506363
 10
-150.7761535917109
 20
-30.52960807761144
 10
-150.7761535917109
 20
-29.58095751134907
 10
-150.7761535917109
 20
-28.52487018386285
 10
-150.7761535917109
 20
-27.41208190299108
  0
LWPOLYLINE
  5
1C0
330
70
100
AcDbEntity
  8
Standardebene
 62
     7
370
    35
100
AcDbPolyline
 90
        8
 70
     0
 43
0.0
 10
-160.7757259128612
 20
-27.41208190299108
 10
-160.7757259128612
 20
-26.34380771900805
 10
-160.7757259128612
 20
-25.3294122690113
 10
-160.7757259128612
 20
-24.41892580598949
 10
-160.7757259128612
 20
-23.6591715154298
 10
-160.7757259128612
 20
-23.08754380437225
 10
-160.7757259128612
 20
-22.73207244276118
 10
-160.7757259128612
 20
-22.61180741154111
  0
LWPOLYLINE
  5
1C1
330
70
100
AcDbEntity
  8
Standardebene
 62
     7
370
    35
100
AcDbPolyline
 90
        8
 70
     0
 43
0.0
 10
-160.7757259128612
 20
-32.21203568769104
 10
-160.7757259128612
 20
-32.09144994972096
 10
-160.7757259128612
 20
-31.73694070835994
 10
-160.7757259128612
 20
-31.16473572515261
 10
-160.7757259128612
 20
-30.40491729324331
 10
-160.7757259128612
 20
-29.49513638506987
 10
-160.7757259128612
 20
-28.48042022832439
 10
-160.7757259128612
 20
-27.41208190299108
  0
LWPOLYLINE
  5
1C2
330
70
100
AcDbEntity
  8
Standardebene
 62
     7
370
    35
100
AcDbPolyline
 90
        9
 70
     0
 43
0.0
 10
-154.7762006007615
 20
-27.41208190299108
 10
-154.7762006007615
 20
-26.24169468983333
 10
-154.7762006007615
 20
-25.11575743221533
 10
-154.7762006007615
 20
-24.07884836837414
 10
-154.7762006007615
 20
-23.16932402560174
 10
-154.7762006007615
 20
-22.42297527718869
 10
-154.7762006007615
 20
-21.86834502387694
 10
-154.7762006007615
 20
-21.52756203141258
 10
-154.7762006007615
 20
-21.41197931874097
  0
LWPOLYLINE
  5
1C3
330
70
100
AcDbEntity
  8
Standardebene
 62
     7
370
    35
100
AcDbPolyline
 90
        9
 70
     0
 43
0.0
 10
-154.7762006007615
 20
-33.41218448724119
 10
-154.7762006007615
 20
-33.29692248131961
 10
-154.7762006007615
 20
-32.95556221670547
 10
-154.7762006007615
 20
-32.40029054989368
 10
-154.7762006007615
 20
-31.65426250823065
 10
-154.7762006007615
 20
-30.74537957895765
 10
-154.7762006007615
 20
-29.70776496026745
 10
-154.7762006007615
 20
-28.58246911614884
 10
-154.7762006007615
 20
-27.41208190299108
  0
LINE
  5
1C5
330
70
100
AcDbEntity
  8
Bemaßung
 62
     7
370
     9
100
AcDbLine
 10
-91.51415386601044
 20
-149.6170419070403
 30
0.0
 11
-91.51415386601044
 21
-156.59593884974
 31
0.0
  0
LINE
  5
1C6
330
70
100
AcDbEntity
  8
Bemaßung
 62
     7
370
     9
100
AcDbLine
 10
-101.4138038635355
 20
-149.6170419070403
 30
0.0
 11
-101.4138038635355
 21
-156.59593884974
 31
0.0
  0
LINE
  5
1C7
330
70
100
AcDbEntity
  8
Bemaßung
 62
     7
370
     9
100
AcDbLine
 10
-80.41558859100726
 20
-155.4961188500151
 30
0.0
 11
-101.4138038635355
 21
-155.4961188500151
 31
0.0
  0
LWPOLYLINE
  5
1C8
330
70
100
AcDbEntity
  8
Bemaßung
 62
     7
370
     9
100
AcDbPolyline
 90
        4
 70
     0
 43
0.0
 10
-91.51415386601044
 20
-155.4961188500151
 10
-92.88906997677777
 20
-155.3150732945043
 10
-92.88906997677777
 20
-155.6771644055252
 10
-91.51415386601044
 20
-155.4961188500151
  0
LINE
  5
1C9
330
70
100
AcDbEntity
  8
Bemaßung
 62
     7
370
     9
100
AcDbLine
 10
-92.88906997677777
 20
-155.3281613500571
 30
0.0
 11
-92.78761108791437
 21
-155.3281613500571
 31
0.0
  0
LINE
  5
1CA
330
70
100
AcDbEntity
  8
Bemaßung
 62
     7
370
     9
100
AcDbLine
 10
-92.88906997677777
 20
-155.3281613500571
 30
0.0
 11
-92.78761108791437
 21
-155.3281613500571
 31
0.0
  0
LINE
  5
1CB
330
70
100
AcDbEntity
  8
Bemaßung
 62
     7
370
     9
100
AcDbLine
 10
-92.88906997677777
 20
-155.3562424611609
 30
0.0
 11
-92.5750624768561
 21
-155.3562424611609
 31
0.0
  0
LINE
  5
1CC
330
70
100
AcDbEntity
  8
Bemaßung
 62
     7
370
     9
100
AcDbLine
 10
-92.88906997677777
 20
-155.3843235722653
 30
0.0
 11
-92.36300775468691
 21
-155.3843235722653
 31
0.0
  0
LINE
  5
1CD
330
70
100
AcDbEntity
  8
Bemaßung
 62
     7
370
     9
100
AcDbLine
 10
-92.88906997677777
 20
-155.4122282944802
 30
0.0
 11
-92.15045914362896
 21
-155.4122282944802
 31
0.0
  0
LINE
  5
1CE
330
70
100
AcDbEntity
  8
Bemaßung
 62
     7
370
     9
100
AcDbLine
 10
-92.88906997677777
 20
-155.4401330166957
 30
0.0
 11
-91.93858081034868
 21
-155.4401330166957
 31
0.0
  0
LINE
  5
1CF
330
70
100
AcDbEntity
  8
Bemaßung
 62
     7
370
     9
100
AcDbLine
 10
-92.88906997677777
 20
-155.4682141277995
 30
0.0
 11
-91.72617331040177
 21
-155.4682141277995
 31
0.0
  0
LINE
  5
1D0
330
70
100
AcDbEntity
  8
Bemaßung
 62
     7
370
     9
100
AcDbLine
 10
-92.88906997677777
 20
-155.4961188500151
 30
0.0
 11
-91.51415386601044
 21
-155.4961188500151
 31
0.0
  0
LINE
  5
1D1
330
70
100
AcDbEntity
  8
Bemaßung
 62
     7
370
     9
100
AcDbLine
 10
-92.88906997677777
 20
-155.6637235721953
 30
0.0
 11
-92.78761108791437
 21
-155.6637235721953
 31
0.0
  0
LINE
  5
1D2
330
70
100
AcDbEntity
  8
Bemaßung
 62
     7
370
     9
100
AcDbLine
 10
-92.88906997677777
 20
-155.6637235721953
 30
0.0
 11
-92.78761108791437
 21
-155.6637235721953
 31
0.0
  0
LINE
  5
1D3
330
70
100
AcDbEntity
  8
Bemaßung
 62
     7
370
     9
100
AcDbLine
 10
-92.88906997677777
 20
-155.6358188499797
 30
0.0
 11
-92.5750624768561
 21
-155.6358188499797
 31
0.0
  0
LINE
  5
1D4
330
70
100
AcDbEntity
  8
Bemaßung
 62
     7
370
     9
100
AcDbLine
 10
-92.88906997677777
 20
-155.6079141277648
 30
0.0
 11
-92.36300775468691
 21
-155.6079141277648
 31
0.0
  0
LINE
  5
1D5
330
70
100
AcDbEntity
  8
Bemaßung
 62
     7
370
     9
100
AcDbLine
 10
-92.88906997677777
 20
-155.5800094055493
 30
0.0
 11
-92.15045914362896
 21
-155.5800094055493
 31
0.0
  0
LINE
  5
1D6
330
70
100
AcDbEntity
  8
Bemaßung
 62
     7
370
     9
100
AcDbLine
 10
-92.88906997677777
 20
-155.5519282944455
 30
0.0
 11
-91.93858081034868
 21
-155.5519282944455
 31
0.0
  0
LINE
  5
1D7
330
70
100
AcDbEntity
  8
Bemaßung
 62
     7
370
     9
100
AcDbLine
 10
-92.88906997677777
 20
-155.52402357223
 30
0.0
 11
-91.72617331040177
 21
-155.52402357223
 31
0.0
  0
LINE
  5
1D8
330
70
100
AcDbEntity
  8
Bemaßung
 62
     7
370
     9
100
AcDbLine
 10
-92.88906997677777
 20
-155.4961188500151
 30
0.0
 11
-91.51415386601044
 21
-155.4961188500151
 31
0.0
  0
LWPOLYLINE
  5
1D9
330
70
100
AcDbEntity
  8
Bemaßung
 62
     7
370
     9
100
AcDbPolyline
 90
        4
 70
     0
 43
0.0
 10
-101.4138038635355
 20
-155.4961188500151
 10
-100.0392052527681
 20
-155.6771644055252
 10
-100.0392052527681
 20
-155.3150732945043
 10
-101.4138038635355
 20
-155.4961188500151
  0
LINE
  5
1DA
330
70
100
AcDbEntity
  8
Bemaßung
 62
     7
370
     9
100
AcDbLine
 10
-100.0392052527681
 20
-155.6637235721953
 30
0.0
 11
-100.1408405305203
 21
-155.6637235721953
 31
0.0
  0
LINE
  5
1DB
330
70
100
AcDbEntity
  8
Bemaßung
 62
     7
370
     9
100
AcDbLine
 10
-100.0392052527681
 20
-155.6637235721953
 30
0.0
 11
-100.1408405305203
 21
-155.6637235721953
 31
0.0
  0
LINE
  5
1DC
330
70
100
AcDbEntity
  8
Bemaßung
 62
     7
370
     9
100
AcDbLine
 10
-100.0392052527681
 20
-155.6358188499797
 30
0.0
 11
-100.3528599749117
 21
-155.6358188499797
 31
0.0
  0
LINE
  5
1DD
330
70
100
AcDbEntity
  8
Bemaßung
 62
     7
370
     9
100
AcDbLine
 10
-100.0392052527681
 20
-155.6079141277648
 30
0.0
 11
-100.5649146970808
 21
-155.6079141277648
 31
0.0
  0
LINE
  5
1DE
330
70
100
AcDbEntity
  8
Bemaßung
 62
     7
370
     9
100
AcDbLine
 10
-100.0392052527681
 20
-155.5800094055493
 30
0.0
 11
-100.7771458081389
 21
-155.5800094055493
 31
0.0
  0
LINE
  5
1DF
330
70
100
AcDbEntity
  8
Bemaßung
 62
     7
370
     9
100
AcDbLine
 10
-100.0392052527681
 20
-155.5519282944455
 30
0.0
 11
-100.9896944191972
 21
-155.5519282944455
 31
0.0
  0
LINE
  5
1E0
330
70
100
AcDbEntity
  8
Bemaßung
 62
     7
370
     9
100
AcDbLine
 10
-100.0392052527681
 20
-155.52402357223
 30
0.0
 11
-101.2017491413663
 21
-155.52402357223
 31
0.0
  0
LINE
  5
1E1
330
70
100
AcDbEntity
  8
Bemaßung
 62
     7
370
     9
100
AcDbLine
 10
-100.0392052527681
 20
-155.4961188500151
 30
0.0
 11
-101.4138038635355
 21
-155.4961188500151
 31
0.0
  0
LINE
  5
1E2
330
70
100
AcDbEntity
  8
Bemaßung
 62
     7
370
     9
100
AcDbLine
 10
-100.0392052527681
 20
-155.3281613500571
 30
0.0
 11
-100.1408405305203
 21
-155.3281613500571
 31
0.0
  0
LINE
  5
1E3
330
70
100
AcDbEntity
  8
Bemaßung
 62
     7
370
     9
100
AcDbLine
 10
-100.0392052527681
 20
-155.3281613500571
 30
0.0
 11
-100.1408405305203
 21
-155.3281613500571
 31
0.0
  0
LINE
  5
1E4
330
70
100
AcDbEntity
  8
Bemaßung
 62
     7
370
     9
100
AcDbLine
 10
-100.0392052527681
 20
-155.3562424611609
 30
0.0
 11
-100.3528599749117
 21
-155.3562424611609
 31
0.0
  0
LINE
  5
1E5
330
70
100
AcDbEntity
  8
Bemaßung
 62
     7
370
     9
100
AcDbLine
 10
-100.0392052527681
 20
-155.3843235722653
 30
0.0
 11
-100.5649146970808
 21
-155.3843235722653
 31
0.0
  0
LINE
  5
1E6
330
70
100
AcDbEntity
  8
Bemaßung
 62
     7
370
     9
100
AcDbLine
 10
-100.0392052527681
 20
-155.4122282944802
 30
0.0
 11
-100.7771458081389
 21
-155.4122282944802
 31
0.0
  0
LINE
  5
1E7
330
70
100
AcDbEntity
  8
Bemaßung
 62
     7
370
     9
100
AcDbLine
 10
-100.0392052527681
 20
-155.4401330166957
 30
0.0
 11
-100.9896944191972
 21
-155.4401330166957
 31
0.0
  0
LINE
  5
1E8
330
70
100
AcDbEntity
  8
Bemaßung
 62
     7
370
     9
100
AcDbLine
 10
-100.0392052527681
 20
-155.4682141277995
 30
0.0
 11
-101.2017491413663
 21
-155.4682141277995
 31
0.0
  0
LINE
  5
1E9
330
70
100
AcDbEntity
  8
Bemaßung
 62
     7
370
     9
100
AcDbLine
 10
-100.0392052527681
 20
-155.4961188500151
 30
0.0
 11
-101.4138038635355
 21
-155.4961188500151
 31
0.0
  0
LINE
  5
1EA
330
70
100
AcDbEntity
  8
Bemaßung
 62
     7
370
     9
100
AcDbLine
 10
-103.6415602518672
 20
-150.1667049624585
 30
0.0
 11
-110.8318063611808
 21
-150.1667049624585
 31
0.0
  0
LINE
  5
1EB
330
70
100
AcDbEntity
  8
Bemaßung
 62
     7
370
     9
100
AcDbLine
 10
-101.4138038635355
 20
-130.3772121896282
 30
0.0
 11
-110.8318063611808
 21
-130.3772121896282
 31
0.0
  0
LINE
  5
1EC
330
70
100
AcDbEntity
  8
Bemaßung
 62
     7
370
     9
100
AcDbLine
 10
-109.731809972567
 20
-150.1667049624585
 30
0.0
 11
-109.731809972567
 21
-130.3772121896282
 31
0.0
  0
LWPOLYLINE
  5
1ED
330
70
100
AcDbEntity
  8
Bemaßung
 62
     7
370
     9
100
AcDbPolyline
 90
        4
 70
     0
 43
0.0
 10
-109.731809972567
 20
-150.1667049624585
 10
-109.5507644170566
 20
-148.7919652405795
 10
-109.9126791391885
 20
-148.7919652405795
 10
-109.731809972567
 20
-150.1667049624585
  0
LINE
  5
1EE
330
70
100
AcDbEntity
  8
Bemaßung
 62
     7
370
     9
100
AcDbLine
 10
-109.5643816392757
 20
-148.7919652405795
 30
0.0
 11
-109.5643816392757
 21
-148.8934241294435
 31
0.0
  0
LINE
  5
1EF
330
70
100
AcDbEntity
  8
Bemaßung
 62
     7
370
     9
100
AcDbLine
 10
-109.5643816392757
 20
-148.7919652405795
 30
0.0
 11
-109.5643816392757
 21
-148.8934241294435
 31
0.0
  0
LINE
  5
1F0
330
70
100
AcDbEntity
  8
Bemaßung
 62
     7
370
     9
100
AcDbLine
 10
-109.5919335837132
 20
-148.7919652405795
 30
0.0
 11
-109.5919335837132
 21
-149.1056199627234
 31
0.0
  0
LINE
  5
1F1
330
70
100
AcDbEntity
  8
Bemaßung
 62
     7
370
     9
100
AcDbLine
 10
-109.6198383059284
 20
-148.7919652405795
 30
0.0
 11
-109.6198383059284
 21
-149.3178510737814
 31
0.0
  0
LINE
  5
1F2
330
70
100
AcDbEntity
  8
Bemaßung
 62
     7
370
     9
100
AcDbLine
 10
-109.6480958059214
 20
-148.7919652405795
 30
0.0
 11
-109.6480958059214
 21
-149.5302232959508
 31
0.0
  0
LINE
  5
1F3
330
70
100
AcDbEntity
  8
Bemaßung
 62
     7
370
     9
100
AcDbLine
 10
-109.6761769170255
 20
-148.7919652405795
 30
0.0
 11
-109.6761769170255
 21
-149.74227801812
 31
0.0
  0
LINE
  5
1F4
330
70
100
AcDbEntity
  8
Bemaßung
 62
     7
370
     9
100
AcDbLine
 10
-109.7037288614629
 20
-148.7919652405795
 30
0.0
 11
-109.7037288614629
 21
-149.954509129178
 31
0.0
  0
LINE
  5
1F5
330
70
100
AcDbEntity
  8
Bemaßung
 62
     7
370
     9
100
AcDbLine
 10
-109.731809972567
 20
-148.7919652405795
 30
0.0
 11
-109.731809972567
 21
-150.1667049624585
 31
0.0
  0
LINE
  5
1F6
330
70
100
AcDbEntity
  8
Bemaßung
 62
     7
370
     9
100
AcDbLine
 10
-109.8994146947472
 20
-148.7919652405795
 30
0.0
 11
-109.8994146947472
 21
-148.8934241294435
 31
0.0
  0
LINE
  5
1F7
330
70
100
AcDbEntity
  8
Bemaßung
 62
     7
370
     9
100
AcDbLine
 10
-109.8994146947472
 20
-148.7919652405795
 30
0.0
 11
-109.8994146947472
 21
-148.8934241294435
 31
0.0
  0
LINE
  5
1F8
330
70
100
AcDbEntity
  8
Bemaßung
 62
     7
370
     9
100
AcDbLine
 10
-109.871509972532
 20
-148.7919652405795
 30
0.0
 11
-109.871509972532
 21
-149.1056199627234
 31
0.0
  0
LINE
  5
1F9
330
70
100
AcDbEntity
  8
Bemaßung
 62
     7
370
     9
100
AcDbLine
 10
-109.8436052503168
 20
-148.7919652405795
 30
0.0
 11
-109.8436052503168
 21
-149.3178510737814
 31
0.0
  0
LINE
  5
1FA
330
70
100
AcDbEntity
  8
Bemaßung
 62
     7
370
     9
100
AcDbLine
 10
-109.8155241392127
 20
-148.7919652405795
 30
0.0
 11
-109.8155241392127
 21
-149.5302232959508
 31
0.0
  0
LINE
  5
1FB
330
70
100
AcDbEntity
  8
Bemaßung
 62
     7
370
     9
100
AcDbLine
 10
-109.7876194169975
 20
-148.7919652405795
 30
0.0
 11
-109.7876194169975
 21
-149.74227801812
 31
0.0
  0
LINE
  5
1FC
330
70
100
AcDbEntity
  8
Bemaßung
 62
     7
370
     9
100
AcDbLine
 10
-109.7595383058934
 20
-148.7919652405795
 30
0.0
 11
-109.7595383058934
 21
-149.954509129178
 31
0.0
  0
LINE
  5
1FD
330
70
100
AcDbEntity
  8
Bemaßung
 62
     7
370
     9
100
AcDbLine
 10
-109.731809972567
 20
-148.7919652405795
 30
0.0
 11
-109.731809972567
 21
-150.1667049624585
 31
0.0
  0
LWPOLYLINE
  5
1FE
330
70
100
AcDbEntity
  8
Bemaßung
 62
     7
370
     9
100
AcDbPolyline
 90
        4
 70
     0
 43
0.0
 10
-109.731809972567
 20
-130.3772121896282
 10
-109.9126791391885
 20
-131.752163578173
 10
-109.5507644170566
 20
-131.752163578173
 10
-109.731809972567
 20
-130.3772121896282
  0
LINE
  5
1FF
330
70
100
AcDbEntity
  8
Bemaßung
 62
     7
370
     9
100
AcDbLine
 10
-109.8994146947472
 20
-131.752163578173
 30
0.0
 11
-109.8994146947472
 21
-131.6505283004207
 31
0.0
  0
LINE
  5
200
330
70
100
AcDbEntity
  8
Bemaßung
 62
     7
370
     9
100
AcDbLine
 10
-109.8994146947472
 20
-131.752163578173
 30
0.0
 11
-109.8994146947472
 21
-131.6505283004207
 31
0.0
  0
LINE
  5
201
330
70
100
AcDbEntity
  8
Bemaßung
 62
     7
370
     9
100
AcDbLine
 10
-109.871509972532
 20
-131.752163578173
 30
0.0
 11
-109.871509972532
 21
-131.4381560782513
 31
0.0
  0
LINE
  5
202
330
70
100
AcDbEntity
  8
Bemaßung
 62
     7
370
     9
100
AcDbLine
 10
-109.8436052503168
 20
-131.752163578173
 30
0.0
 11
-109.8436052503168
 21
-131.2261013560822
 31
0.0
  0
LINE
  5
203
330
70
100
AcDbEntity
  8
Bemaßung
 62
     7
370
     9
100
AcDbLine
 10
-109.8155241392127
 20
-131.752163578173
 30
0.0
 11
-109.8155241392127
 21
-131.0135527450245
 31
0.0
  0
LINE
  5
204
330
70
100
AcDbEntity
  8
Bemaßung
 62
     7
370
     9
100
AcDbLine
 10
-109.7876194169975
 20
-131.752163578173
 30
0.0
 11
-109.7876194169975
 21
-130.8016744117443
 31
0.0
  0
LINE
  5
205
330
70
100
AcDbEntity
  8
Bemaßung
 62
     7
370
     9
100
AcDbLine
 10
-109.7595383058934
 20
-131.752163578173
 30
0.0
 11
-109.7595383058934
 21
-130.5892669117973
 31
0.0
  0
LINE
  5
206
330
70
100
AcDbEntity
  8
Bemaßung
 62
     7
370
     9
100
AcDbLine
 10
-109.731809972567
 20
-131.752163578173
 30
0.0
 11
-109.731809972567
 21
-130.3772121896282
 31
0.0
  0
LINE
  5
207
330
70
100
AcDbEntity
  8
Bemaßung
 62
     7
370
     9
100
AcDbLine
 10
-109.5643816392757
 20
-131.752163578173
 30
0.0
 11
-109.5643816392757
 21
-131.6505283004207
 31
0.0
  0
LINE
  5
208
330
70
100
AcDbEntity
  8
Bemaßung
 62
     7
370
     9
100
AcDbLine
 10
-109.5643816392757
 20
-131.752163578173
 30
0.0
 11
-109.5643816392757
 21
-131.6505283004207
 31
0.0
  0
LINE
  5
209
330
70
100
AcDbEntity
  8
Bemaßung
 62
     7
370
     9
100
AcDbLine
 10
-109.5919335837132
 20
-131.752163578173
 30
0.0
 11
-109.5919335837132
 21
-131.4381560782513
 31
0.0
  0
LINE
  5
20A
330
70
100
AcDbEntity
  8
Bemaßung
 62
     7
370
     9
100
AcDbLine
 10
-109.6198383059284
 20
-131.752163578173
 30
0.0
 11
-109.6198383059284
 21
-131.2261013560822
 31
0.0
  0
LINE
  5
20B
330
70
100
AcDbEntity
  8
Bemaßung
 62
     7
370
     9
100
AcDbLine
 10
-109.6480958059214
 20
-131.752163578173
 30
0.0
 11
-109.6480958059214
 21
-131.0135527450245
 31
0.0
  0
LINE
  5
20C
330
70
100
AcDbEntity
  8
Bemaßung
 62
     7
370
     9
100
AcDbLine
 10
-109.6761769170255
 20
-131.752163578173
 30
0.0
 11
-109.6761769170255
 21
-130.8016744117443
 31
0.0
  0
LINE
  5
20D
330
70
100
AcDbEntity
  8
Bemaßung
 62
     7
370
     9
100
AcDbLine
 10
-109.7037288614629
 20
-131.752163578173
 30
0.0
 11
-109.7037288614629
 21
-130.5892669117973
 31
0.0
  0
LINE
  5
20E
330
70
100
AcDbEntity
  8
Bemaßung
 62
     7
370
     9
100
AcDbLine
 10
-109.731809972567
 20
-131.752163578173
 30
0.0
 11
-109.731809972567
 21
-130.3772121896282
 31
0.0
  0
LINE
  5
20F
330
70
100
AcDbEntity
  8
Bemaßung
 62
     7
370
     9
100
AcDbLine
 10
-104.3014663628134
 20
-87.32904525594561
 30
0.0
 11
-88.62645608895434
 21
-87.32904525594561
 31
0.0
  0
LWPOLYLINE
  5
210
330
70
100
AcDbEntity
  8
Bemaßung
 62
     7
370
     9
100
AcDbPolyline
 90
        4
 70
     0
 43
0.0
 10
-104.3014663628134
 20
-87.32904525594561
 10
-102.9265502520461
 20
-87.51009081145571
 10
-102.9265502520461
 20
-87.14764692265744
 10
-104.3014663628134
 20
-87.32904525594561
  0
LINE
  5
211
330
70
100
AcDbEntity
  8
Bemaßung
 62
     7
370
     9
100
AcDbLine
 10
-102.9265502520461
 20
-87.49647358923693
 30
0.0
 11
-103.0281502520209
 21
-87.49647358923693
 31
0.0
  0
LINE
  5
212
330
70
100
AcDbEntity
  8
Bemaßung
 62
     7
370
     9
100
AcDbLine
 10
-102.9265502520461
 20
-87.49647358923693
 30
0.0
 11
-103.0281502520209
 21
-87.49647358923693
 31
0.0
  0
LINE
  5
213
330
70
100
AcDbEntity
  8
Bemaßung
 62
     7
370
     9
100
AcDbLine
 10
-102.9265502520461
 20
-87.46856886702172
 30
0.0
 11
-103.24020497419
 21
-87.46856886702172
 31
0.0
  0
LINE
  5
214
330
70
100
AcDbEntity
  8
Bemaßung
 62
     7
370
     9
100
AcDbLine
 10
-102.9265502520461
 20
-87.44048775591762
 30
0.0
 11
-103.4526124741369
 21
-87.44048775591762
 31
0.0
  0
LINE
  5
215
330
70
100
AcDbEntity
  8
Bemaßung
 62
     7
370
     9
100
AcDbLine
 10
-102.9265502520461
 20
-87.41258303370241
 30
0.0
 11
-103.6646319185283
 21
-87.41258303370241
 31
0.0
  0
LINE
  5
216
330
70
100
AcDbEntity
  8
Bemaßung
 62
     7
370
     9
100
AcDbLine
 10
-102.9265502520461
 20
-87.38467831148717
 30
0.0
 11
-103.8770394184752
 21
-87.38467831148717
 31
0.0
  0
LINE
  5
217
330
70
100
AcDbEntity
  8
Bemaßung
 62
     7
370
     9
100
AcDbLine
 10
-102.9265502520461
 20
-87.35677358927196
 30
0.0
 11
-104.0894116406443
 21
-87.35677358927196
 31
0.0
  0
LINE
  5
218
330
70
100
AcDbEntity
  8
Bemaßung
 62
     7
370
     9
100
AcDbLine
 10
-102.9265502520461
 20
-87.32904525594561
 30
0.0
 11
-104.3014663628134
 21
-87.32904525594561
 31
0.0
  0
LINE
  5
219
330
70
100
AcDbEntity
  8
Bemaßung
 62
     7
370
     9
100
AcDbLine
 10
-102.9265502520461
 20
-87.1614405337651
 30
0.0
 11
-103.0281502520209
 21
-87.1614405337651
 31
0.0
  0
LINE
  5
21A
330
70
100
AcDbEntity
  8
Bemaßung
 62
     7
370
     9
100
AcDbLine
 10
-102.9265502520461
 20
-87.1614405337651
 30
0.0
 11
-103.0281502520209
 21
-87.1614405337651
 31
0.0
  0
LINE
  5
21B
330
70
100
AcDbEntity
  8
Bemaßung
 62
     7
370
     9
100
AcDbLine
 10
-102.9265502520461
 20
-87.18934525598031
 30
0.0
 11
-103.24020497419
 21
-87.18934525598031
 31
0.0
  0
LINE
  5
21C
330
70
100
AcDbEntity
  8
Bemaßung
 62
     7
370
     9
100
AcDbLine
 10
-102.9265502520461
 20
-87.21724997819555
 30
0.0
 11
-103.4526124741369
 21
-87.21724997819555
 31
0.0
  0
LINE
  5
21D
330
70
100
AcDbEntity
  8
Bemaßung
 62
     7
370
     9
100
AcDbLine
 10
-102.9265502520461
 20
-87.24515470041108
 30
0.0
 11
-103.6646319185283
 21
-87.24515470041108
 31
0.0
  0
LINE
  5
21E
330
70
100
AcDbEntity
  8
Bemaßung
 62
     7
370
     9
100
AcDbLine
 10
-102.9265502520461
 20
-87.2730594226263
 30
0.0
 11
-103.8770394184752
 21
-87.2730594226263
 31
0.0
  0
LINE
  5
21F
330
70
100
AcDbEntity
  8
Bemaßung
 62
     7
370
     9
100
AcDbLine
 10
-102.9265502520461
 20
-87.30096414484151
 30
0.0
 11
-104.0894116406443
 21
-87.30096414484151
 31
0.0
  0
LINE
  5
220
330
70
100
AcDbEntity
  8
Bemaßung
 62
     7
370
     9
100
AcDbLine
 10
-102.9265502520461
 20
-87.32904525594561
 30
0.0
 11
-104.3014663628134
 21
-87.32904525594561
 31
0.0
  0
LWPOLYLINE
  5
221
330
70
100
AcDbEntity
  8
Bemaßung
 62
     7
370
     9
100
AcDbPolyline
 90
        4
 70
     0
 43
0.0
 10
-88.62645608895434
 20
-87.32904525594561
 10
-90.0014074774995
 20
-87.14764692265744
 10
-90.0014074774995
 20
-87.51009081145571
 10
-88.62645608895434
 20
-87.32904525594561
  0
LINE
  5
222
330
70
100
AcDbEntity
  8
Bemaßung
 62
     7
370
     9
100
AcDbLine
 10
-90.0014074774995
 20
-87.1614405337651
 30
0.0
 11
-89.89977219974722
 21
-87.1614405337651
 31
0.0
  0
LINE
  5
223
330
70
100
AcDbEntity
  8
Bemaßung
 62
     7
370
     9
100
AcDbLine
 10
-90.0014074774995
 20
-87.1614405337651
 30
0.0
 11
-89.89977219974722
 21
-87.1614405337651
 31
0.0
  0
LINE
  5
224
330
70
100
AcDbEntity
  8
Bemaßung
 62
     7
370
     9
100
AcDbLine
 10
-90.0014074774995
 20
-87.18934525598031
 30
0.0
 11
-89.68771747757806
 21
-87.18934525598031
 31
0.0
  0
LINE
  5
225
330
70
100
AcDbEntity
  8
Bemaßung
 62
     7
370
     9
100
AcDbLine
 10
-90.0014074774995
 20
-87.21724997819555
 30
0.0
 11
-89.47534525540898
 21
-87.21724997819555
 31
0.0
  0
LINE
  5
226
330
70
100
AcDbEntity
  8
Bemaßung
 62
     7
370
     9
100
AcDbLine
 10
-90.0014074774995
 20
-87.24515470041108
 30
0.0
 11
-89.26329053323982
 21
-87.24515470041108
 31
0.0
  0
LINE
  5
227
330
70
100
AcDbEntity
  8
Bemaßung
 62
     7
370
     9
100
AcDbLine
 10
-90.0014074774995
 20
-87.2730594226263
 30
0.0
 11
-89.05088303329291
 21
-87.2730594226263
 31
0.0
  0
LINE
  5
228
330
70
100
AcDbEntity
  8
Bemaßung
 62
     7
370
     9
100
AcDbLine
 10
-90.0014074774995
 20
-87.30096414484151
 30
0.0
 11
-88.83886358890126
 21
-87.30096414484151
 31
0.0
  0
LINE
  5
229
330
70
100
AcDbEntity
  8
Bemaßung
 62
     7
370
     9
100
AcDbLine
 10
-90.0014074774995
 20
-87.32904525594561
 30
0.0
 11
-88.62645608895434
 21
-87.32904525594561
 31
0.0
  0
LINE
  5
22A
330
70
100
AcDbEntity
  8
Bemaßung
 62
     7
370
     9
100
AcDbLine
 10
-90.0014074774995
 20
-87.49647358923693
 30
0.0
 11
-89.89977219974722
 21
-87.49647358923693
 31
0.0
  0
LINE
  5
22B
330
70
100
AcDbEntity
  8
Bemaßung
 62
     7
370
     9
100
AcDbLine
 10
-90.0014074774995
 20
-87.49647358923693
 30
0.0
 11
-89.89977219974722
 21
-87.49647358923693
 31
0.0
  0
LINE
  5
22C
330
70
100
AcDbEntity
  8
Bemaßung
 62
     7
370
     9
100
AcDbLine
 10
-90.0014074774995
 20
-87.46856886702172
 30
0.0
 11
-89.68771747757806
 21
-87.46856886702172
 31
0.0
  0
LINE
  5
22D
330
70
100
AcDbEntity
  8
Bemaßung
 62
     7
370
     9
100
AcDbLine
 10
-90.0014074774995
 20
-87.44048775591762
 30
0.0
 11
-89.47534525540898
 21
-87.44048775591762
 31
0.0
  0
LINE
  5
22E
330
70
100
AcDbEntity
  8
Bemaßung
 62
     7
370
     9
100
AcDbLine
 10
-90.0014074774995
 20
-87.41258303370241
 30
0.0
 11
-89.26329053323982
 21
-87.41258303370241
 31
0.0
  0
LINE
  5
22F
330
70
100
AcDbEntity
  8
Bemaßung
 62
     7
370
     9
100
AcDbLine
 10
-90.0014074774995
 20
-87.38467831148717
 30
0.0
 11
-89.05088303329291
 21
-87.38467831148717
 31
0.0
  0
LINE
  5
230
330
70
100
AcDbEntity
  8
Bemaßung
 62
     7
370
     9
100
AcDbLine
 10
-90.0014074774995
 20
-87.35677358927196
 30
0.0
 11
-88.83886358890126
 21
-87.35677358927196
 31
0.0
  0
LINE
  5
231
330
70
100
AcDbEntity
  8
Bemaßung
 62
     7
370
     9
100
AcDbLine
 10
-90.0014074774995
 20
-87.32904525594561
 30
0.0
 11
-88.62645608895434
 21
-87.32904525594561
 31
0.0
  0
LINE
  5
232
330
70
100
AcDbEntity
  8
Bemaßung
 62
     7
370
     9
100
AcDbLine
 10
-42.3913380447303
 20
-53.97189554206271
 30
0.0
 11
-24.7631030491371
 21
-53.97189554206271
 31
0.0
  0
LINE
  5
233
330
70
100
AcDbEntity
  8
Bemaßung
 62
     7
370
     9
100
AcDbLine
 10
-37.99159943471911
 20
-67.66665831641656
 30
0.0
 11
-24.68076471582464
 21
-67.66665831641656
 31
0.0
  0
LINE
  5
234
330
70
100
AcDbEntity
  8
Bemaßung
 62
     7
370
     9
100
AcDbLine
 10
-25.86331110441792
 20
-53.97189554206271
 30
0.0
 11
-25.86331110441792
 21
-67.66665831641656
 31
0.0
  0
LWPOLYLINE
  5
235
330
70
100
AcDbEntity
  8
Bemaßung
 62
     7
370
     9
100
AcDbPolyline
 90
        4
 70
     0
 43
0.0
 10
-25.86331110441792
 20
-53.97189554206271
 10
-26.04418027103912
 20
-55.34684693060789
 10
-25.68226554890719
 20
-55.34684693060789
 10
-25.86331110441792
 20
-53.97189554206271
  0
LINE
  5
236
330
70
100
AcDbEntity
  8
Bemaßung
 62
     7
370
     9
100
AcDbLine
 10
-26.03091582659811
 20
-55.34684693060789
 30
0.0
 11
-26.03091582659811
 21
-55.2450352639664
 31
0.0
  0
LINE
  5
237
330
70
100
AcDbEntity
  8
Bemaßung
 62
     7
370
     9
100
AcDbLine
 10
-26.03091582659811
 20
-55.34684693060789
 30
0.0
 11
-26.03091582659811
 21
-55.2450352639664
 31
0.0
  0
LINE
  5
238
330
70
100
AcDbEntity
  8
Bemaßung
 62
     7
370
     9
100
AcDbLine
 10
-26.00283471549369
 20
-55.34684693060789
 30
0.0
 11
-26.00283471549369
 21
-55.03280415290836
 31
0.0
  0
LINE
  5
239
330
70
100
AcDbEntity
  8
Bemaßung
 62
     7
370
     9
100
AcDbLine
 10
-25.9749299932788
 20
-55.34684693060789
 30
0.0
 11
-25.9749299932788
 21
-54.82078470851703
 31
0.0
  0
LINE
  5
23A
330
70
100
AcDbEntity
  8
Bemaßung
 62
     7
370
     9
100
AcDbLine
 10
-25.94684888217437
 20
-55.34684693060789
 30
0.0
 11
-25.94684888217437
 21
-54.608553597459
 31
0.0
  0
LINE
  5
23B
330
70
100
AcDbEntity
  8
Bemaßung
 62
     7
370
     9
100
AcDbLine
 10
-25.91912054884836
 20
-55.34684693060789
 30
0.0
 11
-25.91912054884836
 21
-54.39600498640103
 31
0.0
  0
LINE
  5
23C
330
70
100
AcDbEntity
  8
Bemaßung
 62
     7
370
     9
100
AcDbLine
 10
-25.89121582663282
 20
-55.34684693060789
 30
0.0
 11
-25.89121582663282
 21
-54.18395026423188
 31
0.0
  0
LINE
  5
23D
330
70
100
AcDbEntity
  8
Bemaßung
 62
     7
370
     9
100
AcDbLine
 10
-25.86331110441792
 20
-55.34684693060789
 30
0.0
 11
-25.86331110441792
 21
-53.97189554206271
 31
0.0
  0
LINE
  5
23E
330
70
100
AcDbEntity
  8
Bemaßung
 62
     7
370
     9
100
AcDbLine
 10
-25.69552999334884
 20
-55.34684693060789
 30
0.0
 11
-25.69552999334884
 21
-55.2450352639664
 31
0.0
  0
LINE
  5
23F
330
70
100
AcDbEntity
  8
Bemaßung
 62
     7
370
     9
100
AcDbLine
 10
-25.69552999334884
 20
-55.34684693060789
 30
0.0
 11
-25.69552999334884
 21
-55.2450352639664
 31
0.0
  0
LINE
  5
240
330
70
100
AcDbEntity
  8
Bemaßung
 62
     7
370
     9
100
AcDbLine
 10
-25.72361110445261
 20
-55.34684693060789
 30
0.0
 11
-25.72361110445261
 21
-55.03280415290836
 31
0.0
  0
LINE
  5
241
330
70
100
AcDbEntity
  8
Bemaßung
 62
     7
370
     9
100
AcDbLine
 10
-25.75151582666816
 20
-55.34684693060789
 30
0.0
 11
-25.75151582666816
 21
-54.82078470851703
 31
0.0
  0
LINE
  5
242
330
70
100
AcDbEntity
  8
Bemaßung
 62
     7
370
     9
100
AcDbLine
 10
-25.77942054888306
 20
-55.34684693060789
 30
0.0
 11
-25.77942054888306
 21
-54.608553597459
 31
0.0
  0
LINE
  5
243
330
70
100
AcDbEntity
  8
Bemaßung
 62
     7
370
     9
100
AcDbLine
 10
-25.80714888220971
 20
-55.34684693060789
 30
0.0
 11
-25.80714888220971
 21
-54.39600498640103
 31
0.0
  0
LINE
  5
244
330
70
100
AcDbEntity
  8
Bemaßung
 62
     7
370
     9
100
AcDbLine
 10
-25.83505360442461
 20
-55.34684693060789
 30
0.0
 11
-25.83505360442461
 21
-54.18395026423188
 31
0.0
  0
LINE
  5
245
330
70
100
AcDbEntity
  8
Bemaßung
 62
     7
370
     9
100
AcDbLine
 10
-25.86331110441792
 20
-55.34684693060789
 30
0.0
 11
-25.86331110441792
 21
-53.97189554206271
 31
0.0
  0
LWPOLYLINE
  5
246
330
70
100
AcDbEntity
  8
Bemaßung
 62
     7
370
     9
100
AcDbPolyline
 90
        4
 70
     0
 43
0.0
 10
-25.86331110441792
 20
-67.66665831641656
 10
-25.68226554890719
 20
-66.29191859453811
 10
-26.04418027103912
 20
-66.29191859453811
 10
-25.86331110441792
 20
-67.66665831641656
  0
LINE
  5
247
330
70
100
AcDbEntity
  8
Bemaßung
 62
     7
370
     9
100
AcDbLine
 10
-25.69552999334884
 20
-66.29191859453811
 30
0.0
 11
-25.69552999334884
 21
-66.39351859451288
 31
0.0
  0
LINE
  5
248
330
70
100
AcDbEntity
  8
Bemaßung
 62
     7
370
     9
100
AcDbLine
 10
-25.69552999334884
 20
-66.29191859453811
 30
0.0
 11
-25.69552999334884
 21
-66.39351859451288
 31
0.0
  0
LINE
  5
249
330
70
100
AcDbEntity
  8
Bemaßung
 62
     7
370
     9
100
AcDbLine
 10
-25.72361110445261
 20
-66.29191859453811
 30
0.0
 11
-25.72361110445261
 21
-66.60574970557092
 31
0.0
  0
LINE
  5
24A
330
70
100
AcDbEntity
  8
Bemaßung
 62
     7
370
     9
100
AcDbLine
 10
-25.75151582666816
 20
-66.29191859453811
 30
0.0
 11
-25.75151582666816
 21
-66.81780442774009
 31
0.0
  0
LINE
  5
24B
330
70
100
AcDbEntity
  8
Bemaßung
 62
     7
370
     9
100
AcDbLine
 10
-25.77942054888306
 20
-66.29191859453811
 30
0.0
 11
-25.77942054888306
 21
-67.03017664990916
 31
0.0
  0
LINE
  5
24C
330
70
100
AcDbEntity
  8
Bemaßung
 62
     7
370
     9
100
AcDbLine
 10
-25.80714888220971
 20
-66.29191859453811
 30
0.0
 11
-25.80714888220971
 21
-67.24240776096721
 31
0.0
  0
LINE
  5
24D
330
70
100
AcDbEntity
  8
Bemaßung
 62
     7
370
     9
100
AcDbLine
 10
-25.83505360442461
 20
-66.29191859453811
 30
0.0
 11
-25.83505360442461
 21
-67.45463887202524
 31
0.0
  0
LINE
  5
24E
330
70
100
AcDbEntity
  8
Bemaßung
 62
     7
370
     9
100
AcDbLine
 10
-25.86331110441792
 20
-66.29191859453811
 30
0.0
 11
-25.86331110441792
 21
-67.66665831641656
 31
0.0
  0
LINE
  5
24F
330
70
100
AcDbEntity
  8
Bemaßung
 62
     7
370
     9
100
AcDbLine
 10
-26.03091582659811
 20
-66.29191859453811
 30
0.0
 11
-26.03091582659811
 21
-66.39351859451288
 31
0.0
  0
LINE
  5
250
330
70
100
AcDbEntity
  8
Bemaßung
 62
     7
370
     9
100
AcDbLine
 10
-26.03091582659811
 20
-66.29191859453811
 30
0.0
 11
-26.03091582659811
 21
-66.39351859451288
 31
0.0
  0
LINE
  5
251
330
70
100
AcDbEntity
  8
Bemaßung
 62
     7
370
     9
100
AcDbLine
 10
-26.00283471549369
 20
-66.29191859453811
 30
0.0
 11
-26.00283471549369
 21
-66.60574970557092
 31
0.0
  0
LINE
  5
252
330
70
100
AcDbEntity
  8
Bemaßung
 62
     7
370
     9
100
AcDbLine
 10
-25.9749299932788
 20
-66.29191859453811
 30
0.0
 11
-25.9749299932788
 21
-66.81780442774009
 31
0.0
  0
LINE
  5
253
330
70
100
AcDbEntity
  8
Bemaßung
 62
     7
370
     9
100
AcDbLine
 10
-25.94684888217437
 20
-66.29191859453811
 30
0.0
 11
-25.94684888217437
 21
-67.03017664990916
 31
0.0
  0
LINE
  5
254
330
70
100
AcDbEntity
  8
Bemaßung
 62
     7
370
     9
100
AcDbLine
 10
-25.91912054884836
 20
-66.29191859453811
 30
0.0
 11
-25.91912054884836
 21
-67.24240776096721
 31
0.0
  0
LINE
  5
255
330
70
100
AcDbEntity
  8
Bemaßung
 62
     7
370
     9
100
AcDbLine
 10
-25.89121582663282
 20
-66.29191859453811
 30
0.0
 11
-25.89121582663282
 21
-67.45463887202524
 31
0.0
  0
LINE
  5
256
330
70
100
AcDbEntity
  8
Bemaßung
 62
     7
370
     9
100
AcDbLine
 10
-25.86331110441792
 20
-66.29191859453811
 30
0.0
 11
-25.86331110441792
 21
-67.66665831641656
 31
0.0
  0
LINE
  5
257
330
70
100
AcDbEntity
  8
Bemaßung
 62
     7
370
     9
100
AcDbLine
 10
-40.71391498959413
 20
-150.1667049624585
 30
0.0
 11
-25.18220304903235
 21
-150.1667049624585
 31
0.0
  0
LINE
  5
258
330
70
100
AcDbEntity
  8
Bemaßung
 62
     7
370
     9
100
AcDbLine
 10
-25.87138971552699
 20
-67.66665831641656
 30
0.0
 11
-25.87138971552699
 21
-150.1667049624585
 31
0.0
  0
LWPOLYLINE
  5
259
330
70
100
AcDbEntity
  8
Bemaßung
 62
     7
370
     9
100
AcDbPolyline
 90
        4
 70
     0
 43
0.0
 10
-25.87138971552699
 20
-67.66665831641656
 10
-26.05225888214819
 20
-69.0417860938506
 10
-25.69002666001666
 20
-69.0417860938506
 10
-25.87138971552699
 20
-67.66665831641656
  0
LINE
  5
25A
330
70
100
AcDbEntity
  8
Bemaßung
 62
     7
370
     9
100
AcDbLine
 10
-26.03899443770719
 20
-69.0417860938506
 30
0.0
 11
-26.03899443770719
 21
-68.94015081609833
 31
0.0
  0
LINE
  5
25B
330
70
100
AcDbEntity
  8
Bemaßung
 62
     7
370
     9
100
AcDbLine
 10
-26.03899443770719
 20
-69.0417860938506
 30
0.0
 11
-26.03899443770719
 21
-68.94015081609833
 31
0.0
  0
LINE
  5
25C
330
70
100
AcDbEntity
  8
Bemaßung
 62
     7
370
     9
100
AcDbLine
 10
-26.01094860438092
 20
-69.0417860938506
 30
0.0
 11
-26.01094860438092
 21
-68.72791970504028
 31
0.0
  0
LINE
  5
25D
330
70
100
AcDbEntity
  8
Bemaßung
 62
     7
370
     9
100
AcDbLine
 10
-25.98304388216539
 20
-69.0417860938506
 30
0.0
 11
-25.98304388216539
 21
-68.51590026064896
 31
0.0
  0
LINE
  5
25E
330
70
100
AcDbEntity
  8
Bemaßung
 62
     7
370
     9
100
AcDbLine
 10
-25.9549627710616
 20
-69.0417860938506
 30
0.0
 11
-25.9549627710616
 21
-68.30349276070204
 31
0.0
  0
LINE
  5
25F
330
70
100
AcDbEntity
  8
Bemaßung
 62
     7
370
     9
100
AcDbLine
 10
-25.92688165995718
 20
-69.0417860938506
 30
0.0
 11
-25.92688165995718
 21
-68.09126164964401
 31
0.0
  0
LINE
  5
260
330
70
100
AcDbEntity
  8
Bemaßung
 62
     7
370
     9
100
AcDbLine
 10
-25.89897693774228
 20
-69.0417860938506
 30
0.0
 11
-25.89897693774228
 21
-67.87906581636348
 31
0.0
  0
LINE
  5
261
330
70
100
AcDbEntity
  8
Bemaßung
 62
     7
370
     9
100
AcDbLine
 10
-25.87138971552699
 20
-69.0417860938506
 30
0.0
 11
-25.87138971552699
 21
-67.66665831641656
 31
0.0
  0
LINE
  5
262
330
70
100
AcDbEntity
  8
Bemaßung
 62
     7
370
     9
100
AcDbLine
 10
-25.70364388223542
 20
-69.0417860938506
 30
0.0
 11
-25.70364388223542
 21
-68.94015081609833
 31
0.0
  0
LINE
  5
263
330
70
100
AcDbEntity
  8
Bemaßung
 62
     7
370
     9
100
AcDbLine
 10
-25.70364388223542
 20
-69.0417860938506
 30
0.0
 11
-25.70364388223542
 21
-68.94015081609833
 31
0.0
  0
LINE
  5
264
330
70
100
AcDbEntity
  8
Bemaßung
 62
     7
370
     9
100
AcDbLine
 10
-25.73154860445032
 20
-69.0417860938506
 30
0.0
 11
-25.73154860445032
 21
-68.72791970504028
 31
0.0
  0
LINE
  5
265
330
70
100
AcDbEntity
  8
Bemaßung
 62
     7
370
     9
100
AcDbLine
 10
-25.75927693777698
 20
-69.0417860938506
 30
0.0
 11
-25.75927693777698
 21
-68.51590026064896
 31
0.0
  0
LINE
  5
266
330
70
100
AcDbEntity
  8
Bemaßung
 62
     7
370
     9
100
AcDbLine
 10
-25.7873580488814
 20
-69.0417860938506
 30
0.0
 11
-25.7873580488814
 21
-68.30349276070204
 31
0.0
  0
LINE
  5
267
330
70
100
AcDbEntity
  8
Bemaßung
 62
     7
370
     9
100
AcDbLine
 10
-25.8152627710963
 20
-69.0417860938506
 30
0.0
 11
-25.8152627710963
 21
-68.09126164964401
 31
0.0
  0
LINE
  5
268
330
70
100
AcDbEntity
  8
Bemaßung
 62
     7
370
     9
100
AcDbLine
 10
-25.84334388220073
 20
-69.0417860938506
 30
0.0
 11
-25.84334388220073
 21
-67.87906581636348
 31
0.0
  0
LINE
  5
269
330
70
100
AcDbEntity
  8
Bemaßung
 62
     7
370
     9
100
AcDbLine
 10
-25.87138971552699
 20
-69.0417860938506
 30
0.0
 11
-25.87138971552699
 21
-67.66665831641656
 31
0.0
  0
LWPOLYLINE
  5
26A
330
70
100
AcDbEntity
  8
Bemaßung
 62
     7
370
     9
100
AcDbPolyline
 90
        4
 70
     0
 43
0.0
 10
-25.87138971552699
 20
-150.1667049624585
 10
-25.69002666001666
 20
-148.7919652405795
 10
-26.05225888214819
 20
-148.7919652405795
 10
-25.87138971552699
 20
-150.1667049624585
  0
LINE
  5
26B
330
70
100
AcDbEntity
  8
Bemaßung
 62
     7
370
     9
100
AcDbLine
 10
-25.70364388223542
 20
-148.7919652405795
 30
0.0
 11
-25.70364388223542
 21
-148.8934241294435
 31
0.0
  0
LINE
  5
26C
330
70
100
AcDbEntity
  8
Bemaßung
 62
     7
370
     9
100
AcDbLine
 10
-25.70364388223542
 20
-148.7919652405795
 30
0.0
 11
-25.70364388223542
 21
-148.8934241294435
 31
0.0
  0
LINE
  5
26D
330
70
100
AcDbEntity
  8
Bemaßung
 62
     7
370
     9
100
AcDbLine
 10
-25.73154860445032
 20
-148.7919652405795
 30
0.0
 11
-25.73154860445032
 21
-149.1056199627234
 31
0.0
  0
LINE
  5
26E
330
70
100
AcDbEntity
  8
Bemaßung
 62
     7
370
     9
100
AcDbLine
 10
-25.75927693777698
 20
-148.7919652405795
 30
0.0
 11
-25.75927693777698
 21
-149.3178510737814
 31
0.0
  0
LINE
  5
26F
330
70
100
AcDbEntity
  8
Bemaßung
 62
     7
370
     9
100
AcDbLine
 10
-25.7873580488814
 20
-148.7919652405795
 30
0.0
 11
-25.7873580488814
 21
-149.5302232959508
 31
0.0
  0
LINE
  5
270
330
70
100
AcDbEntity
  8
Bemaßung
 62
     7
370
     9
100
AcDbLine
 10
-25.8152627710963
 20
-148.7919652405795
 30
0.0
 11
-25.8152627710963
 21
-149.74227801812
 31
0.0
  0
LINE
  5
271
330
70
100
AcDbEntity
  8
Bemaßung
 62
     7
370
     9
100
AcDbLine
 10
-25.84334388220073
 20
-148.7919652405795
 30
0.0
 11
-25.84334388220073
 21
-149.954509129178
 31
0.0
  0
LINE
  5
272
330
70
100
AcDbEntity
  8
Bemaßung
 62
     7
370
     9
100
AcDbLine
 10
-25.87138971552699
 20
-148.7919652405795
 30
0.0
 11
-25.87138971552699
 21
-150.1667049624585
 31
0.0
  0
LINE
  5
273
330
70
100
AcDbEntity
  8
Bemaßung
 62
     7
370
     9
100
AcDbLine
 10
-26.03899443770719
 20
-148.7919652405795
 30
0.0
 11
-26.03899443770719
 21
-148.8934241294435
 31
0.0
  0
LINE
  5
274
330
70
100
AcDbEntity
  8
Bemaßung
 62
     7
370
     9
100
AcDbLine
 10
-26.03899443770719
 20
-148.7919652405795
 30
0.0
 11
-26.03899443770719
 21
-148.8934241294435
 31
0.0
  0
LINE
  5
275
330
70
100
AcDbEntity
  8
Bemaßung
 62
     7
370
     9
100
AcDbLine
 10
-26.01094860438092
 20
-148.7919652405795
 30
0.0
 11
-26.01094860438092
 21
-149.1056199627234
 31
0.0
  0
LINE
  5
276
330
70
100
AcDbEntity
  8
Bemaßung
 62
     7
370
     9
100
AcDbLine
 10
-25.98304388216539
 20
-148.7919652405795
 30
0.0
 11
-25.98304388216539
 21
-149.3178510737814
 31
0.0
  0
LINE
  5
277
330
70
100
AcDbEntity
  8
Bemaßung
 62
     7
370
     9
100
AcDbLine
 10
-25.9549627710616
 20
-148.7919652405795
 30
0.0
 11
-25.9549627710616
 21
-149.5302232959508
 31
0.0
  0
LINE
  5
278
330
70
100
AcDbEntity
  8
Bemaßung
 62
     7
370
     9
100
AcDbLine
 10
-25.92688165995718
 20
-148.7919652405795
 30
0.0
 11
-25.92688165995718
 21
-149.74227801812
 31
0.0
  0
LINE
  5
279
330
70
100
AcDbEntity
  8
Bemaßung
 62
     7
370
     9
100
AcDbLine
 10
-25.89897693774228
 20
-148.7919652405795
 30
0.0
 11
-25.89897693774228
 21
-149.954509129178
 31
0.0
  0
LINE
  5
27A
330
70
100
AcDbEntity
  8
Bemaßung
 62
     7
370
     9
100
AcDbLine
 10
-25.87138971552699
 20
-148.7919652405795
 30
0.0
 11
-25.87138971552699
 21
-150.1667049624585
 31
0.0
  0
LINE
  5
27B
330
70
100
AcDbEntity
  8
Bemaßung
 62
     7
370
     9
100
AcDbLine
 10
-33.6422294360336
 20
-100.6669027526109
 30
0.0
 11
-33.6422294360336
 21
-86.21694858955699
 31
0.0
  0
LINE
  5
27C
330
70
100
AcDbEntity
  8
Bemaßung
 62
     7
370
     9
100
AcDbLine
 10
-61.09723054028136
 20
-100.6669027526109
 30
0.0
 11
-61.09723054028136
 21
-86.21694858955699
 31
0.0
  0
LINE
  5
27D
330
70
100
AcDbEntity
  8
Bemaßung
 62
     7
370
     9
100
AcDbLine
 10
-33.6422294360336
 20
-87.31733303372637
 30
0.0
 11
-61.09723054028136
 21
-87.31733303372637
 31
0.0
  0
LWPOLYLINE
  5
27E
330
70
100
AcDbEntity
  8
Bemaßung
 62
     7
370
     9
100
AcDbPolyline
 90
        4
 70
     0
 43
0.0
 10
-33.6422294360336
 20
-87.31733303372637
 10
-35.0173219356898
 20
-87.13628747821596
 10
-35.0173219356898
 20
-87.49837858923646
 10
-33.6422294360336
 20
-87.31733303372637
  0
LINE
  5
27F
330
70
100
AcDbEntity
  8
Bemaßung
 62
     7
370
     9
100
AcDbLine
 10
-35.0173219356898
 20
-87.14955192265696
 30
0.0
 11
-34.91568665793752
 21
-87.14955192265696
 31
0.0
  0
LINE
  5
280
330
70
100
AcDbEntity
  8
Bemaßung
 62
     7
370
     9
100
AcDbLine
 10
-35.0173219356898
 20
-87.14955192265696
 30
0.0
 11
-34.91568665793752
 21
-87.14955192265696
 31
0.0
  0
LINE
  5
281
330
70
100
AcDbEntity
  8
Bemaßung
 62
     7
370
     9
100
AcDbLine
 10
-35.0173219356898
 20
-87.17745664487219
 30
0.0
 11
-34.70331443576876
 21
-87.17745664487219
 31
0.0
  0
LINE
  5
282
330
70
100
AcDbEntity
  8
Bemaßung
 62
     7
370
     9
100
AcDbLine
 10
-35.0173219356898
 20
-87.20553775597629
 30
0.0
 11
-34.49108332471072
 21
-87.20553775597629
 31
0.0
  0
LINE
  5
283
330
70
100
AcDbEntity
  8
Bemaßung
 62
     7
370
     9
100
AcDbLine
 10
-35.0173219356898
 20
-87.23344247819152
 30
0.0
 11
-34.2788874914302
 21
-87.23344247819152
 31
0.0
  0
LINE
  5
284
330
70
100
AcDbEntity
  8
Bemaßung
 62
     7
370
     9
100
AcDbLine
 10
-35.0173219356898
 20
-87.26152358929562
 30
0.0
 11
-34.06683276926104
 21
-87.26152358929562
 31
0.0
  0
LINE
  5
285
330
70
100
AcDbEntity
  8
Bemaßung
 62
     7
370
     9
100
AcDbLine
 10
-35.0173219356898
 20
-87.28942831151083
 30
0.0
 11
-33.85442526931412
 21
-87.28942831151083
 31
0.0
  0
LINE
  5
286
330
70
100
AcDbEntity
  8
Bemaßung
 62
     7
370
     9
100
AcDbLine
 10
-35.0173219356898
 20
-87.31733303372637
 30
0.0
 11
-33.6422294360336
 21
-87.31733303372637
 31
0.0
  0
LINE
  5
287
330
70
100
AcDbEntity
  8
Bemaßung
 62
     7
370
     9
100
AcDbLine
 10
-35.0173219356898
 20
-87.48493775590658
 30
0.0
 11
-34.91568665793752
 21
-87.48493775590658
 31
0.0
  0
LINE
  5
288
330
70
100
AcDbEntity
  8
Bemaßung
 62
     7
370
     9
100
AcDbLine
 10
-35.0173219356898
 20
-87.48493775590658
 30
0.0
 11
-34.91568665793752
 21
-87.48493775590658
 31
0.0
  0
LINE
  5
289
330
70
100
AcDbEntity
  8
Bemaßung
 62
     7
370
     9
100
AcDbLine
 10
-35.0173219356898
 20
-87.45703303369136
 30
0.0
 11
-34.70331443576876
 21
-87.45703303369136
 31
0.0
  0
LINE
  5
28A
330
70
100
AcDbEntity
  8
Bemaßung
 62
     7
370
     9
100
AcDbLine
 10
-35.0173219356898
 20
-87.42912831147613
 30
0.0
 11
-34.49108332471072
 21
-87.42912831147613
 31
0.0
  0
LINE
  5
28B
330
70
100
AcDbEntity
  8
Bemaßung
 62
     7
370
     9
100
AcDbLine
 10
-35.0173219356898
 20
-87.40122358926091
 30
0.0
 11
-34.2788874914302
 21
-87.40122358926091
 31
0.0
  0
LINE
  5
28C
330
70
100
AcDbEntity
  8
Bemaßung
 62
     7
370
     9
100
AcDbLine
 10
-35.0173219356898
 20
-87.3733188670457
 30
0.0
 11
-34.06683276926104
 21
-87.3733188670457
 31
0.0
  0
LINE
  5
28D
330
70
100
AcDbEntity
  8
Bemaßung
 62
     7
370
     9
100
AcDbLine
 10
-35.0173219356898
 20
-87.3452377559416
 30
0.0
 11
-33.85442526931412
 21
-87.3452377559416
 31
0.0
  0
LINE
  5
28E
330
70
100
AcDbEntity
  8
Bemaßung
 62
     7
370
     9
100
AcDbLine
 10
-35.0173219356898
 20
-87.31733303372637
 30
0.0
 11
-33.6422294360336
 21
-87.31733303372637
 31
0.0
  0
LWPOLYLINE
  5
28F
330
70
100
AcDbEntity
  8
Bemaßung
 62
     7
370
     9
100
AcDbPolyline
 90
        4
 70
     0
 43
0.0
 10
-61.09723054028136
 20
-87.31733303372637
 10
-59.72210276284699
 20
-87.49837858923646
 10
-59.72210276284699
 20
-87.13628747821596
 10
-61.09723054028136
 20
-87.31733303372637
  0
LINE
  5
290
330
70
100
AcDbEntity
  8
Bemaßung
 62
     7
370
     9
100
AcDbLine
 10
-59.72210276284699
 20
-87.48493775590658
 30
0.0
 11
-59.82373804059992
 21
-87.48493775590658
 31
0.0
  0
LINE
  5
291
330
70
100
AcDbEntity
  8
Bemaßung
 62
     7
370
     9
100
AcDbLine
 10
-59.72210276284699
 20
-87.48493775590658
 30
0.0
 11
-59.82373804059992
 21
-87.48493775590658
 31
0.0
  0
LINE
  5
292
330
70
100
AcDbEntity
  8
Bemaßung
 62
     7
370
     9
100
AcDbLine
 10
-59.72210276284699
 20
-87.45703303369136
 30
0.0
 11
-60.03596915165796
 21
-87.45703303369136
 31
0.0
  0
LINE
  5
293
330
70
100
AcDbEntity
  8
Bemaßung
 62
     7
370
     9
100
AcDbLine
 10
-59.72210276284699
 20
-87.42912831147613
 30
0.0
 11
-60.24798859604896
 21
-87.42912831147613
 31
0.0
  0
LINE
  5
294
330
70
100
AcDbEntity
  8
Bemaßung
 62
     7
370
     9
100
AcDbLine
 10
-59.72210276284699
 20
-87.40122358926091
 30
0.0
 11
-60.46021970710699
 21
-87.40122358926091
 31
0.0
  0
LINE
  5
295
330
70
100
AcDbEntity
  8
Bemaßung
 62
     7
370
     9
100
AcDbLine
 10
-59.72210276284699
 20
-87.3733188670457
 30
0.0
 11
-60.67262720705391
 21
-87.3733188670457
 31
0.0
  0
LINE
  5
296
330
70
100
AcDbEntity
  8
Bemaßung
 62
     7
370
     9
100
AcDbLine
 10
-59.72210276284699
 20
-87.3452377559416
 30
0.0
 11
-60.88482304033444
 21
-87.3452377559416
 31
0.0
  0
LINE
  5
297
330
70
100
AcDbEntity
  8
Bemaßung
 62
     7
370
     9
100
AcDbLine
 10
-59.72210276284699
 20
-87.31733303372637
 30
0.0
 11
-61.09723054028136
 21
-87.31733303372637
 31
0.0
  0
LINE
  5
298
330
70
100
AcDbEntity
  8
Bemaßung
 62
     7
370
     9
100
AcDbLine
 10
-59.72210276284699
 20
-87.14955192265696
 30
0.0
 11
-59.82373804059992
 21
-87.14955192265696
 31
0.0
  0
LINE
  5
299
330
70
100
AcDbEntity
  8
Bemaßung
 62
     7
370
     9
100
AcDbLine
 10
-59.72210276284699
 20
-87.14955192265696
 30
0.0
 11
-59.82373804059992
 21
-87.14955192265696
 31
0.0
  0
LINE
  5
29A
330
70
100
AcDbEntity
  8
Bemaßung
 62
     7
370
     9
100
AcDbLine
 10
-59.72210276284699
 20
-87.17745664487219
 30
0.0
 11
-60.03596915165796
 21
-87.17745664487219
 31
0.0
  0
LINE
  5
29B
330
70
100
AcDbEntity
  8
Bemaßung
 62
     7
370
     9
100
AcDbLine
 10
-59.72210276284699
 20
-87.20553775597629
 30
0.0
 11
-60.24798859604896
 21
-87.20553775597629
 31
0.0
  0
LINE
  5
29C
330
70
100
AcDbEntity
  8
Bemaßung
 62
     7
370
     9
100
AcDbLine
 10
-59.72210276284699
 20
-87.23344247819152
 30
0.0
 11
-60.46021970710699
 21
-87.23344247819152
 31
0.0
  0
LINE
  5
29D
330
70
100
AcDbEntity
  8
Bemaßung
 62
     7
370
     9
100
AcDbLine
 10
-59.72210276284699
 20
-87.26152358929562
 30
0.0
 11
-60.67262720705391
 21
-87.26152358929562
 31
0.0
  0
LINE
  5
29E
330
70
100
AcDbEntity
  8
Bemaßung
 62
     7
370
     9
100
AcDbLine
 10
-59.72210276284699
 20
-87.28942831151083
 30
0.0
 11
-60.88482304033444
 21
-87.28942831151083
 31
0.0
  0
LINE
  5
29F
330
70
100
AcDbEntity
  8
Bemaßung
 62
     7
370
     9
100
AcDbLine
 10
-59.72210276284699
 20
-87.31733303372637
 30
0.0
 11
-61.09723054028136
 21
-87.31733303372637
 31
0.0
  0
MTEXT
  5
2A1
330
70
100
AcDbEntity
  8
Text
100
AcDbMText
 10
-90.54830866876963
 20
-154.7867621140811
 30
0.0
 40
0.2
 41
0.0
 46
0.0
 71
     7
 72
     1
  1
\C7;\FINDEX Univers 45 Light|b0|i0|c1;\H2.497667;\W1.000000;ø18H5
 73
     1
 44
1.0
  0
MTEXT
  5
2A2
330
70
100
AcDbEntity
  8
Text
100
AcDbMText
 10
-110.4595825353196
 20
-142.2758978593963
 30
0.0
 40
0.2
 41
0.0
 46
0.0
 71
     7
 72
     1
  1
\C7;\FINDEX Univers 45 Light|b0|i0|c1;\H2.497667;\W1.000000;36
 11
0.0000000000000001
 21
1.0
 31
0.0
 73
     1
 44
1.0
  0
MTEXT
  5
2A3
330
70
100
AcDbEntity
  8
Text
100
AcDbMText
 10
-101.033112268579
 20
-86.48843313810012
 30
0.0
 40
0.2
 41
0.0
 46
0.0
 71
     7
 72
     1
  1
\C7;\FINDEX Univers 45 Light|b0|i0|c1;\H2.497667;\W1.000000;ø28,5
 73
     1
 44
1.0
  0
MTEXT
  5
2A4
330
70
100
AcDbEntity
  8
Text
100
AcDbMText
 10
-26.71189511050998
 20
-62.78152532067615
 30
0.0
 40
0.2
 41
0.0
 46
0.0
 71
     7
 72
     1
  1
\C7;\FINDEX Univers 45 Light|b0|i0|c1;\H2.497667;\W1.000000;25
 11
0.0000000000000001
 21
1.0
 31
0.0
 73
     1
 44
1.0
  0
MTEXT
  5
2A5
330
70
100
AcDbEntity
  8
Text
100
AcDbMText
 10
-26.44937883453394
 20
-109.9507391760713
 30
0.0
 40
0.2
 41
0.0
 46
0.0
 71
     7
 72
     1
  1
\C7;\FINDEX Univers 45 Light|b0|i0|c1;\H2.497667;\W1.000000;150
 11
0.0000000000000001
 21
1.0
 31
0.0
 73
     1
 44
1.0
  0
MTEXT
  5
2A6
330
70
100
AcDbEntity
  8
Text
100
AcDbMText
 10
-50.00211862899298
 20
-86.63441905928758
 30
0.0
 40
0.2
 41
0.0
 46
0.0
 71
     7
 72
     1
  1
\C7;\FINDEX Univers 45 Light|b0|i0|c1;\H2.497667;\W1.000000;ø50
 73
     1
 44
1.0
  0
ENDSEC
  0
SECTION
  2
OBJECTS
  0
DICTIONARY
  5
C
330
0
100
AcDbDictionary
281
     1
  3
ACAD_COLOR
350
63
  3
ACAD_DETAILVIEWSTYLE
350
6A
  3
ACAD_GROUP
350
D
  3
ACAD_LAYOUT
350
62
  3
ACAD_MATERIAL
350
10
  3
ACAD_MLEADERSTYLE
350
66
  3
ACAD_MLINESTYLE
350
5F
  3
ACAD_PLOTSETTINGS
350
61
  3
ACAD_PLOTSTYLENAME
350
E
  3
ACAD_SCALELIST
350
42
  3
ACAD_SECTIONVIEWSTYLE
350
68
  3
ACAD_TABLESTYLE
350
64
  3
ACAD_VISUALSTYLE
350
29
  3
ACDB_RECOMPOSE_DATA
350
2AF
  3
AcDbVariableDictionary
350
2A7
  0
DICTIONARY
  5
63
102
{ACAD_REACTORS
330
C
102
}
330
C
100
AcDbDictionary
281
     1
  0
DICTIONARY
  5
6A
102
{ACAD_REACTORS
330
C
102
}
330
C
100
AcDbDictionary
281
     1
  3
Imperial24
350
6B
  0
DICTIONARY
  5
D
102
{ACAD_REACTORS
330
C
102
}
330
C
100
AcDbDictionary
281
     1
  0
DICTIONARY
  5
62
102
{ACAD_REACTORS
330
C
102
}
330
C
100
AcDbDictionary
281
     1
  3
Layout1
350
6F
  3
Layout2
350
77
  3
Model
350
73
  0
DICTIONARY
  5
10
102
{ACAD_REACTORS
330
C
102
}
330
C
100
AcDbDictionary
281
     1
  3
ByBlock
350
19
  3
ByLayer
350
11
  3
Global
350
21
  0
DICTIONARY
  5
66
102
{ACAD_REACTORS
330
C
102
}
330
C
100
AcDbDictionary
281
     1
  3
Standard
350
67
  0
DICTIONARY
  5
5F
102
{ACAD_REACTORS
330
C
102
}
330
C
100
AcDbDictionary
281
     1
  3
Standard
350
60
  0
DICTIONARY
  5
61
102
{ACAD_REACTORS
330
C
102
}
330
C
100
AcDbDictionary
281
     1
  0
ACDBDICTIONARYWDFLT
  5
E
102
{ACAD_REACTORS
330
C
102
}
330
C
100
AcDbDictionary
281
     1
  3
Normal
350
F
100
AcDbDictionaryWithDefault
340
F
  0
DICTIONARY
  5
42
102
{ACAD_REACTORS
330
C
102
}
330
C
100
AcDbDictionary
281
     1
  3
A0
350
43
  3
A1
350
44
  3
A2
350
45
  3
A3
350
46
  3
A4
350
47
  3
A5
350
48
  3
A6
350
49
  3
A7
350
4A
  3
A8
350
4B
  3
A9
350
4C
  3
B0
350
4D
  3
B1
350
4E
  3
B2
350
4F
  3
B3
350
50
  3
B4
350
51
  3
B5
350
52
  3
B6
350
53
  0
DICTIONARY
  5
68
102
{ACAD_REACTORS
330
C
102
}
330
C
100
AcDbDictionary
281
     1
  3
Imperial24
350
69
  0
DICTIONARY
  5
64
102
{ACAD_REACTORS
330
C
102
}
330
C
100
AcDbDictionary
281
     1
  3
Standard
350
65
  0
DICTIONARY
  5
29
102
{ACAD_REACTORS
330
C
102
}
330
C
100
AcDbDictionary
281
     1
  3
2dWireframe
350
2F
  3
Basic
350
2E
  3
Brighten
350
35
  3
ColorChange
350
39
  3
Conceptual
350
32
  3
Dim
350
34
  3
EdgeColorOff
350
41
  3
Facepattern
350
38
  3
Flat
350
2A
  3
FlatWithEdges
350
2B
  3
Gouraud
350
2C
  3
GouraudWithEdges
350
2D
  3
Hidden
350
31
  3
JitterOff
350
3F
  3
Linepattern
350
37
  3
OverhangOff
350
40
  3
Realistic
350
33
  3
Shaded
350
3E
  3
Shaded with edges
350
3D
  3
Shades of Gray
350
3A
  3
Sketchy
350
3B
  3
Thicken
350
36
  3
Wireframe
350
30
  3
X-Ray
350
3C
  0
XRECORD
  5
2AF
102
{ACAD_REACTORS
330
C
102
}
330
C
100
AcDbXrecord
280
     1
 90
        1
330
65
  0
DICTIONARY
  5
2A7
102
{ACAD_REACTORS
330
C
102
}
330
C
100
AcDbDictionary
281
     1
  3
CANNOSCALE
350
2AC
  3
CMLEADERSTYLE
350
2A9
  3
CTABLESTYLE
350
2A8
  3
CVIEWDETAILSTYLE
350
2AA
  3
CVIEWSECTIONSTYLE
350
2AB
  0
ACDBDETAILVIEWSTYLE
  5
6B
102
{ACAD_REACTORS
330
6A
102
}
330
6A
100
AcDbModelDocViewStyle
 70
     0
  3
Imperial24
290
     1
300
Imperial24
 90
        0
100
AcDbDetailViewStyle
 70
     0
 71
     0
 90
        3
 71
     1
340
55
 62
   256
 40
0.24
340
0
 62
   256
 40
0.24
300

 40
0.36
280
     3
 71
     2
340
5D
 90
       25
 62
   256
 71
     3
340
55
 62
   256
 40
0.24
 90
        1
 40
0.75
 90
        1
300
%<\AcVar ViewType \f "%tc1">% %<\AcVar ViewDetailId>%\PSCALE %<\AcVar ViewScale \f "%sn">%
 71
     4
340
5D
 90
       25
 62
   256
340
5D
 90
       25
 62
   256
280
     0
  0
LAYOUT
  5
6F
102
{ACAD_REACTORS
330
62
102
}
330
62
100
AcDbPlotSettings
  1

  2

  4

  6

 40
0.0
 41
0.0
 42
0.0
 43
0.0
 44
0.0
 45
0.0
 46
0.0
 47
0.0
 48
0.0
 49
0.0
140
0.0
141
0.0
142
1.0
143
1.0
 70
   688
 72
     0
 73
     0
 74
     5
  7

 75
    16
147
1.0
 76
     0
 77
     2
 78
   300
148
0.0
149
0.0
100
AcDbLayout
  1
Layout1
 70
     1
 71
     1
 10
0.0
 20
0.0
 11
12.0
 21
9.0
 12
0.0
 22
0.0
 32
0.0
 14
0.0
 24
0.0
 34
0.0
 15
0.0
 25
0.0
 35
0.0
146
0.0
 13
0.0
 23
0.0
 33
0.0
 16
1.0
 26
0.0
 36
0.0
 17
0.0
 27
1.0
 37
0.0
 76
     0
330
6C
  0
LAYOUT
  5
77
102
{ACAD_REACTORS
330
62
102
}
330
62
100
AcDbPlotSettings
  1

  2

  4

  6

 40
0.0
 41
0.0
 42
0.0
 43
0.0
 44
0.0
 45
0.0
 46
0.0
 47
0.0
 48
0.0
 49
0.0
140
0.0
141
0.0
142
1.0
143
1.0
 70
   688
 72
     0
 73
     0
 74
     5
  7

 75
    16
147
1.0
 76
     0
 77
     2
 78
   300
148
0.0
149
0.0
100
AcDbLayout
  1
Layout2
 70
     1
 71
     2
 10
0.0
 20
0.0
 11
12.0
 21
9.0
 12
0.0
 22
0.0
 32
0.0
 14
0.0
 24
0.0
 34
0.0
 15
0.0
 25
0.0
 35
0.0
146
0.0
 13
0.0
 23
0.0
 33
0.0
 16
1.0
 26
0.0
 36
0.0
 17
0.0
 27
1.0
 37
0.0
 76
     0
330
74
  0
LAYOUT
  5
73
102
{ACAD_REACTORS
330
62
102
}
330
62
100
AcDbPlotSettings
  1

  2

  4

  6

 40
0.0
 41
0.0
 42
0.0
 43
0.0
 44
0.0
 45
0.0
 46
0.0
 47
0.0
 48
0.0
 49
0.0
140
0.0
141
0.0
142
1.0
143
1.0
 70
  1712
 72
     0
 73
     0
 74
     0
  7

 75
     0
147
1.0
 76
     0
 77
     2
 78
   300
148
0.0
149
0.0
100
AcDbLayout
  1
Model
 70
     1
 71
     0
 10
0.0
 20
0.0
 11
12.0
 21
9.0
 12
0.0
 22
0.0
 32
0.0
 14
0.0
 24
0.0
 34
0.0
 15
0.0
 25
0.0
 35
0.0
146
0.0
 13
0.0
 23
0.0
 33
0.0
 16
1.0
 26
0.0
 36
0.0
 17
0.0
 27
1.0
 37
0.0
 76
     0
330
70
  0
MATERIAL
  5
19
102
{ACAD_XDICTIONARY
360
1A
102
}
102
{ACAD_REACTORS
330
10
102
}
330
10
100
AcDbMaterial
  1
ByBlock
 72
     0
 43
0.0208333333333333
 43
0.0
 43
0.0
 43
0.0
 43
0.0
 43
0.0208333333333333
 43
0.0
 43
0.0
 43
0.0
 43
0.0
 43
1.0
 43
0.0
 43
0.0
 43
0.0
 43
0.0
 43
1.0
 77
     0
 47
0.0208333333333333
 47
0.0
 47
0.0
 47
0.0
 47
0.0
 47
0.0208333333333333
 47
0.0
 47
0.0
 47
0.0
 47
0.0
 47
1.0
 47
0.0
 47
0.0
 47
0.0
 47
0.0
 47
1.0
171
     0
 49
0.0208333333333333
 49
0.0
 49
0.0
 49
0.0
 49
0.0
 49
0.0208333333333333
 49
0.0
 49
0.0
 49
0.0
 49
0.0
 49
1.0
 49
0.0
 49
0.0
 49
0.0
 49
0.0
 49
1.0
175
     0
142
0.0208333333333333
142
0.0
142
0.0
142
0.0
142
0.0
142
0.0208333333333333
142
0.0
142
0.0
142
0.0
142
0.0
142
1.0
142
0.0
142
0.0
142
0.0
142
0.0
142
1.0
179
     0
144
0.0208333333333333
144
0.0
144
0.0
144
0.0
144
0.0
144
0.0208333333333333
144
0.0
144
0.0
144
0.0
144
0.0
144
1.0
144
0.0
144
0.0
144
0.0
144
0.0
144
1.0
147
0.0208333333333333
147
0.0
147
0.0
147
0.0
147
0.0
147
0.0208333333333333
147
0.0
147
0.0
147
0.0
147
0.0
147
1.0
147
0.0
147
0.0
147
0.0
147
0.0
147
1.0
  0
MATERIAL
  5
11
102
{ACAD_XDICTIONARY
360
12
102
}
102
{ACAD_REACTORS
330
10
102
}
330
10
100
AcDbMaterial
  1
ByLayer
 72
     0
 43
0.0208333333333333
 43
0.0
 43
0.0
 43
0.0
 43
0.0
 43
0.0208333333333333
 43
0.0
 43
0.0
 43
0.0
 43
0.0
 43
1.0
 43
0.0
 43
0.0
 43
0.0
 43
0.0
 43
1.0
 77
     0
 47
0.0208333333333333
 47
0.0
 47
0.0
 47
0.0
 47
0.0
 47
0.0208333333333333
 47
0.0
 47
0.0
 47
0.0
 47
0.0
 47
1.0
 47
0.0
 47
0.0
 47
0.0
 47
0.0
 47
1.0
171
     0
 49
0.0208333333333333
 49
0.0
 49
0.0
 49
0.0
 49
0.0
 49
0.0208333333333333
 49
0.0
 49
0.0
 49
0.0
 49
0.0
 49
1.0
 49
0.0
 49
0.0
 49
0.0
 49
0.0
 49
1.0
175
     0
142
0.0208333333333333
142
0.0
142
0.0
142
0.0
142
0.0
142
0.0208333333333333
142
0.0
142
0.0
142
0.0
142
0.0
142
1.0
142
0.0
142
0.0
142
0.0
142
0.0
142
1.0
179
     0
144
0.0208333333333333
144
0.0
144
0.0
144
0.0
144
0.0
144
0.0208333333333333
144
0.0
144
0.0
144
0.0
144
0.0
144
1.0
144
0.0
144
0.0
144
0.0
144
0.0
144
1.0
147
0.0208333333333333
147
0.0
147
0.0
147
0.0
147
0.0
147
0.0208333333333333
147
0.0
147
0.0
147
0.0
147
0.0
147
1.0
147
0.0
147
0.0
147
0.0
147
0.0
147
1.0
  0
MATERIAL
  5
21
102
{ACAD_XDICTIONARY
360
22
102
}
102
{ACAD_REACTORS
330
10
102
}
330
10
100
AcDbMaterial
  1
Global
 72
     0
 43
0.0208333333333333
 43
0.0
 43
0.0
 43
0.0
 43
0.0
 43
0.0208333333333333
 43
0.0
 43
0.0
 43
0.0
 43
0.0
 43
1.0
 43
0.0
 43
0.0
 43
0.0
 43
0.0
 43
1.0
 77
     0
 47
0.0208333333333333
 47
0.0
 47
0.0
 47
0.0
 47
0.0
 47
0.0208333333333333
 47
0.0
 47
0.0
 47
0.0
 47
0.0
 47
1.0
 47
0.0
 47
0.0
 47
0.0
 47
0.0
 47
1.0
171
     0
 49
0.0208333333333333
 49
0.0
 49
0.0
 49
0.0
 49
0.0
 49
0.0208333333333333
 49
0.0
 49
0.0
 49
0.0
 49
0.0
 49
1.0
 49
0.0
 49
0.0
 49
0.0
 49
0.0
 49
1.0
175
     0
142
0.0208333333333333
142
0.0
142
0.0
142
0.0
142
0.0
142
0.0208333333333333
142
0.0
142
0.0
142
0.0
142
0.0
142
1.0
142
0.0
142
0.0
142
0.0
142
0.0
142
1.0
179
     0
144
0.0208333333333333
144
0.0
144
0.0
144
0.0
144
0.0
144
0.0208333333333333
144
0.0
144
0.0
144
0.0
144
0.0
144
1.0
144
0.0
144
0.0
144
0.0
144
0.0
144
1.0
147
0.0208333333333333
147
0.0
147
0.0
147
0.0
147
0.0
147
0.0208333333333333
147
0.0
147
0.0
147
0.0
147
0.0
147
1.0
147
0.0
147
0.0
147
0.0
147
0.0
147
1.0
  0
MLEADERSTYLE
  5
67
102
{ACAD_REACTORS
330
66
102
}
330
66
100
AcDbMLeaderStyle
179
     2
170
     2
171
     1
172
     0
 90
        2
 40
0.0
 41
0.0
173
     1
 91
-1056964608
340
5B
 92
       -2
290
     1
 42
0.09
291
     1
 43
0.36
  3
Standard
 44
0.18
300

342
55
174
     1
178
     6
175
     1
176
     0
 93
-1056964608
 45
0.18
292
     0
297
     0
 46
0.18
 94
-1056964608
 47
1.0
 49
1.0
140
1.0
293
     1
141
0.0
294
     1
177
     0
142
1.0
295
     1
296
     0
143
0.125
271
     0
272
     9
273
     9
298
     1
  0
MLINESTYLE
  5
60
102
{ACAD_REACTORS
330
5F
102
}
330
5F
100
AcDbMlineStyle
  2
STANDARD
 70
     0
  3

 62
   256
 51
90.0
 52
90.0
 71
     2
 49
0.5
 62
   256
  6
BYLAYER
 49
-0.5
 62
   256
  6
BYLAYER
  0
ACDBPLACEHOLDER
  5
F
102
{ACAD_REACTORS
330
E
102
}
330
E
  0
SCALE
  5
43
102
{ACAD_REACTORS
330
42
102
}
330
42
100
AcDbScale
 70
     0
300
1:1
140
1.0
141
1.0
290
     1
  0
SCALE
  5
44
102
{ACAD_REACTORS
330
42
102
}
330
42
100
AcDbScale
 70
     0
300
1/128" = 1'-0"
140
0.0078125
141
12.0
290
     0
  0
SCALE
  5
45
102
{ACAD_REACTORS
330
42
102
}
330
42
100
AcDbScale
 70
     0
300
1/64" = 1'-0"
140
0.015625
141
12.0
290
     0
  0
SCALE
  5
46
102
{ACAD_REACTORS
330
42
102
}
330
42
100
AcDbScale
 70
     0
300
1/32" = 1'-0"
140
0.03125
141
12.0
290
     0
  0
SCALE
  5
47
102
{ACAD_REACTORS
330
42
102
}
330
42
100
AcDbScale
 70
     0
300
1/16" = 1'-0"
140
0.0625
141
12.0
290
     0
  0
SCALE
  5
48
102
{ACAD_REACTORS
330
42
102
}
330
42
100
AcDbScale
 70
     0
300
3/32" = 1'-0"
140
0.09375
141
12.0
290
     0
  0
SCALE
  5
49
102
{ACAD_REACTORS
330
42
102
}
330
42
100
AcDbScale
 70
     0
300
1/8" = 1'-0"
140
0.125
141
12.0
290
     0
  0
SCALE
  5
4A
102
{ACAD_REACTORS
330
42
102
}
330
42
100
AcDbScale
 70
     0
300
3/16" = 1'-0"
140
0.1875
141
12.0
290
     0
  0
SCALE
  5
4B
102
{ACAD_REACTORS
330
42
102
}
330
42
100
AcDbScale
 70
     0
300
1/4" = 1'-0"
140
0.25
141
12.0
290
     0
  0
SCALE
  5
4C
102
{ACAD_REACTORS
330
42
102
}
330
42
100
AcDbScale
 70
     0
300
3/8" = 1'-0"
140
0.375
141
12.0
290
     0
  0
SCALE
  5
4D
102
{ACAD_REACTORS
330
42
102
}
330
42
100
AcDbScale
 70
     0
300
1/2" = 1'-0"
140
0.5
141
12.0
290
     0
  0
SCALE
  5
4E
102
{ACAD_REACTORS
330
42
102
}
330
42
100
AcDbScale
 70
     0
300
3/4" = 1'-0"
140
0.75
141
12.0
290
     0
  0
SCALE
  5
4F
102
{ACAD_REACTORS
330
42
102
}
330
42
100
AcDbScale
 70
     0
300
1" = 1'-0"
140
1.0
141
12.0
290
     0
  0
SCALE
  5
50
102
{ACAD_REACTORS
330
42
102
}
330
42
100
AcDbScale
 70
     0
300
1-1/2" = 1'-0"
140
1.5
141
12.0
290
     0
  0
SCALE
  5
51
102
{ACAD_REACTORS
330
42
102
}
330
42
100
AcDbScale
 70
     0
300
3" = 1'-0"
140
3.0
141
12.0
290
     0
  0
SCALE
  5
52
102
{ACAD_REACTORS
330
42
102
}
330
42
100
AcDbScale
 70
     0
300
6" = 1'-0"
140
6.0
141
12.0
290
     0
  0
SCALE
  5
53
102
{ACAD_REACTORS
330
42
102
}
330
42
100
AcDbScale
 70
     0
300
1'-0" = 1'-0"
140
12.0
141
12.0
290
     0
  0
ACDBSECTIONVIEWSTYLE
  5
69
102
{ACAD_REACTORS
330
68
102
}
330
68
100
AcDbModelDocViewStyle
 70
     0
  3
Imperial24
290
     1
300
Imperial24
 90
        0
100
AcDbSectionViewStyle
 70
     0
 71
     0
 90
       78
 71
     1
340
55
 62
   256
 40
0.24
340
0
340
0
 62
   256
 40
0.24
300
I, O, Q, S, X, Z
 40
0.48
 90
        3
 40
0.18
 90
        1
 71
     2
340
5D
 90
       25
 62
   256
340
5D
 90
       50
 62
   256
 40
0.24
 40
0.0
 40
0.24
 71
     3
340
55
 62
   256
 40
0.24
 90
        1
 40
0.75
 90
        1
300
%<\AcVar ViewType \f "%tc1">% %<\AcVar ViewSectionStartId>%-%<\AcVar ViewSectionEndId>%\PSCALE %<\AcVar ViewScale \f "%sn">%
 71
     4
 62
   256
 62
   257
300
ANSI31
 40
1.0
 90
        0
290
     0
290
     0
 90
        6
 40
0.0
 40
1.570796326794896
 40
0.2617993877991494
 40
1.308996938995747
 40
-0.2617993877991494
 40
1.832595714594046
  0
TABLESTYLE
  5
65
102
{ACAD_XDICTIONARY
360
2AD
102
}
102
{ACAD_REACTORS
330
64
102
}
330
64
100
AcDbTableStyle
280
     0
  3
Standard
 70
     0
 71
     0
 40
0.06
 41
0.06
280
     0
281
     0
  7
Standard
140
0.18
170
     2
 62
     0
 63
     7
283
     0
 90
      512
 91
        0
  1

274
    -2
284
     1
 64
     0
275
    -2
285
     1
 65
     0
276
    -2
286
     1
 66
     0
277
    -2
287
     1
 67
     0
278
    -2
288
     1
 68
     0
279
    -2
289
     1
 69
     0
  7
Standard
140
0.25
170
     5
 62
     0
 63
     7
283
     0
 90
      512
 91
        0
  1

274
    -2
284
     1
 64
     0
275
    -2
285
     1
 65
     0
276
    -2
286
     1
 66
     0
277
    -2
287
     1
 67
     0
278
    -2
288
     1
 68
     0
279
    -2
289
     1
 69
     0
  7
Standard
140
0.18
170
     5
 62
     0
 63
     7
283
     0
 90
      512
 91
        0
  1

274
    -2
284
     1
 64
     0
275
    -2
285
     1
 65
     0
276
    -2
286
     1
 66
     0
277
    -2
287
     1
 67
     0
278
    -2
288
     1
 68
     0
279
    -2
289
     1
 69
     0
  0
VISUALSTYLE
  5
2F
102
{ACAD_REACTORS
330
29
102
}
330
29
100
AcDbVisualStyle
  2
2dWireframe
 70
     4
177
     3
291
     0
 70
    58
 90
        0
176
     1
 90
        2
176
     1
 90
        0
176
     1
 90
        0
176
     1
 40
0.6
176
     1
 40
30.0
176
     1
 62
     7
420
 16777215
176
     1
 90
        1
176
     1
 90
        4
176
     1
 62
     7
176
     1
 62
   257
176
     1
 90
        1
176
     1
 90
        1
176
     1
 40
1.0
176
     1
 90
        0
176
     1
 62
   257
176
     1
 40
1.0
176
     1
 90
        1
176
     1
 90
        6
176
     1
 90
        2
176
     1
 62
     7
176
     1
 90
        5
176
     1
 90
        0
176
     1
 90
        0
176
     1
290
     0
176
     1
 90
        1
176
     1
 40
0.0
176
     1
 90
        0
176
     1
290
     1
176
     1
290
     1
176
     1
290
     0
176
     1
290
     0
176
     1
290
     0
176
     1
290
     0
176
     1
290
     0
176
     1
290
     0
176
     1
290
     0
176
     1
 90
       50
176
     1
 40
0.0
176
     1
 40
1.0
176
     1
 90
        0
176
     1
 62
    18
420
        0
176
     1
 90
       50
176
     1
 90
        3
176
     1
 62
     5
420
      255
176
     1
290
     0
176
     1
 90
       50
176
     1
 90
       50
176
     1
 90
       50
176
     1
290
     0
176
     1
 90
       50
176
     1
 62
   256
176
     0
 40
1.0
176
     0
 90
        2
176
     1
  1
strokes_ogs.tif
176
     1
290
     0
176
     1
 40
1.0
176
     1
 40
1.0
176
     1
  0
VISUALSTYLE
  5
2E
102
{ACAD_REACTORS
330
29
102
}
330
29
100
AcDbVisualStyle
  2
Basic
 70
     7
177
     3
291
     1
 70
    58
 90
        1
176
     1
 90
        0
176
     1
 90
        1
176
     1
 90
        0
176
     1
 40
0.6
176
     1
 40
30.0
176
     1
 62
     7
420
 16777215
176
     1
 90
        0
176
     1
 90
        4
176
     1
 62
     7
176
     1
 62
   257
176
     1
 90
        1
176
     1
 90
        1
176
     1
 40
1.0
176
     1
 90
        8
176
     1
 62
     7
176
     1
 40
1.0
176
     1
 90
        1
176
     1
 90
        6
176
     1
 90
        2
176
     1
 62
     7
176
     1
 90
        5
176
     1
 90
        0
176
     1
 90
        0
176
     1
290
     0
176
     1
 90
        1
176
     1
 40
0.0
176
     1
 90
        0
176
     1
290
     0
176
     1
290
     1
176
     1
290
     1
176
     1
290
     0
176
     1
290
     0
176
     1
290
     0
176
     1
290
     0
176
     1
290
     0
176
     1
290
     0
176
     1
 90
       50
176
     1
 40
0.0
176
     1
 40
1.0
176
     1
 90
        0
176
     1
 62
    18
420
        0
176
     1
 90
       50
176
     1
 90
        3
176
     1
 62
     5
420
      255
176
     1
290
     0
176
     1
 90
       50
176
     1
 90
       50
176
     1
 90
       50
176
     1
290
     0
176
     1
 90
       50
176
     1
 62
   256
176
     0
 40
1.0
176
     0
 90
        2
176
     1
  1
strokes_ogs.tif
176
     1
290
     0
176
     1
 40
1.0
176
     1
 40
1.0
176
     1
  0
VISUALSTYLE
  5
35
102
{ACAD_REACTORS
330
29
102
}
330
29
100
AcDbVisualStyle
  2
Brighten
 70
    12
177
     3
291
     1
 70
    58
 90
        2
176
     1
 90
        2
176
     1
 90
        0
176
     1
 90
        0
176
     1
 40
0.6
176
     1
 40
30.0
176
     1
 62
     7
420
 16777215
176
     1
 90
        1
176
     1
 90
        4
176
     1
 62
     7
176
     1
 62
   257
176
     1
 90
        1
176
     1
 90
        1
176
     1
 40
1.0
176
     1
 90
        8
176
     1
 62
     7
176
     1
 40
1.0
176
     1
 90
        1
176
     1
 90
        6
176
     1
 90
        2
176
     1
 62
     7
176
     1
 90
        5
176
     1
 90
        0
176
     1
 90
        0
176
     1
290
     0
176
     1
 90
        1
176
     1
 40
50.0
176
     1
 90
        0
176
     1
290
     0
176
     1
290
     1
176
     1
290
     1
176
     1
290
     0
176
     1
290
     0
176
     1
290
     0
176
     1
290
     0
176
     1
290
     0
176
     1
290
     0
176
     1
 90
       50
176
     1
 40
0.0
176
     1
 40
1.0
176
     1
 90
        0
176
     1
 62
    18
420
        0
176
     1
 90
       50
176
     1
 90
        3
176
     1
 62
     5
420
      255
176
     1
290
     0
176
     1
 90
       50
176
     1
 90
       50
176
     1
 90
       50
176
     1
290
     0
176
     1
 90
       50
176
     1
 62
   256
176
     0
 40
1.0
176
     0
 90
        2
176
     1
  1
strokes_ogs.tif
176
     1
290
     0
176
     1
 40
1.0
176
     1
 40
1.0
176
     1
  0
VISUALSTYLE
  5
39
102
{ACAD_REACTORS
330
29
102
}
330
29
100
AcDbVisualStyle
  2
ColorChange
 70
    16
177
     3
291
     1
 70
    58
 90
        2
176
     1
 90
        2
176
     1
 90
        3
176
     1
 90
        0
176
     1
 40
0.6
176
     1
 40
30.0
176
     1
 62
     8
420
  8421504
176
     1
 90
        1
176
     1
 90
        4
176
     1
 62
     7
176
     1
 62
   257
176
     1
 90
        1
176
     1
 90
        1
176
     1
 40
1.0
176
     1
 90
        8
176
     1
 62
     8
420
  8421504
176
     1
 40
1.0
176
     1
 90
        1
176
     1
 90
        6
176
     1
 90
        2
176
     1
 62
     7
176
     1
 90
        5
176
     1
 90
        0
176
     1
 90
        0
176
     1
290
     0
176
     1
 90
        1
176
     1
 40
0.0
176
     1
 90
        0
176
     1
290
     0
176
     1
290
     1
176
     1
290
     1
176
     1
290
     0
176
     1
290
     0
176
     1
290
     0
176
     1
290
     0
176
     1
290
     0
176
     1
290
     0
176
     1
 90
       50
176
     1
 40
0.0
176
     1
 40
1.0
176
     1
 90
        0
176
     1
 62
    18
420
        0
176
     1
 90
       50
176
     1
 90
        3
176
     1
 62
     5
420
      255
176
     1
290
     0
176
     1
 90
       50
176
     1
 90
       50
176
     1
 90
       50
176
     1
290
     0
176
     1
 90
       50
176
     1
 62
   256
176
     0
 40
1.0
176
     0
 90
        2
176
     1
  1
strokes_ogs.tif
176
     1
290
     0
176
     1
 40
1.0
176
     1
 40
1.0
176
     1
  0
VISUALSTYLE
  5
32
102
{ACAD_REACTORS
330
29
102
}
330
29
100
AcDbVisualStyle
  2
Conceptual
 70
     9
177
     3
291
     0
 70
    58
 90
        3
176
     1
 90
        2
176
     1
 90
        0
176
     1
 90
        0
176
     1
 40
0.6
176
     1
 40
30.0
176
     1
 62
     7
420
 16777215
176
     1
 90
        2
176
     1
 90
        2
176
     1
 62
     7
176
     1
 62
   257
176
     1
 90
        1
176
     1
 90
        1
176
     1
 40
179.0
176
     1
 90
        8
176
     1
 62
     7
176
     1
 40
1.0
176
     1
 90
        1
176
     1
 90
        6
176
     1
 90
        2
176
     1
 62
     7
176
     1
 90
        3
176
     1
 90
        0
176
     1
 90
        0
176
     1
290
     0
176
     1
 90
        1
176
     1
 40
0.0
176
     1
 90
        0
176
     1
290
     0
176
     1
290
     1
176
     1
290
     1
176
     1
290
     0
176
     1
290
     0
176
     1
290
     0
176
     1
290
     0
176
     1
290
     0
176
     1
290
     0
176
     1
 90
       50
176
     1
 40
0.0
176
     1
 40
1.0
176
     1
 90
        0
176
     1
 62
    18
420
        0
176
     1
 90
       50
176
     1
 90
        3
176
     1
 62
     5
420
      255
176
     1
290
     0
176
     1
 90
       50
176
     1
 90
       50
176
     1
 90
       50
176
     1
290
     0
176
     1
 90
       50
176
     1
 62
   256
176
     0
 40
1.0
176
     0
 90
        2
176
     1
  1
strokes_ogs.tif
176
     1
290
     0
176
     1
 40
1.0
176
     1
 40
1.0
176
     1
  0
VISUALSTYLE
  5
34
102
{ACAD_REACTORS
330
29
102
}
330
29
100
AcDbVisualStyle
  2
Dim
 70
    11
177
     3
291
     1
 70
    58
 90
        2
176
     1
 90
        2
176
     1
 90
        0
176
     1
 90
        0
176
     1
 40
0.6
176
     1
 40
30.0
176
     1
 62
     7
420
 16777215
176
     1
 90
        1
176
     1
 90
        4
176
     1
 62
     7
176
     1
 62
   257
176
     1
 90
        1
176
     1
 90
        1
176
     1
 40
1.0
176
     1
 90
        8
176
     1
 62
     7
176
     1
 40
1.0
176
     1
 90
        1
176
     1
 90
        6
176
     1
 90
        2
176
     1
 62
     7
176
     1
 90
        5
176
     1
 90
        0
176
     1
 90
        0
176
     1
290
     0
176
     1
 90
        1
176
     1
 40
-50.0
176
     1
 90
        0
176
     1
290
     0
176
     1
290
     1
176
     1
290
     1
176
     1
290
     0
176
     1
290
     0
176
     1
290
     0
176
     1
290
     0
176
     1
290
     0
176
     1
290
     0
176
     1
 90
       50
176
     1
 40
0.0
176
     1
 40
1.0
176
     1
 90
        0
176
     1
 62
    18
420
        0
176
     1
 90
       50
176
     1
 90
        3
176
     1
 62
     5
420
      255
176
     1
290
     0
176
     1
 90
       50
176
     1
 90
       50
176
     1
 90
       50
176
     1
290
     0
176
     1
 90
       50
176
     1
 62
   256
176
     0
 40
1.0
176
     0
 90
        2
176
     1
  1
strokes_ogs.tif
176
     1
290
     0
176
     1
 40
1.0
176
     1
 40
1.0
176
     1
  0
VISUALSTYLE
  5
41
102
{ACAD_REACTORS
330
29
102
}
330
29
100
AcDbVisualStyle
  2
EdgeColorOff
 70
    22
177
     3
291
     1
 70
    58
 90
        2
176
     0
 90
        2
176
     0
 90
        0
176
     0
 90
        0
176
     0
 40
0.6
176
     0
 40
30.0
176
     0
 62
     7
420
 16777215
176
     0
 90
        1
176
     0
 90
        4
176
     0
 62
     7
176
     0
 62
   257
176
     0
 90
        1
176
     0
 90
        1
176
     0
 40
1.0
176
     0
 90
        8
176
     2
 62
     7
176
     0
 40
1.0
176
     0
 90
        1
176
     0
 90
        6
176
     0
 90
        2
176
     0
 62
     7
176
     0
 90
        5
176
     0
 90
        0
176
     0
 90
        0
176
     0
290
     0
176
     0
 90
        1
176
     0
 40
0.0
176
     0
 90
        0
176
     0
290
     0
176
     0
290
     1
176
     0
290
     1
176
     0
290
     0
176
     0
290
     0
176
     0
290
     0
176
     0
290
     0
176
     0
290
     0
176
     0
290
     0
176
     0
 90
       50
176
     0
 40
0.0
176
     0
 40
1.0
176
     0
 90
        0
176
     0
 62
    18
420
        0
176
     0
 90
       50
176
     0
 90
        3
176
     0
 62
     5
420
      255
176
     0
290
     0
176
     0
 90
       50
176
     0
 90
       50
176
     0
 90
       50
176
     0
290
     0
176
     0
 90
       50
176
     0
 62
   256
176
     0
 40
1.0
176
     0
 90
        2
176
     0
  1
strokes_ogs.tif
176
     0
290
     0
176
     0
 40
1.0
176
     0
 40
1.0
176
     0
  0
VISUALSTYLE
  5
38
102
{ACAD_REACTORS
330
29
102
}
330
29
100
AcDbVisualStyle
  2
Facepattern
 70
    15
177
     3
291
     1
 70
    58
 90
        2
176
     1
 90
        2
176
     1
 90
        0
176
     1
 90
        0
176
     1
 40
0.6
176
     1
 40
30.0
176
     1
 62
     7
420
 16777215
176
     1
 90
        1
176
     1
 90
        4
176
     1
 62
     7
176
     1
 62
   257
176
     1
 90
        1
176
     1
 90
        1
176
     1
 40
1.0
176
     1
 90
        8
176
     1
 62
     7
176
     1
 40
1.0
176
     1
 90
        1
176
     1
 90
        6
176
     1
 90
        2
176
     1
 62
     7
176
     1
 90
        5
176
     1
 90
        0
176
     1
 90
        0
176
     1
290
     0
176
     1
 90
        1
176
     1
 40
0.0
176
     1
 90
        0
176
     1
290
     0
176
     1
290
     1
176
     1
290
     1
176
     1
290
     0
176
     1
290
     0
176
     1
290
     0
176
     1
290
     0
176
     1
290
     0
176
     1
290
     0
176
     1
 90
       50
176
     1
 40
0.0
176
     1
 40
1.0
176
     1
 90
        0
176
     1
 62
    18
420
        0
176
     1
 90
       50
176
     1
 90
        3
176
     1
 62
     5
420
      255
176
     1
290
     0
176
     1
 90
       50
176
     1
 90
       50
176
     1
 90
       50
176
     1
290
     0
176
     1
 90
       50
176
     1
 62
   256
176
     0
 40
1.0
176
     0
 90
        2
176
     1
  1
strokes_ogs.tif
176
     1
290
     0
176
     1
 40
1.0
176
     1
 40
1.0
176
     1
  0
VISUALSTYLE
  5
2A
102
{ACAD_REACTORS
330
29
102
}
330
29
100
AcDbVisualStyle
  2
Flat
 70
     0
177
     3
291
     1
 70
    58
 90
        2
176
     1
 90
        1
176
     1
 90
        1
176
     1
 90
        2
176
     1
 40
0.6
176
     1
 40
30.0
176
     1
 62
     7
420
 16777215
176
     1
 90
        0
176
     1
 90
        0
176
     1
 62
     7
176
     1
 62
   257
176
     1
 90
        1
176
     1
 90
        1
176
     1
 40
1.0
176
     1
 90
        8
176
     1
 62
     7
176
     1
 40
1.0
176
     1
 90
        1
176
     1
 90
        6
176
     1
 90
        2
176
     1
 62
     7
176
     1
 90
        5
176
     1
 90
        0
176
     1
 90
        0
176
     1
290
     0
176
     1
 90
       13
176
     1
 40
0.0
176
     1
 90
        0
176
     1
290
     0
176
     1
290
     1
176
     1
290
     1
176
     1
290
     0
176
     1
290
     0
176
     1
290
     0
176
     1
290
     0
176
     1
290
     0
176
     1
290
     0
176
     1
 90
       50
176
     1
 40
0.0
176
     1
 40
1.0
176
     1
 90
        0
176
     1
 62
    18
420
        0
176
     1
 90
       50
176
     1
 90
        3
176
     1
 62
     5
420
      255
176
     1
290
     0
176
     1
 90
       50
176
     1
 90
       50
176
     1
 90
       50
176
     1
290
     0
176
     1
 90
       50
176
     1
 62
   256
176
     0
 40
1.0
176
     0
 90
        2
176
     1
  1
strokes_ogs.tif
176
     1
290
     0
176
     1
 40
1.0
176
     1
 40
1.0
176
     1
  0
VISUALSTYLE
  5
2B
102
{ACAD_REACTORS
330
29
102
}
330
29
100
AcDbVisualStyle
  2
FlatWithEdges
 70
     1
177
     3
291
     1
 70
    58
 90
        2
176
     1
 90
        1
176
     1
 90
        1
176
     1
 90
        2
176
     1
 40
0.6
176
     1
 40
30.0
176
     1
 62
     7
420
 16777215
176
     1
 90
        1
176
     1
 90
        0
176
     1
 62
     7
176
     1
 62
   257
176
     1
 90
        1
176
     1
 90
        1
176
     1
 40
1.0
176
     1
 90
        0
176
     1
 62
   257
176
     1
 40
1.0
176
     1
 90
        1
176
     1
 90
        6
176
     1
 90
        2
176
     1
 62
     7
176
     1
 90
        5
176
     1
 90
        0
176
     1
 90
        0
176
     1
290
     0
176
     1
 90
       13
176
     1
 40
0.0
176
     1
 90
        0
176
     1
290
     0
176
     1
290
     1
176
     1
290
     1
176
     1
290
     0
176
     1
290
     0
176
     1
290
     0
176
     1
290
     0
176
     1
290
     0
176
     1
290
     0
176
     1
 90
       50
176
     1
 40
0.0
176
     1
 40
1.0
176
     1
 90
        0
176
     1
 62
    18
420
        0
176
     1
 90
       50
176
     1
 90
        3
176
     1
 62
     5
420
      255
176
     1
290
     0
176
     1
 90
       50
176
     1
 90
       50
176
     1
 90
       50
176
     1
290
     0
176
     1
 90
       50
176
     1
 62
   256
176
     0
 40
1.0
176
     0
 90
        2
176
     1
  1
strokes_ogs.tif
176
     1
290
     0
176
     1
 40
1.0
176
     1
 40
1.0
176
     1
  0
VISUALSTYLE
  5
2C
102
{ACAD_REACTORS
330
29
102
}
330
29
100
AcDbVisualStyle
  2
Gouraud
 70
     2
177
     3
291
     1
 70
    58
 90
        2
176
     1
 90
        2
176
     1
 90
        1
176
     1
 90
        2
176
     1
 40
0.6
176
     1
 40
30.0
176
     1
 62
     7
420
 16777215
176
     1
 90
        0
176
     1
 90
        0
176
     1
 62
     7
176
     1
 62
   257
176
     1
 90
        1
176
     1
 90
        1
176
     1
 40
1.0
176
     1
 90
        0
176
     1
 62
     7
176
     1
 40
1.0
176
     1
 90
        1
176
     1
 90
        6
176
     1
 90
        2
176
     1
 62
     7
176
     1
 90
        5
176
     1
 90
        0
176
     1
 90
        0
176
     1
290
     0
176
     1
 90
       13
176
     1
 40
0.0
176
     1
 90
        0
176
     1
290
     0
176
     1
290
     1
176
     1
290
     1
176
     1
290
     0
176
     1
290
     0
176
     1
290
     0
176
     1
290
     0
176
     1
290
     0
176
     1
290
     0
176
     1
 90
       50
176
     1
 40
0.0
176
     1
 40
1.0
176
     1
 90
        0
176
     1
 62
    18
420
        0
176
     1
 90
       50
176
     1
 90
        3
176
     1
 62
     5
420
      255
176
     1
290
     0
176
     1
 90
       50
176
     1
 90
       50
176
     1
 90
       50
176
     1
290
     0
176
     1
 90
       50
176
     1
 62
   256
176
     0
 40
1.0
176
     0
 90
        2
176
     1
  1
strokes_ogs.tif
176
     1
290
     0
176
     1
 40
1.0
176
     1
 40
1.0
176
     1
  0
VISUALSTYLE
  5
2D
102
{ACAD_REACTORS
330
29
102
}
330
29
100
AcDbVisualStyle
  2
GouraudWithEdges
 70
     3
177
     3
291
     1
 70
    58
 90
        2
176
     1
 90
        2
176
     1
 90
        1
176
     1
 90
        2
176
     1
 40
0.6
176
     1
 40
30.0
176
     1
 62
     7
420
 16777215
176
     1
 90
        1
176
     1
 90
        0
176
     1
 62
     7
176
     1
 62
   257
176
     1
 90
        1
176
     1
 90
        1
176
     1
 40
1.0
176
     1
 90
        0
176
     1
 62
   257
176
     1
 40
1.0
176
     1
 90
        1
176
     1
 90
        6
176
     1
 90
        2
176
     1
 62
     7
176
     1
 90
        5
176
     1
 90
        0
176
     1
 90
        0
176
     1
290
     0
176
     1
 90
       13
176
     1
 40
0.0
176
     1
 90
        0
176
     1
290
     0
176
     1
290
     1
176
     1
290
     1
176
     1
290
     0
176
     1
290
     0
176
     1
290
     0
176
     1
290
     0
176
     1
290
     0
176
     1
290
     0
176
     1
 90
       50
176
     1
 40
0.0
176
     1
 40
1.0
176
     1
 90
        0
176
     1
 62
    18
420
        0
176
     1
 90
       50
176
     1
 90
        3
176
     1
 62
     5
420
      255
176
     1
290
     0
176
     1
 90
       50
176
     1
 90
       50
176
     1
 90
       50
176
     1
290
     0
176
     1
 90
       50
176
     1
 62
   256
176
     0
 40
1.0
176
     0
 90
        2
176
     1
  1
strokes_ogs.tif
176
     1
290
     0
176
     1
 40
1.0
176
     1
 40
1.0
176
     1
  0
VISUALSTYLE
  5
31
102
{ACAD_REACTORS
330
29
102
}
330
29
100
AcDbVisualStyle
  2
Hidden
 70
     6
177
     3
291
     0
 70
    58
 90
        1
176
     1
 90
        2
176
     1
 90
        2
176
     1
 90
        0
176
     1
 40
0.6
176
     1
 40
30.0
176
     1
 62
     7
420
 16777215
176
     1
 90
        2
176
     1
 90
        2
176
     1
 62
     7
176
     1
 62
   257
176
     1
 90
        2
176
     1
 90
        1
176
     1
 40
40.0
176
     1
 90
        0
176
     1
 62
   257
176
     1
 40
1.0
176
     1
 90
        1
176
     1
 90
        6
176
     1
 90
        2
176
     1
 62
     7
176
     1
 90
        3
176
     1
 90
        0
176
     1
 90
        0
176
     1
290
     0
176
     1
 90
        1
176
     1
 40
0.0
176
     1
 90
        0
176
     1
290
     0
176
     1
290
     1
176
     1
290
     1
176
     1
290
     0
176
     1
290
     0
176
     1
290
     0
176
     1
290
     0
176
     1
290
     0
176
     1
290
     0
176
     1
 90
       50
176
     1
 40
0.0
176
     1
 40
1.0
176
     1
 90
        0
176
     1
 62
    18
420
        0
176
     1
 90
       50
176
     1
 90
        3
176
     1
 62
     5
420
      255
176
     1
290
     0
176
     1
 90
       50
176
     1
 90
       50
176
     1
 90
       50
176
     1
290
     0
176
     1
 90
       50
176
     1
 62
   256
176
     0
 40
1.0
176
     0
 90
        2
176
     1
  1
strokes_ogs.tif
176
     1
290
     0
176
     1
 40
1.0
176
     1
 40
1.0
176
     1
  0
VISUALSTYLE
  5
3F
102
{ACAD_REACTORS
330
29
102
}
330
29
100
AcDbVisualStyle
  2
JitterOff
 70
    20
177
     3
291
     1
 70
    58
 90
        2
176
     0
 90
        2
176
     0
 90
        0
176
     0
 90
        0
176
     0
 40
0.6
176
     0
 40
30.0
176
     0
 62
     7
420
 16777215
176
     0
 90
        1
176
     0
 90
        4
176
     0
 62
     7
176
     0
 62
   257
176
     0
 90
        1
176
     0
 90
        1
176
     0
 40
1.0
176
     0
 90
       10
176
     2
 62
     7
176
     0
 40
1.0
176
     0
 90
        1
176
     0
 90
        6
176
     0
 90
        2
176
     0
 62
     7
176
     0
 90
        5
176
     0
 90
        0
176
     0
 90
        0
176
     0
290
     0
176
     0
 90
        1
176
     0
 40
0.0
176
     0
 90
        0
176
     0
290
     0
176
     0
290
     1
176
     0
290
     1
176
     0
290
     0
176
     0
290
     0
176
     0
290
     0
176
     0
290
     0
176
     0
290
     0
176
     0
290
     0
176
     0
 90
       50
176
     0
 40
0.0
176
     0
 40
1.0
176
     0
 90
        0
176
     0
 62
    18
420
        0
176
     0
 90
       50
176
     0
 90
        3
176
     0
 62
     5
420
      255
176
     0
290
     0
176
     0
 90
       50
176
     0
 90
       50
176
     0
 90
       50
176
     0
290
     0
176
     0
 90
       50
176
     0
 62
   256
176
     0
 40
1.0
176
     0
 90
        2
176
     0
  1
strokes_ogs.tif
176
     0
290
     0
176
     0
 40
1.0
176
     0
 40
1.0
176
     0
  0
VISUALSTYLE
  5
37
102
{ACAD_REACTORS
330
29
102
}
330
29
100
AcDbVisualStyle
  2
Linepattern
 70
    14
177
     3
291
     1
 70
    58
 90
        2
176
     1
 90
        2
176
     1
 90
        0
176
     1
 90
        0
176
     1
 40
0.6
176
     1
 40
30.0
176
     1
 62
     7
420
 16777215
176
     1
 90
        1
176
     1
 90
        4
176
     1
 62
     7
176
     1
 62
   257
176
     1
 90
        7
176
     1
 90
        7
176
     1
 40
1.0
176
     1
 90
        8
176
     1
 62
     7
176
     1
 40
1.0
176
     1
 90
        1
176
     1
 90
        6
176
     1
 90
        2
176
     1
 62
     7
176
     1
 90
        5
176
     1
 90
        0
176
     1
 90
        0
176
     1
290
     0
176
     1
 90
        1
176
     1
 40
0.0
176
     1
 90
        0
176
     1
290
     0
176
     1
290
     1
176
     1
290
     1
176
     1
290
     0
176
     1
290
     0
176
     1
290
     0
176
     1
290
     0
176
     1
290
     0
176
     1
290
     0
176
     1
 90
       50
176
     1
 40
0.0
176
     1
 40
1.0
176
     1
 90
        0
176
     1
 62
    18
420
        0
176
     1
 90
       50
176
     1
 90
        3
176
     1
 62
     5
420
      255
176
     1
290
     0
176
     1
 90
       50
176
     1
 90
       50
176
     1
 90
       50
176
     1
290
     0
176
     1
 90
       50
176
     1
 62
   256
176
     0
 40
1.0
176
     0
 90
        2
176
     1
  1
strokes_ogs.tif
176
     1
290
     0
176
     1
 40
1.0
176
     1
 40
1.0
176
     1
  0
VISUALSTYLE
  5
40
102
{ACAD_REACTORS
330
29
102
}
330
29
100
AcDbVisualStyle
  2
OverhangOff
 70
    21
177
     3
291
     1
 70
    58
 90
        2
176
     0
 90
        2
176
     0
 90
        0
176
     0
 90
        0
176
     0
 40
0.6
176
     0
 40
30.0
176
     0
 62
     7
420
 16777215
176
     0
 90
        1
176
     0
 90
        4
176
     0
 62
     7
176
     0
 62
   257
176
     0
 90
        1
176
     0
 90
        1
176
     0
 40
1.0
176
     0
 90
        9
176
     2
 62
     7
176
     0
 40
1.0
176
     0
 90
        1
176
     0
 90
        6
176
     0
 90
        2
176
     0
 62
     7
176
     0
 90
        5
176
     0
 90
        0
176
     0
 90
        0
176
     0
290
     0
176
     0
 90
        1
176
     0
 40
0.0
176
     0
 90
        0
176
     0
290
     0
176
     0
290
     1
176
     0
290
     1
176
     0
290
     0
176
     0
290
     0
176
     0
290
     0
176
     0
290
     0
176
     0
290
     0
176
     0
290
     0
176
     0
 90
       50
176
     0
 40
0.0
176
     0
 40
1.0
176
     0
 90
        0
176
     0
 62
    18
420
        0
176
     0
 90
       50
176
     0
 90
        3
176
     0
 62
     5
420
      255
176
     0
290
     0
176
     0
 90
       50
176
     0
 90
       50
176
     0
 90
       50
176
     0
290
     0
176
     0
 90
       50
176
     0
 62
   256
176
     0
 40
1.0
176
     0
 90
        2
176
     0
  1
strokes_ogs.tif
176
     0
290
     0
176
     0
 40
1.0
176
     0
 40
1.0
176
     0
  0
VISUALSTYLE
  5
33
102
{ACAD_REACTORS
330
29
102
}
330
29
100
AcDbVisualStyle
  2
Realistic
 70
     8
177
     3
291
     0
 70
    58
 90
        2
176
     1
 90
        3
176
     1
 90
        0
176
     1
 90
        2
176
     1
 40
0.6
176
     1
 40
30.0
176
     1
 62
     7
420
 16777215
176
     1
 90
        0
176
     1
 90
        0
176
     1
 62
     7
176
     1
 62
   257
176
     1
 90
        1
176
     1
 90
        1
176
     1
 40
1.0
176
     1
 90
        8
176
     1
 62
   257
176
     1
 40
1.0
176
     1
 90
        1
176
     1
 90
        6
176
     1
 90
        2
176
     1
 62
     7
176
     1
 90
        3
176
     1
 90
        0
176
     1
 90
        0
176
     1
290
     0
176
     1
 90
       13
176
     1
 40
0.0
176
     1
 90
        0
176
     1
290
     0
176
     1
290
     1
176
     1
290
     1
176
     1
290
     0
176
     1
290
     0
176
     1
290
     0
176
     1
290
     0
176
     1
290
     0
176
     1
290
     0
176
     1
 90
       50
176
     1
 40
0.0
176
     1
 40
1.0
176
     1
 90
        0
176
     1
 62
    18
420
        0
176
     1
 90
       50
176
     1
 90
        3
176
     1
 62
     5
420
      255
176
     1
290
     0
176
     1
 90
       50
176
     1
 90
       50
176
     1
 90
       50
176
     1
290
     0
176
     1
 90
       50
176
     1
 62
   256
176
     0
 40
1.0
176
     0
 90
        2
176
     1
  1
strokes_ogs.tif
176
     1
290
     0
176
     1
 40
1.0
176
     1
 40
1.0
176
     1
  0
VISUALSTYLE
  5
3E
102
{ACAD_REACTORS
330
29
102
}
330
29
100
AcDbVisualStyle
  2
Shaded
 70
    27
177
     3
291
     0
 70
    58
 90
        2
176
     1
 90
        2
176
     1
 90
        1
176
     1
 90
        2
176
     1
 40
0.6
176
     1
 40
30.0
176
     1
 62
     7
420
 16777215
176
     1
 90
        0
176
     1
 90
        4
176
     1
 62
     7
176
     1
 62
   257
176
     1
 90
        1
176
     1
 90
        1
176
     1
 40
1.0
176
     1
 90
        8
176
     1
 62
   257
176
     1
 40
1.0
176
     1
 90
        1
176
     1
 90
        6
176
     1
 90
        2
176
     1
 62
     8
420
  7895160
176
     1
 90
        3
176
     1
 90
        0
176
     1
 90
        0
176
     1
290
     0
176
     1
 90
        5
176
     1
 40
0.0
176
     1
 90
        0
176
     1
290
     0
176
     1
290
     1
176
     1
290
     1
176
     1
290
     0
176
     1
290
     0
176
     1
290
     0
176
     1
290
     0
176
     1
290
     0
176
     1
290
     0
176
     1
 90
       50
176
     1
 40
0.0
176
     1
 40
1.0
176
     1
 90
        0
176
     1
 62
    18
420
        0
176
     1
 90
       50
176
     1
 90
        3
176
     1
 62
     5
420
      255
176
     1
290
     0
176
     1
 90
       50
176
     1
 90
       50
176
     1
 90
       50
176
     1
290
     0
176
     1
 90
       50
176
     1
 62
   256
176
     0
 40
1.0
176
     0
 90
        2
176
     1
  1
strokes_ogs.tif
176
     1
290
     0
176
     1
 40
1.0
176
     1
 40
1.0
176
     1
  0
VISUALSTYLE
  5
3D
102
{ACAD_REACTORS
330
29
102
}
330
29
100
AcDbVisualStyle
  2
Shaded with edges
 70
    26
177
     3
291
     0
 70
    58
 90
        2
176
     1
 90
        2
176
     1
 90
        1
176
     1
 90
        2
176
     1
 40
0.6
176
     1
 40
30.0
176
     1
 62
     7
420
 16777215
176
     1
 90
        1
176
     1
 90
        2
176
     1
 62
     7
176
     1
 62
   257
176
     1
 90
        2
176
     1
 90
        1
176
     1
 40
1.0
176
     1
 90
        8
176
     1
 62
   257
176
     1
 40
1.0
176
     1
 90
        1
176
     1
 90
        6
176
     1
 90
        2
176
     1
 62
     7
176
     1
 90
        3
176
     1
 90
        0
176
     1
 90
        0
176
     1
290
     0
176
     1
 90
        5
176
     1
 40
0.0
176
     1
 90
        0
176
     1
290
     0
176
     1
290
     1
176
     1
290
     1
176
     1
290
     0
176
     1
290
     0
176
     1
290
     0
176
     1
290
     0
176
     1
290
     0
176
     1
290
     0
176
     1
 90
       50
176
     1
 40
0.0
176
     1
 40
1.0
176
     1
 90
        0
176
     1
 62
    18
420
        0
176
     1
 90
       50
176
     1
 90
        3
176
     1
 62
     5
420
      255
176
     1
290
     0
176
     1
 90
       50
176
     1
 90
       50
176
     1
 90
       50
176
     1
290
     0
176
     1
 90
       50
176
     1
 62
   256
176
     0
 40
1.0
176
     0
 90
        2
176
     1
  1
strokes_ogs.tif
176
     1
290
     0
176
     1
 40
1.0
176
     1
 40
1.0
176
     1
  0
VISUALSTYLE
  5
3A
102
{ACAD_REACTORS
330
29
102
}
330
29
100
AcDbVisualStyle
  2
Shades of Gray
 70
    23
177
     3
291
     0
 70
    58
 90
        2
176
     1
 90
        2
176
     1
 90
        3
176
     1
 90
        0
176
     1
 40
0.6
176
     1
 40
30.0
176
     1
 62
     7
420
 16777215
176
     1
 90
        2
176
     1
 90
        2
176
     1
 62
     7
176
     1
 62
     7
176
     1
 90
        1
176
     1
 90
        1
176
     1
 40
40.0
176
     1
 90
        8
176
     1
 62
     7
176
     1
 40
1.0
176
     1
 90
        1
176
     1
 90
        6
176
     1
 90
        2
176
     1
 62
     7
176
     1
 90
        3
176
     1
 90
        0
176
     1
 90
        0
176
     1
290
     0
176
     1
 90
        1
176
     1
 40
0.0
176
     1
 90
        0
176
     1
290
     0
176
     1
290
     1
176
     1
290
     1
176
     1
290
     0
176
     1
290
     0
176
     1
290
     0
176
     1
290
     0
176
     1
290
     0
176
     1
290
     0
176
     1
 90
       50
176
     1
 40
0.0
176
     1
 40
1.0
176
     1
 90
        0
176
     1
 62
    18
420
        0
176
     1
 90
       50
176
     1
 90
        3
176
     1
 62
     5
420
      255
176
     1
290
     0
176
     1
 90
       50
176
     1
 90
       50
176
     1
 90
       50
176
     1
290
     0
176
     1
 90
       50
176
     1
 62
   256
176
     0
 40
1.0
176
     0
 90
        2
176
     1
  1
strokes_ogs.tif
176
     1
290
     0
176
     1
 40
1.0
176
     1
 40
1.0
176
     1
  0
VISUALSTYLE
  5
3B
102
{ACAD_REACTORS
330
29
102
}
330
29
100
AcDbVisualStyle
  2
Sketchy
 70
    24
177
     3
291
     0
 70
    58
 90
        1
176
     1
 90
        2
176
     1
 90
        2
176
     1
 90
        0
176
     1
 40
0.6
176
     1
 40
30.0
176
     1
 62
     7
420
 16777215
176
     1
 90
        2
176
     1
 90
        2
176
     1
 62
     7
176
     1
 62
     7
176
     1
 90
        1
176
     1
 90
        1
176
     1
 40
40.0
176
     1
 90
       11
176
     1
 62
     7
176
     1
 40
1.0
176
     1
 90
        1
176
     1
 90
        6
176
     1
 90
        2
176
     1
 62
     7
176
     1
 90
        6
176
     1
 90
        0
176
     1
 90
        0
176
     1
290
     0
176
     1
 90
        1
176
     1
 40
0.0
176
     1
 90
        0
176
     1
290
     0
176
     1
290
     1
176
     1
290
     1
176
     1
290
     0
176
     1
290
     0
176
     1
290
     0
176
     1
290
     0
176
     1
290
     0
176
     1
290
     0
176
     1
 90
       50
176
     1
 40
0.0
176
     1
 40
1.0
176
     1
 90
        0
176
     1
 62
    18
420
        0
176
     1
 90
       50
176
     1
 90
        3
176
     1
 62
     5
420
      255
176
     1
290
     0
176
     1
 90
       50
176
     1
 90
       50
176
     1
 90
       50
176
     1
290
     0
176
     1
 90
       50
176
     1
 62
   256
176
     0
 40
1.0
176
     0
 90
        2
176
     1
  1
strokes_ogs.tif
176
     1
290
     0
176
     1
 40
1.0
176
     1
 40
1.0
176
     1
  0
VISUALSTYLE
  5
36
102
{ACAD_REACTORS
330
29
102
}
330
29
100
AcDbVisualStyle
  2
Thicken
 70
    13
177
     3
291
     1
 70
    58
 90
        2
176
     1
 90
        2
176
     1
 90
        0
176
     1
 90
        0
176
     1
 40
0.6
176
     1
 40
30.0
176
     1
 62
     7
420
 16777215
176
     1
 90
        1
176
     1
 90
        4
176
     1
 62
     7
176
     1
 62
   257
176
     1
 90
        1
176
     1
 90
        1
176
     1
 40
1.0
176
     1
 90
       12
176
     1
 62
     7
176
     1
 40
1.0
176
     1
 90
        1
176
     1
 90
        6
176
     1
 90
        2
176
     1
 62
     7
176
     1
 90
        5
176
     1
 90
        0
176
     1
 90
        0
176
     1
290
     0
176
     1
 90
        1
176
     1
 40
0.0
176
     1
 90
        0
176
     1
290
     0
176
     1
290
     1
176
     1
290
     1
176
     1
290
     0
176
     1
290
     0
176
     1
290
     0
176
     1
290
     0
176
     1
290
     0
176
     1
290
     0
176
     1
 90
       50
176
     1
 40
0.0
176
     1
 40
1.0
176
     1
 90
        0
176
     1
 62
    18
420
        0
176
     1
 90
       50
176
     1
 90
        3
176
     1
 62
     5
420
      255
176
     1
290
     0
176
     1
 90
       50
176
     1
 90
       50
176
     1
 90
       50
176
     1
290
     0
176
     1
 90
       50
176
     1
 62
   256
176
     0
 40
1.0
176
     0
 90
        2
176
     1
  1
strokes_ogs.tif
176
     1
290
     0
176
     1
 40
1.0
176
     1
 40
1.0
176
     1
  0
VISUALSTYLE
  5
30
102
{ACAD_REACTORS
330
29
102
}
330
29
100
AcDbVisualStyle
  2
Wireframe
 70
     5
177
     3
291
     0
 70
    58
 90
        0
176
     1
 90
        2
176
     1
 90
        0
176
     1
 90
        0
176
     1
 40
0.6
176
     1
 40
30.0
176
     1
 62
     7
420
 16777215
176
     1
 90
        1
176
     1
 90
        4
176
     1
 62
     7
176
     1
 62
   257
176
     1
 90
        1
176
     1
 90
        1
176
     1
 40
1.0
176
     1
 90
        0
176
     1
 62
   257
176
     1
 40
1.0
176
     1
 90
        1
176
     1
 90
        6
176
     1
 90
        2
176
     1
 62
     7
176
     1
 90
        3
176
     1
 90
        0
176
     1
 90
        0
176
     1
290
     0
176
     1
 90
        1
176
     1
 40
0.0
176
     1
 90
        0
176
     1
290
     0
176
     1
290
     1
176
     1
290
     1
176
     1
290
     0
176
     1
290
     0
176
     1
290
     0
176
     1
290
     0
176
     1
290
     0
176
     1
290
     0
176
     1
 90
       50
176
     1
 40
0.0
176
     1
 40
1.0
176
     1
 90
        0
176
     1
 62
    18
420
        0
176
     1
 90
       50
176
     1
 90
        3
176
     1
 62
     5
420
      255
176
     1
290
     0
176
     1
 90
       50
176
     1
 90
       50
176
     1
 90
       50
176
     1
290
     0
176
     1
 90
       50
176
     1
 62
   256
176
     0
 40
1.0
176
     0
 90
        2
176
     1
  1
strokes_ogs.tif
176
     1
290
     0
176
     1
 40
1.0
176
     1
 40
1.0
176
     1
  0
VISUALSTYLE
  5
3C
102
{ACAD_REACTORS
330
29
102
}
330
29
100
AcDbVisualStyle
  2
X-Ray
 70
    25
177
     3
291
     0
 70
    58
 90
        2
176
     1
 90
        2
176
     1
 90
        1
176
     1
 90
        1
176
     1
 40
0.5
176
     1
 40
30.0
176
     1
 62
     7
420
 16777215
176
     1
 90
        1
176
     1
 90
        0
176
     1
 62
     7
176
     1
 62
   257
176
     1
 90
        1
176
     1
 90
        1
176
     1
 40
1.0
176
     1
 90
        8
176
     1
 62
     7
176
     1
 40
1.0
176
     1
 90
        1
176
     1
 90
        6
176
     1
 90
        2
176
     1
 62
     7
176
     1
 90
        3
176
     1
 90
        0
176
     1
 90
        0
176
     1
290
     0
176
     1
 90
       13
176
     1
 40
0.0
176
     1
 90
        0
176
     1
290
     0
176
     1
290
     1
176
     1
290
     1
176
     1
290
     0
176
     1
290
     0
176
     1
290
     0
176
     1
290
     0
176
     1
290
     0
176
     1
290
     0
176
     1
 90
       50
176
     1
 40
0.0
176
     1
 40
1.0
176
     1
 90
        0
176
     1
 62
    18
420
        0
176
     1
 90
       50
176
     1
 90
        3
176
     1
 62
     5
420
      255
176
     1
290
     0
176
     1
 90
       50
176
     1
 90
       50
176
     1
 90
       50
176
     1
290
     0
176
     1
 90
       50
176
     1
 62
   256
176
     0
 40
1.0
176
     0
 90
        2
176
     1
  1
strokes_ogs.tif
176
     1
290
     0
176
     1
 40
1.0
176
     1
 40
1.0
176
     1
  0
DICTIONARYVAR
  5
2AC
102
{ACAD_REACTORS
330
2A7
102
}
330
2A7
100
DictionaryVariables
280
     0
  1
1:1
  0
DICTIONARYVAR
  5
2A9
102
{ACAD_REACTORS
330
2A7
102
}
330
2A7
100
DictionaryVariables
280
     0
  1
STANDARD
  0
DICTIONARYVAR
  5
2A8
102
{ACAD_REACTORS
330
2A7
102
}
330
2A7
100
DictionaryVariables
280
     0
  1
STANDARD
  0
DICTIONARYVAR
  5
2AA
102
{ACAD_REACTORS
330
2A7
102
}
330
2A7
100
DictionaryVariables
280
     0
  1
Imperial24
  0
DICTIONARYVAR
  5
2AB
102
{ACAD_REACTORS
330
2A7
102
}
330
2A7
100
DictionaryVariables
280
     0
  1
Imperial24
  0
DICTIONARY
  5
1A
330
19
100
AcDbDictionary
280
     1
281
     1
  3
BUMPTILE
360
1C
  3
DIFFUSETILE
360
1B
  3
OPACITYTILE
360
1F
  3
REFLECTIONTILE
360
1E
  3
REFRACTIONTILE
360
20
  3
SPECULARTILE
360
1D
  0
DICTIONARY
  5
12
330
11
100
AcDbDictionary
280
     1
281
     1
  3
BUMPTILE
360
14
  3
DIFFUSETILE
360
13
  3
OPACITYTILE
360
17
  3
REFLECTIONTILE
360
16
  3
REFRACTIONTILE
360
18
  3
SPECULARTILE
360
15
  0
DICTIONARY
  5
22
330
21
100
AcDbDictionary
280
     1
281
     1
  3
BUMPTILE
360
24
  3
DIFFUSETILE
360
23
  3
OPACITYTILE
360
27
  3
REFLECTIONTILE
360
26
  3
REFRACTIONTILE
360
28
  3
SPECULARTILE
360
25
  0
DICTIONARY
  5
2AD
330
65
100
AcDbDictionary
280
     1
281
     1
  3
ACAD_ROUNDTRIP_2008_TABLESTYLE_CELLSTYLEMAP
360
2AE
  0
XRECORD
  5
1C
102
{ACAD_REACTORS
330
1A
102
}
330
1A
100
AcDbXrecord
280
     1
270
     1
271
     1
  0
XRECORD
  5
1B
102
{ACAD_REACTORS
330
1A
102
}
330
1A
100
AcDbXrecord
280
     1
270
     1
271
     1
  0
XRECORD
  5
1F
102
{ACAD_REACTORS
330
1A
102
}
330
1A
100
AcDbXrecord
280
     1
270
     1
271
     1
  0
XRECORD
  5
1E
102
{ACAD_REACTORS
330
1A
102
}
330
1A
100
AcDbXrecord
280
     1
270
     1
271
     1
  0
XRECORD
  5
20
102
{ACAD_REACTORS
330
1A
102
}
330
1A
100
AcDbXrecord
280
     1
270
     1
271
     1
  0
XRECORD
  5
1D
102
{ACAD_REACTORS
330
1A
102
}
330
1A
100
AcDbXrecord
280
     1
270
     1
271
     1
  0
XRECORD
  5
14
102
{ACAD_REACTORS
330
12
102
}
330
12
100
AcDbXrecord
280
     1
270
     1
271
     1
  0
XRECORD
  5
13
102
{ACAD_REACTORS
330
12
102
}
330
12
100
AcDbXrecord
280
     1
270
     1
271
     1
  0
XRECORD
  5
17
102
{ACAD_REACTORS
330
12
102
}
330
12
100
AcDbXrecord
280
     1
270
     1
271
     1
  0
XRECORD
  5
16
102
{ACAD_REACTORS
330
12
102
}
330
12
100
AcDbXrecord
280
     1
270
     1
271
     1
  0
XRECORD
  5
18
102
{ACAD_REACTORS
330
12
102
}
330
12
100
AcDbXrecord
280
     1
270
     1
271
     1
  0
XRECORD
  5
15
102
{ACAD_REACTORS
330
12
102
}
330
12
100
AcDbXrecord
280
     1
270
     1
271
     1
  0
XRECORD
  5
24
102
{ACAD_REACTORS
330
22
102
}
330
22
100
AcDbXrecord
280
     1
270
     1
271
     1
  0
XRECORD
  5
23
102
{ACAD_REACTORS
330
22
102
}
330
22
100
AcDbXrecord
280
     1
270
     1
271
     1
  0
XRECORD
  5
27
102
{ACAD_REACTORS
330
22
102
}
330
22
100
AcDbXrecord
280
     1
270
     1
271
     1
  0
XRECORD
  5
26
102
{ACAD_REACTORS
330
22
102
}
330
22
100
AcDbXrecord
280
     1
270
     1
271
     1
  0
XRECORD
  5
28
102
{ACAD_REACTORS
330
22
102
}
330
22
100
AcDbXrecord
280
     1
270
     1
271
     1
  0
XRECORD
  5
25
102
{ACAD_REACTORS
330
22
102
}
330
22
100
AcDbXrecord
280
     1
270
     1
271
     1
  0
CELLSTYLEMAP
  5
2AE
102
{ACAD_REACTORS
330
2AD
102
}
330
2AD
100
AcDbCellStyleMap
 90
        3
300
CELLSTYLE
  1
TABLEFORMAT_BEGIN
 90
        5
170
     1
 91
        0
 92
    32768
 62
   257
 93
        1
300
CONTENTFORMAT
  1
CONTENTFORMAT_BEGIN
 90
        0
 91
        0
 92
      512
 93
        0
300

 40
0.0
140
1.0
 94
        5
 62
     0
340
55
144
0.25
309
CONTENTFORMAT_END
171
     0
 94
        0
309
TABLEFORMAT_END
  1
CELLSTYLE_BEGIN
 90
        1
 91
        1
300
_TITLE
309
CELLSTYLE_END
300
CELLSTYLE
  1
TABLEFORMAT_BEGIN
 90
        5
170
     1
 91
        0
 92
        0
 62
   257
 93
        1
300
CONTENTFORMAT
  1
CONTENTFORMAT_BEGIN
 90
        0
 91
        0
 92
      512
 93
        0
300

 40
0.0
140
1.0
 94
        5
 62
     0
340
55
144
0.18
309
CONTENTFORMAT_END
171
     0
 94
        0
309
TABLEFORMAT_END
  1
CELLSTYLE_BEGIN
 90
        2
 91
        1
300
_HEADER
309
CELLSTYLE_END
300
CELLSTYLE
  1
TABLEFORMAT_BEGIN
 90
        5
170
     1
 91
        0
 92
        0
 62
   257
 93
        1
300
CONTENTFORMAT
  1
CONTENTFORMAT_BEGIN
 90
        0
 91
        0
 92
      512
 93
        0
300

 40
0.0
140
1.0
 94
        2
 62
     0
340
55
144
0.18
309
CONTENTFORMAT_END
171
     0
 94
        0
309
TABLEFORMAT_END
  1
CELLSTYLE_BEGIN
 90
        3
 91
        2
300
_DATA
309
CELLSTYLE_END
  0
ENDSEC
  0
EOF
