  0
SECTION
  2
HEADER
  9
$ACADVER
  1
AC1032
  9
$ACADMAINTVER
 90
      228
  9
$DWGCODEPAGE
  3
ANSI_1252
  9
$REQUIREDVERSIONS
160
                 0
  9
$INSBASE
 10
0.0
 20
0.0
 30
0.0
  9
$EXTMIN
 10
1.000000000000000E+20
 20
1.000000000000000E+20
 30
1.000000000000000E+20
  9
$EXTMAX
 10
-1.000000000000000E+20
 20
-1.000000000000000E+20
 30
-1.000000000000000E+20
  9
$LIMMIN
 10
0.0
 20
0.0
  9
$LIMMAX
 10
12.0
 20
9.0
  9
$ORTHOMODE
 70
     0
  9
$REGENMODE
 70
     1
  9
$FILLMODE
 70
     1
  9
$QTEXTMODE
 70
     0
  9
$MIRRTEXT
 70
     0
  9
$LTSCALE
 40
1.0
  9
$ATTMODE
 70
     1
  9
$TEXTSIZE
 40
0.2
  9
$TRACEWID
 40
0.05
  9
$TEXTSTYLE
  7
Standard
  9
$CLAYER
  8
0
  9
$CELTYPE
  6
ByLayer
  9
$CECOLOR
 62
   256
  9
$CELTSCALE
 40
1.0
  9
$DISPSILH
 70
     0
  9
$DIMSCALE
 40
1.0
  9
$DIMASZ
 40
0.18
  9
$DIMEXO
 40
0.0625
  9
$DIMDLI
 40
0.38
  9
$DIMRND
 40
0.0
  9
$DIMDLE
 40
0.0
  9
$DIMEXE
 40
0.18
  9
$DIMTP
 40
0.0
  9
$DIMTM
 40
0.0
  9
$DIMTXT
 40
0.18
  9
$DIMCEN
 40
0.09
  9
$DIMTSZ
 40
0.0
  9
$DIMTOL
 70
     0
  9
$DIMLIM
 70
     0
  9
$DIMTIH
 70
     1
  9
$DIMTOH
 70
     1
  9
$DIMSE1
 70
     0
  9
$DIMSE2
 70
     0
  9
$DIMTAD
 70
     0
  9
$DIMZIN
 70
     0
  9
$DIMBLK
  1

  9
$DIMASO
 70
     1
  9
$DIMSHO
 70
     1
  9
$DIMPOST
  1

  9
$DIMAPOST
  1

  9
$DIMALT
 70
     0
  9
$DIMALTD
 70
     2
  9
$DIMALTF
 40
25.4
  9
$DIMLFAC
 40
1.0
  9
$DIMTOFL
 70
     0
  9
$DIMTVP
 40
0.0
  9
$DIMTIX
 70
     0
  9
$DIMSOXD
 70
     0
  9
$DIMSAH
 70
     0
  9
$DIMBLK1
  1

  9
$DIMBLK2
  1

  9
$DIMSTYLE
  2
Standard
  9
$DIMCLRD
 70
     0
  9
$DIMCLRE
 70
     0
  9
$DIMCLRT
 70
     0
  9
$DIMTFAC
 40
1.0
  9
$DIMGAP
 40
0.09
  9
$DIMJUST
 70
     0
  9
$DIMSD1
 70
     0
  9
$DIMSD2
 70
     0
  9
$DIMTOLJ
 70
     1
  9
$DIMTZIN
 70
     0
  9
$DIMALTZ
 70
     0
  9
$DIMALTTZ
 70
     0
  9
$DIMUPT
 70
     0
  9
$DIMDEC
 70
     4
  9
$DIMTDEC
 70
     4
  9
$DIMALTU
 70
     2
  9
$DIMALTTD
 70
     2
  9
$DIMTXSTY
  7
Standard
  9
$DIMAUNIT
 70
     0
  9
$DIMADEC
 70
     0
  9
$DIMALTRND
 40
0.0
  9
$DIMAZIN
 70
     0
  9
$DIMDSEP
 70
    46
  9
$DIMATFIT
 70
     3
  9
$DIMFRAC
 70
     0
  9
$DIMLDRBLK
  1

  9
$DIMLUNIT
 70
     2
  9
$DIMLWD
 70
    -2
  9
$DIMLWE
 70
    -2
  9
$DIMTMOVE
 70
     0
  9
$DIMFXL
 40
1.0
  9
$DIMFXLON
 70
     0
  9
$DIMJOGANG
 40
0.7853981633974483
  9
$DIMTFILL
 70
     0
  9
$DIMTFILLCLR
 70
     0
  9
$DIMARCSYM
 70
     0
  9
$DIMLTYPE
  6

  9
$DIMLTEX1
  6

  9
$DIMLTEX2
  6

  9
$DIMTXTDIRECTION
 70
     0
  9
$LUNITS
 70
     2
  9
$LUPREC
 70
     4
  9
$SKETCHINC
 40
0.1
  9
$FILLETRAD
 40
0.0
  9
$AUNITS
 70
     0
  9
$AUPREC
 70
     0
  9
$MENU
  1
.
  9
$ELEVATION
 40
0.0
  9
$PELEVATION
 40
0.0
  9
$THICKNESS
 40
0.0
  9
$LIMCHECK
 70
     0
  9
$CHAMFERA
 40
0.0
  9
$CHAMFERB
 40
0.0
  9
$CHAMFERC
 40
0.0
  9
$CHAMFERD
 40
0.0
  9
$SKPOLY
 70
     0
  9
$TDCREATE
 40
2460101.444583334
  9
$TDUCREATE
 40
2460101.361250000
  9
$TDUPDATE
 40
2460101.444583334
  9
$TDUUPDATE
 40
2460101.361250000
  9
$TDINDWG
 40
0.0000000000
  9
$TDUSRTIMER
 40
0.0000000000
  9
$USRTIMER
 70
     1
  9
$ANGBASE
 50
0.0
  9
$ANGDIR
 70
     0
  9
$PDMODE
 70
     0
  9
$PDSIZE
 40
0.0
  9
$PLINEWID
 40
0.0
  9
$SPLFRAME
 70
     0
  9
$SPLINETYPE
 70
     6
  9
$SPLINESEGS
 70
     8
  9
$HANDSEED
  5
2BA
  9
$SURFTAB1
 70
     6
  9
$SURFTAB2
 70
     6
  9
$SURFTYPE
 70
     6
  9
$SURFU
 70
     6
  9
$SURFV
 70
     6
  9
$UCSBASE
  2

  9
$UCSNAME
  2

  9
$UCSORG
 10
0.0
 20
0.0
 30
0.0
  9
$UCSXDIR
 10
1.0
 20
0.0
 30
0.0
  9
$UCSYDIR
 10
0.0
 20
1.0
 30
0.0
  9
$UCSORTHOREF
  2

  9
$UCSORTHOVIEW
 70
     0
  9
$UCSORGTOP
 10
0.0
 20
0.0
 30
0.0
  9
$UCSORGBOTTOM
 10
0.0
 20
0.0
 30
0.0
  9
$UCSORGLEFT
 10
0.0
 20
0.0
 30
0.0
  9
$UCSORGRIGHT
 10
0.0
 20
0.0
 30
0.0
  9
$UCSORGFRONT
 10
0.0
 20
0.0
 30
0.0
  9
$UCSORGBACK
 10
0.0
 20
0.0
 30
0.0
  9
$PUCSBASE
  2

  9
$PUCSNAME
  2

  9
$PUCSORG
 10
0.0
 20
0.0
 30
0.0
  9
$PUCSXDIR
 10
1.0
 20
0.0
 30
0.0
  9
$PUCSYDIR
 10
0.0
 20
1.0
 30
0.0
  9
$PUCSORTHOREF
  2

  9
$PUCSORTHOVIEW
 70
     0
  9
$PUCSORGTOP
 10
0.0
 20
0.0
 30
0.0
  9
$PUCSORGBOTTOM
 10
0.0
 20
0.0
 30
0.0
  9
$PUCSORGLEFT
 10
0.0
 20
0.0
 30
0.0
  9
$PUCSORGRIGHT
 10
0.0
 20
0.0
 30
0.0
  9
$PUCSORGFRONT
 10
0.0
 20
0.0
 30
0.0
  9
$PUCSORGBACK
 10
0.0
 20
0.0
 30
0.0
  9
$USERI1
 70
     0
  9
$USERI2
 70
     0
  9
$USERI3
 70
     0
  9
$USERI4
 70
     0
  9
$USERI5
 70
     0
  9
$USERR1
 40
0.0
  9
$USERR2
 40
0.0
  9
$USERR3
 40
0.0
  9
$USERR4
 40
0.0
  9
$USERR5
 40
0.0
  9
$WORLDVIEW
 70
     1
  9
$SHADEDGE
 70
     3
  9
$SHADEDIF
 70
    70
  9
$TILEMODE
 70
     1
  9
$MAXACTVP
 70
    64
  9
$PINSBASE
 10
0.0
 20
0.0
 30
0.0
  9
$PLIMCHECK
 70
     0
  9
$PEXTMIN
 10
1.000000000000000E+20
 20
1.000000000000000E+20
 30
1.000000000000000E+20
  9
$PEXTMAX
 10
-1.000000000000000E+20
 20
-1.000000000000000E+20
 30
-1.000000000000000E+20
  9
$PLIMMIN
 10
0.0
 20
0.0
  9
$PLIMMAX
 10
12.0
 20
9.0
  9
$UNITMODE
 70
     0
  9
$VISRETAIN
 70
     1
  9
$PLINEGEN
 70
     0
  9
$PSLTSCALE
 70
     1
  9
$TREEDEPTH
 70
  3020
  9
$CMLSTYLE
  2
Standard
  9
$CMLJUST
 70
     0
  9
$CMLSCALE
 40
1.0
  9
$PROXYGRAPHICS
 70
     1
  9
$MEASUREMENT
 70
     0
  9
$CELWEIGHT
370
    -1
  9
$ENDCAPS
280
     0
  9
$JOINSTYLE
280
     0
  9
$LWDISPLAY
290
     1
  9
$INSUNITS
 70
     4
  9
$HYPERLINKBASE
  1

  9
$STYLESHEET
  1

  9
$XEDIT
290
     1
  9
$CEPSNTYPE
380
     0
  9
$PSTYLEMODE
290
     1
  9
$FINGERPRINTGUID
  2
{441B5E27-0A57-D347-BDEF-93A37AADED21}
  9
$VERSIONGUID
  2
{B2305902-89CC-884C-940E-31C8D6FBFDFA}
  9
$EXTNAMES
290
     1
  9
$PSVPSCALE
 40
0.0
  9
$OLESTARTUP
290
     0
  9
$SORTENTS
280
   127
  9
$INDEXCTL
280
     0
  9
$HIDETEXT
280
     1
  9
$XCLIPFRAME
280
     2
  9
$HALOGAP
280
     0
  9
$OBSCOLOR
 70
   257
  9
$OBSLTYPE
280
     0
  9
$INTERSECTIONDISPLAY
280
     0
  9
$INTERSECTIONCOLOR
 70
   257
  9
$DIMASSOC
280
     2
  9
$PROJECTNAME
  1

  9
$CAMERADISPLAY
290
     0
  9
$LENSLENGTH
 40
50.0
  9
$CAMERAHEIGHT
 40
0.0
  9
$STEPSPERSEC
 40
2.0
  9
$STEPSIZE
 40
6.0
  9
$3DDWFPREC
 40
2.0
  9
$PSOLWIDTH
 40
0.25
  9
$PSOLHEIGHT
 40
4.0
  9
$LOFTANG1
 40
1.570796326794896
  9
$LOFTANG2
 40
1.570796326794896
  9
$LOFTMAG1
 40
0.0
  9
$LOFTMAG2
 40
0.0
  9
$LOFTPARAM
 70
     7
  9
$LOFTNORMALS
280
     1
  9
$LATITUDE
 40
37.795
  9
$LONGITUDE
 40
-122.394
  9
$NORTHDIRECTION
 40
0.0
  9
$TIMEZONE
 70
 -8000
  9
$LIGHTGLYPHDISPLAY
280
     1
  9
$TILEMODELIGHTSYNCH
280
     1
  9
$CMATERIAL
347
11
  9
$SOLIDHIST
280
     0
  9
$SHOWHIST
280
     1
  9
$DWFFRAME
280
     2
  9
$DGNFRAME
280
     0
  9
$REALWORLDSCALE
290
     1
  9
$INTERFERECOLOR
 62
     1
  9
$INTERFEREOBJVS
345
33
  9
$INTERFEREVPVS
346
30
  9
$CSHADOW
280
     0
  9
$SHADOWPLANELOCATION
 40
0.0
  0
ENDSEC
  0
SECTION
  2
CLASSES
  0
CLASS
  1
ACDBDICTIONARYWDFLT
  2
AcDbDictionaryWithDefault
  3
ObjectDBX Classes
 90
        0
 91
        1
280
     0
281
     0
  0
CLASS
  1
MATERIAL
  2
AcDbMaterial
  3
ObjectDBX Classes
 90
     1153
 91
        3
280
     0
281
     0
  0
CLASS
  1
VISUALSTYLE
  2
AcDbVisualStyle
  3
ObjectDBX Classes
 90
     4095
 91
       24
280
     0
281
     0
  0
CLASS
  1
SCALE
  2
AcDbScale
  3
ObjectDBX Classes
 90
     1153
 91
       17
280
     0
281
     0
  0
CLASS
  1
TABLESTYLE
  2
AcDbTableStyle
  3
ObjectDBX Classes
 90
     4095
 91
        1
280
     0
281
     0
  0
CLASS
  1
MLEADERSTYLE
  2
AcDbMLeaderStyle
  3
ACDB_MLEADERSTYLE_CLASS
 90
     4095
 91
        1
280
     0
281
     0
  0
CLASS
  1
ACDBSECTIONVIEWSTYLE
  2
AcDbSectionViewStyle
  3
ObjectDBX Classes
 90
     1025
 91
        1
280
     0
281
     0
  0
CLASS
  1
ACDBDETAILVIEWSTYLE
  2
AcDbDetailViewStyle
  3
ObjectDBX Classes
 90
     1025
 91
        1
280
     0
281
     0
  0
CLASS
  1
DICTIONARYVAR
  2
AcDbDictionaryVar
  3
ObjectDBX Classes
 90
        0
 91
        5
280
     0
281
     0
  0
CLASS
  1
CELLSTYLEMAP
  2
AcDbCellStyleMap
  3
ObjectDBX Classes
 90
     1152
 91
        1
280
     0
281
     0
  0
ENDSEC
  0
SECTION
  2
TABLES
  0
TABLE
  2
VPORT
  5
8
330
0
100
AcDbSymbolTable
 70
     1
  0
VPORT
  5
57
330
8
100
AcDbSymbolTableRecord
100
AcDbViewportTableRecord
  2
*Active
 70
     0
 10
0.0
 20
0.0
 11
1.0
 21
1.0
 12
0.0
 22
0.0
 13
0.0
 23
0.0
 14
1.0
 24
1.0
 15
0.0
 25
0.0
 16
0.0
 26
0.0
 36
1.0
 17
74.09537918832248
 27
199.6523381008889
 37
0.0
 40
184.3245014892728
 41
0.8814579525752112
 42
50.0
 43
0.0
 44
0.0
 50
0.0
 51
0.0
 71
     0
 72
   100
 73
     1
 74
     1
 75
     0
 76
     0
 77
     0
 78
     0
281
     0
 65
     1
110
0.0
120
0.0
130
0.0
111
1.0
121
0.0
131
0.0
112
0.0
122
1.0
132
0.0
 79
     0
146
0.0
 60
     3
 61
     5
292
     1
282
     1
141
0.0
142
0.0
 63
   250
421
  3355443
  0
ENDTAB
  0
TABLE
  2
LTYPE
  5
5
330
0
100
AcDbSymbolTable
 70
     7
  0
LTYPE
  5
5B
330
5
100
AcDbSymbolTableRecord
100
AcDbLinetypeTableRecord
  2
ByBlock
 70
     0
  3

 72
    65
 73
     0
 40
0.0
  0
LTYPE
  5
5C
330
5
100
AcDbSymbolTableRecord
100
AcDbLinetypeTableRecord
  2
ByLayer
 70
     0
  3

 72
    65
 73
     0
 40
0.0
  0
LTYPE
  5
5D
330
5
100
AcDbSymbolTableRecord
100
AcDbLinetypeTableRecord
  2
Continuous
 70
     0
  3
Solid line
 72
    65
 73
     0
 40
0.0
  0
LTYPE
  5
CC
330
5
100
AcDbSymbolTableRecord
100
AcDbLinetypeTableRecord
  2
AI-Linetype-0
 70
     0
  3
Adobe Illustrator Linetype No. 0
 72
    65
 73
     4
 40
8.819444442239584
 49
7.055555553791666
 74
     0
 49
-0.7055555553791667
 74
     0
 49
0.3527777776895833
 74
     0
 49
-0.7055555553791667
 74
     0
  0
LTYPE
  5
CE
330
5
100
AcDbSymbolTableRecord
100
AcDbLinetypeTableRecord
  2
AI-Linetype-1
 70
     0
  3
Adobe Illustrator Linetype No. 1
 72
    65
 73
     4
 40
8.819444442239584
 49
7.055555553791666
 74
     0
 49
-0.7055555553791667
 74
     0
 49
0.3527777776895833
 74
     0
 49
-0.7055555553791667
 74
     0
  0
LTYPE
  5
D0
330
5
100
AcDbSymbolTableRecord
100
AcDbLinetypeTableRecord
  2
AI-Linetype-2
 70
     0
  3
Adobe Illustrator Linetype No. 2
 72
    65
 73
     4
 40
8.819444442239584
 49
7.055555553791666
 74
     0
 49
-0.7055555553791667
 74
     0
 49
0.3527777776895833
 74
     0
 49
-0.7055555553791667
 74
     0
  0
LTYPE
  5
D2
330
5
100
AcDbSymbolTableRecord
100
AcDbLinetypeTableRecord
  2
AI-Linetype-3
 70
     0
  3
Adobe Illustrator Linetype No. 3
 72
    65
 73
     4
 40
8.819444442239584
 49
7.055555553791666
 74
     0
 49
-0.7055555553791667
 74
     0
 49
0.3527777776895833
 74
     0
 49
-0.7055555553791667
 74
     0
  0
LTYPE
  5
D4
330
5
100
AcDbSymbolTableRecord
100
AcDbLinetypeTableRecord
  2
AI-Linetype-4
 70
     0
  3
Adobe Illustrator Linetype No. 4
 72
    65
 73
     4
 40
8.819444442239584
 49
7.055555553791666
 74
     0
 49
-0.7055555553791667
 74
     0
 49
0.3527777776895833
 74
     0
 49
-0.7055555553791667
 74
     0
  0
LTYPE
  5
D6
330
5
100
AcDbSymbolTableRecord
100
AcDbLinetypeTableRecord
  2
AI-Linetype-5
 70
     0
  3
Adobe Illustrator Linetype No. 5
 72
    65
 73
     4
 40
8.819444442239584
 49
7.055555553791666
 74
     0
 49
-0.7055555553791667
 74
     0
 49
0.3527777776895833
 74
     0
 49
-0.7055555553791667
 74
     0
  0
ENDTAB
  0
TABLE
  2
LAYER
  5
2
330
0
100
AcDbSymbolTable
 70
     6
  0
LAYER
  5
54
330
2
100
AcDbSymbolTableRecord
100
AcDbLayerTableRecord
  2
0
 70
     0
 62
     7
  6
Continuous
370
    -3
390
F
347
21
348
0
  0
LAYER
  5
78
330
2
100
AcDbSymbolTableRecord
100
AcDbLayerTableRecord
  2
grau 10%
 70
     1
 62
     7
  6
Continuous
370
     0
390
F
347
21
348
0
  0
LAYER
  5
7D
330
2
100
AcDbSymbolTableRecord
100
AcDbLayerTableRecord
  2
Standardebene
 70
     0
 62
     7
  6
Continuous
370
     0
390
F
347
21
348
0
  0
LAYER
  5
169
330
2
100
AcDbSymbolTableRecord
100
AcDbLayerTableRecord
  2
text
 70
     1
 62
     7
  6
Continuous
370
     0
390
F
347
21
348
0
  0
LAYER
  5
170
330
2
100
AcDbSymbolTableRecord
100
AcDbLayerTableRecord
  2
bemaßung
 70
     1
 62
     7
  6
Continuous
370
     0
390
F
347
21
348
0
  0
LAYER
  5
24D
330
2
100
AcDbSymbolTableRecord
100
AcDbLayerTableRecord
  2
Ebene 5
 70
     1
 62
     7
  6
Continuous
370
     0
390
F
347
21
348
0
  0
ENDTAB
  0
TABLE
  2
STYLE
  5
3
330
0
100
AcDbSymbolTable
 70
     2
  0
STYLE
  5
55
330
3
100
AcDbSymbolTableRecord
100
AcDbTextStyleTableRecord
  2
Standard
 70
     0
 40
0.0
 41
1.0
 50
0.0
 71
     0
 42
0.2
  3
txt
  4

  0
STYLE
  5
5A
330
3
100
AcDbSymbolTableRecord
100
AcDbTextStyleTableRecord
  2
Annotative
 70
     0
 40
0.0
 41
1.0
 50
0.0
 71
     0
 42
0.2
  3
txt
  4

1001
AcadAnnotative
1000
AnnotativeData
1002
{
1070
     1
1070
     1
1002
}
  0
ENDTAB
  0
TABLE
  2
VIEW
  5
6
330
0
100
AcDbSymbolTable
 70
     0
  0
ENDTAB
  0
TABLE
  2
UCS
  5
7
330
0
100
AcDbSymbolTable
 70
     0
  0
ENDTAB
  0
TABLE
  2
APPID
  5
9
330
0
100
AcDbSymbolTable
 70
     2
  0
APPID
  5
56
330
9
100
AcDbSymbolTableRecord
100
AcDbRegAppTableRecord
  2
ACAD
 70
     0
  0
APPID
  5
5E
330
9
100
AcDbSymbolTableRecord
100
AcDbRegAppTableRecord
  2
AcadAnnotative
 70
     0
  0
ENDTAB
  0
TABLE
  2
DIMSTYLE
  5
A
330
0
100
AcDbSymbolTable
 70
     2
100
AcDbDimStyleTable
 71
     0
  0
DIMSTYLE
105
58
330
A
100
AcDbSymbolTableRecord
100
AcDbDimStyleTableRecord
  2
Standard
 70
     0
340
55
  0
DIMSTYLE
105
59
330
A
100
AcDbSymbolTableRecord
100
AcDbDimStyleTableRecord
  2
Annotative
 70
     0
340
55
1001
AcadAnnotative
1000
AnnotativeData
1002
{
1070
     1
1070
     1
1002
}
  0
ENDTAB
  0
TABLE
  2
BLOCK_RECORD
  5
1
330
0
100
AcDbSymbolTable
 70
     1
  0
BLOCK_RECORD
  5
70
330
1
100
AcDbSymbolTableRecord
100
AcDbBlockTableRecord
  2
*Model_Space
340
73
 70
     0
280
     1
281
     0
  0
BLOCK_RECORD
  5
6C
330
1
100
AcDbSymbolTableRecord
100
AcDbBlockTableRecord
  2
*Paper_Space
340
6F
 70
     0
280
     1
281
     0
  0
BLOCK_RECORD
  5
74
330
1
100
AcDbSymbolTableRecord
100
AcDbBlockTableRecord
  2
*Paper_Space0
340
77
 70
     0
280
     1
281
     0
  0
ENDTAB
  0
ENDSEC
  0
SECTION
  2
BLOCKS
  0
BLOCK
  5
71
330
70
100
AcDbEntity
  8
0
100
AcDbBlockBegin
  2
*Model_Space
 70
     0
 10
0.0
 20
0.0
 30
0.0
  3
*Model_Space
  1

  0
ENDBLK
  5
72
330
70
100
AcDbEntity
  8
0
100
AcDbBlockEnd
  0
BLOCK
  5
6D
330
6C
100
AcDbEntity
 67
     1
  8
0
100
AcDbBlockBegin
  2
*Paper_Space
 70
     0
 10
0.0
 20
0.0
 30
0.0
  3
*Paper_Space
  1

  0
ENDBLK
  5
6E
330
6C
100
AcDbEntity
 67
     1
  8
0
100
AcDbBlockEnd
  0
BLOCK
  5
75
330
74
100
AcDbEntity
 67
     1
  8
0
100
AcDbBlockBegin
  2
*Paper_Space0
 70
     0
 10
0.0
 20
0.0
 30
0.0
  3
*Paper_Space0
  1

  0
ENDBLK
  5
76
330
74
100
AcDbEntity
 67
     1
  8
0
100
AcDbBlockEnd
  0
ENDSEC
  0
SECTION
  2
ENTITIES
  0
SPLINE
  5
79
330
70
100
AcDbEntity
  8
grau 10%
100
AcDbSpline
210
0.0
220
0.0
230
1.0
 70
    11
 71
     3
 72
   185
 73
   181
 74
     0
 42
0.0000000001
 43
0.0000000001
 40
0.0
 40
0.0
 40
0.0
 40
0.0
 40
1.0
 40
1.0
 40
1.0
 40
2.0
 40
2.0
 40
2.0
 40
3.0
 40
3.0
 40
3.0
 40
4.0
 40
4.0
 40
4.0
 40
5.0
 40
5.0
 40
5.0
 40
6.0
 40
6.0
 40
6.0
 40
7.0
 40
7.0
 40
7.0
 40
8.0
 40
8.0
 40
8.0
 40
9.0
 40
9.0
 40
9.0
 40
10.0
 40
10.0
 40
10.0
 40
11.0
 40
11.0
 40
11.0
 40
12.0
 40
12.0
 40
12.0
 40
13.0
 40
13.0
 40
13.0
 40
14.0
 40
14.0
 40
14.0
 40
15.0
 40
15.0
 40
15.0
 40
16.0
 40
16.0
 40
16.0
 40
17.0
 40
17.0
 40
17.0
 40
18.0
 40
18.0
 40
18.0
 40
19.0
 40
19.0
 40
19.0
 40
20.0
 40
20.0
 40
20.0
 40
21.0
 40
21.0
 40
21.0
 40
22.0
 40
22.0
 40
22.0
 40
23.0
 40
23.0
 40
23.0
 40
24.0
 40
24.0
 40
24.0
 40
25.0
 40
25.0
 40
25.0
 40
26.0
 40
26.0
 40
26.0
 40
27.0
 40
27.0
 40
27.0
 40
28.0
 40
28.0
 40
28.0
 40
29.0
 40
29.0
 40
29.0
 40
30.0
 40
30.0
 40
30.0
 40
31.0
 40
31.0
 40
31.0
 40
32.0
 40
32.0
 40
32.0
 40
33.0
 40
33.0
 40
33.0
 40
34.0
 40
34.0
 40
34.0
 40
35.0
 40
35.0
 40
35.0
 40
36.0
 40
36.0
 40
36.0
 40
37.0
 40
37.0
 40
37.0
 40
38.0
 40
38.0
 40
38.0
 40
39.0
 40
39.0
 40
39.0
 40
40.0
 40
40.0
 40
40.0
 40
41.0
 40
41.0
 40
41.0
 40
42.0
 40
42.0
 40
42.0
 40
43.0
 40
43.0
 40
43.0
 40
44.0
 40
44.0
 40
44.0
 40
45.0
 40
45.0
 40
45.0
 40
46.0
 40
46.0
 40
46.0
 40
47.0
 40
47.0
 40
47.0
 40
48.0
 40
48.0
 40
48.0
 40
49.0
 40
49.0
 40
49.0
 40
50.0
 40
50.0
 40
50.0
 40
51.0
 40
51.0
 40
51.0
 40
52.0
 40
52.0
 40
52.0
 40
53.0
 40
53.0
 40
53.0
 40
54.0
 40
54.0
 40
54.0
 40
55.0
 40
55.0
 40
55.0
 40
56.0
 40
56.0
 40
56.0
 40
57.0
 40
57.0
 40
57.0
 40
58.0
 40
58.0
 40
58.0
 40
59.0
 40
59.0
 40
59.0
 40
60.0
 40
60.0
 40
60.0
 40
60.0
 10
67.8757832683445
 20
154.5764232786491
 30
0.0
 10
67.8757832683445
 20
154.5764232786491
 30
0.0
 10
67.85959076875761
 20
194.4394693958347
 30
0.0
 10
67.85959076875761
 20
194.4394693958347
 30
0.0
 10
67.85959076875761
 20
194.4394693958347
 30
0.0
 10
73.696616453176
 20
194.5016592045159
 30
0.0
 10
73.696616453176
 20
194.5016592045159
 30
0.0
 10
73.696616453176
 20
194.5016592045159
 30
0.0
 10
73.7451939519367
 20
201.0824815366252
 30
0.0
 10
73.7451939519367
 20
201.0824815366252
 30
0.0
 10
73.7451939519367
 20
201.0824815366252
 30
0.0
 10
67.82720576958381
 20
201.0662890370383
 30
0.0
 10
67.82720576958381
 20
201.0662890370383
 30
0.0
 10
67.82720576958381
 20
201.0662890370383
 30
0.0
 10
67.84339998303912
 20
233.5428340418259
 30
0.0
 10
67.84339998303912
 20
233.5428340418259
 30
0.0
 10
67.84339998303912
 20
233.5428340418259
 30
0.0
 10
67.22914161817503
 20
234.1247056936478
 30
0.0
 10
67.22914161817503
 20
234.1247056936478
 30
0.0
 10
67.22914161817503
 20
234.1247056936478
 30
0.0
 10
66.82485829515584
 20
234.0599709730771
 30
0.0
 10
66.82485829515584
 20
234.0599709730771
 30
0.0
 10
66.82485829515584
 20
234.0599709730771
 30
0.0
 10
66.85706690544524
 20
247.2863503578663
 30
0.0
 10
66.85706690544524
 20
247.2863503578663
 30
0.0
 10
66.85706690544524
 20
247.2863503578663
 30
0.0
 10
65.77393332196717
 20
247.3025428574532
 30
0.0
 10
65.77393332196717
 20
247.3025428574532
 30
0.0
 10
65.77393332196717
 20
247.3025428574532
 30
0.0
 10
65.72535582320648
 20
247.5612700730747
 30
0.0
 10
65.72535582320648
 20
247.5612700730747
 30
0.0
 10
65.72535582320648
 20
247.5612700730747
 30
0.0
 10
65.48282110717183
 20
247.7714197899356
 30
0.0
 10
65.48282110717183
 20
247.7714197899356
 30
0.0
 10
65.48282110717183
 20
247.7714197899356
 30
0.0
 10
54.48779638767828
 20
247.7714197899356
 30
0.0
 10
54.48779638767828
 20
247.7714197899356
 30
0.0
 10
54.48779638767828
 20
247.7714197899356
 30
0.0
 10
54.24526167164363
 20
247.512692574314
 30
0.0
 10
54.24526167164363
 20
247.512692574314
 30
0.0
 10
54.24526167164363
 20
247.512692574314
 30
0.0
 10
54.22924556094113
 20
247.2701578582794
 30
0.0
 10
54.22924556094113
 20
247.2701578582794
 30
0.0
 10
54.22924556094113
 20
247.2701578582794
 30
0.0
 10
48.44062221011203
 20
247.3025428574532
 30
0.0
 10
48.44062221011203
 20
247.3025428574532
 30
0.0
 10
48.44062221011203
 20
247.3025428574532
 30
0.0
 10
48.40841237610963
 20
245.3784638275442
 30
0.0
 10
48.40841237610963
 20
245.3784638275442
 30
0.0
 10
48.40841237610963
 20
245.3784638275442
 30
0.0
 10
48.02032155267731
 20
246.0574842781062
 30
0.0
 10
48.02032155267731
 20
246.0574842781062
 30
0.0
 10
48.02032155267731
 20
246.0574842781062
 30
0.0
 10
45.41703328575939
 20
246.073676777693
 30
0.0
 10
45.41703328575939
 20
246.073676777693
 30
0.0
 10
45.41703328575939
 20
246.073676777693
 30
0.0
 10
45.02894246232708
 20
245.3784638275442
 30
0.0
 10
45.02894246232708
 20
245.3784638275442
 30
0.0
 10
45.02894246232708
 20
245.3784638275442
 30
0.0
 10
44.99673385203768
 20
244.2949712675161
 30
0.0
 10
44.99673385203768
 20
244.2949712675161
 30
0.0
 10
44.99673385203768
 20
244.2949712675161
 30
0.0
 10
44.88338635492942
 20
244.0686290510683
 30
0.0
 10
44.88338635492942
 20
244.0686290510683
 30
0.0
 10
44.88338635492942
 20
244.0686290510683
 30
0.0
 10
44.65704413848166
 20
243.9718268313157
 30
0.0
 10
44.65704413848166
 20
243.9718268313157
 30
0.0
 10
44.65704413848166
 20
243.9718268313157
 30
0.0
 10
38.35114152158086
 20
243.9715093313238
 30
0.0
 10
38.35114152158086
 20
243.9715093313238
 30
0.0
 10
38.35114152158086
 20
243.9715093313238
 30
0.0
 10
37.67211487223761
 20
243.4219874008988
 30
0.0
 10
37.67211487223761
 20
243.4219874008988
 30
0.0
 10
37.67211487223761
 20
243.4219874008988
 30
0.0
 10
36.08754296821897
 20
243.4219874008988
 30
0.0
 10
36.08754296821897
 20
243.4219874008988
 30
0.0
 10
36.08754296821897
 20
243.4219874008988
 30
0.0
 10
35.50549492751269
 20
243.9232554945746
 30
0.0
 10
35.50549492751269
 20
243.9232554945746
 30
0.0
 10
35.50549492751269
 20
243.9232554945746
 30
0.0
 10
32.82142138068337
 20
243.9715093313238
 30
0.0
 10
32.82142138068337
 20
243.9715093313238
 30
0.0
 10
32.82142138068337
 20
243.9715093313238
 30
0.0
 10
32.44952304744316
 20
243.8422868346206
 30
0.0
 10
32.44952304744316
 20
243.8422868346206
 30
0.0
 10
32.44952304744316
 20
243.8422868346206
 30
0.0
 10
32.23937332527353
 20
243.5188248984283
 30
0.0
 10
32.23937332527353
 20
243.5188248984283
 30
0.0
 10
32.23937332527353
 20
243.5188248984283
 30
0.0
 10
32.23937332527353
 20
238.0538386489628
 30
0.0
 10
32.23937332527353
 20
238.0538386489628
 30
0.0
 10
32.23937332527353
 20
238.0538386489628
 30
0.0
 10
32.33635193636021
 20
237.665606714423
 30
0.0
 10
32.33635193636021
 20
237.665606714423
 30
0.0
 10
32.33635193636021
 20
237.665606714423
 30
0.0
 10
32.57888665852179
 20
237.4230719983884
 30
0.0
 10
32.57888665852179
 20
237.4230719983884
 30
0.0
 10
32.57888665852179
 20
237.4230719983884
 30
0.0
 10
35.52168742709959
 20
237.3424270004458
 30
0.0
 10
35.52168742709959
 20
237.3424270004458
 30
0.0
 10
35.52168742709959
 20
237.3424270004458
 30
0.0
 10
36.08754296821897
 20
237.9728761510283
 30
0.0
 10
36.08754296821897
 20
237.9728761510283
 30
0.0
 10
36.08754296821897
 20
237.9728761510283
 30
0.0
 10
37.68830832391113
 20
237.9728761510283
 30
0.0
 10
37.68830832391113
 20
237.9728761510283
 30
0.0
 10
37.68830832391113
 20
237.9728761510283
 30
0.0
 10
38.25416387932531
 20
237.4071969987934
 30
0.0
 10
38.25416387932531
 20
237.4071969987934
 30
0.0
 10
38.25416387932531
 20
237.4071969987934
 30
0.0
 10
44.4308783109183
 20
237.4071969987934
 30
0.0
 10
44.4308783109183
 20
237.4071969987934
 30
0.0
 10
44.4308783109183
 20
237.4071969987934
 30
0.0
 10
44.75419913600304
 20
237.3586195000327
 30
0.0
 10
44.75419913600304
 20
237.3586195000327
 30
0.0
 10
44.75419913600304
 20
237.3586195000327
 30
0.0
 10
45.04513609984979
 20
237.1160847839981
 30
0.0
 10
45.04513609984979
 20
237.1160847839981
 30
0.0
 10
45.04513609984979
 20
237.1160847839981
 30
0.0
 10
45.04513609984979
 20
236.1459459198595
 30
0.0
 10
45.04513609984979
 20
236.1459459198595
 30
0.0
 10
45.04513609984979
 20
236.1459459198595
 30
0.0
 10
45.43322578534628
 20
235.3049942746472
 30
0.0
 10
45.43322578534628
 20
235.3049942746472
 30
0.0
 10
45.43322578534628
 20
235.3049942746472
 30
0.0
 10
48.02032155267731
 20
235.2405770540684
 30
0.0
 10
48.02032155267731
 20
235.2405770540684
 30
0.0
 10
48.02032155267731
 20
235.2405770540684
 30
0.0
 10
48.40841237610963
 20
236.0325984227512
 30
0.0
 10
48.40841237610963
 20
236.0325984227512
 30
0.0
 10
48.40841237610963
 20
236.0325984227512
 30
0.0
 10
48.47300598557281
 20
234.1247056936478
 30
0.0
 10
48.47300598557281
 20
234.1247056936478
 30
0.0
 10
48.47300598557281
 20
234.1247056936478
 30
0.0
 10
52.66068976762499
 20
234.0761281948871
 30
0.0
 10
52.66068976762499
 20
234.0761281948871
 30
0.0
 10
52.66068976762499
 20
234.0761281948871
 30
0.0
 10
52.17562033555569
 20
233.5104490426521
 30
0.0
 10
52.17562033555569
 20
233.5104490426521
 30
0.0
 10
52.17562033555569
 20
233.5104490426521
 30
0.0
 10
52.15942783596879
 20
201.1393140351752
 30
0.0
 10
52.15942783596879
 20
201.1393140351752
 30
0.0
 10
52.15942783596879
 20
201.1393140351752
 30
0.0
 10
50.94675554281892
 20
201.057998759472
 30
0.0
 10
50.94675554281892
 20
201.057998759472
 30
0.0
 10
50.94675554281892
 20
201.057998759472
 30
0.0
 10
50.96294675538246
 20
194.550241618029
 30
0.0
 10
50.96294675538246
 20
194.550241618029
 30
0.0
 10
50.96294675538246
 20
194.550241618029
 30
0.0
 10
52.15942783596879
 20
194.5095614265365
 30
0.0
 10
52.15942783596879
 20
194.5095614265365
 30
0.0
 10
52.15942783596879
 20
194.5095614265365
 30
0.0
 10
52.18267589093125
 20
163.236200279942
 30
0.0
 10
52.18267589093125
 20
163.236200279942
 30
0.0
 10
52.18267589093125
 20
163.236200279942
 30
0.0
 10
52.79400448644607
 20
161.1341739446803
 30
0.0
 10
52.10379478183256
 20
159.1430962176991
 30
0.0
 10
52.10379478183256
 20
159.1430962176991
 30
0.0
 10
52.13032498696732
 20
156.5943826716111
 30
0.0
 10
52.13032498696732
 20
156.5943826716111
 30
0.0
 10
52.13032498696732
 20
156.5943826716111
 30
0.0
 10
52.3162022764136
 20
155.8244138499329
 30
0.0
 10
52.3162022764136
 20
155.8244138499329
 30
0.0
 10
52.3162022764136
 20
155.8244138499329
 30
0.0
 10
52.44881143969712
 20
154.7094204974783
 30
0.0
 10
52.44881143969712
 20
154.7094204974783
 30
0.0
 10
52.44881143969712
 20
154.7094204974783
 30
0.0
 10
52.50204560500566
 20
152.8774808219927
 30
0.0
 10
52.50204560500566
 20
152.8774808219927
 30
0.0
 10
52.50204560500566
 20
152.8774808219927
 30
0.0
 10
51.75860173508361
 20
152.2932102813432
 30
0.0
 10
52.55510338142983
 20
151.5764364107407
 30
0.0
 10
52.55510338142983
 20
151.5764364107407
 30
0.0
 10
67.23707911797254
 20
151.5764364107407
 30
0.0
 10
67.23707911797254
 20
151.5764364107407
 30
0.0
 10
67.23707911797254
 20
151.5764364107407
 30
0.0
 10
68.40512631039539
 20
151.7888439053217
 30
0.0
 10
67.66185882935772
 20
152.7446952698248
 30
0.0
 10
67.66185882935772
 20
152.7446952698248
 30
0.0
 10
67.8757832683445
 20
154.5764232786491
 30
0.0
 10
67.8757832683445
 20
154.5764232786491
 30
0.0
  0
HATCH
  5
7A
330
70
100
AcDbEntity
  8
grau 10%
 62
   255
440
 33554687
100
AcDbHatch
 10
0.0
 20
0.0
 30
0.0
210
0.0
220
0.0
230
1.0
  2
SOLID
 70
     1
 71
     1
 91
        1
 92
        1
 93
        1
 72
     4
 94
        3
 73
     0
 74
     0
 95
      185
 96
      181
 40
0.0
 40
0.0
 40
0.0
 40
0.0
 40
1.0
 40
1.0
 40
1.0
 40
2.0
 40
2.0
 40
2.0
 40
3.0
 40
3.0
 40
3.0
 40
4.0
 40
4.0
 40
4.0
 40
5.0
 40
5.0
 40
5.0
 40
6.0
 40
6.0
 40
6.0
 40
7.0
 40
7.0
 40
7.0
 40
8.0
 40
8.0
 40
8.0
 40
9.0
 40
9.0
 40
9.0
 40
10.0
 40
10.0
 40
10.0
 40
11.0
 40
11.0
 40
11.0
 40
12.0
 40
12.0
 40
12.0
 40
13.0
 40
13.0
 40
13.0
 40
14.0
 40
14.0
 40
14.0
 40
15.0
 40
15.0
 40
15.0
 40
16.0
 40
16.0
 40
16.0
 40
17.0
 40
17.0
 40
17.0
 40
18.0
 40
18.0
 40
18.0
 40
19.0
 40
19.0
 40
19.0
 40
20.0
 40
20.0
 40
20.0
 40
21.0
 40
21.0
 40
21.0
 40
22.0
 40
22.0
 40
22.0
 40
23.0
 40
23.0
 40
23.0
 40
24.0
 40
24.0
 40
24.0
 40
25.0
 40
25.0
 40
25.0
 40
26.0
 40
26.0
 40
26.0
 40
27.0
 40
27.0
 40
27.0
 40
28.0
 40
28.0
 40
28.0
 40
29.0
 40
29.0
 40
29.0
 40
30.0
 40
30.0
 40
30.0
 40
31.0
 40
31.0
 40
31.0
 40
32.0
 40
32.0
 40
32.0
 40
33.0
 40
33.0
 40
33.0
 40
34.0
 40
34.0
 40
34.0
 40
35.0
 40
35.0
 40
35.0
 40
36.0
 40
36.0
 40
36.0
 40
37.0
 40
37.0
 40
37.0
 40
38.0
 40
38.0
 40
38.0
 40
39.0
 40
39.0
 40
39.0
 40
40.0
 40
40.0
 40
40.0
 40
41.0
 40
41.0
 40
41.0
 40
42.0
 40
42.0
 40
42.0
 40
43.0
 40
43.0
 40
43.0
 40
44.0
 40
44.0
 40
44.0
 40
45.0
 40
45.0
 40
45.0
 40
46.0
 40
46.0
 40
46.0
 40
47.0
 40
47.0
 40
47.0
 40
48.0
 40
48.0
 40
48.0
 40
49.0
 40
49.0
 40
49.0
 40
50.0
 40
50.0
 40
50.0
 40
51.0
 40
51.0
 40
51.0
 40
52.0
 40
52.0
 40
52.0
 40
53.0
 40
53.0
 40
53.0
 40
54.0
 40
54.0
 40
54.0
 40
55.0
 40
55.0
 40
55.0
 40
56.0
 40
56.0
 40
56.0
 40
57.0
 40
57.0
 40
57.0
 40
58.0
 40
58.0
 40
58.0
 40
59.0
 40
59.0
 40
59.0
 40
60.0
 40
60.0
 40
60.0
 40
60.0
 10
67.8757832683445
 20
154.5764232786491
 10
67.8757832683445
 20
154.5764232786491
 10
67.85959076875761
 20
194.4394693958347
 10
67.85959076875761
 20
194.4394693958347
 10
67.85959076875761
 20
194.4394693958347
 10
73.696616453176
 20
194.5016592045159
 10
73.696616453176
 20
194.5016592045159
 10
73.696616453176
 20
194.5016592045159
 10
73.7451939519367
 20
201.0824815366252
 10
73.7451939519367
 20
201.0824815366252
 10
73.7451939519367
 20
201.0824815366252
 10
67.82720576958381
 20
201.0662890370383
 10
67.82720576958381
 20
201.0662890370383
 10
67.82720576958381
 20
201.0662890370383
 10
67.84339998303912
 20
233.5428340418259
 10
67.84339998303912
 20
233.5428340418259
 10
67.84339998303912
 20
233.5428340418259
 10
67.22914161817503
 20
234.1247056936478
 10
67.22914161817503
 20
234.1247056936478
 10
67.22914161817503
 20
234.1247056936478
 10
66.82485829515584
 20
234.0599709730771
 10
66.82485829515584
 20
234.0599709730771
 10
66.82485829515584
 20
234.0599709730771
 10
66.85706690544524
 20
247.2863503578663
 10
66.85706690544524
 20
247.2863503578663
 10
66.85706690544524
 20
247.2863503578663
 10
65.77393332196717
 20
247.3025428574532
 10
65.77393332196717
 20
247.3025428574532
 10
65.77393332196717
 20
247.3025428574532
 10
65.72535582320648
 20
247.5612700730747
 10
65.72535582320648
 20
247.5612700730747
 10
65.72535582320648
 20
247.5612700730747
 10
65.48282110717183
 20
247.7714197899356
 10
65.48282110717183
 20
247.7714197899356
 10
65.48282110717183
 20
247.7714197899356
 10
54.48779638767828
 20
247.7714197899356
 10
54.48779638767828
 20
247.7714197899356
 10
54.48779638767828
 20
247.7714197899356
 10
54.24526167164363
 20
247.512692574314
 10
54.24526167164363
 20
247.512692574314
 10
54.24526167164363
 20
247.512692574314
 10
54.22924556094113
 20
247.2701578582794
 10
54.22924556094113
 20
247.2701578582794
 10
54.22924556094113
 20
247.2701578582794
 10
48.44062221011203
 20
247.3025428574532
 10
48.44062221011203
 20
247.3025428574532
 10
48.44062221011203
 20
247.3025428574532
 10
48.40841237610963
 20
245.3784638275442
 10
48.40841237610963
 20
245.3784638275442
 10
48.40841237610963
 20
245.3784638275442
 10
48.02032155267731
 20
246.0574842781062
 10
48.02032155267731
 20
246.0574842781062
 10
48.02032155267731
 20
246.0574842781062
 10
45.41703328575939
 20
246.073676777693
 10
45.41703328575939
 20
246.073676777693
 10
45.41703328575939
 20
246.073676777693
 10
45.02894246232708
 20
245.3784638275442
 10
45.02894246232708
 20
245.3784638275442
 10
45.02894246232708
 20
245.3784638275442
 10
44.99673385203768
 20
244.2949712675161
 10
44.99673385203768
 20
244.2949712675161
 10
44.99673385203768
 20
244.2949712675161
 10
44.88338635492942
 20
244.0686290510683
 10
44.88338635492942
 20
244.0686290510683
 10
44.88338635492942
 20
244.0686290510683
 10
44.65704413848166
 20
243.9718268313157
 10
44.65704413848166
 20
243.9718268313157
 10
44.65704413848166
 20
243.9718268313157
 10
38.35114152158086
 20
243.9715093313238
 10
38.35114152158086
 20
243.9715093313238
 10
38.35114152158086
 20
243.9715093313238
 10
37.67211487223761
 20
243.4219874008988
 10
37.67211487223761
 20
243.4219874008988
 10
37.67211487223761
 20
243.4219874008988
 10
36.08754296821897
 20
243.4219874008988
 10
36.08754296821897
 20
243.4219874008988
 10
36.08754296821897
 20
243.4219874008988
 10
35.50549492751269
 20
243.9232554945746
 10
35.50549492751269
 20
243.9232554945746
 10
35.50549492751269
 20
243.9232554945746
 10
32.82142138068337
 20
243.9715093313238
 10
32.82142138068337
 20
243.9715093313238
 10
32.82142138068337
 20
243.9715093313238
 10
32.44952304744316
 20
243.8422868346206
 10
32.44952304744316
 20
243.8422868346206
 10
32.44952304744316
 20
243.8422868346206
 10
32.23937332527353
 20
243.5188248984283
 10
32.23937332527353
 20
243.5188248984283
 10
32.23937332527353
 20
243.5188248984283
 10
32.23937332527353
 20
238.0538386489628
 10
32.23937332527353
 20
238.0538386489628
 10
32.23937332527353
 20
238.0538386489628
 10
32.33635193636021
 20
237.665606714423
 10
32.33635193636021
 20
237.665606714423
 10
32.33635193636021
 20
237.665606714423
 10
32.57888665852179
 20
237.4230719983884
 10
32.57888665852179
 20
237.4230719983884
 10
32.57888665852179
 20
237.4230719983884
 10
35.52168742709959
 20
237.3424270004458
 10
35.52168742709959
 20
237.3424270004458
 10
35.52168742709959
 20
237.3424270004458
 10
36.08754296821897
 20
237.9728761510283
 10
36.08754296821897
 20
237.9728761510283
 10
36.08754296821897
 20
237.9728761510283
 10
37.68830832391113
 20
237.9728761510283
 10
37.68830832391113
 20
237.9728761510283
 10
37.68830832391113
 20
237.9728761510283
 10
38.25416387932531
 20
237.4071969987934
 10
38.25416387932531
 20
237.4071969987934
 10
38.25416387932531
 20
237.4071969987934
 10
44.4308783109183
 20
237.4071969987934
 10
44.4308783109183
 20
237.4071969987934
 10
44.4308783109183
 20
237.4071969987934
 10
44.75419913600304
 20
237.3586195000327
 10
44.75419913600304
 20
237.3586195000327
 10
44.75419913600304
 20
237.3586195000327
 10
45.04513609984979
 20
237.1160847839981
 10
45.04513609984979
 20
237.1160847839981
 10
45.04513609984979
 20
237.1160847839981
 10
45.04513609984979
 20
236.1459459198595
 10
45.04513609984979
 20
236.1459459198595
 10
45.04513609984979
 20
236.1459459198595
 10
45.43322578534628
 20
235.3049942746472
 10
45.43322578534628
 20
235.3049942746472
 10
45.43322578534628
 20
235.3049942746472
 10
48.02032155267731
 20
235.2405770540684
 10
48.02032155267731
 20
235.2405770540684
 10
48.02032155267731
 20
235.2405770540684
 10
48.40841237610963
 20
236.0325984227512
 10
48.40841237610963
 20
236.0325984227512
 10
48.40841237610963
 20
236.0325984227512
 10
48.47300598557281
 20
234.1247056936478
 10
48.47300598557281
 20
234.1247056936478
 10
48.47300598557281
 20
234.1247056936478
 10
52.66068976762499
 20
234.0761281948871
 10
52.66068976762499
 20
234.0761281948871
 10
52.66068976762499
 20
234.0761281948871
 10
52.17562033555569
 20
233.5104490426521
 10
52.17562033555569
 20
233.5104490426521
 10
52.17562033555569
 20
233.5104490426521
 10
52.15942783596879
 20
201.1393140351752
 10
52.15942783596879
 20
201.1393140351752
 10
52.15942783596879
 20
201.1393140351752
 10
50.94675554281892
 20
201.057998759472
 10
50.94675554281892
 20
201.057998759472
 10
50.94675554281892
 20
201.057998759472
 10
50.96294675538246
 20
194.550241618029
 10
50.96294675538246
 20
194.550241618029
 10
50.96294675538246
 20
194.550241618029
 10
52.15942783596879
 20
194.5095614265365
 10
52.15942783596879
 20
194.5095614265365
 10
52.15942783596879
 20
194.5095614265365
 10
52.18267589093125
 20
163.236200279942
 10
52.18267589093125
 20
163.236200279942
 10
52.18267589093125
 20
163.236200279942
 10
52.79400448644607
 20
161.1341739446803
 10
52.10379478183256
 20
159.1430962176991
 10
52.10379478183256
 20
159.1430962176991
 10
52.13032498696732
 20
156.5943826716111
 10
52.13032498696732
 20
156.5943826716111
 10
52.13032498696732
 20
156.5943826716111
 10
52.3162022764136
 20
155.8244138499329
 10
52.3162022764136
 20
155.8244138499329
 10
52.3162022764136
 20
155.8244138499329
 10
52.44881143969712
 20
154.7094204974783
 10
52.44881143969712
 20
154.7094204974783
 10
52.44881143969712
 20
154.7094204974783
 10
52.50204560500566
 20
152.8774808219927
 10
52.50204560500566
 20
152.8774808219927
 10
52.50204560500566
 20
152.8774808219927
 10
51.75860173508361
 20
152.2932102813432
 10
52.55510338142983
 20
151.5764364107407
 10
52.55510338142983
 20
151.5764364107407
 10
67.23707911797254
 20
151.5764364107407
 10
67.23707911797254
 20
151.5764364107407
 10
67.23707911797254
 20
151.5764364107407
 10
68.40512631039539
 20
151.7888439053217
 10
67.66185882935772
 20
152.7446952698248
 10
67.66185882935772
 20
152.7446952698248
 10
67.8757832683445
 20
154.5764232786491
 10
67.8757832683445
 20
154.5764232786491
 97
        0
 97
        1
330
79
 75
     0
 76
     1
 98
        1
 10
0.0
 20
0.0
450
        0
451
        0
460
0.0
461
0.0
452
        0
462
0.0
453
        0
470

  0
SPLINE
  5
7B
330
70
100
AcDbEntity
  8
grau 10%
100
AcDbSpline
210
0.0
220
0.0
230
1.0
 70
    11
 71
     3
 72
    95
 73
    91
 74
     0
 42
0.0000000001
 43
0.0000000001
 40
0.0
 40
0.0
 40
0.0
 40
0.0
 40
1.0
 40
1.0
 40
1.0
 40
2.0
 40
2.0
 40
2.0
 40
3.0
 40
3.0
 40
3.0
 40
4.0
 40
4.0
 40
4.0
 40
5.0
 40
5.0
 40
5.0
 40
6.0
 40
6.0
 40
6.0
 40
7.0
 40
7.0
 40
7.0
 40
8.0
 40
8.0
 40
8.0
 40
9.0
 40
9.0
 40
9.0
 40
10.0
 40
10.0
 40
10.0
 40
11.0
 40
11.0
 40
11.0
 40
12.0
 40
12.0
 40
12.0
 40
13.0
 40
13.0
 40
13.0
 40
14.0
 40
14.0
 40
14.0
 40
15.0
 40
15.0
 40
15.0
 40
16.0
 40
16.0
 40
16.0
 40
17.0
 40
17.0
 40
17.0
 40
18.0
 40
18.0
 40
18.0
 40
19.0
 40
19.0
 40
19.0
 40
20.0
 40
20.0
 40
20.0
 40
21.0
 40
21.0
 40
21.0
 40
22.0
 40
22.0
 40
22.0
 40
23.0
 40
23.0
 40
23.0
 40
24.0
 40
24.0
 40
24.0
 40
25.0
 40
25.0
 40
25.0
 40
26.0
 40
26.0
 40
26.0
 40
27.0
 40
27.0
 40
27.0
 40
28.0
 40
28.0
 40
28.0
 40
29.0
 40
29.0
 40
29.0
 40
30.0
 40
30.0
 40
30.0
 40
30.0
 10
111.8801532568106
 20
154.7052929975836
 30
0.0
 10
111.8801532568106
 20
154.7052929975836
 30
0.0
 10
111.8639607572237
 20
194.4180861510925
 30
0.0
 10
111.8639607572237
 20
194.4180861510925
 30
0.0
 10
111.8639607572237
 20
194.4180861510925
 30
0.0
 10
117.7009864416421
 20
194.4663461498613
 30
0.0
 10
117.7009864416421
 20
194.4663461498613
 30
0.0
 10
117.7009864416421
 20
194.4663461498613
 30
0.0
 10
117.749211162634
 20
201.0471684819705
 30
0.0
 10
117.749211162634
 20
201.0471684819705
 30
0.0
 10
117.749211162634
 20
201.0471684819705
 30
0.0
 10
111.8315757580499
 20
201.0309759823836
 30
0.0
 10
111.8315757580499
 20
201.0309759823836
 30
0.0
 10
111.8315757580499
 20
201.0309759823836
 30
0.0
 10
111.8477682576368
 20
233.5428340418259
 30
0.0
 10
111.8477682576368
 20
233.5428340418259
 30
0.0
 10
111.8477682576368
 20
233.5428340418259
 30
0.0
 10
111.2338643844099
 20
234.1247056936478
 30
0.0
 10
111.2338643844099
 20
234.1247056936478
 30
0.0
 10
111.2338643844099
 20
234.1247056936478
 30
0.0
 10
113.9975254250141
 20
234.0775393059622
 30
0.0
 10
113.9975254250141
 20
234.0775393059622
 30
0.0
 10
113.9975254250141
 20
234.0775393059622
 30
0.0
 10
113.9696207035038
 20
247.2763667470099
 30
0.0
 10
113.9696207035038
 20
247.2763667470099
 30
0.0
 10
113.9696207035038
 20
247.2763667470099
 30
0.0
 10
109.8761666391973
 20
247.2763667470099
 30
0.0
 10
109.8761666391973
 20
247.2763667470099
 30
0.0
 10
109.8761666391973
 20
247.2763667470099
 30
0.0
 10
109.8761666391973
 20
247.4713822975902
 30
0.0
 10
109.8761666391973
 20
247.4713822975902
 30
0.0
 10
109.8761666391973
 20
247.4713822975902
 30
0.0
 10
109.5695294268706
 20
247.8055334001763
 30
0.0
 10
109.5695294268706
 20
247.8055334001763
 30
0.0
 10
109.5695294268706
 20
247.8055334001763
 30
0.0
 10
98.57090637413556
 20
247.7776286786661
 30
0.0
 10
98.57090637413556
 20
247.7776286786661
 30
0.0
 10
98.57090637413556
 20
247.7776286786661
 30
0.0
 10
98.29217665902433
 20
247.5271917406108
 30
0.0
 10
98.29217665902433
 20
247.5271917406108
 30
0.0
 10
98.29217665902433
 20
247.5271917406108
 30
0.0
 10
98.23671999377248
 20
247.3042777159519
 30
0.0
 10
98.23671999377248
 20
247.3042777159519
 30
0.0
 10
98.23671999377248
 20
247.3042777159519
 30
0.0
 10
94.17116787527112
 20
247.2484620254995
 30
0.0
 10
94.17116787527112
 20
247.2484620254995
 30
0.0
 10
94.17116787527112
 20
247.2484620254995
 30
0.0
 10
94.17116787527112
 20
234.1247056936478
 30
0.0
 10
94.17116787527112
 20
234.1247056936478
 30
0.0
 10
94.17116787527112
 20
234.1247056936478
 30
0.0
 10
96.6650597560911
 20
234.0761281948871
 30
0.0
 10
96.6650597560911
 20
234.0761281948871
 30
0.0
 10
96.6650597560911
 20
234.0761281948871
 30
0.0
 10
96.17999032402181
 20
233.5104490426521
 30
0.0
 10
96.17999032402181
 20
233.5104490426521
 30
0.0
 10
96.17999032402181
 20
233.5104490426521
 30
0.0
 10
96.16379782443491
 20
201.1040009805206
 30
0.0
 10
96.16379782443491
 20
201.1040009805206
 30
0.0
 10
96.16379782443491
 20
201.1040009805206
 30
0.0
 10
90.29438714084271
 20
201.0226857048174
 30
0.0
 10
90.29438714084271
 20
201.0226857048174
 30
0.0
 10
90.29438714084271
 20
201.0226857048174
 30
0.0
 10
90.31057964042961
 20
194.514923648622
 30
0.0
 10
90.31057964042961
 20
194.514923648622
 30
0.0
 10
90.31057964042961
 20
194.514923648622
 30
0.0
 10
96.16379782443491
 20
194.4742483718819
 30
0.0
 10
96.16379782443491
 20
194.4742483718819
 30
0.0
 10
96.16379782443491
 20
194.4742483718819
 30
0.0
 10
96.18722226828175
 20
161.9597797569506
 30
0.0
 10
96.18722226828175
 20
161.9597797569506
 30
0.0
 10
96.18722226828175
 20
161.9597797569506
 30
0.0
 10
96.25065273705928
 20
159.572217571414
 30
0.0
 10
96.21064671212858
 20
157.9109493046894
 30
0.0
 10
96.21064671212858
 20
157.9109493046894
 30
0.0
 10
96.13970553152061
 20
154.6511768878531
 30
0.0
 10
96.13970553152061
 20
154.6511768878531
 30
0.0
 10
96.13970553152061
 20
154.6511768878531
 30
0.0
 10
96.51763392651892
 20
152.8325369342504
 30
0.0
 10
96.51763392651892
 20
152.8325369342504
 30
0.0
 10
96.51763392651892
 20
152.8325369342504
 30
0.0
 10
95.69097219829947
 20
152.2656230598248
 30
0.0
 10
96.63577920128254
 20
151.5097966902186
 30
0.0
 10
96.63577920128254
 20
151.5097966902186
 30
0.0
 10
111.3513393814129
 20
151.5097966902186
 30
0.0
 10
111.3513393814129
 20
151.5097966902186
 30
0.0
 10
111.3513393814129
 20
151.5097966902186
 30
0.0
 10
112.4375774092562
 20
151.9114694577488
 30
0.0
 10
111.5873124309482
 20
152.8089361015192
 30
0.0
 10
111.5873124309482
 20
152.8089361015192
 30
0.0
 10
111.8801532568106
 20
154.7052929975836
 30
0.0
 10
111.8801532568106
 20
154.7052929975836
 30
0.0
  0
HATCH
  5
7C
330
70
100
AcDbEntity
  8
grau 10%
 62
   255
440
 33554687
100
AcDbHatch
 10
0.0
 20
0.0
 30
0.0
210
0.0
220
0.0
230
1.0
  2
SOLID
 70
     1
 71
     1
 91
        1
 92
        1
 93
        1
 72
     4
 94
        3
 73
     0
 74
     0
 95
       95
 96
       91
 40
0.0
 40
0.0
 40
0.0
 40
0.0
 40
1.0
 40
1.0
 40
1.0
 40
2.0
 40
2.0
 40
2.0
 40
3.0
 40
3.0
 40
3.0
 40
4.0
 40
4.0
 40
4.0
 40
5.0
 40
5.0
 40
5.0
 40
6.0
 40
6.0
 40
6.0
 40
7.0
 40
7.0
 40
7.0
 40
8.0
 40
8.0
 40
8.0
 40
9.0
 40
9.0
 40
9.0
 40
10.0
 40
10.0
 40
10.0
 40
11.0
 40
11.0
 40
11.0
 40
12.0
 40
12.0
 40
12.0
 40
13.0
 40
13.0
 40
13.0
 40
14.0
 40
14.0
 40
14.0
 40
15.0
 40
15.0
 40
15.0
 40
16.0
 40
16.0
 40
16.0
 40
17.0
 40
17.0
 40
17.0
 40
18.0
 40
18.0
 40
18.0
 40
19.0
 40
19.0
 40
19.0
 40
20.0
 40
20.0
 40
20.0
 40
21.0
 40
21.0
 40
21.0
 40
22.0
 40
22.0
 40
22.0
 40
23.0
 40
23.0
 40
23.0
 40
24.0
 40
24.0
 40
24.0
 40
25.0
 40
25.0
 40
25.0
 40
26.0
 40
26.0
 40
26.0
 40
27.0
 40
27.0
 40
27.0
 40
28.0
 40
28.0
 40
28.0
 40
29.0
 40
29.0
 40
29.0
 40
30.0
 40
30.0
 40
30.0
 40
30.0
 10
111.8801532568106
 20
154.7052929975836
 10
111.8801532568106
 20
154.7052929975836
 10
111.8639607572237
 20
194.4180861510925
 10
111.8639607572237
 20
194.4180861510925
 10
111.8639607572237
 20
194.4180861510925
 10
117.7009864416421
 20
194.4663461498613
 10
117.7009864416421
 20
194.4663461498613
 10
117.7009864416421
 20
194.4663461498613
 10
117.749211162634
 20
201.0471684819705
 10
117.749211162634
 20
201.0471684819705
 10
117.749211162634
 20
201.0471684819705
 10
111.8315757580499
 20
201.0309759823836
 10
111.8315757580499
 20
201.0309759823836
 10
111.8315757580499
 20
201.0309759823836
 10
111.8477682576368
 20
233.5428340418259
 10
111.8477682576368
 20
233.5428340418259
 10
111.8477682576368
 20
233.5428340418259
 10
111.2338643844099
 20
234.1247056936478
 10
111.2338643844099
 20
234.1247056936478
 10
111.2338643844099
 20
234.1247056936478
 10
113.9975254250141
 20
234.0775393059622
 10
113.9975254250141
 20
234.0775393059622
 10
113.9975254250141
 20
234.0775393059622
 10
113.9696207035038
 20
247.2763667470099
 10
113.9696207035038
 20
247.2763667470099
 10
113.9696207035038
 20
247.2763667470099
 10
109.8761666391973
 20
247.2763667470099
 10
109.8761666391973
 20
247.2763667470099
 10
109.8761666391973
 20
247.2763667470099
 10
109.8761666391973
 20
247.4713822975902
 10
109.8761666391973
 20
247.4713822975902
 10
109.8761666391973
 20
247.4713822975902
 10
109.5695294268706
 20
247.8055334001763
 10
109.5695294268706
 20
247.8055334001763
 10
109.5695294268706
 20
247.8055334001763
 10
98.57090637413556
 20
247.7776286786661
 10
98.57090637413556
 20
247.7776286786661
 10
98.57090637413556
 20
247.7776286786661
 10
98.29217665902433
 20
247.5271917406108
 10
98.29217665902433
 20
247.5271917406108
 10
98.29217665902433
 20
247.5271917406108
 10
98.23671999377248
 20
247.3042777159519
 10
98.23671999377248
 20
247.3042777159519
 10
98.23671999377248
 20
247.3042777159519
 10
94.17116787527112
 20
247.2484620254995
 10
94.17116787527112
 20
247.2484620254995
 10
94.17116787527112
 20
247.2484620254995
 10
94.17116787527112
 20
234.1247056936478
 10
94.17116787527112
 20
234.1247056936478
 10
94.17116787527112
 20
234.1247056936478
 10
96.6650597560911
 20
234.0761281948871
 10
96.6650597560911
 20
234.0761281948871
 10
96.6650597560911
 20
234.0761281948871
 10
96.17999032402181
 20
233.5104490426521
 10
96.17999032402181
 20
233.5104490426521
 10
96.17999032402181
 20
233.5104490426521
 10
96.16379782443491
 20
201.1040009805206
 10
96.16379782443491
 20
201.1040009805206
 10
96.16379782443491
 20
201.1040009805206
 10
90.29438714084271
 20
201.0226857048174
 10
90.29438714084271
 20
201.0226857048174
 10
90.29438714084271
 20
201.0226857048174
 10
90.31057964042961
 20
194.514923648622
 10
90.31057964042961
 20
194.514923648622
 10
90.31057964042961
 20
194.514923648622
 10
96.16379782443491
 20
194.4742483718819
 10
96.16379782443491
 20
194.4742483718819
 10
96.16379782443491
 20
194.4742483718819
 10
96.18722226828175
 20
161.9597797569506
 10
96.18722226828175
 20
161.9597797569506
 10
96.18722226828175
 20
161.9597797569506
 10
96.25065273705928
 20
159.572217571414
 10
96.21064671212858
 20
157.9109493046894
 10
96.21064671212858
 20
157.9109493046894
 10
96.13970553152061
 20
154.6511768878531
 10
96.13970553152061
 20
154.6511768878531
 10
96.13970553152061
 20
154.6511768878531
 10
96.51763392651892
 20
152.8325369342504
 10
96.51763392651892
 20
152.8325369342504
 10
96.51763392651892
 20
152.8325369342504
 10
95.69097219829947
 20
152.2656230598248
 10
96.63577920128254
 20
151.5097966902186
 10
96.63577920128254
 20
151.5097966902186
 10
111.3513393814129
 20
151.5097966902186
 10
111.3513393814129
 20
151.5097966902186
 10
111.3513393814129
 20
151.5097966902186
 10
112.4375774092562
 20
151.9114694577488
 10
111.5873124309482
 20
152.8089361015192
 10
111.5873124309482
 20
152.8089361015192
 10
111.8801532568106
 20
154.7052929975836
 10
111.8801532568106
 20
154.7052929975836
 97
        0
 97
        1
330
7B
 75
     0
 76
     1
 98
        1
 10
0.0
 20
0.0
450
        0
451
        0
460
0.0
461
0.0
452
        0
462
0.0
453
        0
470

  0
LINE
  5
7E
330
70
100
AcDbEntity
  8
Standardebene
 62
     7
370
     9
100
AcDbLine
 10
54.58545638720984
 20
112.2288668962227
 30
0.0
 11
54.58545638720984
 21
112.7443709130212
 31
0.0
  0
LINE
  5
7F
330
70
100
AcDbEntity
  8
Standardebene
 62
     7
370
     9
100
AcDbLine
 10
54.58545638720984
 20
113.7756996533599
 30
0.0
 11
54.58545638720984
 21
114.8067718283046
 31
0.0
  0
LINE
  5
80
330
70
100
AcDbEntity
  8
Standardebene
 62
     7
370
     9
100
AcDbLine
 10
54.58545638720984
 20
115.8383571340366
 30
0.0
 11
54.58545638720984
 21
116.8694293089819
 31
0.0
  0
LINE
  5
81
330
70
100
AcDbEntity
  8
Standardebene
 62
     7
370
     9
100
AcDbLine
 10
54.58545638720984
 20
117.9007580493206
 30
0.0
 11
54.58545638720984
 21
118.9317660829176
 31
0.0
  0
LINE
  5
82
330
70
100
AcDbEntity
  8
Standardebene
 62
     7
370
     9
100
AcDbLine
 10
54.58545638720984
 20
119.9630948232563
 30
0.0
 11
54.58545638720984
 21
120.9944235635949
 31
0.0
  0
LINE
  5
83
330
70
100
AcDbEntity
  8
Standardebene
 62
     7
370
     9
100
AcDbLine
 10
54.58545638720984
 20
122.025752303933
 30
0.0
 11
54.58545638720984
 21
123.0568244788783
 31
0.0
  0
LINE
  5
84
330
70
100
AcDbEntity
  8
Standardebene
 62
     7
370
     9
100
AcDbLine
 10
54.58545638720984
 20
124.0878325124753
 30
0.0
 11
54.58545638720984
 21
125.120123373039
 31
0.0
  0
LINE
  5
85
330
70
100
AcDbEntity
  8
Standardebene
 62
     7
370
     9
100
AcDbLine
 10
54.58545638720984
 20
126.151131406636
 30
0.0
 11
54.58545638720984
 21
127.182139440233
 31
0.0
  0
LINE
  5
86
330
70
100
AcDbEntity
  8
Standardebene
 62
     7
370
     9
100
AcDbLine
 10
54.58545638720984
 20
128.21314747383
 30
0.0
 11
54.58545638720984
 21
129.2447969209103
 31
0.0
  0
LINE
  5
87
330
70
100
AcDbEntity
  8
Standardebene
 62
     7
370
     9
100
AcDbLine
 10
54.58545638720984
 20
130.276125661249
 30
0.0
 11
54.58545638720984
 21
131.307454401587
 31
0.0
  0
LINE
  5
88
330
70
100
AcDbEntity
  8
Standardebene
 62
     7
370
     9
100
AcDbLine
 10
54.58545638720984
 20
132.3385265765324
 30
0.0
 11
54.58545638720984
 21
133.3695421059346
 31
0.0
  0
LINE
  5
89
330
70
100
AcDbEntity
  8
Standardebene
 62
     7
370
     9
100
AcDbLine
 10
54.58545638720984
 20
134.4011840572097
 30
0.0
 11
54.58545638720984
 21
135.4321920908067
 31
0.0
  0
LINE
  5
8A
330
70
100
AcDbEntity
  8
Standardebene
 62
     7
370
     9
100
AcDbLine
 10
54.58545638720984
 20
136.4635208311454
 30
0.0
 11
54.58545638720984
 21
137.494849571484
 31
0.0
  0
LINE
  5
8B
330
70
100
AcDbEntity
  8
Standardebene
 62
     7
370
     9
100
AcDbLine
 10
54.58545638720984
 20
138.5261783118221
 30
0.0
 11
54.58545638720984
 21
139.5572581388879
 31
0.0
  0
LINE
  5
8C
330
70
100
AcDbEntity
  8
Standardebene
 62
     7
370
     9
100
AcDbLine
 10
54.58545638720984
 20
140.5885792271061
 30
0.0
 11
54.58545638720984
 21
141.6195872607031
 31
0.0
  0
LINE
  5
8D
330
70
100
AcDbEntity
  8
Standardebene
 62
     7
370
     9
100
AcDbLine
 10
54.58545638720984
 20
142.6509160010417
 30
0.0
 11
54.58545638720984
 21
143.6819240346381
 31
0.0
  0
LWPOLYLINE
  5
8E
330
70
100
AcDbEntity
  8
Standardebene
 62
     7
370
     9
100
AcDbPolyline
 90
        3
 70
     0
 43
0.0
 10
54.58545638720984
 20
144.7132527749768
 10
54.58545638720984
 20
145.2290774985169
 10
54.0852821526705
 20
145.2290774985169
  0
LINE
  5
8F
330
70
100
AcDbEntity
  8
Standardebene
 62
     7
370
     9
100
AcDbLine
 10
53.0849978249395
 20
145.2290774985169
 30
0.0
 11
52.08529076934418
 21
145.2290774985169
 31
0.0
  0
LINE
  5
90
330
70
100
AcDbEntity
  8
Standardebene
 62
     7
370
     9
100
AcDbLine
 10
51.08494230026549
 20
145.2290774985169
 30
0.0
 11
50.08555595141182
 21
145.2290774985169
 31
0.0
  0
LINE
  5
91
330
70
100
AcDbEntity
  8
Standardebene
 62
     7
370
     9
100
AcDbLine
 10
49.08520748233314
 20
145.2290774985169
 30
0.0
 11
48.08517971999548
 21
145.2290774985169
 31
0.0
  0
LINE
  5
92
330
70
100
AcDbEntity
  8
Standardebene
 62
     7
370
     9
100
AcDbLine
 10
47.08521609900681
 20
145.2290774985169
 30
0.0
 11
46.08486762992812
 21
145.2290774985169
 31
0.0
  0
LINE
  5
93
330
70
100
AcDbEntity
  8
Standardebene
 62
     7
370
     9
100
AcDbLine
 10
45.08548128107445
 20
145.2290774985169
 30
0.0
 11
44.08545351873744
 21
145.2290774985169
 31
0.0
  0
LWPOLYLINE
  5
94
330
70
100
AcDbEntity
  8
Standardebene
 62
     7
370
     9
100
AcDbPolyline
 90
        3
 70
     0
 43
0.0
 10
43.08478434291644
 20
145.2290774985169
 10
42.58525152186044
 20
145.2290774985169
 10
42.58525152186044
 20
144.7132527749768
  0
LINE
  5
95
330
70
100
AcDbEntity
  8
Standardebene
 62
     7
370
     9
100
AcDbLine
 10
42.58525152186044
 20
143.6819240346381
 30
0.0
 11
42.58525152186044
 21
142.6509160010417
 31
0.0
  0
LINE
  5
96
330
70
100
AcDbEntity
  8
Standardebene
 62
     7
370
     9
100
AcDbLine
 10
42.58525152186044
 20
141.6195872607031
 30
0.0
 11
42.58525152186044
 21
140.5885792271061
 31
0.0
  0
LINE
  5
97
330
70
100
AcDbEntity
  8
Standardebene
 62
     7
370
     9
100
AcDbLine
 10
42.58525152186044
 20
139.5572581388879
 30
0.0
 11
42.58525152186044
 21
138.5261783118221
 31
0.0
  0
LINE
  5
98
330
70
100
AcDbEntity
  8
Standardebene
 62
     7
370
     9
100
AcDbLine
 10
42.58525152186044
 20
137.494849571484
 30
0.0
 11
42.58525152186044
 21
136.4635208311454
 31
0.0
  0
LINE
  5
99
330
70
100
AcDbEntity
  8
Standardebene
 62
     7
370
     9
100
AcDbLine
 10
42.58525152186044
 20
135.4321920908067
 30
0.0
 11
42.58525152186044
 21
134.4011840572097
 31
0.0
  0
LINE
  5
9A
330
70
100
AcDbEntity
  8
Standardebene
 62
     7
370
     9
100
AcDbLine
 10
42.58525152186044
 20
133.3695421059346
 30
0.0
 11
42.58525152186044
 21
132.3385265765324
 31
0.0
  0
LINE
  5
9B
330
70
100
AcDbEntity
  8
Standardebene
 62
     7
370
     9
100
AcDbLine
 10
42.58525152186044
 20
131.307454401587
 30
0.0
 11
42.58525152186044
 21
130.276125661249
 31
0.0
  0
LINE
  5
9C
330
70
100
AcDbEntity
  8
Standardebene
 62
     7
370
     9
100
AcDbLine
 10
42.58525152186044
 20
129.2447969209103
 30
0.0
 11
42.58525152186044
 21
128.21314747383
 31
0.0
  0
LINE
  5
9D
330
70
100
AcDbEntity
  8
Standardebene
 62
     7
370
     9
100
AcDbLine
 10
42.58525152186044
 20
127.182139440233
 30
0.0
 11
42.58525152186044
 21
126.151131406636
 31
0.0
  0
LINE
  5
9E
330
70
100
AcDbEntity
  8
Standardebene
 62
     7
370
     9
100
AcDbLine
 10
42.58525152186044
 20
125.120123373039
 30
0.0
 11
42.58525152186044
 21
124.0878325124753
 31
0.0
  0
LINE
  5
9F
330
70
100
AcDbEntity
  8
Standardebene
 62
     7
370
     9
100
AcDbLine
 10
42.58525152186044
 20
123.0568244788783
 30
0.0
 11
42.58525152186044
 21
122.025752303933
 31
0.0
  0
LINE
  5
A0
330
70
100
AcDbEntity
  8
Standardebene
 62
     7
370
     9
100
AcDbLine
 10
42.58525152186044
 20
120.9944235635949
 30
0.0
 11
42.58525152186044
 21
119.9630948232563
 31
0.0
  0
LINE
  5
A1
330
70
100
AcDbEntity
  8
Standardebene
 62
     7
370
     9
100
AcDbLine
 10
42.58525152186044
 20
118.9317660829176
 30
0.0
 11
42.58525152186044
 21
117.9007580493206
 31
0.0
  0
LINE
  5
A2
330
70
100
AcDbEntity
  8
Standardebene
 62
     7
370
     9
100
AcDbLine
 10
42.58525152186044
 20
116.8694293089819
 30
0.0
 11
42.58525152186044
 21
115.8383571340366
 31
0.0
  0
LINE
  5
A3
330
70
100
AcDbEntity
  8
Standardebene
 62
     7
370
     9
100
AcDbLine
 10
42.58525152186044
 20
114.8067718283046
 30
0.0
 11
42.58525152186044
 21
113.7756996533599
 31
0.0
  0
LINE
  5
A4
330
70
100
AcDbEntity
  8
Standardebene
 62
     7
370
     9
100
AcDbLine
 10
42.58525152186044
 20
112.7443709130212
 30
0.0
 11
42.58525152186044
 21
112.2288668962227
 31
0.0
  0
LINE
  5
A5
330
70
100
AcDbEntity
  8
Standardebene
 62
     7
370
     9
100
AcDbLine
 10
42.58525152186044
 20
145.2290774985169
 30
0.0
 11
42.58525152186044
 21
145.6039836797026
 31
0.0
  0
LINE
  5
A6
330
70
100
AcDbEntity
  8
Standardebene
 62
     7
370
     9
100
AcDbLine
 10
42.58525152186044
 20
146.3540526074666
 30
0.0
 11
42.58525152186044
 21
147.1041856765789
 31
0.0
  0
LWPOLYLINE
  5
A7
330
70
100
AcDbEntity
  8
Standardebene
 62
     7
370
     9
100
AcDbPolyline
 90
        3
 70
     0
 43
0.0
 10
42.58525152186044
 20
147.8542546043436
 10
42.58525152186044
 20
148.2291686567194
 10
43.08478434291644
 20
148.2291686567194
  0
LINE
  5
A8
330
70
100
AcDbEntity
  8
Standardebene
 62
     7
370
     9
100
AcDbLine
 10
44.08545351873744
 20
148.2291686567194
 30
0.0
 11
45.08548128107445
 21
148.2291686567194
 31
0.0
  0
LINE
  5
A9
330
70
100
AcDbEntity
  8
Standardebene
 62
     7
370
     9
100
AcDbLine
 10
46.08486762992812
 20
148.2291686567194
 30
0.0
 11
47.08521609900681
 21
148.2291686567194
 31
0.0
  0
LINE
  5
AA
330
70
100
AcDbEntity
  8
Standardebene
 62
     7
370
     9
100
AcDbLine
 10
48.08517971999548
 20
148.2291686567194
 30
0.0
 11
49.08520748233314
 21
148.2291686567194
 31
0.0
  0
LINE
  5
AB
330
70
100
AcDbEntity
  8
Standardebene
 62
     7
370
     9
100
AcDbLine
 10
50.08555595141182
 20
148.2291686567194
 30
0.0
 11
51.08494230026549
 21
148.2291686567194
 31
0.0
  0
LINE
  5
AC
330
70
100
AcDbEntity
  8
Standardebene
 62
     7
370
     9
100
AcDbLine
 10
52.08529076934418
 20
148.2291686567194
 30
0.0
 11
53.0849978249395
 21
148.2291686567194
 31
0.0
  0
LINE
  5
AD
330
70
100
AcDbEntity
  8
Standardebene
 62
     7
370
     9
100
AcDbLine
 10
54.0852821526705
 20
148.2291686567194
 30
0.0
 11
54.58545638720984
 21
148.2291686567194
 31
0.0
  0
LINE
  5
AE
330
70
100
AcDbEntity
  8
Standardebene
 62
     7
370
     9
100
AcDbLine
 10
54.58545638720984
 20
145.2290774985169
 30
0.0
 11
54.58545638720984
 21
145.6039836797026
 31
0.0
  0
LINE
  5
AF
330
70
100
AcDbEntity
  8
Standardebene
 62
     7
370
     9
100
AcDbLine
 10
54.58545638720984
 20
146.3540526074666
 30
0.0
 11
54.58545638720984
 21
147.1041856765789
 31
0.0
  0
LINE
  5
B0
330
70
100
AcDbEntity
  8
Standardebene
 62
     7
370
     9
100
AcDbLine
 10
54.58545638720984
 20
147.8542546043436
 30
0.0
 11
54.58545638720984
 21
148.2291686567194
 31
0.0
  0
SPLINE
  5
B1
330
70
100
AcDbEntity
  8
Standardebene
 62
     7
370
     9
100
AcDbSpline
210
0.0
220
0.0
230
1.0
 70
     8
 71
     3
 72
    17
 73
    13
 74
     0
 42
0.0000000001
 43
0.0000000001
 40
0.0
 40
0.0
 40
0.0
 40
0.0
 40
1.0
 40
1.0
 40
1.0
 40
2.0
 40
2.0
 40
2.0
 40
3.0
 40
3.0
 40
3.0
 40
4.0
 40
4.0
 40
4.0
 40
4.0
 10
46.65296755238452
 20
196.7463822426014
 30
0.0
 10
46.60569537864035
 20
196.5684541422408
 30
0.0
 10
46.58343833075844
 20
196.3899487697446
 30
0.0
 10
46.58504186446746
 20
196.2289539853522
 30
0.0
 10
46.58504186446746
 20
195.1243758251821
 30
0.0
 10
47.48077579436535
 20
194.2289626020259
 30
0.0
 10
48.58503324779315
 20
194.2289626020259
 30
0.0
 10
49.6896755493116
 20
194.2289626020259
 30
0.0
 10
50.58508877246782
 20
195.1243758251821
 30
0.0
 10
50.58508877246782
 20
196.2289539853522
 30
0.0
 10
50.58508877246782
 20
197.1494464757184
 30
0.0
 10
49.96311011738552
 20
197.9246037972961
 30
0.0
 10
49.10246150504299
 20
198.1607631153675
 30
0.0
  0
SPLINE
  5
B2
330
70
100
AcDbEntity
  8
Standardebene
 62
     7
370
     9
100
AcDbSpline
210
0.0
220
0.0
230
1.0
 70
     9
 71
     3
 72
    17
 73
    13
 74
     0
 42
0.0000000001
 43
0.0000000001
 40
0.0
 40
0.0
 40
0.0
 40
0.0
 40
1.0
 40
1.0
 40
1.0
 40
2.0
 40
2.0
 40
2.0
 40
3.0
 40
3.0
 40
3.0
 40
4.0
 40
4.0
 40
4.0
 40
4.0
 10
67.58472689467059
 20
198.2381175814937
 30
0.0
 10
66.4754022747224
 20
198.2381175814937
 30
0.0
 10
65.57594814661914
 20
197.3382786053004
 30
0.0
 10
65.57594814661914
 20
196.2289539853522
 30
0.0
 10
65.57594814661914
 20
195.1193728000094
 30
0.0
 10
66.4754022747224
 20
194.2195338238168
 30
0.0
 10
67.58472689467059
 20
194.2195338238168
 30
0.0
 10
68.69469292810342
 20
194.2195338238168
 30
0.0
 10
69.59414705620604
 20
195.1193728000094
 30
0.0
 10
69.59414705620604
 20
196.2289539853522
 30
0.0
 10
69.59414705620604
 20
197.3382786053004
 30
0.0
 10
68.69469292810342
 20
198.2381175814937
 30
0.0
 10
67.58472689467059
 20
198.2381175814937
 30
0.0
  0
SPLINE
  5
B3
330
70
100
AcDbEntity
  8
Standardebene
 62
     7
370
     9
100
AcDbSpline
210
0.0
220
0.0
230
1.0
 70
     9
 71
     3
 72
    17
 73
    13
 74
     0
 42
0.0000000001
 43
0.0000000001
 40
0.0
 40
0.0
 40
0.0
 40
0.0
 40
1.0
 40
1.0
 40
1.0
 40
2.0
 40
2.0
 40
2.0
 40
3.0
 40
3.0
 40
3.0
 40
4.0
 40
4.0
 40
4.0
 40
4.0
 10
128.5637785012653
 20
132.1155071082723
 30
0.0
 10
127.2459303577866
 20
132.1155071082723
 30
0.0
 10
126.1766940805652
 20
131.0469122445342
 30
0.0
 10
126.1766940805652
 20
129.7289999597072
 30
0.0
 10
126.1766940805652
 20
128.4110876748801
 30
0.0
 10
127.2459303577866
 20
127.342492811142
 30
0.0
 10
128.5637785012653
 20
127.342492811142
 30
0.0
 10
129.8811135139574
 20
127.342492811142
 30
0.0
 10
130.9502856498305
 20
128.4110876748801
 30
0.0
 10
130.9502856498305
 20
129.7289999597072
 30
0.0
 10
130.9502856498305
 20
131.0469122445342
 30
0.0
 10
129.8811135139574
 20
132.1155071082723
 30
0.0
 10
128.5637785012653
 20
132.1155071082723
 30
0.0
  0
SPLINE
  5
B4
330
70
100
AcDbEntity
  8
Standardebene
 62
     7
370
     9
100
AcDbSpline
210
0.0
220
0.0
230
1.0
 70
     8
 71
     3
 72
     8
 73
     4
 74
     0
 42
0.0000000001
 43
0.0000000001
 40
0.0
 40
0.0
 40
0.0
 40
0.0
 40
1.0
 40
1.0
 40
1.0
 40
1.0
 10
130.0526916208303
 20
129.552354686314
 30
0.0
 10
130.0683421098311
 20
129.6760833473069
 30
0.0
 10
130.067123424212
 20
129.7978877678499
 30
0.0
 10
130.0526916208303
 20
129.9053245263587
 30
0.0
  0
LWPOLYLINE
  5
B5
330
70
100
AcDbEntity
  8
Standardebene
 62
     7
370
     9
100
AcDbPolyline
 90
        3
 70
     0
 43
0.0
 10
130.0526916208303
 20
129.552354686314
 10
130.0526916208303
 20
128.868992760848
 10
129.4614366716146
 20
128.5273117981147
  0
SPLINE
  5
B6
330
70
100
AcDbEntity
  8
Standardebene
 62
     7
370
     9
100
AcDbSpline
210
0.0
220
0.0
230
1.0
 70
     8
 71
     3
 72
     8
 73
     4
 74
     0
 42
0.0000000001
 43
0.0000000001
 40
0.0
 40
0.0
 40
0.0
 40
0.0
 40
1.0
 40
1.0
 40
1.0
 40
1.0
 10
129.1551023846692
 20
128.3509872314631
 30
0.0
 10
129.2697181813556
 20
128.4001195043097
 30
0.0
 10
129.374332720537
 20
128.4618234814356
 30
0.0
 10
129.4614366716146
 20
128.5273117981147
 30
0.0
  0
LWPOLYLINE
  5
B7
330
70
100
AcDbEntity
  8
Standardebene
 62
     7
370
     9
100
AcDbPolyline
 90
        3
 70
     0
 43
0.0
 10
129.1551023846692
 20
128.3503458179791
 10
128.5537724509212
 20
128.0030204165904
 10
127.0529931819092
 20
128.868992760848
  0
LINE
  5
B8
330
70
100
AcDbEntity
  8
Standardebene
 62
     7
370
     9
100
AcDbLine
 10
127.0529931819092
 20
130.6012581561041
 30
0.0
 11
127.0529931819092
 21
128.868992760848
 31
0.0
  0
LINE
  5
B9
330
70
100
AcDbEntity
  8
Standardebene
 62
     7
370
     9
100
AcDbLine
 10
128.5537724509212
 20
131.4669097936194
 30
0.0
 11
127.0529931819092
 21
130.6012581561041
 31
0.0
  0
LINE
  5
BA
330
70
100
AcDbEntity
  8
Standardebene
 62
     7
370
     9
100
AcDbLine
 10
130.0526916208303
 20
130.6012581561041
 30
0.0
 11
128.5537724509212
 21
131.4669097936194
 31
0.0
  0
LINE
  5
BB
330
70
100
AcDbEntity
  8
Standardebene
 62
     7
370
     9
100
AcDbLine
 10
130.0526916208303
 20
130.6012581561041
 30
0.0
 11
130.0526916208303
 21
129.9053245263587
 31
0.0
  0
SPLINE
  5
BC
330
70
100
AcDbEntity
  8
Standardebene
 62
     7
370
     9
100
AcDbSpline
210
0.0
220
0.0
230
1.0
 70
     8
 71
     3
 72
    14
 73
    10
 74
     0
 42
0.0000000001
 43
0.0000000001
 40
0.0
 40
0.0
 40
0.0
 40
0.0
 40
1.0
 40
1.0
 40
1.0
 40
2.0
 40
2.0
 40
2.0
 40
3.0
 40
3.0
 40
3.0
 40
3.0
 10
128.5637785012653
 20
131.2292019565835
 30
0.0
 10
127.7350722804078
 20
131.2292019565835
 30
0.0
 10
127.062999232254
 20
130.5577061805647
 30
0.0
 10
127.062999232254
 20
129.7289999597072
 30
0.0
 10
127.062999232254
 20
128.9006144455907
 30
0.0
 10
127.7350722804078
 20
128.2294393763142
 30
0.0
 10
128.5637785012653
 20
128.2294393763142
 30
0.0
 10
128.7773691913163
 20
128.2294393763142
 30
0.0
 10
128.9803765588874
 20
128.2736327653363
 30
0.0
 10
129.1551023846692
 20
128.3509872314631
 30
0.0
  0
SPLINE
  5
BD
330
70
100
AcDbEntity
  8
Standardebene
 62
     7
370
     9
100
AcDbSpline
210
0.0
220
0.0
230
1.0
 70
     8
 71
     3
 72
     8
 73
     4
 74
     0
 42
0.0000000001
 43
0.0000000001
 40
0.0
 40
0.0
 40
0.0
 40
0.0
 40
1.0
 40
1.0
 40
1.0
 40
1.0
 10
129.4614366716146
 20
128.5273117981147
 30
0.0
 10
129.8034383410896
 20
128.7834923434787
 30
0.0
 10
130.0063815673117
 20
129.1580778179227
 30
0.0
 10
130.0526916208303
 20
129.552354686314
 30
0.0
  0
SPLINE
  5
BE
330
70
100
AcDbEntity
  8
Standardebene
 62
     7
370
     9
100
AcDbSpline
210
0.0
220
0.0
230
1.0
 70
     8
 71
     3
 72
     8
 73
     4
 74
     0
 42
0.0000000001
 43
0.0000000001
 40
0.0
 40
0.0
 40
0.0
 40
0.0
 40
1.0
 40
1.0
 40
1.0
 40
1.0
 10
130.0526916208303
 20
129.9053245263587
 30
0.0
 10
129.9631502985146
 20
130.6666823314348
 30
0.0
 10
129.3179524753248
 20
131.2260590305138
 30
0.0
 10
128.5637785012653
 20
131.2292019565835
 30
0.0
  0
SPLINE
  5
BF
330
70
100
AcDbEntity
  8
Standardebene
 62
     7
370
     9
100
AcDbSpline
210
0.0
220
0.0
230
1.0
 70
     9
 71
     3
 72
    17
 73
    13
 74
     0
 42
0.0000000001
 43
0.0000000001
 40
0.0
 40
0.0
 40
0.0
 40
0.0
 40
1.0
 40
1.0
 40
1.0
 40
2.0
 40
2.0
 40
2.0
 40
3.0
 40
3.0
 40
3.0
 40
4.0
 40
4.0
 40
4.0
 40
4.0
 10
128.5637785012653
 20
120.1153022429229
 30
0.0
 10
127.2459303577866
 20
120.1153022429229
 30
0.0
 10
126.1766940805652
 20
119.0467073791849
 30
0.0
 10
126.1766940805652
 20
117.7291158010994
 30
0.0
 10
126.1766940805652
 20
116.4112105836742
 30
0.0
 10
127.2459303577866
 20
115.3426156929411
 30
0.0
 10
128.5637785012653
 20
115.3426156929411
 30
0.0
 10
129.8811135139574
 20
115.3426156929411
 30
0.0
 10
130.9502856498305
 20
116.4112105836742
 30
0.0
 10
130.9502856498305
 20
117.7291158010994
 30
0.0
 10
130.9502856498305
 20
119.0467073791849
 30
0.0
 10
129.8811135139574
 20
120.1153022429229
 30
0.0
 10
128.5637785012653
 20
120.1153022429229
 30
0.0
  0
SPLINE
  5
C0
330
70
100
AcDbEntity
  8
Standardebene
 62
     7
370
     9
100
AcDbSpline
210
0.0
220
0.0
230
1.0
 70
     8
 71
     3
 72
     8
 73
     4
 74
     0
 42
0.0000000001
 43
0.0000000001
 40
0.0
 40
0.0
 40
0.0
 40
0.0
 40
1.0
 40
1.0
 40
1.0
 40
1.0
 10
130.0526916208303
 20
117.5524705277062
 30
0.0
 10
130.0683421098311
 20
117.6761991886999
 30
0.0
 10
130.067123424212
 20
117.7980036092422
 30
0.0
 10
130.0526916208303
 20
117.905440367751
 30
0.0
  0
LWPOLYLINE
  5
C1
330
70
100
AcDbEntity
  8
Standardebene
 62
     7
370
     9
100
AcDbPolyline
 90
        3
 70
     0
 43
0.0
 10
130.0526916208303
 20
117.5524705277062
 10
130.0526916208303
 20
116.8691086022403
 10
129.4614366716146
 20
116.5267862260236
  0
SPLINE
  5
C2
330
70
100
AcDbEntity
  8
Standardebene
 62
     7
370
     9
100
AcDbSpline
210
0.0
220
0.0
230
1.0
 70
     8
 71
     3
 72
     8
 73
     4
 74
     0
 42
0.0000000001
 43
0.0000000001
 40
0.0
 40
0.0
 40
0.0
 40
0.0
 40
1.0
 40
1.0
 40
1.0
 40
1.0
 10
129.1551023846692
 20
116.3504616593721
 30
0.0
 10
129.2697181813556
 20
116.3995939322186
 30
0.0
 10
129.374332720537
 20
116.4616186160863
 30
0.0
 10
129.4614366716146
 20
116.527427639507
 30
0.0
  0
LWPOLYLINE
  5
C3
330
70
100
AcDbEntity
  8
Standardebene
 62
     7
370
     9
100
AcDbPolyline
 90
        3
 70
     0
 43
0.0
 10
129.1551023846692
 20
116.3504616593721
 10
128.5537724509212
 20
116.002815551241
 10
127.0529931819092
 20
116.8691086022403
  0
LINE
  5
C4
330
70
100
AcDbEntity
  8
Standardebene
 62
     7
370
     9
100
AcDbLine
 10
127.0529931819092
 20
118.6010532907547
 30
0.0
 11
127.0529931819092
 21
116.8691086022403
 31
0.0
  0
LINE
  5
C5
330
70
100
AcDbEntity
  8
Standardebene
 62
     7
370
     9
100
AcDbLine
 10
128.5537724509212
 20
119.4673463417533
 30
0.0
 11
127.0529931819092
 21
118.6010532907547
 31
0.0
  0
LINE
  5
C6
330
70
100
AcDbEntity
  8
Standardebene
 62
     7
370
     9
100
AcDbLine
 10
130.0526916208303
 20
118.6010532907547
 30
0.0
 11
128.5537724509212
 21
119.4673463417533
 31
0.0
  0
LINE
  5
C7
330
70
100
AcDbEntity
  8
Standardebene
 62
     7
370
     9
100
AcDbLine
 10
130.0526916208303
 20
118.6010532907547
 30
0.0
 11
130.0526916208303
 21
117.905440367751
 31
0.0
  0
SPLINE
  5
C8
330
70
100
AcDbEntity
  8
Standardebene
 62
     7
370
     9
100
AcDbSpline
210
0.0
220
0.0
230
1.0
 70
     8
 71
     3
 72
    14
 73
    10
 74
     0
 42
0.0000000001
 43
0.0000000001
 40
0.0
 40
0.0
 40
0.0
 40
0.0
 40
1.0
 40
1.0
 40
1.0
 40
2.0
 40
2.0
 40
2.0
 40
3.0
 40
3.0
 40
3.0
 40
3.0
 10
128.5637785012653
 20
119.2289970912348
 30
0.0
 10
127.7350722804078
 20
119.2289970912348
 30
0.0
 10
127.062999232254
 20
118.5571806084736
 30
0.0
 10
127.062999232254
 20
117.7291158010994
 30
0.0
 10
127.062999232254
 20
116.9007302869836
 30
0.0
 10
127.7350722804078
 20
116.2292345109648
 30
0.0
 10
128.5637785012653
 20
116.2292345109648
 30
0.0
 10
128.7773691913163
 20
116.2292345109648
 30
0.0
 10
128.9803765588874
 20
116.2740051721226
 30
0.0
 10
129.1551023846692
 20
116.3504616593721
 30
0.0
  0
SPLINE
  5
C9
330
70
100
AcDbEntity
  8
Standardebene
 62
     7
370
     9
100
AcDbSpline
210
0.0
220
0.0
230
1.0
 70
     8
 71
     3
 72
     8
 73
     4
 74
     0
 42
0.0000000001
 43
0.0000000001
 40
0.0
 40
0.0
 40
0.0
 40
0.0
 40
1.0
 40
1.0
 40
1.0
 40
1.0
 10
129.4614366716146
 20
116.527427639507
 30
0.0
 10
129.8034383410896
 20
116.7829667713877
 30
0.0
 10
130.0063815673117
 20
117.1575522458317
 30
0.0
 10
130.0526916208303
 20
117.5524705277062
 30
0.0
  0
SPLINE
  5
CA
330
70
100
AcDbEntity
  8
Standardebene
 62
     7
370
     9
100
AcDbSpline
210
0.0
220
0.0
230
1.0
 70
     8
 71
     3
 72
     8
 73
     4
 74
     0
 42
0.0000000001
 43
0.0000000001
 40
0.0
 40
0.0
 40
0.0
 40
0.0
 40
1.0
 40
1.0
 40
1.0
 40
1.0
 10
130.0526916208303
 20
117.905440367751
 30
0.0
 10
129.9631502985146
 20
118.6664774660854
 30
0.0
 10
129.3179524753248
 20
119.2268162853901
 30
0.0
 10
128.5637785012653
 20
119.2289970912348
 30
0.0
  0
LINE
  5
CB
330
70
100
AcDbEntity
  8
Standardebene
  6
AI-Linetype-0
 62
     7
370
     9
100
AcDbLine
 10
128.5637785012653
 20
224.8661417892566
 30
0.0
 11
128.5637785012653
 21
289.963388667537
 31
0.0
  0
LINE
  5
CD
330
70
100
AcDbEntity
  8
Standardebene
  6
AI-Linetype-1
 62
     7
370
     9
100
AcDbLine
 10
128.5637785012653
 20
110.5173191564878
 30
0.0
 11
128.5637785012653
 21
213.9145196869557
 31
0.0
  0
LINE
  5
CF
330
70
100
AcDbEntity
  8
Standardebene
  6
AI-Linetype-2
 62
     7
370
     9
100
AcDbLine
 10
48.58503324779315
 20
227.2999852529141
 30
0.0
 11
48.58503324779315
 21
289.963388667537
 31
0.0
  0
LINE
  5
D1
330
70
100
AcDbEntity
  8
Standardebene
  6
AI-Linetype-3
 62
     7
370
     9
100
AcDbLine
 10
48.58503324779315
 20
109.3412875342409
 30
0.0
 11
48.58503324779315
 21
217.3912373336567
 31
0.0
  0
LINE
  5
D3
330
70
100
AcDbEntity
  8
Standardebene
  6
AI-Linetype-4
 62
     7
370
     9
100
AcDbLine
 10
-5.504787164064793
 20
274.2286820764133
 30
0.0
 11
50.46918535597491
 21
274.2286820764133
 31
0.0
  0
LINE
  5
D5
330
70
100
AcDbEntity
  8
Standardebene
  6
AI-Linetype-5
 62
     7
370
     9
100
AcDbLine
 10
106.2505427979239
 20
274.2286820764133
 30
0.0
 11
148.5835761525183
 21
274.2286820764133
 31
0.0
  0
LINE
  5
D7
330
70
100
AcDbEntity
  8
Standardebene
 62
     7
370
    35
100
AcDbLine
 10
34.33487816454506
 20
126.2288065795045
 30
0.0
 11
34.33487816454506
 21
121.2262303965808
 31
0.0
  0
LINE
  5
D8
330
70
100
AcDbEntity
  8
Standardebene
 62
     7
370
    35
100
AcDbLine
 10
34.33487816454506
 20
261.2290908622103
 30
0.0
 11
34.33487816454506
 21
202.2278469677196
 31
0.0
  0
LINE
  5
D9
330
70
100
AcDbEntity
  8
Standardebene
 62
     7
370
    35
100
AcDbLine
 10
34.33487816454506
 20
190.2289246262201
 30
0.0
 11
34.33487816454506
 21
133.2185458760811
 31
0.0
  0
LINE
  5
DA
330
70
100
AcDbEntity
  8
Standardebene
 62
     7
370
    35
100
AcDbLine
 10
62.83518833104189
 20
117.7291158010994
 30
0.0
 11
62.83518833104189
 21
190.2276417992201
 31
0.0
  0
LWPOLYLINE
  5
DB
330
70
100
AcDbEntity
  8
Standardebene
 62
     7
370
    35
100
AcDbPolyline
 90
        3
 70
     0
 43
0.0
 10
62.83518833104189
 20
202.2278469677196
 10
62.83518833104189
 20
261.2290908622103
 10
61.83490709550006
 20
262.2287979178056
  0
LINE
  5
DC
330
70
100
AcDbEntity
  8
Standardebene
 62
     7
370
    35
100
AcDbLine
 10
35.3352266336244
 20
262.2287979178056
 30
0.0
 11
34.33487816454506
 21
261.2290908622103
 31
0.0
  0
LINE
  5
DD
330
70
100
AcDbEntity
  8
Standardebene
 62
     7
370
    35
100
AcDbLine
 10
62.43808924332265
 20
114.496391843573
 30
0.0
 11
62.83518833104189
 21
117.7291158010994
 31
0.0
  0
LINE
  5
DE
330
70
100
AcDbEntity
  8
Standardebene
 62
     7
370
    35
100
AcDbLine
 10
62.70427583903149
 20
113.9739605611517
 30
0.0
 11
62.43808924332265
 21
114.496391843573
 31
0.0
  0
LINE
  5
DF
330
70
100
AcDbEntity
  8
Standardebene
 62
     7
370
    35
100
AcDbLine
 10
34.59702385530751
 20
114.2304618132574
 30
0.0
 11
34.46579305734214
 21
113.9739605611517
 31
0.0
  0
LINE
  5
E0
330
70
100
AcDbEntity
  8
Standardebene
 62
     7
370
    35
100
AcDbLine
 10
61.08509471418772
 20
262.2287979178056
 30
0.0
 11
61.08509471418772
 21
286.2292076485044
 31
0.0
  0
LINE
  5
E1
330
70
100
AcDbEntity
  8
Standardebene
 62
     7
370
    35
100
AcDbLine
 10
4.085433428172886
 20
268.2292210572224
 30
0.0
 11
5.085140483768223
 21
269.2289281128176
 31
0.0
  0
LINE
  5
E2
330
70
100
AcDbEntity
  8
Standardebene
 62
     7
370
    35
100
AcDbLine
 10
5.085140483768223
 20
279.2284360400091
 30
0.0
 11
4.085433428172886
 21
280.2291052158294
 31
0.0
  0
LINE
  5
E3
330
70
100
AcDbEntity
  8
Standardebene
 62
     7
370
    35
100
AcDbLine
 10
9.085187391768577
 20
268.2292210572224
 30
0.0
 11
20.58489731583632
 21
268.2292210572224
 31
0.0
  0
LWPOLYLINE
  5
E4
330
70
100
AcDbEntity
  8
Standardebene
 62
     7
370
    35
100
AcDbPolyline
 90
        3
 70
     0
 43
0.0
 10
20.58489731583632
 20
280.2291052158294
 10
9.085187391768577
 20
280.2291052158294
 10
8.085159629431565
 20
279.2284360400091
  0
LINE
  5
E5
330
70
100
AcDbEntity
  8
Standardebene
 62
     7
370
    35
100
AcDbLine
 10
8.085159629431565
 20
269.2289281128176
 30
0.0
 11
9.085187391768577
 21
268.2292210572224
 31
0.0
  0
LINE
  5
E6
330
70
100
AcDbEntity
  8
Standardebene
 62
     7
370
    35
100
AcDbLine
 10
-0.7145187232130665
 20
268.2292210572224
 30
0.0
 11
4.085433428172886
 21
268.2292210572224
 31
0.0
  0
LINE
  5
E7
330
70
100
AcDbEntity
  8
Standardebene
 62
     7
370
    35
100
AcDbLine
 10
4.085433428172886
 20
280.2291052158294
 30
0.0
 11
-0.7145187232130665
 21
280.2291052158294
 31
0.0
  0
LINE
  5
E8
330
70
100
AcDbEntity
  8
Standardebene
 62
     7
370
    35
100
AcDbLine
 10
5.085140483768223
 20
269.2289281128176
 30
0.0
 11
8.085159629431565
 21
269.2289281128176
 31
0.0
  0
LINE
  5
E9
330
70
100
AcDbEntity
  8
Standardebene
 62
     7
370
    35
100
AcDbLine
 10
8.085159629431565
 20
279.2284360400091
 30
0.0
 11
5.085140483768223
 21
279.2284360400091
 31
0.0
  0
LINE
  5
EA
330
70
100
AcDbEntity
  8
Standardebene
 62
     7
370
    35
100
AcDbLine
 10
27.58470903106223
 20
282.7286935615594
 30
0.0
 11
26.82585051161626
 21
284.0440401924524
 31
0.0
  0
LINE
  5
EB
330
70
100
AcDbEntity
  8
Standardebene
 62
     7
370
    35
100
AcDbLine
 10
22.14462248399462
 20
284.0440401924524
 30
0.0
 11
21.38512477802086
 21
282.7286935615594
 31
0.0
  0
LINE
  5
EC
330
70
100
AcDbEntity
  8
Standardebene
 62
     7
370
    35
100
AcDbLine
 10
21.38512477802086
 20
265.7289912980083
 30
0.0
 11
22.14462248399462
 21
264.4136446671153
 31
0.0
  0
LINE
  5
ED
330
70
100
AcDbEntity
  8
Standardebene
 62
     7
370
    35
100
AcDbLine
 10
26.82585051161626
 20
264.4136446671153
 30
0.0
 11
27.58470903106223
 21
265.7289912980083
 31
0.0
  0
LINE
  5
EE
330
70
100
AcDbEntity
  8
Standardebene
 62
     7
370
    35
100
AcDbLine
 10
59.08510025761453
 20
286.6288082488093
 30
0.0
 11
58.58492602307518
 21
287.128661776607
 31
0.0
  0
LWPOLYLINE
  5
EF
330
70
100
AcDbEntity
  8
Standardebene
 62
     7
370
    35
100
AcDbPolyline
 90
        3
 70
     0
 43
0.0
 10
38.58456320037674
 20
287.128661776607
 10
38.08470967257907
 20
286.6288082488093
 10
38.08470967257907
 20
286.2292076485044
  0
LINE
  5
F0
330
70
100
AcDbEntity
  8
Standardebene
 62
     7
370
    35
100
AcDbLine
 10
59.08510025761453
 20
286.2292076485044
 30
0.0
 11
59.08510025761453
 21
286.6288082488093
 31
0.0
  0
SPLINE
  5
F1
330
70
100
AcDbEntity
  8
Standardebene
 62
     7
370
    35
100
AcDbSpline
210
0.0
220
0.0
230
1.0
 70
     8
 71
     3
 72
    11
 73
     7
 74
     0
 42
0.0000000001
 43
0.0000000001
 40
0.0
 40
0.0
 40
0.0
 40
0.0
 40
1.0
 40
1.0
 40
1.0
 40
2.0
 40
2.0
 40
2.0
 40
2.0
 10
34.46579305734214
 20
113.9739605611517
 30
0.0
 10
34.37560792075583
 20
113.7964173088811
 30
0.0
 10
34.33333877218438
 20
113.6075210379501
 30
0.0
 10
34.33487816454506
 20
113.4293363721962
 30
0.0
 10
34.33487816454506
 20
112.7663072541615
 30
0.0
 10
34.8723185224838
 20
112.2288668962227
 30
0.0
 10
35.53534764051854
 20
112.2288668962227
 30
0.0
  0
SPLINE
  5
F2
330
70
100
AcDbEntity
  8
Standardebene
 62
     7
370
    35
100
AcDbSpline
210
0.0
220
0.0
230
1.0
 70
     8
 71
     3
 72
    11
 73
     7
 74
     0
 42
0.0000000001
 43
0.0000000001
 40
0.0
 40
0.0
 40
0.0
 40
0.0
 40
1.0
 40
1.0
 40
1.0
 40
2.0
 40
2.0
 40
2.0
 40
2.0
 10
61.63503956181008
 20
112.2288668962227
 30
0.0
 10
62.29806867984482
 20
112.2288668962227
 30
0.0
 10
62.83518833104189
 20
112.7663072541615
 30
0.0
 10
62.83518833104189
 20
113.4293363721962
 30
0.0
 10
62.83518833104189
 20
113.6279179867297
 30
0.0
 10
62.78637676493703
 20
113.8152107239517
 30
0.0
 10
62.70427583903149
 20
113.9739605611517
 30
0.0
  0
SPLINE
  5
F3
330
70
100
AcDbEntity
  8
Standardebene
 62
     7
370
    35
100
AcDbSpline
210
0.0
220
0.0
230
1.0
 70
     8
 71
     3
 72
     8
 73
     4
 74
     0
 42
0.0000000001
 43
0.0000000001
 40
0.0
 40
0.0
 40
0.0
 40
0.0
 40
1.0
 40
1.0
 40
1.0
 40
1.0
 10
21.38512477802086
 20
267.4289935950378
 30
0.0
 10
21.38512477802086
 20
267.8709274852632
 30
0.0
 10
21.02715191280337
 20
268.2292210572224
 30
0.0
 10
20.58489731583632
 20
268.2292210572224
 30
0.0
  0
SPLINE
  5
F4
330
70
100
AcDbEntity
  8
Standardebene
 62
     7
370
    35
100
AcDbSpline
210
0.0
220
0.0
230
1.0
 70
     8
 71
     3
 72
     8
 73
     4
 74
     0
 42
0.0000000001
 43
0.0000000001
 40
0.0
 40
0.0
 40
0.0
 40
0.0
 40
1.0
 40
1.0
 40
1.0
 40
1.0
 10
20.58489731583632
 20
280.2291052158294
 30
0.0
 10
21.02715191280337
 20
280.2291052158294
 30
0.0
 10
21.38512477802086
 20
280.5870780810469
 30
0.0
 10
21.38512477802086
 20
281.0287024905201
 30
0.0
  0
SPLINE
  5
F5
330
70
100
AcDbEntity
  8
Standardebene
 62
     7
370
    35
100
AcDbSpline
210
0.0
220
0.0
230
1.0
 70
     8
 71
     3
 72
     8
 73
     4
 74
     0
 42
0.0000000001
 43
0.0000000001
 40
0.0
 40
0.0
 40
0.0
 40
0.0
 40
1.0
 40
1.0
 40
1.0
 40
1.0
 10
-1.914988229512599
 20
269.4287393459201
 30
0.0
 10
-1.914988229512599
 20
268.7660200016771
 30
0.0
 10
-1.377547857997436
 20
268.2292210572224
 30
0.0
 10
-0.7145187232130665
 20
268.2292210572224
 30
0.0
  0
SPLINE
  5
F6
330
70
100
AcDbEntity
  8
Standardebene
 62
     7
370
    35
100
AcDbSpline
210
0.0
220
0.0
230
1.0
 70
     8
 71
     3
 72
     8
 73
     4
 74
     0
 42
0.0000000001
 43
0.0000000001
 40
0.0
 40
0.0
 40
0.0
 40
0.0
 40
1.0
 40
1.0
 40
1.0
 40
1.0
 10
-0.7145187232130665
 20
280.2291052158294
 30
0.0
 10
-1.377547857997436
 20
280.2291052158294
 30
0.0
 10
-1.914988229512599
 20
279.6916648578906
 30
0.0
 10
-1.914988229512599
 20
279.0286357398559
 30
0.0
  0
LWPOLYLINE
  5
F7
330
70
100
AcDbEntity
  8
Standardebene
 62
     7
370
    35
100
AcDbPolyline
 90
        6
 70
     0
 43
0.0
 10
59.32967121892481
 20
262.2287979178056
 10
60.21289758589158
 20
262.2287979178056
 10
60.91377009946137
 20
262.2287979178056
 10
61.42337311220983
 20
262.2287979178056
 10
61.73182885649078
 20
262.2287979178056
 10
61.83490709550006
 20
262.2287979178056
  0
LWPOLYLINE
  5
F8
330
70
100
AcDbEntity
  8
Standardebene
 62
     7
370
    35
100
AcDbPolyline
 90
        9
 70
     0
 43
0.0
 10
34.77212973634006
 20
117.7291158010994
 10
34.76712671116735
 20
118.0852285672146
 10
34.76712671116735
 20
118.0852285672146
 10
34.69567324909057
 20
119.184803702212
 10
34.56354207146118
 20
120.1353784849608
 10
34.49086992376539
 20
120.5274745475073
 10
34.42544574843469
 20
120.8415747304443
 10
34.37407092686531
 20
121.066775004549
 10
34.33737967713142
 20
121.2211704189717
  0
LWPOLYLINE
  5
F9
330
70
100
AcDbEntity
  8
Standardebene
 62
     7
370
    35
100
AcDbPolyline
 90
       25
 70
     0
 43
0.0
 10
34.77212973634006
 20
117.7291158010994
 10
35.29295748505229
 20
117.7291158010994
 10
36.0070431163849
 20
117.7291158010994
 10
36.9039957319018
 20
117.7291158010994
 10
37.97040978979519
 20
117.7291158010994
 10
39.19063480106423
 20
117.7291158010994
 10
40.54735260165201
 20
117.7291158010994
 10
42.02119250435108
 20
117.7291158010994
 10
43.58996160262849
 20
117.7291158010994
 10
45.23108214186001
 20
117.7291158010994
 10
46.92076039722823
 20
117.7291158010994
 10
48.63544834760702
 20
117.7291158010994
 10
50.34859962105096
 20
117.7291158010994
 10
52.03609435514931
 20
117.7291158010994
 10
53.67471338179512
 20
117.7291158010994
 10
55.23815874815814
 20
117.7291158010994
 10
56.70545623332446
 20
117.7291158010994
 10
58.05499020289487
 20
117.7291158010994
 10
59.26642784943815
 20
117.7291158010994
 10
60.3230954763779
 20
117.7291158010994
 10
61.21035969429454
 20
117.7291158010994
 10
61.91283574157272
 20
117.7291158010994
 10
62.42275946106349
 20
117.7291158010994
 10
62.73121520534444
 20
117.7291158010994
 10
62.83518833104189
 20
117.7291158010994
  0
LWPOLYLINE
  5
FA
330
70
100
AcDbEntity
  8
Standardebene
 62
     7
370
    35
100
AcDbPolyline
 90
       17
 70
     0
 43
0.0
 10
34.33487816454506
 20
126.2288065795045
 10
34.33487816454506
 20
126.2293838516395
 10
34.34680845534053
 20
126.277361580216
 10
34.34680845534053
 20
126.277361580216
 10
34.38029023918686
 20
126.4194988081895
 10
34.49773304804046
 20
126.9669525505348
 10
34.64154035629859
 20
127.8273372634222
 10
34.70292122145565
 20
128.3528473305655
 10
34.74801499727111
 20
128.9194152440471
 10
34.76994893049538
 20
129.4984759536881
 10
34.76712671116735
 20
130.0851127258216
 10
34.69567324909057
 20
131.185329274303
 10
34.56354207146118
 20
132.1352626435679
 10
34.49086992376539
 20
132.5276794128567
 10
34.42544574843469
 20
132.8412023236581
 10
34.37407092686531
 20
133.0669798698978
 10
34.33737967713142
 20
133.2207341739712
  0
LWPOLYLINE
  5
FB
330
70
100
AcDbEntity
  8
Standardebene
 62
     7
370
    35
100
AcDbPolyline
 90
       27
 70
     0
 43
0.0
 10
62.83518833104189
 20
261.2290908622103
 10
62.73121520534444
 20
261.2290908622103
 10
62.42115903435341
 20
261.2290908622103
 10
61.909115543368
 20
261.2290908622103
 10
61.20317586327781
 20
261.2290908622103
 10
60.31244495855197
 20
261.2290908622103
 10
59.25103392583129
 20
261.2290908622103
 10
58.03491396085699
 20
261.2290908622103
 10
56.6800562593722
 20
261.2290908622103
 10
55.20775574903382
 20
261.2290908622103
 10
53.63840937862075
 20
261.2290908622103
 10
51.99568530568022
 20
261.2290908622103
 10
50.3031875464098
 20
261.2290908622103
 10
48.58503324779315
 20
261.2290908622103
 10
46.86752307674198
 20
261.2290908622103
 10
45.1747018966484
 20
261.2290908622103
 10
43.53236267179787
 20
261.2290908622103
 10
41.96295216003647
 20
261.2290908622103
 10
40.49033094295642
 20
261.2290908622103
 10
39.13579394821331
 20
261.2290908622103
 10
37.91871186301398
 20
261.2290908622103
 10
36.85794224377664
 20
261.2290908622103
 10
35.96753204579249
 20
261.2290908622103
 10
35.26101509356728
 20
261.2290908622103
 10
34.74891056823247
 20
261.2290908622103
 10
34.43917199698418
 20
261.2290908622103
 10
34.33487816454506
 20
261.2290908622103
  0
LWPOLYLINE
  5
FC
330
70
100
AcDbEntity
  8
Standardebene
 62
     7
370
    35
100
AcDbPolyline
 90
        8
 70
     0
 43
0.0
 10
34.79746556894334
 20
114.496391843573
 10
34.82504634873964
 20
114.7672677835851
 10
34.85198571505258
 20
115.1211927179833
 10
34.87360134945114
 20
115.5508756106709
 10
34.88078759173801
 20
116.0413645016078
 10
34.86891903102075
 20
116.5759826402185
 10
34.83351300672372
 20
117.1412603433468
 10
34.77212973634006
 20
117.7291158010994
  0
LWPOLYLINE
  5
FD
330
70
100
AcDbEntity
  8
Standardebene
 62
     7
370
    35
100
AcDbPolyline
 90
       26
 70
     0
 43
0.0
 10
34.79746556894334
 20
114.496391843573
 10
35.06243347903382
 20
114.496391843573
 10
35.52720168927677
 20
114.496391843573
 10
36.18651060910615
 20
114.496391843573
 10
37.02894307851381
 20
114.496391843573
 10
38.0421198172653
 20
114.496391843573
 10
39.21250700085677
 20
114.496391843573
 10
40.52137790932799
 20
114.496391843573
 10
41.9491643599718
 20
114.496391843573
 10
43.4756617198446
 20
114.496391843573
 10
45.07733799868915
 20
114.496391843573
 10
46.73160484547803
 20
114.496391843573
 10
48.41345514092097
 20
114.496391843573
 10
50.09742210085896
 20
114.496391843573
 10
51.75861888212835
 20
114.496391843573
 10
53.37312076178924
 20
114.496391843573
 10
54.91713129959837
 20
114.496391843573
 10
56.36691819666086
 20
114.496391843573
 10
57.70234106959176
 20
114.496391843573
 10
58.9015277185979
 20
114.496391843573
 10
59.94850999247144
 20
114.496391843573
 10
60.82673028973147
 20
114.496391843573
 10
61.52388260509589
 20
114.496391843573
 10
62.02938057154963
 20
114.496391843573
 10
62.3350140965019
 20
114.496391843573
 10
62.43808924332265
 20
114.496391843573
  0
LWPOLYLINE
  5
FE
330
70
100
AcDbEntity
  8
Standardebene
 62
     7
370
    35
100
AcDbPolyline
 90
        3
 70
     0
 43
0.0
 10
34.79746556894334
 20
114.496391843573
 10
34.61491929150071
 20
114.253937546759
 10
34.62146170903411
 20
114.2624042047431
  0
LWPOLYLINE
  5
FF
330
70
100
AcDbEntity
  8
Standardebene
 62
     7
370
    35
100
AcDbPolyline
 90
       26
 70
     0
 43
0.0
 10
35.53534764051854
 20
112.2288668962227
 10
35.6377813738553
 20
112.2288668962227
 10
35.94533913925892
 20
112.2288668962227
 10
36.45115781245432
 20
112.2288668962227
 10
37.14888739995376
 20
112.2288668962227
 10
38.02743144849014
 20
112.2288668962227
 10
39.07190916524328
 20
112.2288668962227
 10
40.26705490930302
 20
112.2288668962227
 10
41.59215102514684
 20
112.2288668962227
 10
43.02840409770483
 20
112.2288668962227
 10
44.55272324156611
 20
112.2288668962227
 10
46.13932363468838
 20
112.2288668962227
 10
47.76543509840306
 20
112.2288668962227
 10
49.40437483179054
 20
112.2288668962227
 10
51.03042215415624
 20
112.2288668962227
 10
52.61798466750418
 20
112.2288668962227
 10
54.14134169114043
 20
112.2288668962227
 10
55.57765890504676
 20
112.2288668962227
 10
56.90372010873239
 20
112.2288668962227
 10
58.09822147169199
 20
112.2288668962227
 10
59.14269918844514
 20
112.2288668962227
 10
60.02117909563319
 20
112.2288668962227
 10
60.71833141099697
 20
112.2288668962227
 10
61.22543291115972
 20
112.2288668962227
 10
61.5320285563383
 20
112.2288668962227
 10
61.63503956181008
 20
112.2288668962227
  0
LINE
  5
100
330
70
100
AcDbEntity
  8
Standardebene
 62
     7
370
    35
100
AcDbLine
 10
48.83499208236615
 20
202.0289354111318
 30
0.0
 11
48.83499208236615
 21
202.2290564180266
 31
0.0
  0
LWPOLYLINE
  5
101
330
70
100
AcDbEntity
  8
Standardebene
 62
     7
370
    35
100
AcDbPolyline
 90
        3
 70
     0
 43
0.0
 10
48.3354592613108
 20
202.0289354111318
 10
48.58503324779315
 20
202.0289354111318
 10
48.83499208236615
 20
202.0289354111318
  0
LINE
  5
102
330
70
100
AcDbEntity
  8
Standardebene
 62
     7
370
    35
100
AcDbLine
 10
48.3354592613108
 20
202.2290564180266
 30
0.0
 11
48.3354592613108
 21
202.0289354111318
 31
0.0
  0
LWPOLYLINE
  5
103
330
70
100
AcDbEntity
  8
Standardebene
 62
     7
370
    35
100
AcDbPolyline
 90
       16
 70
     0
 43
0.0
 10
48.3354592613108
 20
202.2290564180266
 10
45.8017477182511
 20
202.2290564180266
 10
43.29837503296738
 20
202.2290564180266
 10
40.84862451491558
 20
202.2290564180266
 10
38.47840926883463
 20
202.2290564180266
 10
36.21248785519343
 20
202.2290564180266
 10
34.07369459400828
 20
202.2290564180266
 10
32.08524865338805
 20
202.2290564180266
 10
32.08524865338805
 20
190.2289246262201
 10
34.07369459400828
 20
190.2289246262201
 10
36.21248785519343
 20
190.2289246262201
 10
38.47840926883463
 20
190.2289246262201
 10
40.84862451491558
 20
190.2289246262201
 10
43.29837503296738
 20
190.2289246262201
 10
45.8017477182511
 20
190.2289246262201
 10
48.3354592613108
 20
190.2289246262201
  0
LINE
  5
104
330
70
100
AcDbEntity
  8
Standardebene
 62
     7
370
    35
100
AcDbLine
 10
48.3354592613108
 20
190.4290456381696
 30
0.0
 11
48.3354592613108
 21
190.2289246262201
 31
0.0
  0
LWPOLYLINE
  5
105
330
70
100
AcDbEntity
  8
Standardebene
 62
     7
370
    35
100
AcDbPolyline
 90
        3
 70
     0
 43
0.0
 10
48.83499208236615
 20
190.4290456381696
 10
48.58503324779315
 20
190.4290456381696
 10
48.3354592613108
 20
190.4290456381696
  0
LINE
  5
106
330
70
100
AcDbEntity
  8
Standardebene
 62
     7
370
    35
100
AcDbLine
 10
48.83499208236615
 20
190.2289246262201
 30
0.0
 11
48.83499208236615
 21
190.4290456381696
 31
0.0
  0
LWPOLYLINE
  5
107
330
70
100
AcDbEntity
  8
Standardebene
 62
     7
370
    35
100
AcDbPolyline
 90
       17
 70
     0
 43
0.0
 10
48.83499208236615
 20
190.2289246262201
 10
51.20674672080779
 20
190.2289246262201
 10
53.55444835361286
 20
190.2289246262201
 10
55.85699447717009
 20
190.2289246262201
 10
58.09475783887997
 20
190.2289246262201
 10
60.24573795625393
 20
190.2289246262201
 10
62.29216767579543
 20
190.2289246262201
 10
64.21416317951095
 20
190.2289246262201
 10
65.99530428222029
 20
190.2289246262201
 10
67.61917403705369
 20
190.2289246262201
 10
69.07177991513311
 20
190.2289246262201
 10
70.33953366553966
 20
190.2289246262201
 10
71.4100527697284
 20
190.2289246262201
 10
72.2750629937603
 20
190.2289246262201
 10
72.92648252774125
 20
190.2289246262201
 10
73.35744824739619
 20
190.2289246262201
 10
73.56481722665606
 20
190.2289246262201
  0
LINE
  5
108
330
70
100
AcDbEntity
  8
Standardebene
 62
     7
370
    35
100
AcDbLine
 10
73.56481722665606
 20
202.2290564180266
 30
0.0
 11
73.56481722665606
 21
190.2289246262201
 31
0.0
  0
LWPOLYLINE
  5
109
330
70
100
AcDbEntity
  8
Standardebene
 62
     7
370
    35
100
AcDbPolyline
 90
       17
 70
     0
 43
0.0
 10
73.56481722665606
 20
202.2290564180266
 10
73.35744824739619
 20
202.2290564180266
 10
72.92648252774125
 20
202.2290564180266
 10
72.2750629937603
 20
202.2290564180266
 10
71.4100527697284
 20
202.2290564180266
 10
70.33953366553966
 20
202.2290564180266
 10
69.07177991513311
 20
202.2290564180266
 10
67.61917403705369
 20
202.2290564180266
 10
65.99530428222029
 20
202.2290564180266
 10
64.21416317951095
 20
202.2290564180266
 10
62.29216767579543
 20
202.2290564180266
 10
60.24573795625393
 20
202.2290564180266
 10
58.09475783887997
 20
202.2290564180266
 10
55.85699447717009
 20
202.2290564180266
 10
53.55444835361286
 20
202.2290564180266
 10
51.20674672080779
 20
202.2290564180266
 10
48.83499208236615
 20
202.2290564180266
  0
LWPOLYLINE
  5
10A
330
70
100
AcDbEntity
  8
Standardebene
 62
     7
370
    35
100
AcDbPolyline
 90
       26
 70
     0
 43
0.0
 10
69.684971205489
 20
196.2289539853522
 10
69.64680710321292
 20
196.6273359000381
 10
69.51211027164948
 20
197.0633046448658
 10
69.19204494331474
 20
197.5816308809923
 10
68.85818922508217
 20
197.8995154034824
 10
68.48796536232754
 20
198.1250363843288
 10
67.61731069963959
 20
198.328621024035
 10
67.16441186566782
 20
198.2863610112057
 10
66.70842779332722
 20
198.1372232405176
 10
66.10992807193105
 20
197.7235115435725
 10
65.73534258802458
 20
197.2239787225165
 10
65.53990070883876
 20
196.7037923872876
 10
65.4879462166642
 20
196.1203076222469
 10
65.57909107268883
 20
195.6076167437533
 10
65.78453581149737
 20
195.1488136789087
 10
66.2060727529432
 20
194.6448551048156
 10
66.54371281072946
 20
194.4052871686774
 10
66.89636194403256
 20
194.2449337977684
 10
67.39371395924388
 20
194.1374970392596
 10
67.87913568365972
 20
194.1496838954484
 10
68.35333267211179
 20
194.2743746766677
 10
68.7930216151448
 20
194.5111203934772
 10
69.27594510713958
 20
194.9843643140307
 10
69.53904963796178
 20
195.460091642517
 10
69.65431164097132
 20
195.869441727774
 10
69.684971205489
 20
196.2289539853522
  0
LWPOLYLINE
  5
10B
330
70
100
AcDbEntity
  8
Standardebene
 62
     7
370
    35
100
AcDbPolyline
 90
       20
 70
     0
 43
0.0
 10
48.58503324779315
 20
198.4288098101787
 10
47.85844005353006
 20
198.3054659972757
 10
47.21388636665523
 20
197.9490325244189
 10
46.7224967740106
 20
197.3990846035497
 10
46.43937686233358
 20
196.7153378299931
 10
46.39929122185921
 20
195.9780971719019
 10
46.60415598627967
 20
195.2719009264184
 10
47.03133736638156
 20
194.6717944711286
 10
47.63484331313499
 20
194.2446130910267
 10
48.34578601839725
 20
194.0419905715462
 10
49.08148728412777
 20
194.0852218403433
 10
49.76016689116335
 20
194.3692487676847
 10
50.30915269180754
 20
194.861909427678
 10
50.66430333769699
 20
195.5099294701959
 10
50.78488907262029
 20
196.2390241770447
 10
50.65865889904094
 20
196.9646552510827
 10
50.29978805494612
 20
197.6073515616862
 10
49.74791589362556
 20
198.0965576256552
 10
49.06301457579892
 20
198.3762139045208
 10
48.58503324779315
 20
198.4288098101787
  0
SPLINE
  5
10C
330
70
100
AcDbEntity
  8
Standardebene
 62
     7
370
    35
100
AcDbSpline
210
0.0
220
0.0
230
1.0
 70
     9
 71
     3
 72
    17
 73
    13
 74
     0
 42
0.0000000001
 43
0.0000000001
 40
0.0
 40
0.0
 40
0.0
 40
0.0
 40
1.0
 40
1.0
 40
1.0
 40
2.0
 40
2.0
 40
2.0
 40
3.0
 40
3.0
 40
3.0
 40
4.0
 40
4.0
 40
4.0
 40
4.0
 10
48.58503324779315
 20
197.8791825960512
 30
0.0
 10
47.67429024237841
 20
197.8791825960512
 30
0.0
 10
46.93487149422452
 20
197.140081838857
 30
0.0
 10
46.93487149422452
 20
196.2289539853522
 30
0.0
 10
46.93487149422452
 20
195.3175695664535
 30
0.0
 10
47.67429024237841
 20
194.5784688092593
 30
0.0
 10
48.58503324779315
 20
194.5784688092593
 30
0.0
 10
49.49641766669188
 20
194.5784688092593
 30
0.0
 10
50.23494395090003
 20
195.3175695664535
 30
0.0
 10
50.23494395090003
 20
196.2289539853522
 30
0.0
 10
50.23494395090003
 20
197.140081838857
 30
0.0
 10
49.49641766669188
 20
197.8791825960512
 30
0.0
 10
48.58503324779315
 20
197.8791825960512
 30
0.0
  0
LINE
  5
10D
330
70
100
AcDbEntity
  8
Standardebene
 62
     7
370
    35
100
AcDbLine
 10
27.58470903106223
 20
286.2292076485044
 30
0.0
 11
27.58470903106223
 21
262.2287979178056
 31
0.0
  0
LWPOLYLINE
  5
10E
330
70
100
AcDbEntity
  8
Standardebene
 62
     7
370
    35
100
AcDbPolyline
 90
       25
 70
     0
 43
0.0
 10
61.08509471418772
 20
286.2292076485044
 10
60.97926148671395
 20
286.2292076485044
 10
60.66137389365035
 20
286.2292076485044
 10
60.13676180538442
 20
286.2292076485044
 10
59.41081002460468
 20
286.2292076485044
 10
58.49281904682488
 20
286.2292076485044
 10
57.39260249834348
 20
286.2292076485044
 10
56.1229245074856
 20
286.2292076485044
 10
54.69975626999374
 20
286.2292076485044
 10
53.14009524318441
 20
286.2292076485044
 10
51.46106716706951
 20
286.2292076485044
 10
49.68371040391386
 20
286.2292076485044
 10
47.82836049950116
 20
286.2292076485044
 10
45.91700972126065
 20
286.2292076485044
 10
43.97269302831424
 20
286.2292076485044
 10
42.01747230614572
 20
286.2292076485044
 10
40.07475914690832
 20
286.2292076485044
 10
38.16770857736131
 20
286.2292076485044
 10
36.31896249347722
 20
286.2292076485044
 10
34.54943097482168
 20
286.2292076485044
 10
32.88105036253554
 20
286.2292076485044
 10
31.33267821303769
 20
286.2292076485044
 10
29.92297965870198
 20
286.2292076485044
 10
28.6692728635866
 20
286.2292076485044
 10
27.58470903106223
 20
286.2292076485044
  0
LWPOLYLINE
  5
10F
330
70
100
AcDbEntity
  8
Standardebene
 62
     7
370
    35
100
AcDbPolyline
 90
       21
 70
     0
 43
0.0
 10
27.58470903106223
 20
262.2287979178056
 10
28.6633718595372
 20
262.2287979178056
 10
29.91015138902918
 20
262.2287979178056
 10
31.31106257863912
 20
262.2287979178056
 10
32.8494310377463
 20
262.2287979178056
 10
34.50780323973357
 20
262.2287979178056
 10
36.266045881077
 20
262.2287979178056
 10
38.10318238090793
 20
262.2287979178056
 10
39.99958548662619
 20
262.2287979178056
 10
41.93165118203546
 20
262.2287979178056
 10
43.87718656060088
 20
262.2287979178056
 10
45.81361386769823
 20
262.2287979178056
 10
47.71848363140121
 20
262.2287979178056
 10
49.56876910764599
 20
262.2287979178056
 10
51.34298294473256
 20
262.2287979178056
 10
53.02136960736283
 20
262.2287979178056
 10
54.58359628810748
 20
262.2287979178056
 10
56.01144684402973
 20
262.2287979178056
 10
57.28734654567869
 20
262.2287979178056
 10
58.39827469933655
 20
262.2287979178056
 10
59.32999192566649
 20
262.2287979178056
  0
LWPOLYLINE
  5
110
330
70
100
AcDbEntity
  8
Standardebene
 62
     7
370
    35
100
AcDbPolyline
 90
       23
 70
     0
 43
0.0
 10
38.58456320037674
 20
287.128661776607
 10
38.68667622697183
 20
287.128661776607
 10
38.9901930874284
 20
287.128661776607
 10
39.4890844950004
 20
287.128661776607
 10
40.17212571372468
 20
287.128661776607
 10
41.02745316070194
 20
287.128661776607
 10
42.03626572121625
 20
287.128661776607
 10
43.17907212501078
 20
287.128661776607
 10
44.4309188210238
 20
287.128661776607
 10
45.76762452092141
 20
287.128661776607
 10
47.16193187316776
 20
287.128661776607
 10
48.58503324779315
 20
287.128661776607
 10
50.00788357195615
 20
287.128661776607
 10
51.40218540927219
 20
287.128661776607
 10
52.7388911091698
 20
287.128661776607
 10
53.99163578405951
 20
287.128661776607
 10
55.13354420897671
 20
287.128661776607
 10
56.14261590143346
 20
287.128661776607
 10
56.99736647970933
 20
287.128661776607
 10
57.68168755541823
 20
287.128661776607
 10
58.17961684276521
 20
287.128661776607
 10
58.48313370322178
 20
287.128661776607
 10
58.58492602307518
 20
287.128661776607
  0
LWPOLYLINE
  5
111
330
70
100
AcDbEntity
  8
Standardebene
 62
     7
370
    35
100
AcDbPolyline
 90
       23
 70
     0
 43
0.0
 10
59.08510025761453
 20
286.6288082488093
 10
58.97824077124072
 20
286.6288082488093
 10
58.65977897661501
 20
286.6288082488093
 10
58.13638557396807
 20
286.6288082488093
 10
57.41825903768908
 20
286.6288082488093
 10
56.52098571543049
 20
286.6288082488093
 10
55.46085750967652
 20
286.6288082488093
 10
54.26160671932205
 20
286.6288082488093
 10
52.94684022822208
 20
286.6288082488093
 10
51.54316809297505
 20
286.6288082488093
 10
50.07927009927241
 20
286.6288082488093
 10
48.58503324779315
 20
286.6288082488093
 10
47.09053983092118
 20
286.6288082488093
 10
45.62696254396023
 20
286.6288082488093
 10
44.22354984176393
 20
286.6288082488093
 10
42.90788250412987
 20
286.6288082488093
 10
41.70895242051708
 20
286.6288082488093
 10
40.64978633498813
 20
286.6288082488093
 10
39.7518715992462
 20
286.6288082488093
 10
39.03432233510222
 20
286.6288082488093
 10
38.51035166032028
 20
286.6288082488093
 10
38.19182572434622
 20
286.6288082488093
 10
38.08470967257907
 20
286.6288082488093
  0
LWPOLYLINE
  5
112
330
70
100
AcDbEntity
  8
Standardebene
 62
     7
370
    35
100
AcDbPolyline
 90
       18
 70
     0
 43
0.0
 10
9.085187391768577
 20
280.2291052158294
 10
9.085187391768577
 20
280.1266714824926
 10
9.085187391768577
 20
279.8232187633844
 10
9.085187391768577
 20
279.3302395429448
 10
9.085187391768577
 20
278.6628376301384
 10
9.085187391768577
 20
277.8444581663673
 10
9.085187391768577
 20
276.9033121618276
 10
9.085187391768577
 20
275.8704551248092
 10
9.085187391768577
 20
274.7820936300946
 10
9.085187391768577
 20
273.6755912294738
 10
9.085187391768577
 20
272.5863428515628
 10
9.085187391768577
 20
271.5543836843882
 10
9.085187391768577
 20
270.6125852797171
 10
9.085187391768577
 20
269.7951679361717
 10
9.085187391768577
 20
269.1271357929642
 10
9.085187391768577
 20
268.6335681173066
 10
9.085187391768577
 20
268.3313340838167
 10
9.085187391768577
 20
268.2292210572224
  0
LWPOLYLINE
  5
113
330
70
100
AcDbEntity
  8
Standardebene
 62
     7
370
    35
100
AcDbPolyline
 90
        8
 70
     0
 43
0.0
 10
26.82585051161626
 20
284.0440401924524
 10
22.14462248399462
 20
284.0440401924524
 10
21.59371244289909
 20
282.8413899106343
 10
21.43836209716275
 20
282.220052669036
 10
21.38512477802086
 20
281.5899393028798
 10
21.38884497622622
 20
281.415784301905
 10
21.61468666381431
 20
280.2738758769872
 10
22.14462248399462
 20
279.1367139118487
  0
LINE
  5
114
330
70
100
AcDbEntity
  8
Standardebene
 62
     7
370
    35
100
AcDbLine
 10
26.82585051161626
 20
279.1367139118487
 30
0.0
 11
22.14462248399462
 21
279.1367139118487
 31
0.0
  0
LWPOLYLINE
  5
115
330
70
100
AcDbEntity
  8
Standardebene
 62
     7
370
    35
100
AcDbPolyline
 90
        4
 70
     0
 43
0.0
 10
27.58470903106223
 20
281.5899393028798
 10
27.58098660590131
 20
281.415784301905
 10
27.3554656250549
 20
280.2738758769872
 10
26.82585051161626
 20
279.1367139118487
  0
LWPOLYLINE
  5
116
330
70
100
AcDbEntity
  8
Standardebene
 62
     7
370
    35
100
AcDbPolyline
 90
        4
 70
     0
 43
0.0
 10
26.82585051161626
 20
284.0440401924524
 10
27.37708125945347
 20
282.8413899106343
 10
27.53147171057597
 20
282.220052669036
 10
27.58470903106223
 20
281.5899393028798
  0
LINE
  5
117
330
70
100
AcDbEntity
  8
Standardebene
 62
     7
370
    35
100
AcDbLine
 10
26.82585051161626
 20
264.4136446671153
 30
0.0
 11
22.14462248399462
 21
264.4136446671153
 31
0.0
  0
LWPOLYLINE
  5
118
330
70
100
AcDbEntity
  8
Standardebene
 62
     7
370
    35
100
AcDbPolyline
 90
        8
 70
     0
 43
0.0
 10
26.82585051161626
 20
269.3216232914462
 10
22.14462248399462
 20
269.3216232914462
 10
21.59371244289909
 20
268.1192827861271
 10
21.43836209716275
 20
267.4973041310449
 10
21.38512477802086
 20
266.8674360901141
 10
21.38884497622622
 20
266.6930357639133
 10
21.61468666381431
 20
265.5514480457378
 10
22.14462248399462
 20
264.4136446671153
  0
LWPOLYLINE
  5
119
330
70
100
AcDbEntity
  8
Standardebene
 62
     7
370
    35
100
AcDbPolyline
 90
        4
 70
     0
 43
0.0
 10
27.58470903106223
 20
266.8674360901141
 10
27.58098660590131
 20
266.6930357639133
 10
27.3554656250549
 20
265.5514480457378
 10
26.82585051161626
 20
264.4136446671153
  0
LWPOLYLINE
  5
11A
330
70
100
AcDbEntity
  8
Standardebene
 62
     7
370
    35
100
AcDbPolyline
 90
        4
 70
     0
 43
0.0
 10
26.82585051161626
 20
269.3216232914462
 10
27.37708125945347
 20
268.1192827861271
 10
27.53147171057597
 20
267.4973041310449
 10
27.58470903106223
 20
266.8674360901141
  0
LWPOLYLINE
  5
11B
330
70
100
AcDbEntity
  8
Standardebene
 62
     7
370
    35
100
AcDbPolyline
 90
        7
 70
     0
 43
0.0
 10
22.14462248399462
 20
279.1367139118487
 10
21.82827735386525
 20
277.9221333392351
 10
21.50224688013278
 20
276.09968520818
 10
21.38512477802086
 20
274.2286820764133
 10
21.44336512233482
 20
272.914874837881
 10
21.7045486928716
 20
271.1105787084124
 10
22.14462248399462
 20
269.3216232914462
  0
LWPOLYLINE
  5
11C
330
70
100
AcDbEntity
  8
Standardebene
 62
     7
370
    35
100
AcDbPolyline
 90
        4
 70
     0
 43
0.0
 10
27.58470903106223
 20
274.2286820764133
 10
27.52678716653374
 20
272.914874837881
 10
27.26528510814276
 20
271.1105787084124
 10
26.82585051161626
 20
269.3216232914462
  0
LWPOLYLINE
  5
11D
330
70
100
AcDbEntity
  8
Standardebene
 62
     7
370
    35
100
AcDbPolyline
 90
        4
 70
     0
 43
0.0
 10
26.82585051161626
 20
279.1367139118487
 10
27.14187493500396
 20
277.9221333392351
 10
27.46726399525244
 20
276.09968520818
 10
27.58470903106223
 20
274.2286820764133
  0
LWPOLYLINE
  5
11E
330
70
100
AcDbEntity
  8
Standardebene
 62
     7
370
    35
100
AcDbPolyline
 90
        4
 70
     0
 43
0.0
 10
21.38512477802086
 20
265.7289912980083
 10
21.38512477802086
 20
265.8580436909157
 10
21.38512477802086
 20
266.2414165300854
 10
21.38512477802086
 20
266.8674360901141
  0
LWPOLYLINE
  5
11F
330
70
100
AcDbEntity
  8
Standardebene
 62
     7
370
    35
100
AcDbPolyline
 90
        4
 70
     0
 43
0.0
 10
21.38512477802086
 20
281.5899393028798
 10
21.38512477802086
 20
282.216268329483
 10
21.38512477802086
 20
282.5996411686521
 10
21.38512477802086
 20
282.7286935615594
  0
LWPOLYLINE
  5
120
330
70
100
AcDbEntity
  8
Standardebene
 62
     7
370
    35
100
AcDbPolyline
 90
        7
 70
     0
 43
0.0
 10
21.38512477802086
 20
274.2286820764133
 10
21.38512477802086
 20
275.7047669263048
 10
21.38512477802086
 20
277.1360169736908
 10
21.38512477802086
 20
278.4786878189867
 10
21.38512477802086
 20
279.6926381703538
 10
21.38512477802086
 20
280.7402476209392
 10
21.38512477802086
 20
281.5899393028798
  0
LWPOLYLINE
  5
121
330
70
100
AcDbEntity
  8
Standardebene
 62
     7
370
    35
100
AcDbPolyline
 90
        7
 70
     0
 43
0.0
 10
21.38512477802086
 20
266.8674360901141
 10
21.38512477802086
 20
267.7171165318869
 10
21.38512477802086
 20
268.7653785881937
 10
21.38512477802086
 20
269.9793177473233
 10
21.38512477802086
 20
271.3213471791353
 10
21.38512477802086
 20
272.7525972265213
 10
21.38512477802086
 20
274.2286820764133
  0
LWPOLYLINE
  5
122
330
70
100
AcDbEntity
  8
Standardebene
 62
     7
370
    35
100
AcDbPolyline
 90
        8
 70
     0
 43
0.0
 10
5.085140483768223
 20
274.2286820764133
 10
5.085140483768223
 20
275.3411496224319
 10
5.085140483768223
 20
276.3981349021155
 10
5.085140483768223
 20
277.3462081722787
 10
5.085140483768223
 20
278.1382255418724
 10
5.085140483768223
 20
278.7333289719901
 10
5.085140483768223
 20
279.1031791640009
 10
5.085140483768223
 20
279.2284360400091
  0
LWPOLYLINE
  5
123
330
70
100
AcDbEntity
  8
Standardebene
 62
     7
370
    35
100
AcDbPolyline
 90
        8
 70
     0
 43
0.0
 10
5.085140483768223
 20
269.2289281128176
 10
5.085140483768223
 20
269.3541961661714
 10
5.085140483768223
 20
269.7237895558465
 10
5.085140483768223
 20
270.3194593176959
 10
5.085140483768223
 20
271.1112201218964
 10
5.085140483768223
 20
272.0592292507105
 10
5.085140483768223
 20
273.1158938236525
 10
5.085140483768223
 20
274.2286820764133
  0
LWPOLYLINE
  5
124
330
70
100
AcDbEntity
  8
Standardebene
 62
     7
370
    35
100
AcDbPolyline
 90
        8
 70
     0
 43
0.0
 10
8.085159629431565
 20
274.2286820764133
 10
8.085159629431565
 20
275.3411496224319
 10
8.085159629431565
 20
276.3981349021155
 10
8.085159629431565
 20
277.3462081722787
 10
8.085159629431565
 20
278.1382255418724
 10
8.085159629431565
 20
278.7333289719901
 10
8.085159629431565
 20
279.1031791640009
 10
8.085159629431565
 20
279.2284360400091
  0
LWPOLYLINE
  5
125
330
70
100
AcDbEntity
  8
Standardebene
 62
     7
370
    35
100
AcDbPolyline
 90
        8
 70
     0
 43
0.0
 10
8.085159629431565
 20
269.2289281128176
 10
8.085159629431565
 20
269.3541961661714
 10
8.085159629431565
 20
269.7237895558465
 10
8.085159629431565
 20
270.3194593176959
 10
8.085159629431565
 20
271.1112201218964
 10
8.085159629431565
 20
272.0592292507105
 10
8.085159629431565
 20
273.1158938236525
 10
8.085159629431565
 20
274.2286820764133
  0
LWPOLYLINE
  5
126
330
70
100
AcDbEntity
  8
Standardebene
 62
     7
370
    35
100
AcDbPolyline
 90
        8
 70
     0
 43
0.0
 10
-1.914988229512599
 20
274.2286820764133
 10
-1.914988229512599
 20
275.2969562334091
 10
-1.914988229512599
 20
276.3111061991988
 10
-1.914988229512599
 20
277.2211966843177
 10
-1.914988229512599
 20
277.9819883662816
 10
-1.914988229512599
 20
278.5532200657848
 10
-1.914988229512599
 20
278.908691418416
 10
-1.914988229512599
 20
279.0286357398559
  0
LWPOLYLINE
  5
127
330
70
100
AcDbEntity
  8
Standardebene
 62
     7
370
    35
100
AcDbPolyline
 90
        8
 70
     0
 43
0.0
 10
-1.914988229512599
 20
269.4287393459201
 10
-1.914988229512599
 20
269.5489934411518
 10
-1.914988229512599
 20
269.9038233802995
 10
-1.914988229512599
 20
270.4760283490513
 10
-1.914988229512599
 20
271.2361674685084
 10
-1.914988229512599
 20
272.1456276469564
 10
-1.914988229512599
 20
273.160407919417
 10
-1.914988229512599
 20
274.2286820764133
  0
LWPOLYLINE
  5
128
330
70
100
AcDbEntity
  8
Standardebene
 62
     7
370
    35
100
AcDbPolyline
 90
        9
 70
     0
 43
0.0
 10
4.085433428172886
 20
274.2286820764133
 10
4.085433428172886
 20
275.3990692600042
 10
4.085433428172886
 20
276.5250064891788
 10
4.085433428172886
 20
277.562621081657
 10
4.085433428172886
 20
278.4714398466217
 10
4.085433428172886
 20
279.2177885761803
 10
4.085433428172886
 20
279.7718415433455
 10
4.085433428172886
 20
280.1138432128198
 10
4.085433428172886
 20
280.2291052158294
  0
LWPOLYLINE
  5
129
330
70
100
AcDbEntity
  8
Standardebene
 62
     7
370
    35
100
AcDbPolyline
 90
        9
 70
     0
 43
0.0
 10
4.085433428172886
 20
268.2292210572224
 10
4.085433428172886
 20
268.3441623534895
 10
4.085433428172886
 20
268.6855226094805
 10
4.085433428172886
 20
269.2398962833875
 10
4.085433428172886
 20
269.9865015783401
 10
4.085433428172886
 20
270.8957051913941
 10
4.085433428172886
 20
271.9323576636472
 10
4.085433428172886
 20
273.0582948928219
 10
4.085433428172886
 20
274.2286820764133
  0
LINE
  5
12A
330
70
100
AcDbEntity
  8
Standardebene
 62
     7
370
    35
100
AcDbLine
 10
153.5632538740761
 20
198.4288098101787
 30
0.0
 11
153.5632538740761
 21
202.0289354111318
 31
0.0
  0
LINE
  5
12B
330
70
100
AcDbEntity
  8
Standardebene
 62
     7
370
    35
100
AcDbLine
 10
153.5632538740761
 20
190.4290456381696
 30
0.0
 11
153.5632538740761
 21
194.0360254261485
 31
0.0
  0
LINE
  5
12C
330
70
100
AcDbEntity
  8
Standardebene
 62
     7
370
    35
100
AcDbLine
 10
114.3133668526239
 20
132.1438825056428
 30
0.0
 11
114.3133668526239
 21
117.7291158010994
 31
0.0
  0
LINE
  5
12D
330
70
100
AcDbEntity
  8
Standardebene
 62
     7
370
    35
100
AcDbLine
 10
114.3133668526239
 20
261.2290908622103
 30
0.0
 11
114.3133668526239
 21
202.2278469677196
 31
0.0
  0
LINE
  5
12E
330
70
100
AcDbEntity
  8
Standardebene
 62
     7
370
    35
100
AcDbLine
 10
114.3133668526239
 20
190.2298136729029
 30
0.0
 11
114.3133668526239
 21
130.7312085278888
 31
0.0
  0
LINE
  5
12F
330
70
100
AcDbEntity
  8
Standardebene
 62
     7
370
    35
100
AcDbLine
 10
142.8133614502547
 20
117.7291158010994
 30
0.0
 11
142.8133614502547
 21
190.2276417992201
 31
0.0
  0
LWPOLYLINE
  5
130
330
70
100
AcDbEntity
  8
Standardebene
 62
     7
370
    35
100
AcDbPolyline
 90
        3
 70
     0
 43
0.0
 10
142.8133614502547
 20
202.2278469677196
 10
142.8133614502547
 20
261.2290908622103
 10
141.8130078432997
 20
262.2287979178056
  0
LINE
  5
131
330
70
100
AcDbEntity
  8
Standardebene
 62
     7
370
    35
100
AcDbLine
 10
115.3130097668709
 20
262.2287979178056
 30
0.0
 11
114.3133668526239
 21
261.2290908622103
 31
0.0
  0
LINE
  5
132
330
70
100
AcDbEntity
  8
Standardebene
 62
     7
370
    35
100
AcDbLine
 10
142.6824438203687
 20
113.9739605611517
 30
0.0
 11
142.4161930833109
 21
114.496391843573
 31
0.0
  0
LINE
  5
133
330
70
100
AcDbEntity
  8
Standardebene
 62
     7
370
    35
100
AcDbLine
 10
114.7104703682809
 20
114.496391843573
 30
0.0
 11
114.4436423523476
 21
113.9739605611517
 31
0.0
  0
LINE
  5
134
330
70
100
AcDbEntity
  8
Standardebene
 62
     7
370
    35
100
AcDbLine
 10
114.3133668526239
 20
117.7291158010994
 30
0.0
 11
114.7104703682809
 21
114.496391843573
 31
0.0
  0
LINE
  5
135
330
70
100
AcDbEntity
  8
Standardebene
 62
     7
370
    35
100
AcDbLine
 10
142.4161930833109
 20
114.496391843573
 30
0.0
 11
142.8133614502547
 21
117.7291158010994
 31
0.0
  0
LINE
  5
136
330
70
100
AcDbEntity
  8
Standardebene
 62
     7
370
    35
100
AcDbLine
 10
110.5632146378482
 20
286.2292076485044
 30
0.0
 11
110.5632146378482
 21
262.2287979178056
 31
0.0
  0
LINE
  5
137
330
70
100
AcDbEntity
  8
Standardebene
 62
     7
370
    35
100
AcDbLine
 10
146.5634443858058
 20
262.2287979178056
 30
0.0
 11
146.5634443858058
 21
286.2292076485044
 31
0.0
  0
LINE
  5
138
330
70
100
AcDbEntity
  8
Standardebene
 62
     7
370
    35
100
AcDbLine
 10
118.0628776539156
 20
286.6288082488093
 30
0.0
 11
118.0628776539156
 21
286.2292076485044
 31
0.0
  0
LWPOLYLINE
  5
139
330
70
100
AcDbEntity
  8
Standardebene
 62
     7
370
    35
100
AcDbPolyline
 90
        3
 70
     0
 43
0.0
 10
139.0638455110867
 20
286.2292076485044
 10
139.0638455110867
 20
286.6288082488093
 10
138.5639970138168
 20
287.128661776607
  0
LINE
  5
13A
330
70
100
AcDbEntity
  8
Standardebene
 62
     7
370
    35
100
AcDbLine
 10
118.5633084538489
 20
287.128661776607
 30
0.0
 11
118.0628776539156
 21
286.6288082488093
 31
0.0
  0
SPLINE
  5
13B
330
70
100
AcDbEntity
  8
Standardebene
 62
     7
370
    35
100
AcDbSpline
210
0.0
220
0.0
230
1.0
 70
     8
 71
     3
 72
    11
 73
     7
 74
     0
 42
0.0000000001
 43
0.0000000001
 40
0.0
 40
0.0
 40
0.0
 40
0.0
 40
1.0
 40
1.0
 40
1.0
 40
2.0
 40
2.0
 40
2.0
 40
2.0
 10
114.4436423523476
 20
113.9739605611517
 30
0.0
 10
114.3540324674864
 20
113.7964173088811
 30
0.0
 10
114.3114426121732
 20
113.6075210379501
 30
0.0
 10
114.3133668526239
 20
113.4293363721962
 30
0.0
 10
114.3133668526239
 20
112.7663072541615
 30
0.0
 10
114.8507430692143
 20
112.2288668962227
 30
0.0
 10
115.5134514805074
 20
112.2288668962227
 30
0.0
  0
SPLINE
  5
13C
330
70
100
AcDbEntity
  8
Standardebene
 62
     7
370
    35
100
AcDbSpline
210
0.0
220
0.0
230
1.0
 70
     8
 71
     3
 72
    11
 73
     7
 74
     0
 42
0.0000000001
 43
0.0000000001
 40
0.0
 40
0.0
 40
0.0
 40
0.0
 40
1.0
 40
1.0
 40
1.0
 40
2.0
 40
2.0
 40
2.0
 40
2.0
 10
141.6137848152823
 20
112.2288668962227
 30
0.0
 10
142.2764983508893
 20
112.2288668962227
 30
0.0
 10
142.8133614502547
 20
112.7663072541615
 30
0.0
 10
142.8133614502547
 20
113.4293363721962
 30
0.0
 10
142.8133614502547
 20
113.6279179867297
 30
0.0
 10
142.7656992905443
 20
113.8152107239517
 30
0.0
 10
142.6824438203687
 20
113.9739605611517
 30
0.0
  0
LWPOLYLINE
  5
13D
330
70
100
AcDbEntity
  8
Standardebene
 62
     7
370
    35
100
AcDbPolyline
 90
       17
 70
     0
 43
0.0
 10
132.0627531958491
 20
117.7291158010994
 10
132.0458840212298
 20
118.0852285672146
 10
131.7464722070686
 20
119.184803702212
 10
131.1056408376821
 20
120.1353784849608
 10
130.6646642255677
 20
120.5274745475073
 10
130.1642334256344
 20
120.8415747304443
 10
129.6136440912812
 20
121.066775004549
 10
129.0336138780293
 20
121.1973667898171
 10
128.4523008378095
 20
121.2264869619741
 10
127.8747721371433
 20
121.1604213731594
 10
126.809961612959
 20
120.7576778467847
 10
125.9192307082338
 20
120.0222972877959
 10
125.5703017731354
 20
119.5427765674294
 10
125.3059799721328
 20
119.0107240827528
 10
125.1374759543781
 20
118.4432085511659
 10
125.0654499096926
 20
117.8547045611955
 10
125.0635851210633
 20
117.7291158010994
  0
LWPOLYLINE
  5
13E
330
70
100
AcDbEntity
  8
Standardebene
 62
     7
370
    35
100
AcDbPolyline
 90
       12
 70
     0
 43
0.0
 10
132.0627531958491
 20
117.7291158010994
 10
133.6950863703548
 20
117.7291158010994
 10
135.2529514394107
 20
117.7291158010994
 10
136.7142837791787
 20
117.7291158010994
 10
138.057211189868
 20
117.7291158010994
 10
139.2636458112392
 20
117.7291158010994
 10
140.3147300868741
 20
117.7291158010994
 10
141.1966736268735
 20
117.7291158010994
 10
141.8969688683077
 20
117.7291158010994
 10
142.4030441068964
 20
117.7291158010994
 10
142.7099604588167
 20
117.7291158010994
 10
142.8133614502547
 20
117.7291158010994
  0
LWPOLYLINE
  5
13F
330
70
100
AcDbEntity
  8
Standardebene
 62
     7
370
    35
100
AcDbPolyline
 90
       12
 70
     0
 43
0.0
 10
114.3133668526239
 20
117.7291158010994
 10
114.4160615718544
 20
117.7291158010994
 10
114.7236149167576
 20
117.7291158010994
 10
115.2309729823137
 20
117.7291158010994
 10
115.9300495381288
 20
117.7291158010994
 10
116.8119930781289
 20
117.7291158010994
 10
117.8636591334925
 20
117.7291158010994
 10
119.07008924727
 20
117.7291158010994
 10
120.4130166579587
 20
117.7291158010994
 10
121.8743489977273
 20
117.7291158010994
 10
123.4324706321759
 20
117.7291158010994
 10
125.0635851210633
 20
117.7291158010994
  0
LWPOLYLINE
  5
140
330
70
100
AcDbEntity
  8
Standardebene
 62
     7
370
    35
100
AcDbPolyline
 90
       29
 70
     0
 43
0.0
 10
128.5637785012653
 20
126.2288065795045
 10
129.1407299297965
 20
126.277361580216
 10
129.7019667279778
 20
126.4194988081895
 10
130.7128985195369
 20
126.9669525505348
 10
131.5015163976677
 20
127.8273372634222
 10
131.781493383275
 20
128.3528473305655
 10
131.9682088483614
 20
128.9194152440471
 10
132.0558900715746
 20
129.4984759536881
 10
132.0458840212298
 20
130.0851127258216
 10
131.7464722070686
 20
131.185329274303
 10
131.1056408376821
 20
132.1352626435679
 10
130.6646642255677
 20
132.5276794128567
 10
130.1642334256344
 20
132.8412023236581
 10
129.6136440912812
 20
133.0669798698978
 10
129.0336138780293
 20
133.1972509484248
 10
128.4523008378095
 20
133.2270125340652
 10
127.8747721371433
 20
133.1603055317671
 10
126.809961612959
 20
132.7578827121335
 10
125.9192307082338
 20
132.0225021531447
 10
125.5703017731354
 20
131.5433021395205
 10
125.3059799721328
 20
131.0108648067539
 10
125.1374759543781
 20
130.4430855910391
 10
125.0654499096926
 20
129.8545961268132
 10
125.2139324416276
 20
128.7146045353367
 10
125.716287482011
 20
127.6936025520845
 10
126.5405679498321
 20
126.8724008689847
 10
127.0535704540442
 20
126.5711289557211
 10
127.6123057396399
 20
126.3606170503916
 10
128.5637785012653
 20
126.2288065795045
  0
LWPOLYLINE
  5
141
330
70
100
AcDbEntity
  8
Standardebene
 62
     7
370
    35
100
AcDbPolyline
 90
       27
 70
     0
 43
0.0
 10
142.8133614502547
 20
261.2290908622103
 10
142.709383186681
 20
261.2290908622103
 10
142.3993239086916
 20
261.2290908622103
 10
141.8868986766145
 20
261.2290908622103
 10
141.1809640931638
 20
261.2290908622103
 10
140.2908695052825
 20
261.2290908622103
 10
139.2297842266508
 20
261.2290908622103
 10
138.0134026489359
 20
261.2290908622103
 10
136.6579035339671
 20
261.2290908622103
 10
135.1859237303703
 20
261.2290908622103
 10
133.6174161030541
 20
261.2290908622103
 10
131.9737891456691
 20
261.2290908622103
 10
130.2813555277464
 20
261.2290908622103
 10
128.5637785012653
 20
261.2290908622103
 10
126.8450469305143
 20
261.2290908622103
 10
125.1531905847273
 20
261.2290908622103
 10
123.5095685329094
 20
261.2290908622103
 10
121.9410560000253
 20
261.2290908622103
 10
120.4681782175513
 20
261.2290908622103
 10
119.1138977882022
 20
261.2290908622103
 10
117.8968798443512
 20
261.2290908622103
 10
116.8363667905065
 20
261.2290908622103
 10
115.9457000271297
 20
261.2290908622103
 10
115.2391189335561
 20
261.2290908622103
 10
114.7273992563113
 20
261.2290908622103
 10
114.4173443988545
 20
261.2290908622103
 10
114.3133668526239
 20
261.2290908622103
  0
LWPOLYLINE
  5
142
330
70
100
AcDbEntity
  8
Standardebene
 62
     7
370
    35
100
AcDbPolyline
 90
        5
 70
     0
 43
0.0
 10
125.0635851210633
 20
117.7291158010994
 10
125.2495950313173
 20
116.6013184728224
 10
125.7926798279121
 20
115.5903225399149
 10
126.6364592656355
 20
114.8070354205751
 10
127.222711189679
 20
114.496391843573
  0
LWPOLYLINE
  5
143
330
70
100
AcDbEntity
  8
Standardebene
 62
     7
370
    35
100
AcDbPolyline
 90
        8
 70
     0
 43
0.0
 10
129.9049147659816
 20
114.496391843573
 10
130.4279185087576
 20
114.7672677835851
 10
130.8976897441726
 20
115.1211927179833
 10
131.3029347831342
 20
115.5508756106709
 10
131.6292859636077
 20
116.0413645016078
 10
131.8673145073853
 20
116.5759826402185
 10
132.0138823534551
 20
117.1412603433468
 10
132.0627531958491
 20
117.7291158010994
  0
LWPOLYLINE
  5
144
330
70
100
AcDbEntity
  8
Standardebene
 62
     7
370
    35
100
AcDbPolyline
 90
       13
 70
     0
 43
0.0
 10
129.9049147659816
 20
114.496391843573
 10
131.5835531822249
 20
114.496391843573
 10
133.2171740791539
 20
114.496391843573
 10
134.7812559635444
 20
114.496391843573
 10
136.2507342545554
 20
114.496391843573
 10
137.6049505425562
 20
114.496391843573
 10
138.8233154547228
 20
114.496391843573
 10
139.8849830528375
 20
114.496391843573
 10
140.7782154701497
 20
114.496391843573
 10
141.487298076309
 20
114.496391843573
 10
142.0009419940051
 20
114.496391843573
 10
142.3128613710974
 20
114.496391843573
 10
142.4161930833109
 20
114.496391843573
  0
LWPOLYLINE
  5
145
330
70
100
AcDbEntity
  8
Standardebene
 62
     7
370
    35
100
AcDbPolyline
 90
       13
 70
     0
 43
0.0
 10
114.7104703682809
 20
114.496391843573
 10
114.8144390660406
 20
114.496391843573
 10
115.1263584431329
 20
114.496391843573
 10
115.6406437743124
 20
114.496391843573
 10
116.348443553505
 20
114.496391843573
 10
117.2416759708165
 20
114.496391843573
 10
118.3039849824145
 20
114.496391843573
 10
119.5217130305779
 20
114.496391843573
 10
120.8765661825826
 20
114.496391843573
 10
122.3463651803353
 20
114.496391843573
 10
123.9098105466983
 20
114.496391843573
 10
125.5434265481714
 20
114.496391843573
 10
127.222711189679
 20
114.496391843573
  0
LWPOLYLINE
  5
146
330
70
100
AcDbEntity
  8
Standardebene
 62
     7
370
    35
100
AcDbPolyline
 90
        4
 70
     0
 43
0.0
 10
129.9049147659816
 20
114.496391843573
 10
128.9822366579898
 20
114.253937546759
 10
128.0088275552234
 20
114.2730516685712
 10
127.222711189679
 20
114.496391843573
  0
LWPOLYLINE
  5
147
330
70
100
AcDbEntity
  8
Standardebene
 62
     7
370
    35
100
AcDbPolyline
 90
       13
 70
     0
 43
0.0
 10
128.5637785012653
 20
112.2288668962227
 10
130.2675651378485
 20
112.2288668962227
 10
131.9412694820484
 20
112.2288668962227
 10
133.55731075407
 20
112.2288668962227
 10
135.0881772581861
 20
112.2288668962227
 10
136.5075562134028
 20
112.2288668962227
 10
137.7916660076425
 20
112.2288668962227
 10
138.9172183887272
 20
112.2288668962227
 10
139.865612365632
 20
112.2288668962227
 10
140.6197272808041
 20
112.2288668962227
 10
141.1690928470772
 20
112.2288668962227
 10
141.5016708430839
 20
112.2288668962227
 10
141.6137848152823
 20
112.2288668962227
  0
LWPOLYLINE
  5
148
330
70
100
AcDbEntity
  8
Standardebene
 62
     7
370
    35
100
AcDbPolyline
 90
       13
 70
     0
 43
0.0
 10
115.5134514805074
 20
112.2288668962227
 10
115.6249932853116
 20
112.2288668962227
 10
115.9582075900608
 20
112.2288668962227
 10
116.506936825311
 20
112.2288668962227
 10
117.2616880715061
 20
112.2288668962227
 10
118.2100820484102
 20
112.2288668962227
 10
119.3356344294955
 20
112.2288668962227
 10
120.6191028102512
 20
112.2288668962227
 10
122.0381660014477
 20
112.2288668962227
 10
123.5690322145668
 20
112.2288668962227
 10
125.1857102483473
 20
112.2288668962227
 10
126.8600560060312
 20
112.2288668962227
 10
128.5637785012653
 20
112.2288668962227
  0
LWPOLYLINE
  5
149
330
70
100
AcDbEntity
  8
Standardebene
 62
     7
370
    35
100
AcDbPolyline
 90
        3
 70
     0
 43
0.0
 10
153.5626766019405
 20
202.0289354111318
 10
153.5632538740761
 20
202.0289354111318
 10
153.5632538740761
 20
202.0289354111318
  0
LINE
  5
14A
330
70
100
AcDbEntity
  8
Standardebene
 62
     7
370
    35
100
AcDbLine
 10
153.5626766019405
 20
202.2290564180266
 30
0.0
 11
153.5626766019405
 21
202.0289354111318
 31
0.0
  0
LWPOLYLINE
  5
14B
330
70
100
AcDbEntity
  8
Standardebene
 62
     7
370
    35
100
AcDbPolyline
 90
       16
 70
     0
 43
0.0
 10
153.5626766019405
 20
202.2290564180266
 10
153.4079035283391
 20
202.2290564180266
 10
152.9988741498244
 20
202.2290564180266
 10
152.3361657385314
 20
202.2290564180266
 10
151.4298484861537
 20
202.2290564180266
 10
150.2879400612359
 20
202.2290564180266
 10
148.9205106554723
 20
202.2290564180266
 10
147.3451991396615
 20
202.2290564180266
 10
147.3451991396615
 20
190.2289246262201
 10
148.9205106554723
 20
190.2289246262201
 10
150.2879400612359
 20
190.2289246262201
 10
151.4298484861537
 20
190.2289246262201
 10
152.3361657385314
 20
190.2289246262201
 10
152.9988741498244
 20
190.2289246262201
 10
153.4079035283391
 20
190.2289246262201
 10
153.5626766019405
 20
190.2289246262201
  0
LINE
  5
14C
330
70
100
AcDbEntity
  8
Standardebene
 62
     7
370
    35
100
AcDbLine
 10
153.5626766019405
 20
190.4290456381696
 30
0.0
 11
153.5626766019405
 21
190.2289246262201
 31
0.0
  0
LWPOLYLINE
  5
14D
330
70
100
AcDbEntity
  8
Standardebene
 62
     7
370
    35
100
AcDbPolyline
 90
        3
 70
     0
 43
0.0
 10
153.5632538740761
 20
190.4290456381696
 10
153.5632538740761
 20
190.4290456381696
 10
153.5626766019405
 20
190.4290456381696
  0
LWPOLYLINE
  5
14E
330
70
100
AcDbEntity
  8
Standardebene
 62
     7
370
    35
100
AcDbPolyline
 90
       12
 70
     0
 43
0.0
 10
153.5632538740761
 20
198.4288098101787
 10
153.5526064102474
 20
198.3054659972757
 10
153.5526064102474
 20
198.3054659972757
 10
153.5256670439351
 20
197.9490325244189
 10
153.4931473803144
 20
197.3990846035497
 10
153.4692867987235
 20
196.2261959073725
 10
153.4674266996205
 20
195.9780971719019
 10
153.4674266996205
 20
195.9780971719019
 10
153.485001429072
 20
195.2719009264184
 10
153.5144423079713
 20
194.6717944711286
 10
153.545101872489
 20
194.2446130910267
 10
153.5607523614898
 20
194.0561016681857
  0
LWPOLYLINE
  5
14F
330
70
100
AcDbEntity
  8
Standardebene
 62
     7
370
    35
100
AcDbPolyline
 90
       16
 70
     0
 43
0.0
 10
103.6442232485167
 20
190.2289246262201
 10
103.9317047718824
 20
190.2289246262201
 10
104.4265552745074
 20
190.2289246262201
 10
105.1212060772855
 20
190.2289246262201
 10
106.0131556676297
 20
190.2289246262201
 10
107.0930436441855
 20
190.2289246262201
 10
108.3533527626763
 20
190.2289246262201
 10
109.7821012974759
 20
190.2289246262201
 10
109.7821012974759
 20
202.2290564180266
 10
108.3533527626763
 20
202.2290564180266
 10
107.0930436441855
 20
202.2290564180266
 10
106.0131556676297
 20
202.2290564180266
 10
105.1212060772855
 20
202.2290564180266
 10
104.4265552745074
 20
202.2290564180266
 10
103.9317047718824
 20
202.2290564180266
 10
103.6442232485167
 20
202.2290564180266
  0
LINE
  5
150
330
70
100
AcDbEntity
  8
Standardebene
 62
     7
370
    35
100
AcDbLine
 10
103.6442232485167
 20
190.2289246262201
 30
0.0
 11
103.6442232485167
 21
202.2290564180266
 31
0.0
  0
LINE
  5
151
330
70
100
AcDbEntity
  8
Standardebene
 62
     7
370
    35
100
AcDbLine
 10
109.7821012974759
 20
202.2290564180266
 30
0.0
 11
147.3451991396615
 21
202.2290564180266
 31
0.0
  0
LINE
  5
152
330
70
100
AcDbEntity
  8
Standardebene
 62
     7
370
    35
100
AcDbLine
 10
147.3451991396615
 20
190.2289246262201
 30
0.0
 11
109.7821012974759
 21
190.2289246262201
 31
0.0
  0
LINE
  5
153
330
70
100
AcDbEntity
  8
Standardebene
 62
     7
370
    35
100
AcDbLine
 10
137.7145681069097
 20
286.2292076485044
 30
0.0
 11
137.7145681069097
 21
262.2287979178056
 31
0.0
  0
LINE
  5
154
330
70
100
AcDbEntity
  8
Standardebene
 62
     7
370
    35
100
AcDbLine
 10
119.411449503261
 20
286.2292076485044
 30
0.0
 11
137.7145681069097
 21
286.2292076485044
 31
0.0
  0
LINE
  5
155
330
70
100
AcDbEntity
  8
Standardebene
 62
     7
370
    35
100
AcDbLine
 10
119.411449503261
 20
262.2287979178056
 30
0.0
 11
119.411449503261
 21
286.2292076485044
 31
0.0
  0
LINE
  5
156
330
70
100
AcDbEntity
  8
Standardebene
 62
     7
370
    35
100
AcDbLine
 10
137.7145681069097
 20
262.2287979178056
 30
0.0
 11
119.411449503261
 21
262.2287979178056
 31
0.0
  0
LWPOLYLINE
  5
157
330
70
100
AcDbEntity
  8
Standardebene
 62
     7
370
    35
100
AcDbPolyline
 90
       10
 70
     0
 43
0.0
 10
119.411449503261
 20
286.2292076485044
 10
117.6901522785746
 20
286.2292076485044
 10
116.1122751088298
 20
286.2292076485044
 10
114.699818476515
 20
286.2292076485044
 10
113.4708702418679
 20
286.2292076485044
 10
112.4429409929923
 20
286.2292076485044
 10
111.6293079889999
 20
286.2292076485044
 10
111.0398489975383
 20
286.2292076485044
 10
110.6828382525465
 20
286.2292076485044
 10
110.5632146378482
 20
286.2292076485044
  0
LWPOLYLINE
  5
158
330
70
100
AcDbEntity
  8
Standardebene
 62
     7
370
    35
100
AcDbPolyline
 90
       10
 70
     0
 43
0.0
 10
146.5634443858058
 20
286.2292076485044
 10
146.4444621845915
 20
286.2292076485044
 10
146.0874514395997
 20
286.2292076485044
 10
145.4986338616214
 20
286.2292076485044
 10
144.6830818022876
 20
286.2292076485044
 10
143.6557887817861
 20
286.2292076485044
 10
142.428123374107
 20
286.2292076485044
 10
141.0150253283076
 20
286.2292076485044
 10
139.4365067450794
 20
286.2292076485044
 10
137.7145681069097
 20
286.2292076485044
  0
LWPOLYLINE
  5
159
330
70
100
AcDbEntity
  8
Standardebene
 62
     7
370
    35
100
AcDbPolyline
 90
       10
 70
     0
 43
0.0
 10
137.7145681069097
 20
262.2287979178056
 10
139.4365067450794
 20
262.2287979178056
 10
141.0150253283076
 20
262.2287979178056
 10
142.428123374107
 20
262.2287979178056
 10
143.6557887817861
 20
262.2287979178056
 10
144.6830818022876
 20
262.2287979178056
 10
145.4986338616214
 20
262.2287979178056
 10
146.0874514395997
 20
262.2287979178056
 10
146.4444621845915
 20
262.2287979178056
 10
146.5634443858058
 20
262.2287979178056
  0
LWPOLYLINE
  5
15A
330
70
100
AcDbEntity
  8
Standardebene
 62
     7
370
    35
100
AcDbPolyline
 90
       10
 70
     0
 43
0.0
 10
110.5632146378482
 20
262.2287979178056
 10
110.6828382525465
 20
262.2287979178056
 10
111.0398489975383
 20
262.2287979178056
 10
111.6293079889999
 20
262.2287979178056
 10
112.4429409929923
 20
262.2287979178056
 10
113.4708702418679
 20
262.2287979178056
 10
114.699818476515
 20
262.2287979178056
 10
116.1122751088298
 20
262.2287979178056
 10
117.6901522785746
 20
262.2287979178056
 10
119.411449503261
 20
262.2287979178056
  0
LWPOLYLINE
  5
15B
330
70
100
AcDbEntity
  8
Standardebene
 62
     7
370
    35
100
AcDbPolyline
 90
       20
 70
     0
 43
0.0
 10
128.5637785012653
 20
275.6286422353702
 10
127.9142190663874
 20
275.5206171151531
 10
127.3386193531246
 20
275.2095957169382
 10
126.8876367858275
 20
274.7200689462269
 10
126.6182431227006
 20
274.0962301920423
 10
126.5725103413171
 20
273.4300581479378
 10
126.7410096634685
 20
272.8042951533025
 10
127.1024461614974
 20
272.2621724769327
 10
127.6386678338171
 20
271.8556446110044
 10
128.284442929142
 20
271.6485963384868
 10
128.9458685134678
 20
271.6658503611967
 10
129.5522608208975
 20
271.8900885150757
 10
130.0627618125234
 20
272.3050830389881
 10
130.4184897305478
 20
272.8804309338096
 10
130.5619739268377
 20
273.5403171257747
 10
130.4824386548668
 20
274.1904538327883
 10
130.2036803548785
 20
274.7736380400835
 10
129.7389121446355
 20
275.2468618403369
 10
129.1300872581762
 20
275.5475564814661
 10
128.5637785012653
 20
275.6286422353702
  0
LWPOLYLINE
  5
15C
330
70
100
AcDbEntity
  8
Standardebene
 62
     7
370
    35
100
AcDbPolyline
 90
       12
 70
     0
 43
0.0
 10
128.5637785012653
 20
287.128661776607
 10
129.9869467387579
 20
287.128661776607
 10
131.3806099560021
 20
287.128661776607
 10
132.7173156559003
 20
287.128661776607
 10
133.9701244721384
 20
287.128661776607
 10
135.1113273422239
 20
287.128661776607
 10
136.1216818616473
 20
287.128661776607
 10
136.9761087631995
 20
287.128661776607
 10
137.6601121021488
 20
287.128661776607
 10
138.1580413894957
 20
287.128661776607
 10
138.461878956694
 20
287.128661776607
 10
138.5639970138168
 20
287.128661776607
  0
LWPOLYLINE
  5
15D
330
70
100
AcDbEntity
  8
Standardebene
 62
     7
370
    35
100
AcDbPolyline
 90
       12
 70
     0
 43
0.0
 10
118.5633084538489
 20
287.128661776607
 10
118.6654260082923
 20
287.128661776607
 10
118.9686176341583
 20
287.128661776607
 10
119.4665514695915
 20
287.128661776607
 10
120.1505502604552
 20
287.128661776607
 10
121.0061958476257
 20
287.128661776607
 10
122.0143695612051
 20
287.128661776607
 10
123.1569193996063
 20
287.128661776607
 10
124.409664074496
 20
287.128661776607
 10
125.7463697743936
 20
287.128661776607
 10
127.1406744051218
 20
287.128661776607
 10
128.5637785012653
 20
287.128661776607
  0
LWPOLYLINE
  5
15E
330
70
100
AcDbEntity
  8
Standardebene
 62
     7
370
    35
100
AcDbPolyline
 90
       23
 70
     0
 43
0.0
 10
139.0638455110867
 20
286.6288082488093
 10
138.9573067314546
 20
286.6288082488093
 10
138.6372414031199
 20
286.6288082488093
 10
138.114874262047
 20
286.6288082488093
 10
137.3963628776779
 20
286.6288082488093
 10
136.498191576542
 20
286.6288082488093
 10
135.4389613496654
 20
286.6288082488093
 10
134.2400954074009
 20
286.6288082488093
 10
132.9252619072952
 20
286.6288082488093
 10
131.5221699118406
 20
286.6288082488093
 10
130.0576946460029
 20
286.6288082488093
 10
128.5637785012653
 20
286.6288082488093
 10
127.0692850843934
 20
286.6288082488093
 10
125.6053870906908
 20
286.6288082488093
 10
124.2017178231011
 20
286.6288082488093
 10
122.8869484643438
 20
286.6288082488093
 10
121.6876976739893
 20
286.6288082488093
 10
120.627890174977
 20
286.6288082488093
 10
119.7302961459767
 20
286.6288082488093
 10
119.0118489029554
 20
286.6288082488093
 10
118.4887762070502
 20
286.6288082488093
 10
118.1699937056834
 20
286.6288082488093
 10
118.0628776539156
 20
286.6288082488093
  0
LWPOLYLINE
  5
15F
330
70
100
AcDbEntity
  8
Standardebene
 62
     7
370
    35
100
AcDbPolyline
 90
        7
 70
     0
 43
0.0
 10
128.5637785012653
 20
284.0440401924524
 10
130.6452935383616
 20
282.8413899106343
 10
131.722611625477
 20
282.220052669036
 10
132.8131428303554
 20
281.5899393028798
 10
133.1150561571029
 20
281.415784301905
 10
135.0925980685017
 20
280.2738758769872
 10
137.0637899864121
 20
279.1367139118487
  0
LWPOLYLINE
  5
160
330
70
100
AcDbEntity
  8
Standardebene
 62
     7
370
    35
100
AcDbPolyline
 90
        7
 70
     0
 43
0.0
 10
120.0641518642093
 20
279.1367139118487
 10
122.1459234666989
 20
280.3384020734412
 10
123.2220275111529
 20
280.9603807285228
 10
124.313836900041
 20
281.5899393028798
 10
124.6163274989235
 20
281.7646490956544
 10
126.5932279968383
 20
282.9055954003466
 10
128.5637785012653
 20
284.0440401924524
  0
LWPOLYLINE
  5
161
330
70
100
AcDbEntity
  8
Standardebene
 62
     7
370
    35
100
AcDbPolyline
 90
        7
 70
     0
 43
0.0
 10
120.0641518642093
 20
269.3216232914462
 10
120.0641518642093
 20
271.0933246857026
 10
120.0641518642093
 20
272.914874837881
 10
120.0641518642093
 20
274.2286820764133
 10
120.0641518642093
 20
276.0758887679368
 10
120.0641518642093
 20
277.9221333392351
 10
120.0641518642093
 20
279.1367139118487
  0
LWPOLYLINE
  5
162
330
70
100
AcDbEntity
  8
Standardebene
 62
     7
370
    35
100
AcDbPolyline
 90
        7
 70
     0
 43
0.0
 10
128.5637785012653
 20
264.4136446671153
 10
126.4816909173377
 20
265.6159742421918
 10
125.4043681049186
 20
266.2379528972734
 10
124.313836900041
 20
266.8674360901141
 10
124.0119235732934
 20
267.042221264405
 10
122.034445803243
 20
268.1834882758388
 10
120.0641518642093
 20
269.3216232914462
  0
LWPOLYLINE
  5
163
330
70
100
AcDbEntity
  8
Standardebene
 62
     7
370
    35
100
AcDbPolyline
 90
        7
 70
     0
 43
0.0
 10
137.0637899864121
 20
269.3216232914462
 10
134.981061203713
 20
268.1192827861271
 10
133.9036740352337
 20
267.4973041310449
 10
132.8131428303554
 20
266.8674360901141
 10
132.5106522314728
 20
266.6930357639133
 10
130.5337517335574
 20
265.5514480457378
 10
128.5637785012653
 20
264.4136446671153
  0
LWPOLYLINE
  5
164
330
70
100
AcDbEntity
  8
Standardebene
 62
     7
370
    35
100
AcDbPolyline
 90
        7
 70
     0
 43
0.0
 10
137.0637899864121
 20
279.1367139118487
 10
137.0637899864121
 20
277.9221333392351
 10
137.0637899864121
 20
276.09968520818
 10
137.0637899864121
 20
274.2286820764133
 10
137.0637899864121
 20
272.914874837881
 10
137.0637899864121
 20
271.1105787084124
 10
137.0637899864121
 20
269.3216232914462
  0
SPLINE
  5
165
330
70
100
AcDbEntity
  8
Standardebene
 62
     7
370
    35
100
AcDbSpline
210
0.0
220
0.0
230
1.0
 70
     9
 71
     3
 72
    17
 73
    13
 74
     0
 42
0.0000000001
 43
0.0000000001
 40
0.0
 40
0.0
 40
0.0
 40
0.0
 40
1.0
 40
1.0
 40
1.0
 40
2.0
 40
2.0
 40
2.0
 40
3.0
 40
3.0
 40
3.0
 40
4.0
 40
4.0
 40
4.0
 40
4.0
 10
128.5637785012653
 20
282.7286935615594
 30
0.0
 10
123.8684393770036
 20
282.7286935615594
 30
0.0
 10
120.0641518642093
 20
278.9231232217978
 30
0.0
 10
120.0641518642093
 20
274.2286820764133
 30
0.0
 10
120.0641518642093
 20
269.5343050723766
 30
0.0
 10
123.8684393770036
 20
265.7289912980083
 30
0.0
 10
128.5637785012653
 20
265.7289912980083
 30
0.0
 10
133.2585403533921
 20
265.7289912980083
 30
0.0
 10
137.0637899864121
 20
269.5343050723766
 30
0.0
 10
137.0637899864121
 20
274.2286820764133
 30
0.0
 10
137.0637899864121
 20
278.9231232217978
 30
0.0
 10
133.2585403533921
 20
282.7286935615594
 30
0.0
 10
128.5637785012653
 20
282.7286935615594
 30
0.0
  0
SPLINE
  5
166
330
70
100
AcDbEntity
  8
Standardebene
 62
     7
370
    35
100
AcDbSpline
210
0.0
220
0.0
230
1.0
 70
     9
 71
     3
 72
    17
 73
    13
 74
     0
 42
0.0000000001
 43
0.0000000001
 40
0.0
 40
0.0
 40
0.0
 40
0.0
 40
1.0
 40
1.0
 40
1.0
 40
2.0
 40
2.0
 40
2.0
 40
3.0
 40
3.0
 40
3.0
 40
4.0
 40
4.0
 40
4.0
 40
4.0
 10
128.5637785012653
 20
277.7288754566154
 30
0.0
 10
126.6308148269794
 20
277.7288754566154
 30
0.0
 10
125.0635851210633
 20
276.1620305987893
 30
0.0
 10
125.0635851210633
 20
274.2286820764133
 30
0.0
 10
125.0635851210633
 20
272.295654260779
 30
0.0
 10
126.6308148269794
 20
270.7290659683457
 30
0.0
 10
128.5637785012653
 20
270.7290659683457
 30
0.0
 10
130.4961649034163
 20
270.7290659683457
 30
0.0
 10
132.0627531958491
 20
272.295654260779
 30
0.0
 10
132.0627531958491
 20
274.2286820764133
 30
0.0
 10
132.0627531958491
 20
276.1620305987893
 30
0.0
 10
130.4961649034163
 20
277.7288754566154
 30
0.0
 10
128.5637785012653
 20
277.7288754566154
 30
0.0
  0
SPLINE
  5
167
330
70
100
AcDbEntity
  8
Standardebene
 62
     7
370
    35
100
AcDbSpline
210
0.0
220
0.0
230
1.0
 70
     9
 71
     3
 72
    17
 73
    13
 74
     0
 42
0.0000000001
 43
0.0000000001
 40
0.0
 40
0.0
 40
0.0
 40
0.0
 40
1.0
 40
1.0
 40
1.0
 40
2.0
 40
2.0
 40
2.0
 40
3.0
 40
3.0
 40
3.0
 40
4.0
 40
4.0
 40
4.0
 40
4.0
 10
128.5637785012653
 20
280.2291052158294
 30
0.0
 10
125.2495950313173
 20
280.2291052158294
 30
0.0
 10
122.563676068591
 20
277.5422241328774
 30
0.0
 10
122.563676068591
 20
274.2286820764133
 30
0.0
 10
122.563676068591
 20
270.9154607266904
 30
0.0
 10
125.2495950313173
 20
268.2292210572224
 30
0.0
 10
128.5637785012653
 20
268.2292210572224
 30
0.0
 10
131.8773846990784
 20
268.2292210572224
 30
0.0
 10
134.5633036618047
 20
270.9154607266904
 30
0.0
 10
134.5633036618047
 20
274.2286820764133
 30
0.0
 10
134.5633036618047
 20
277.5422241328774
 30
0.0
 10
131.8773846990784
 20
280.2291052158294
 30
0.0
 10
128.5637785012653
 20
280.2291052158294
 30
0.0
  0
SPLINE
  5
168
330
70
100
AcDbEntity
  8
Standardebene
 62
     7
370
    35
100
AcDbSpline
210
0.0
220
0.0
230
1.0
 70
     9
 71
     3
 72
    17
 73
    13
 74
     0
 42
0.0000000001
 43
0.0000000001
 40
0.0
 40
0.0
 40
0.0
 40
0.0
 40
1.0
 40
1.0
 40
1.0
 40
2.0
 40
2.0
 40
2.0
 40
3.0
 40
3.0
 40
3.0
 40
4.0
 40
4.0
 40
4.0
 40
4.0
 10
128.5637785012653
 20
277.2290219288177
 30
0.0
 10
126.906430200898
 20
277.2290219288177
 30
0.0
 10
125.562797235377
 20
275.8857738113874
 30
0.0
 10
125.562797235377
 20
274.2286820764133
 30
0.0
 10
125.562797235377
 20
272.571911048181
 30
0.0
 10
126.906430200898
 20
271.22866293075
 30
0.0
 10
128.5637785012653
 20
271.22866293075
 30
0.0
 10
130.2205495294977
 20
271.22866293075
 30
0.0
 10
131.5641824950187
 20
272.571911048181
 30
0.0
 10
131.5641824950187
 20
274.2286820764133
 30
0.0
 10
131.5641824950187
 20
275.8857738113874
 30
0.0
 10
130.2205495294977
 20
277.2290219288177
 30
0.0
 10
128.5637785012653
 20
277.2290219288177
 30
0.0
  0
MTEXT
  5
16A
330
70
100
AcDbEntity
  8
text
100
AcDbMText
 10
55.41160480385543
 20
210.9452636191387
 30
0.0
 40
0.2
 41
0.0
 46
0.0
 71
     7
 72
     1
  1
\C7;\FINDEX Univers 45 Light|b0|i0|c1;\H2.497667;\W1.000000;ø28,5
 73
     1
 44
1.0
  0
MTEXT
  5
16B
330
70
100
AcDbEntity
  8
text
100
AcDbMText
 10
101.1971030245958
 20
209.2541226390262
 30
0.0
 40
0.2
 41
0.0
 46
0.0
 71
     7
 72
     1
  1
\C7;\FINDEX Univers 45 Light|b0|i0|c1;\H2.497662;\W0.999987;ø50
 11
0.999992968683656
 21
-0.0037500110997827
 31
0.0
 73
     1
 44
1.0
  0
MTEXT
  5
16C
330
70
100
AcDbEntity
  8
text
100
AcDbMText
 10
124.8651604234278
 20
189.7861761678312
 30
0.0
 40
0.2
 41
0.0
 46
0.0
 71
     7
 72
     1
  1
\C7;\FINDEX Univers 45 Light|b0|i0|c1;\H2.497667;\W1.000000;150
 11
0.0000000000000001
 21
1.0
 31
0.0
 73
     1
 44
1.0
  0
MTEXT
  5
16D
330
70
100
AcDbEntity
  8
text
100
AcDbMText
 10
124.512210390964
 20
239.0122842826948
 30
0.0
 40
0.2
 41
0.0
 46
0.0
 71
     7
 72
     1
  1
\C7;\FINDEX Univers 45 Light|b0|i0|c1;\H2.497667;\W1.000000;25
 11
0.0000000000000001
 21
1.0
 31
0.0
 73
     1
 44
1.0
  0
MTEXT
  5
16E
330
70
100
AcDbEntity
  8
text
100
AcDbMText
 10
45.31006807678013
 20
146.4976901217957
 30
0.0
 40
0.2
 41
0.0
 46
0.0
 71
     7
 72
     1
  1
\C7;\FINDEX Univers 45 Light|b0|i0|c1;\H2.497667;\W1.000000;ø12H5
 73
     1
 44
1.0
  0
MTEXT
  5
16F
330
70
100
AcDbEntity
  8
text
100
AcDbMText
 10
44.95375907621816
 20
159.5688991571563
 30
0.0
 40
0.2
 41
0.0
 46
0.0
 71
     7
 72
     1
  1
\C7;\FINDEX Univers 45 Light|b0|i0|c1;\H2.497667;\W1.000000;36
 11
0.0000000000000001
 21
1.0
 31
0.0
 73
     1
 44
1.0
  0
LINE
  5
171
330
70
100
AcDbEntity
  8
bemaßung
 62
     7
370
     9
100
AcDbLine
 10
52.19731616833552
 20
205.4696258691442
 30
0.0
 11
52.19731616833552
 21
211.3109554423417
 31
0.0
  0
LINE
  5
172
330
70
100
AcDbEntity
  8
bemaßung
 62
     7
370
     9
100
AcDbLine
 10
67.87250243509487
 20
210.2109238037392
 30
0.0
 11
52.19731616833552
 21
210.2109238037392
 31
0.0
  0
LWPOLYLINE
  5
173
330
70
100
AcDbEntity
  8
bemaßung
 62
     7
370
     9
100
AcDbPolyline
 90
        4
 70
     0
 43
0.0
 10
67.87250243509487
 20
210.2109238037392
 10
66.49740997017641
 20
210.3921457435603
 10
66.49740997017641
 20
210.0299135305794
 10
67.87250243509487
 20
210.2109238037392
  0
LINE
  5
174
330
70
100
AcDbEntity
  8
bemaßung
 62
     7
370
     9
100
AcDbLine
 10
66.49740997017641
 20
210.3785285216855
 30
0.0
 11
66.59922163424564
 21
210.3785285216855
 31
0.0
  0
LINE
  5
175
330
70
100
AcDbEntity
  8
bemaßung
 62
     7
370
     9
100
AcDbLine
 10
66.49740997017641
 20
210.3785285216855
 30
0.0
 11
66.59922163424564
 21
210.3785285216855
 31
0.0
  0
LINE
  5
176
330
70
100
AcDbEntity
  8
bemaßung
 62
     7
370
     9
100
AcDbLine
 10
66.49740997017641
 20
210.3506238001751
 30
0.0
 11
66.81159385104979
 21
210.3506238001751
 31
0.0
  0
LINE
  5
177
330
70
100
AcDbEntity
  8
bemaßung
 62
     7
370
     9
100
AcDbLine
 10
66.49740997017641
 20
210.3227190786649
 30
0.0
 11
67.02364856786205
 21
210.3227190786649
 31
0.0
  0
LINE
  5
178
330
70
100
AcDbEntity
  8
bemaßung
 62
     7
370
     9
100
AcDbLine
 10
66.49740997017641
 20
210.2948143571545
 30
0.0
 11
67.23584439578181
 21
210.2948143571545
 31
0.0
  0
LINE
  5
179
330
70
100
AcDbEntity
  8
bemaßung
 62
     7
370
     9
100
AcDbLine
 10
66.49740997017641
 20
210.2667332467598
 30
0.0
 11
67.44807550147846
 21
210.2667332467598
 31
0.0
  0
LINE
  5
17A
330
70
100
AcDbEntity
  8
bemaßung
 62
     7
370
     9
100
AcDbLine
 10
66.49740997017641
 20
210.2388285252495
 30
0.0
 11
67.6604829960595
 21
210.2388285252495
 31
0.0
  0
LINE
  5
17B
330
70
100
AcDbEntity
  8
bemaßung
 62
     7
370
     9
100
AcDbLine
 10
66.49740997017641
 20
210.2109238037392
 30
0.0
 11
67.87250243509487
 21
210.2109238037392
 31
0.0
  0
LINE
  5
17C
330
70
100
AcDbEntity
  8
bemaßung
 62
     7
370
     9
100
AcDbLine
 10
66.49740997017641
 20
210.0434954746773
 30
0.0
 11
66.59922163424564
 21
210.0434954746773
 31
0.0
  0
LINE
  5
17D
330
70
100
AcDbEntity
  8
bemaßung
 62
     7
370
     9
100
AcDbLine
 10
66.49740997017641
 20
210.0434954746773
 30
0.0
 11
66.59922163424564
 21
210.0434954746773
 31
0.0
  0
LINE
  5
17E
330
70
100
AcDbEntity
  8
bemaßung
 62
     7
370
     9
100
AcDbLine
 10
66.49740997017641
 20
210.0714055030378
 30
0.0
 11
66.81159385104979
 21
210.0714055030378
 31
0.0
  0
LINE
  5
17F
330
70
100
AcDbEntity
  8
bemaßung
 62
     7
370
     9
100
AcDbLine
 10
66.49740997017641
 20
210.099304917698
 30
0.0
 11
67.02364856786205
 21
210.099304917698
 31
0.0
  0
LINE
  5
180
330
70
100
AcDbEntity
  8
bemaßung
 62
     7
370
     9
100
AcDbLine
 10
66.49740997017641
 20
210.1272096392083
 30
0.0
 11
67.23584439578181
 21
210.1272096392083
 31
0.0
  0
LINE
  5
181
330
70
100
AcDbEntity
  8
bemaßung
 62
     7
370
     9
100
AcDbLine
 10
66.49740997017641
 20
210.1551143607186
 30
0.0
 11
67.44807550147846
 21
210.1551143607186
 31
0.0
  0
LINE
  5
182
330
70
100
AcDbEntity
  8
bemaßung
 62
     7
370
     9
100
AcDbLine
 10
66.49740997017641
 20
210.1831954711133
 30
0.0
 11
67.6604829960595
 21
210.1831954711133
 31
0.0
  0
LINE
  5
183
330
70
100
AcDbEntity
  8
bemaßung
 62
     7
370
     9
100
AcDbLine
 10
66.49740997017641
 20
210.2109238037392
 30
0.0
 11
67.87250243509487
 21
210.2109238037392
 31
0.0
  0
LWPOLYLINE
  5
184
330
70
100
AcDbEntity
  8
bemaßung
 62
     7
370
     9
100
AcDbPolyline
 90
        4
 70
     0
 43
0.0
 10
52.19731616833552
 20
210.2109238037392
 10
53.57244391103087
 20
210.0299135305794
 10
53.57244391103087
 20
210.3921457435603
 10
52.19731616833552
 20
210.2109238037392
  0
LINE
  5
185
330
70
100
AcDbEntity
  8
bemaßung
 62
     7
370
     9
100
AcDbLine
 10
53.57244391103087
 20
210.0434954746773
 30
0.0
 11
53.47080863584602
 21
210.0434954746773
 31
0.0
  0
LINE
  5
186
330
70
100
AcDbEntity
  8
bemaßung
 62
     7
370
     9
100
AcDbLine
 10
53.57244391103087
 20
210.0434954746773
 30
0.0
 11
53.47080863584602
 21
210.0434954746773
 31
0.0
  0
LINE
  5
187
330
70
100
AcDbEntity
  8
bemaßung
 62
     7
370
     9
100
AcDbLine
 10
53.57244391103087
 20
210.0714055030378
 30
0.0
 11
53.25857753014938
 21
210.0714055030378
 31
0.0
  0
LINE
  5
188
330
70
100
AcDbEntity
  8
bemaßung
 62
     7
370
     9
100
AcDbLine
 10
53.57244391103087
 20
210.099304917698
 30
0.0
 11
53.04620531334522
 21
210.099304917698
 31
0.0
  0
LINE
  5
189
330
70
100
AcDbEntity
  8
bemaßung
 62
     7
370
     9
100
AcDbLine
 10
53.57244391103087
 20
210.1272096392083
 30
0.0
 11
52.83432698541735
 21
210.1272096392083
 31
0.0
  0
LINE
  5
18A
330
70
100
AcDbEntity
  8
bemaßung
 62
     7
370
     9
100
AcDbLine
 10
53.57244391103087
 20
210.1551143607186
 30
0.0
 11
52.6219547686132
 21
210.1551143607186
 31
0.0
  0
LINE
  5
18B
330
70
100
AcDbEntity
  8
bemaßung
 62
     7
370
     9
100
AcDbLine
 10
53.57244391103087
 20
210.1831954711133
 30
0.0
 11
52.4097249868976
 21
210.1831954711133
 31
0.0
  0
LINE
  5
18C
330
70
100
AcDbEntity
  8
bemaßung
 62
     7
370
     9
100
AcDbLine
 10
53.57244391103087
 20
210.2109238037392
 30
0.0
 11
52.19731616833552
 21
210.2109238037392
 31
0.0
  0
LINE
  5
18D
330
70
100
AcDbEntity
  8
bemaßung
 62
     7
370
     9
100
AcDbLine
 10
53.57244391103087
 20
210.3785285216855
 30
0.0
 11
53.47080863584602
 21
210.3785285216855
 31
0.0
  0
LINE
  5
18E
330
70
100
AcDbEntity
  8
bemaßung
 62
     7
370
     9
100
AcDbLine
 10
53.57244391103087
 20
210.3785285216855
 30
0.0
 11
53.47080863584602
 21
210.3785285216855
 31
0.0
  0
LINE
  5
18F
330
70
100
AcDbEntity
  8
bemaßung
 62
     7
370
     9
100
AcDbLine
 10
53.57244391103087
 20
210.3506238001751
 30
0.0
 11
53.25857753014938
 21
210.3506238001751
 31
0.0
  0
LINE
  5
190
330
70
100
AcDbEntity
  8
bemaßung
 62
     7
370
     9
100
AcDbLine
 10
53.57244391103087
 20
210.3227190786649
 30
0.0
 11
53.04620531334522
 21
210.3227190786649
 31
0.0
  0
LINE
  5
191
330
70
100
AcDbEntity
  8
bemaßung
 62
     7
370
     9
100
AcDbLine
 10
53.57244391103087
 20
210.2948143571545
 30
0.0
 11
52.83432698541735
 21
210.2948143571545
 31
0.0
  0
LINE
  5
192
330
70
100
AcDbEntity
  8
bemaßung
 62
     7
370
     9
100
AcDbLine
 10
53.57244391103087
 20
210.2667332467598
 30
0.0
 11
52.6219547686132
 21
210.2667332467598
 31
0.0
  0
LINE
  5
193
330
70
100
AcDbEntity
  8
bemaßung
 62
     7
370
     9
100
AcDbLine
 10
53.57244391103087
 20
210.2388285252495
 30
0.0
 11
52.4097249868976
 21
210.2388285252495
 31
0.0
  0
LINE
  5
194
330
70
100
AcDbEntity
  8
bemaßung
 62
     7
370
     9
100
AcDbLine
 10
53.57244391103087
 20
210.2109238037392
 30
0.0
 11
52.19731616833552
 21
210.2109238037392
 31
0.0
  0
LINE
  5
195
330
70
100
AcDbEntity
  8
bemaßung
 62
     7
370
     9
100
AcDbLine
 10
90.31749408469766
 20
201.069534592511
 30
0.0
 11
90.35157241716158
 21
209.5406813208385
 31
0.0
  0
LINE
  5
196
330
70
100
AcDbEntity
  8
bemaßung
 62
     7
370
     9
100
AcDbLine
 10
117.7729883842496
 20
200.9594679286524
 30
0.0
 11
117.8067492167216
 21
209.550705503168
 31
0.0
  0
LINE
  5
197
330
70
100
AcDbEntity
  8
bemaßung
 62
     7
370
     9
100
AcDbLine
 10
90.34712741727497
 20
208.4410024600048
 30
0.0
 11
117.8029744945957
 21
208.4508449597537
 31
0.0
  0
LWPOLYLINE
  5
198
330
70
100
AcDbEntity
  8
bemaßung
 62
     7
370
     9
100
AcDbPolyline
 90
        4
 70
     0
 43
0.0
 10
90.34712741727497
 20
208.4410024600048
 10
91.72137321554838
 20
208.2542771869908
 10
91.72274904884661
 20
208.6163682888642
 10
90.34712741727497
 20
208.4410024600048
  0
LINE
  5
199
330
70
100
AcDbEntity
  8
bemaßung
 62
     7
370
     9
100
AcDbLine
 10
91.72137321554838
 20
208.2677180199812
 30
0.0
 11
91.61973794036354
 21
208.2682471866343
 31
0.0
  0
LINE
  5
19A
330
70
100
AcDbEntity
  8
bemaßung
 62
     7
370
     9
100
AcDbLine
 10
91.72137321554838
 20
208.2677180199812
 30
0.0
 11
91.61973794036354
 21
208.2682471866343
 31
0.0
  0
LINE
  5
19B
330
70
100
AcDbEntity
  8
bemaßung
 62
     7
370
     9
100
AcDbLine
 10
91.72137321554838
 20
208.2956227414915
 30
0.0
 11
91.4075068346669
 21
208.2969985747897
 31
0.0
  0
LINE
  5
19C
330
70
100
AcDbEntity
  8
bemaßung
 62
     7
370
     9
100
AcDbLine
 10
91.72169071554028
 20
208.3235274630018
 30
0.0
 11
91.19562850673901
 21
208.3259616296064
 31
0.0
  0
LINE
  5
19D
330
70
100
AcDbEntity
  8
bemaßung
 62
     7
370
     9
100
AcDbLine
 10
91.72204349330906
 20
208.3514321845121
 30
0.0
 11
90.98343267881926
 21
208.3545366288774
 31
0.0
  0
LINE
  5
19E
330
70
100
AcDbEntity
  8
bemaßung
 62
     7
370
     9
100
AcDbLine
 10
91.72204349330906
 20
208.3795132949068
 30
0.0
 11
90.77155435089139
 21
208.3831469059252
 31
0.0
  0
LINE
  5
19F
330
70
100
AcDbEntity
  8
bemaßung
 62
     7
370
     9
100
AcDbLine
 10
91.72204349330906
 20
208.4074180164172
 30
0.0
 11
90.55897046742597
 21
208.412074682965
 31
0.0
  0
LINE
  5
1A0
330
70
100
AcDbEntity
  8
bemaßung
 62
     7
370
     9
100
AcDbLine
 10
91.72204349330906
 20
208.4353227379275
 30
0.0
 11
90.34712741727497
 21
208.4410024600048
 31
0.0
  0
LINE
  5
1A1
330
70
100
AcDbEntity
  8
bemaßung
 62
     7
370
     9
100
AcDbLine
 10
91.72274904884661
 20
208.6031038447581
 30
0.0
 11
91.62111377366176
 21
208.6032802336425
 31
0.0
  0
LINE
  5
1A2
330
70
100
AcDbEntity
  8
bemaßung
 62
     7
370
     9
100
AcDbLine
 10
91.72274904884661
 20
208.6031038447581
 30
0.0
 11
91.62111377366176
 21
208.6032802336425
 31
0.0
  0
LINE
  5
1A3
330
70
100
AcDbEntity
  8
bemaßung
 62
     7
370
     9
100
AcDbLine
 10
91.72274904884661
 20
208.5751991232478
 30
0.0
 11
91.40888266796512
 21
208.5762221787772
 31
0.0
  0
LINE
  5
1A4
330
70
100
AcDbEntity
  8
bemaßung
 62
     7
370
     9
100
AcDbLine
 10
91.72274904884661
 20
208.5472944017375
 30
0.0
 11
91.19633406227658
 21
208.5491994016889
 31
0.0
  0
LINE
  5
1A5
330
70
100
AcDbEntity
  8
bemaßung
 62
     7
370
     9
100
AcDbLine
 10
91.72239627107783
 20
208.5193896802272
 30
0.0
 11
90.98410295657993
 21
208.5219649579392
 31
0.0
  0
LINE
  5
1A6
330
70
100
AcDbEntity
  8
bemaßung
 62
     7
370
     9
100
AcDbLine
 10
91.72239627107783
 20
208.4914849587168
 30
0.0
 11
90.77190712866016
 21
208.4951185697353
 31
0.0
  0
LINE
  5
1A7
330
70
100
AcDbEntity
  8
bemaßung
 62
     7
370
     9
100
AcDbLine
 10
91.72239627107783
 20
208.4632274594378
 30
0.0
 11
90.55932324519474
 21
208.4678841259857
 31
0.0
  0
LINE
  5
1A8
330
70
100
AcDbEntity
  8
bemaßung
 62
     7
370
     9
100
AcDbLine
 10
91.72204349330906
 20
208.4353227379275
 30
0.0
 11
90.34712741727497
 21
208.4410024600048
 31
0.0
  0
LWPOLYLINE
  5
1A9
330
70
100
AcDbEntity
  8
bemaßung
 62
     7
370
     9
100
AcDbPolyline
 90
        4
 70
     0
 43
0.0
 10
117.8029744945957
 20
208.4508449597537
 10
116.4280231407847
 20
208.6373938438833
 10
116.4266473074865
 20
208.2754791308943
 10
117.8029744945957
 20
208.4508449597537
  0
LINE
  5
1AA
330
70
100
AcDbEntity
  8
bemaßung
 62
     7
370
     9
100
AcDbLine
 10
116.4280231407847
 20
208.6241293997773
 30
0.0
 11
116.5303639715072
 21
208.6234238442397
 31
0.0
  0
LINE
  5
1AB
330
70
100
AcDbEntity
  8
bemaßung
 62
     7
370
     9
100
AcDbLine
 10
116.4280231407847
 20
208.6241293997773
 30
0.0
 11
116.5303639715072
 21
208.6234238442397
 31
0.0
  0
LINE
  5
1AC
330
70
100
AcDbEntity
  8
bemaßung
 62
     7
370
     9
100
AcDbLine
 10
116.4280231407847
 20
208.596224678267
 30
0.0
 11
116.742242299435
 21
208.5944960671999
 31
0.0
  0
LINE
  5
1AD
330
70
100
AcDbEntity
  8
bemaßung
 62
     7
370
     9
100
AcDbLine
 10
116.4277056407929
 20
208.5683199567566
 30
0.0
 11
116.954085349586
 21
208.5660621790365
 31
0.0
  0
LINE
  5
1AE
330
70
100
AcDbEntity
  8
bemaßung
 62
     7
370
     9
100
AcDbLine
 10
116.4277056407929
 20
208.540238846362
 30
0.0
 11
117.1659666373751
 21
208.5371344019967
 31
0.0
  0
LINE
  5
1AF
330
70
100
AcDbEntity
  8
bemaßung
 62
     7
370
     9
100
AcDbLine
 10
116.4277056407929
 20
208.5123341248516
 30
0.0
 11
117.3785475609793
 21
208.5085594027257
 31
0.0
  0
LINE
  5
1B0
330
70
100
AcDbEntity
  8
bemaßung
 62
     7
370
     9
100
AcDbLine
 10
116.4277056407929
 20
208.4844294033413
 30
0.0
 11
117.5903906111303
 21
208.4797727367934
 31
0.0
  0
LINE
  5
1B1
330
70
100
AcDbEntity
  8
bemaßung
 62
     7
370
     9
100
AcDbLine
 10
116.4277056407929
 20
208.456524681831
 30
0.0
 11
117.8029744945957
 21
208.4508449597537
 31
0.0
  0
LINE
  5
1B2
330
70
100
AcDbEntity
  8
bemaßung
 62
     7
370
     9
100
AcDbLine
 10
116.4266473074865
 20
208.2887435750003
 30
0.0
 11
116.5289881382089
 21
208.2882144083471
 31
0.0
  0
LINE
  5
1B3
330
70
100
AcDbEntity
  8
bemaßung
 62
     7
370
     9
100
AcDbLine
 10
116.4266473074865
 20
208.2887435750003
 30
0.0
 11
116.5289881382089
 21
208.2882144083471
 31
0.0
  0
LINE
  5
1B4
330
70
100
AcDbEntity
  8
bemaßung
 62
     7
370
     9
100
AcDbLine
 10
116.4266473074865
 20
208.3166482965106
 30
0.0
 11
116.7408311883599
 21
208.3154488520968
 31
0.0
  0
LINE
  5
1B5
330
70
100
AcDbEntity
  8
bemaßung
 62
     7
370
     9
100
AcDbLine
 10
116.4270000852553
 20
208.344558281247
 30
0.0
 11
116.9534150718253
 21
208.3424716291852
 31
0.0
  0
LINE
  5
1B6
330
70
100
AcDbEntity
  8
bemaßung
 62
     7
370
     9
100
AcDbLine
 10
116.4270000852553
 20
208.3724577395313
 30
0.0
 11
117.1656138595973
 21
208.3695296840504
 31
0.0
  0
LINE
  5
1B7
330
70
100
AcDbEntity
  8
bemaßung
 62
     7
370
     9
100
AcDbLine
 10
116.4270000852553
 20
208.4003624610416
 30
0.0
 11
117.3778420054418
 21
208.3967693923452
 31
0.0
  0
LINE
  5
1B8
330
70
100
AcDbEntity
  8
bemaßung
 62
     7
370
     9
100
AcDbLine
 10
116.4270000852553
 20
208.4282671825519
 30
0.0
 11
117.5903906111303
 21
208.423610516004
 31
0.0
  0
LINE
  5
1B9
330
70
100
AcDbEntity
  8
bemaßung
 62
     7
370
     9
100
AcDbLine
 10
116.4277056407929
 20
208.456524681831
 30
0.0
 11
117.8029744945957
 21
208.4508449597537
 31
0.0
  0
LINE
  5
1BA
330
70
100
AcDbEntity
  8
bemaßung
 62
     7
370
     9
100
AcDbLine
 10
111.2007738296985
 20
151.5693808553651
 30
0.0
 11
126.719780524103
 21
151.5693808553651
 31
0.0
  0
LINE
  5
1BB
330
70
100
AcDbEntity
  8
bemaßung
 62
     7
370
     9
100
AcDbLine
 10
113.9230893158021
 20
234.0694254172803
 30
0.0
 11
126.719780524103
 21
234.0694254172803
 31
0.0
  0
LINE
  5
1BC
330
70
100
AcDbEntity
  8
bemaßung
 62
     7
370
     9
100
AcDbLine
 10
125.6194281716668
 20
151.5693808553651
 30
0.0
 11
125.6194281716668
 21
234.0694254172803
 31
0.0
  0
LWPOLYLINE
  5
1BD
330
70
100
AcDbEntity
  8
bemaßung
 62
     7
370
     9
100
AcDbPolyline
 90
        4
 70
     0
 43
0.0
 10
125.6194281716668
 20
151.5693808553651
 10
125.8006501114879
 20
152.9443360728749
 10
125.4389117873833
 20
152.9443360728749
 10
125.6194281716668
 20
151.5693808553651
  0
LINE
  5
1BE
330
70
100
AcDbEntity
  8
bemaßung
 62
     7
370
     9
100
AcDbLine
 10
125.7868565007287
 20
152.9443360728749
 30
0.0
 11
125.7868565007287
 21
152.8426969339913
 31
0.0
  0
LINE
  5
1BF
330
70
100
AcDbEntity
  8
bemaßung
 62
     7
370
     9
100
AcDbLine
 10
125.7868565007287
 20
152.9443360728749
 30
0.0
 11
125.7868565007287
 21
152.8426969339913
 31
0.0
  0
LINE
  5
1C0
330
70
100
AcDbEntity
  8
bemaßung
 62
     7
370
     9
100
AcDbLine
 10
125.7593045569871
 20
152.9443360728749
 30
0.0
 11
125.7593045569871
 21
152.630642217179
 31
0.0
  0
LINE
  5
1C1
330
70
100
AcDbEntity
  8
bemaßung
 62
     7
370
     9
100
AcDbLine
 10
125.7310470577081
 20
152.9443360728749
 30
0.0
 11
125.7310470577081
 21
152.4182700003748
 31
0.0
  0
LINE
  5
1C2
330
70
100
AcDbEntity
  8
bemaßung
 62
     7
370
     9
100
AcDbLine
 10
125.7034951139665
 20
152.9443360728749
 30
0.0
 11
125.7034951139665
 21
152.2062152835626
 31
0.0
  0
LINE
  5
1C3
330
70
100
AcDbEntity
  8
bemaßung
 62
     7
370
     9
100
AcDbLine
 10
125.6752376146874
 20
152.9443360728749
 30
0.0
 11
125.6752376146874
 21
151.9938077889815
 31
0.0
  0
LINE
  5
1C4
330
70
100
AcDbEntity
  8
bemaßung
 62
     7
370
     9
100
AcDbLine
 10
125.6476888577048
 20
152.9443360728749
 30
0.0
 11
125.6476888577048
 21
151.7817883499462
 31
0.0
  0
LINE
  5
1C5
330
70
100
AcDbEntity
  8
bemaßung
 62
     7
370
     9
100
AcDbLine
 10
125.6194281716668
 20
152.9443360728749
 30
0.0
 11
125.6194281716668
 21
151.5693808553651
 31
0.0
  0
LINE
  5
1C6
330
70
100
AcDbEntity
  8
bemaßung
 62
     7
370
     9
100
AcDbLine
 10
125.4516470648361
 20
152.9443360728749
 30
0.0
 11
125.4516470648361
 21
152.8426969339913
 31
0.0
  0
LINE
  5
1C7
330
70
100
AcDbEntity
  8
bemaßung
 62
     7
370
     9
100
AcDbLine
 10
125.4516470648361
 20
152.9443360728749
 30
0.0
 11
125.4516470648361
 21
152.8426969339913
 31
0.0
  0
LINE
  5
1C8
330
70
100
AcDbEntity
  8
bemaßung
 62
     7
370
     9
100
AcDbLine
 10
125.4795517863464
 20
152.9443360728749
 30
0.0
 11
125.4795517863464
 21
152.630642217179
 31
0.0
  0
LINE
  5
1C9
330
70
100
AcDbEntity
  8
bemaßung
 62
     7
370
     9
100
AcDbLine
 10
125.5081620633943
 20
152.9443360728749
 30
0.0
 11
125.5081620633943
 21
152.4182700003748
 31
0.0
  0
LINE
  5
1CA
330
70
100
AcDbEntity
  8
bemaßung
 62
     7
370
     9
100
AcDbLine
 10
125.5360667849046
 20
152.9443360728749
 30
0.0
 11
125.5360667849046
 21
152.2062152835626
 31
0.0
  0
LINE
  5
1CB
330
70
100
AcDbEntity
  8
bemaßung
 62
     7
370
     9
100
AcDbLine
 10
125.5636187286462
 20
152.9443360728749
 30
0.0
 11
125.5636187286462
 21
151.9938077889815
 31
0.0
  0
LINE
  5
1CC
330
70
100
AcDbEntity
  8
bemaßung
 62
     7
370
     9
100
AcDbLine
 10
125.5918762279253
 20
152.9443360728749
 30
0.0
 11
125.5918762279253
 21
151.7817883499462
 31
0.0
  0
LINE
  5
1CD
330
70
100
AcDbEntity
  8
bemaßung
 62
     7
370
     9
100
AcDbLine
 10
125.6194281716668
 20
152.9443360728749
 30
0.0
 11
125.6194281716668
 21
151.5693808553651
 31
0.0
  0
LWPOLYLINE
  5
1CE
330
70
100
AcDbEntity
  8
bemaßung
 62
     7
370
     9
100
AcDbPolyline
 90
        4
 70
     0
 43
0.0
 10
125.6194281716668
 20
234.0694254172803
 10
125.4389117873833
 20
232.6944740634694
 10
125.8006501114879
 20
232.6944740634694
 10
125.6194281716668
 20
234.0694254172803
  0
LINE
  5
1CF
330
70
100
AcDbEntity
  8
bemaßung
 62
     7
370
     9
100
AcDbLine
 10
125.4516470648361
 20
232.6944740634694
 30
0.0
 11
125.4516470648361
 21
232.7961093386543
 31
0.0
  0
LINE
  5
1D0
330
70
100
AcDbEntity
  8
bemaßung
 62
     7
370
     9
100
AcDbLine
 10
125.4516470648361
 20
232.6944740634694
 30
0.0
 11
125.4516470648361
 21
232.7961093386543
 31
0.0
  0
LINE
  5
1D1
330
70
100
AcDbEntity
  8
bemaßung
 62
     7
370
     9
100
AcDbLine
 10
125.4795517863464
 20
232.6944740634694
 30
0.0
 11
125.4795517863464
 21
233.0081640554665
 31
0.0
  0
LINE
  5
1D2
330
70
100
AcDbEntity
  8
bemaßung
 62
     7
370
     9
100
AcDbLine
 10
125.5081620633943
 20
232.6944740634694
 30
0.0
 11
125.5081620633943
 21
233.2205715500475
 31
0.0
  0
LINE
  5
1D3
330
70
100
AcDbEntity
  8
bemaßung
 62
     7
370
     9
100
AcDbLine
 10
125.5360667849046
 20
232.6944740634694
 30
0.0
 11
125.5360667849046
 21
233.4329437668517
 31
0.0
  0
LINE
  5
1D4
330
70
100
AcDbEntity
  8
bemaßung
 62
     7
370
     9
100
AcDbLine
 10
125.5636187286462
 20
232.6944740634694
 30
0.0
 11
125.5636187286462
 21
233.6449984836639
 31
0.0
  0
LINE
  5
1D5
330
70
100
AcDbEntity
  8
bemaßung
 62
     7
370
     9
100
AcDbLine
 10
125.5918762279253
 20
232.6944740634694
 30
0.0
 11
125.5918762279253
 21
233.8570532004762
 31
0.0
  0
LINE
  5
1D6
330
70
100
AcDbEntity
  8
bemaßung
 62
     7
370
     9
100
AcDbLine
 10
125.6194281716668
 20
232.6944740634694
 30
0.0
 11
125.6194281716668
 21
234.0694254172803
 31
0.0
  0
LINE
  5
1D7
330
70
100
AcDbEntity
  8
bemaßung
 62
     7
370
     9
100
AcDbLine
 10
125.7868565007287
 20
232.6944740634694
 30
0.0
 11
125.7868565007287
 21
232.7961093386543
 31
0.0
  0
LINE
  5
1D8
330
70
100
AcDbEntity
  8
bemaßung
 62
     7
370
     9
100
AcDbLine
 10
125.7868565007287
 20
232.6944740634694
 30
0.0
 11
125.7868565007287
 21
232.7961093386543
 31
0.0
  0
LINE
  5
1D9
330
70
100
AcDbEntity
  8
bemaßung
 62
     7
370
     9
100
AcDbLine
 10
125.7593045569871
 20
232.6944740634694
 30
0.0
 11
125.7593045569871
 21
233.0081640554665
 31
0.0
  0
LINE
  5
1DA
330
70
100
AcDbEntity
  8
bemaßung
 62
     7
370
     9
100
AcDbLine
 10
125.7310470577081
 20
232.6944740634694
 30
0.0
 11
125.7310470577081
 21
233.2205715500475
 31
0.0
  0
LINE
  5
1DB
330
70
100
AcDbEntity
  8
bemaßung
 62
     7
370
     9
100
AcDbLine
 10
125.7034951139665
 20
232.6944740634694
 30
0.0
 11
125.7034951139665
 21
233.4329437668517
 31
0.0
  0
LINE
  5
1DC
330
70
100
AcDbEntity
  8
bemaßung
 62
     7
370
     9
100
AcDbLine
 10
125.6752376146874
 20
232.6944740634694
 30
0.0
 11
125.6752376146874
 21
233.6449984836639
 31
0.0
  0
LINE
  5
1DD
330
70
100
AcDbEntity
  8
bemaßung
 62
     7
370
     9
100
AcDbLine
 10
125.6476888577048
 20
232.6944740634694
 30
0.0
 11
125.6476888577048
 21
233.8570532004762
 31
0.0
  0
LINE
  5
1DE
330
70
100
AcDbEntity
  8
bemaßung
 62
     7
370
     9
100
AcDbLine
 10
125.6194281716668
 20
232.6944740634694
 30
0.0
 11
125.6194281716668
 21
234.0694254172803
 31
0.0
  0
LINE
  5
1DF
330
70
100
AcDbEntity
  8
bemaßung
 62
     7
370
     9
100
AcDbLine
 10
109.5233888615077
 20
247.76436423456
 30
0.0
 11
126.719780524103
 21
247.76436423456
 31
0.0
  0
LINE
  5
1E0
330
70
100
AcDbEntity
  8
bemaßung
 62
     7
370
     9
100
AcDbLine
 10
125.6194281716668
 20
247.76436423456
 30
0.0
 11
125.6194281716668
 21
234.0694254172803
 31
0.0
  0
LWPOLYLINE
  5
1E1
330
70
100
AcDbEntity
  8
bemaßung
 62
     7
370
     9
100
AcDbPolyline
 90
        4
 70
     0
 43
0.0
 10
125.6194281716668
 20
247.76436423456
 10
125.4389117873833
 20
246.3892717696416
 10
125.8006501114879
 20
246.3892717696416
 10
125.6194281716668
 20
247.76436423456
  0
LINE
  5
1E2
330
70
100
AcDbEntity
  8
bemaßung
 62
     7
370
     9
100
AcDbLine
 10
125.4516470648361
 20
246.3892717696416
 30
0.0
 11
125.4516470648361
 21
246.4912245448183
 31
0.0
  0
LINE
  5
1E3
330
70
100
AcDbEntity
  8
bemaßung
 62
     7
370
     9
100
AcDbLine
 10
125.4516470648361
 20
246.3892717696416
 30
0.0
 11
125.4516470648361
 21
246.4912245448183
 31
0.0
  0
LINE
  5
1E4
330
70
100
AcDbEntity
  8
bemaßung
 62
     7
370
     9
100
AcDbLine
 10
125.4795517863464
 20
246.3892717696416
 30
0.0
 11
125.4795517863464
 21
246.7032792616306
 31
0.0
  0
LINE
  5
1E5
330
70
100
AcDbEntity
  8
bemaßung
 62
     7
370
     9
100
AcDbLine
 10
125.5081620633943
 20
246.3892717696416
 30
0.0
 11
125.5081620633943
 21
246.9155166049377
 31
0.0
  0
LINE
  5
1E6
330
70
100
AcDbEntity
  8
bemaßung
 62
     7
370
     9
100
AcDbLine
 10
125.5360667849046
 20
246.3892717696416
 30
0.0
 11
125.5360667849046
 21
247.1278888271071
 31
0.0
  0
LINE
  5
1E7
330
70
100
AcDbEntity
  8
bemaßung
 62
     7
370
     9
100
AcDbLine
 10
125.5636187286462
 20
246.3892717696416
 30
0.0
 11
125.5636187286462
 21
247.340113689828
 31
0.0
  0
LINE
  5
1E8
330
70
100
AcDbEntity
  8
bemaßung
 62
     7
370
     9
100
AcDbLine
 10
125.5918762279253
 20
246.3892717696416
 30
0.0
 11
125.5918762279253
 21
247.5521684066403
 31
0.0
  0
LINE
  5
1E9
330
70
100
AcDbEntity
  8
bemaßung
 62
     7
370
     9
100
AcDbLine
 10
125.6194281716668
 20
246.3892717696416
 30
0.0
 11
125.6194281716668
 21
247.76436423456
 31
0.0
  0
LINE
  5
1EA
330
70
100
AcDbEntity
  8
bemaßung
 62
     7
370
     9
100
AcDbLine
 10
125.7868565007287
 20
246.3892717696416
 30
0.0
 11
125.7868565007287
 21
246.4912245448183
 31
0.0
  0
LINE
  5
1EB
330
70
100
AcDbEntity
  8
bemaßung
 62
     7
370
     9
100
AcDbLine
 10
125.7868565007287
 20
246.3892717696416
 30
0.0
 11
125.7868565007287
 21
246.4912245448183
 31
0.0
  0
LINE
  5
1EC
330
70
100
AcDbEntity
  8
bemaßung
 62
     7
370
     9
100
AcDbLine
 10
125.7593045569871
 20
246.3892717696416
 30
0.0
 11
125.7593045569871
 21
246.7032792616306
 31
0.0
  0
LINE
  5
1ED
330
70
100
AcDbEntity
  8
bemaßung
 62
     7
370
     9
100
AcDbLine
 10
125.7310470577081
 20
246.3892717696416
 30
0.0
 11
125.7310470577081
 21
246.9155166049377
 31
0.0
  0
LINE
  5
1EE
330
70
100
AcDbEntity
  8
bemaßung
 62
     7
370
     9
100
AcDbLine
 10
125.7034951139665
 20
246.3892717696416
 30
0.0
 11
125.7034951139665
 21
247.1278888271071
 31
0.0
  0
LINE
  5
1EF
330
70
100
AcDbEntity
  8
bemaßung
 62
     7
370
     9
100
AcDbLine
 10
125.6752376146874
 20
246.3892717696416
 30
0.0
 11
125.6752376146874
 21
247.340113689828
 31
0.0
  0
LINE
  5
1F0
330
70
100
AcDbEntity
  8
bemaßung
 62
     7
370
     9
100
AcDbLine
 10
125.6476888577048
 20
246.3892717696416
 30
0.0
 11
125.6476888577048
 21
247.5521684066403
 31
0.0
  0
LINE
  5
1F1
330
70
100
AcDbEntity
  8
bemaßung
 62
     7
370
     9
100
AcDbLine
 10
125.6194281716668
 20
246.3892717696416
 30
0.0
 11
125.6194281716668
 21
247.76436423456
 31
0.0
  0
LWPOLYLINE
  5
1F2
330
70
100
AcDbEntity
  8
bemaßung
 62
     7
370
     9
100
AcDbPolyline
 90
        4
 70
     0
 43
0.0
 10
125.6194281716668
 20
234.0694254172803
 10
125.8006501114879
 20
235.4443767710913
 10
125.4389117873833
 20
235.4443767710913
 10
125.6194281716668
 20
234.0694254172803
  0
LINE
  5
1F3
330
70
100
AcDbEntity
  8
bemaßung
 62
     7
370
     9
100
AcDbLine
 10
125.7868565007287
 20
235.4443767710913
 30
0.0
 11
125.7868565007287
 21
235.3427414959065
 31
0.0
  0
LINE
  5
1F4
330
70
100
AcDbEntity
  8
bemaßung
 62
     7
370
     9
100
AcDbLine
 10
125.7868565007287
 20
235.4443767710913
 30
0.0
 11
125.7868565007287
 21
235.3427414959065
 31
0.0
  0
LINE
  5
1F5
330
70
100
AcDbEntity
  8
bemaßung
 62
     7
370
     9
100
AcDbLine
 10
125.7593045569871
 20
235.4443767710913
 30
0.0
 11
125.7593045569871
 21
235.1306867790942
 31
0.0
  0
LINE
  5
1F6
330
70
100
AcDbEntity
  8
bemaßung
 62
     7
370
     9
100
AcDbLine
 10
125.7310470577081
 20
235.4443767710913
 30
0.0
 11
125.7310470577081
 21
234.91831456229
 31
0.0
  0
LINE
  5
1F7
330
70
100
AcDbEntity
  8
bemaßung
 62
     7
370
     9
100
AcDbLine
 10
125.7034951139665
 20
235.4443767710913
 30
0.0
 11
125.7034951139665
 21
234.7062598454778
 31
0.0
  0
LINE
  5
1F8
330
70
100
AcDbEntity
  8
bemaßung
 62
     7
370
     9
100
AcDbLine
 10
125.6752376146874
 20
235.4443767710913
 30
0.0
 11
125.6752376146874
 21
234.49385827471
 31
0.0
  0
LINE
  5
1F9
330
70
100
AcDbEntity
  8
bemaßung
 62
     7
370
     9
100
AcDbLine
 10
125.6476888577048
 20
235.4443767710913
 30
0.0
 11
125.6476888577048
 21
234.2818388303184
 31
0.0
  0
LINE
  5
1FA
330
70
100
AcDbEntity
  8
bemaßung
 62
     7
370
     9
100
AcDbLine
 10
125.6194281716668
 20
235.4443767710913
 30
0.0
 11
125.6194281716668
 21
234.0694254172803
 31
0.0
  0
LINE
  5
1FB
330
70
100
AcDbEntity
  8
bemaßung
 62
     7
370
     9
100
AcDbLine
 10
125.4516470648361
 20
235.4443767710913
 30
0.0
 11
125.4516470648361
 21
235.3427414959065
 31
0.0
  0
LINE
  5
1FC
330
70
100
AcDbEntity
  8
bemaßung
 62
     7
370
     9
100
AcDbLine
 10
125.4516470648361
 20
235.4443767710913
 30
0.0
 11
125.4516470648361
 21
235.3427414959065
 31
0.0
  0
LINE
  5
1FD
330
70
100
AcDbEntity
  8
bemaßung
 62
     7
370
     9
100
AcDbLine
 10
125.4795517863464
 20
235.4443767710913
 30
0.0
 11
125.4795517863464
 21
235.1306867790942
 31
0.0
  0
LINE
  5
1FE
330
70
100
AcDbEntity
  8
bemaßung
 62
     7
370
     9
100
AcDbLine
 10
125.5081620633943
 20
235.4443767710913
 30
0.0
 11
125.5081620633943
 21
234.91831456229
 31
0.0
  0
LINE
  5
1FF
330
70
100
AcDbEntity
  8
bemaßung
 62
     7
370
     9
100
AcDbLine
 10
125.5360667849046
 20
235.4443767710913
 30
0.0
 11
125.5360667849046
 21
234.7062598454778
 31
0.0
  0
LINE
  5
200
330
70
100
AcDbEntity
  8
bemaßung
 62
     7
370
     9
100
AcDbLine
 10
125.5636187286462
 20
235.4443767710913
 30
0.0
 11
125.5636187286462
 21
234.49385827471
 31
0.0
  0
LINE
  5
201
330
70
100
AcDbEntity
  8
bemaßung
 62
     7
370
     9
100
AcDbLine
 10
125.5918762279253
 20
235.4443767710913
 30
0.0
 11
125.5918762279253
 21
234.2818388303184
 31
0.0
  0
LINE
  5
202
330
70
100
AcDbEntity
  8
bemaßung
 62
     7
370
     9
100
AcDbLine
 10
125.6194281716668
 20
235.4443767710913
 30
0.0
 11
125.6194281716668
 21
234.0694254172803
 31
0.0
  0
LINE
  5
203
330
70
100
AcDbEntity
  8
bemaßung
 62
     7
370
     9
100
AcDbLine
 10
63.33514532863027
 20
151.5693808553651
 30
0.0
 11
63.33514532863027
 21
144.6602282538545
 31
0.0
  0
LINE
  5
204
330
70
100
AcDbEntity
  8
bemaßung
 62
     7
370
     9
100
AcDbLine
 10
56.73502605256889
 20
151.5693808553651
 30
0.0
 11
56.73502605256889
 21
144.6602282538545
 31
0.0
  0
LINE
  5
205
330
70
100
AcDbEntity
  8
bemaßung
 62
     7
370
     9
100
AcDbLine
 10
45.18208329175346
 20
145.7609654479946
 30
0.0
 11
68.14759853918769
 21
145.7609654479946
 31
0.0
  0
LWPOLYLINE
  5
206
330
70
100
AcDbEntity
  8
bemaßung
 62
     7
370
     9
100
AcDbPolyline
 90
        4
 70
     0
 43
0.0
 10
63.33514532863027
 20
145.7609654479946
 10
64.71094334908629
 20
145.5799198970579
 10
64.71094334908629
 20
145.9419757211544
 10
63.33514532863027
 20
145.7609654479946
  0
LINE
  5
207
330
70
100
AcDbEntity
  8
bemaßung
 62
     7
370
     9
100
AcDbLine
 10
64.71094334908629
 20
145.5933607300484
 30
0.0
 11
64.608285018372
 21
145.5933607300484
 31
0.0
  0
LINE
  5
208
330
70
100
AcDbEntity
  8
bemaßung
 62
     7
370
     9
100
AcDbLine
 10
64.71094334908629
 20
145.5933607300484
 30
0.0
 11
64.608285018372
 21
145.5933607300484
 31
0.0
  0
LINE
  5
209
330
70
100
AcDbEntity
  8
bemaßung
 62
     7
370
     9
100
AcDbLine
 10
64.71094334908629
 20
145.6212654515587
 30
0.0
 11
64.39605553945653
 21
145.6212654515587
 31
0.0
  0
LINE
  5
20A
330
70
100
AcDbEntity
  8
bemaßung
 62
     7
370
     9
100
AcDbLine
 10
64.71094334908629
 20
145.649170173069
 30
0.0
 11
64.18403609506521
 21
145.649170173069
 31
0.0
  0
LINE
  5
20B
330
70
100
AcDbEntity
  8
bemaßung
 62
     7
370
     9
100
AcDbLine
 10
64.71094334908629
 20
145.6772512834637
 30
0.0
 11
63.97162697905894
 21
145.6772512834637
 31
0.0
  0
LINE
  5
20C
330
70
100
AcDbEntity
  8
bemaßung
 62
     7
370
     9
100
AcDbLine
 10
64.71094334908629
 20
145.705156004974
 30
0.0
 11
63.75943115113917
 21
145.705156004974
 31
0.0
  0
LINE
  5
20D
330
70
100
AcDbEntity
  8
bemaßung
 62
     7
370
     9
100
AcDbLine
 10
64.71094334908629
 20
145.7330607264843
 30
0.0
 11
63.54720004544253
 21
145.7330607264843
 31
0.0
  0
LINE
  5
20E
330
70
100
AcDbEntity
  8
bemaßung
 62
     7
370
     9
100
AcDbLine
 10
64.71094334908629
 20
145.7609654479946
 30
0.0
 11
63.33514532863027
 21
145.7609654479946
 31
0.0
  0
LINE
  5
20F
330
70
100
AcDbEntity
  8
bemaßung
 62
     7
370
     9
100
AcDbLine
 10
64.71094334908629
 20
145.9287465548253
 30
0.0
 11
64.608285018372
 21
145.9287465548253
 31
0.0
  0
LINE
  5
210
330
70
100
AcDbEntity
  8
bemaßung
 62
     7
370
     9
100
AcDbLine
 10
64.71094334908629
 20
145.9287465548253
 30
0.0
 11
64.608285018372
 21
145.9287465548253
 31
0.0
  0
LINE
  5
211
330
70
100
AcDbEntity
  8
bemaßung
 62
     7
370
     9
100
AcDbLine
 10
64.71094334908629
 20
145.9008065555381
 30
0.0
 11
64.39605553945653
 21
145.9008065555381
 31
0.0
  0
LINE
  5
212
330
70
100
AcDbEntity
  8
bemaßung
 62
     7
370
     9
100
AcDbLine
 10
64.71094334908629
 20
145.8729055190872
 30
0.0
 11
64.18403609506521
 21
145.8729055190872
 31
0.0
  0
LINE
  5
213
330
70
100
AcDbEntity
  8
bemaßung
 62
     7
370
     9
100
AcDbLine
 10
64.71094334908629
 20
145.8449971125174
 30
0.0
 11
63.97162697905894
 21
145.8449971125174
 31
0.0
  0
LINE
  5
214
330
70
100
AcDbEntity
  8
bemaßung
 62
     7
370
     9
100
AcDbLine
 10
64.71094334908629
 20
145.8167748910152
 30
0.0
 11
63.75943115113917
 21
145.8167748910152
 31
0.0
  0
LINE
  5
215
330
70
100
AcDbEntity
  8
bemaßung
 62
     7
370
     9
100
AcDbLine
 10
64.71094334908629
 20
145.7890465583893
 30
0.0
 11
63.54720004544253
 21
145.7890465583893
 31
0.0
  0
LINE
  5
216
330
70
100
AcDbEntity
  8
bemaßung
 62
     7
370
     9
100
AcDbLine
 10
64.71094334908629
 20
145.7609654479946
 30
0.0
 11
63.33514532863027
 21
145.7609654479946
 31
0.0
  0
LWPOLYLINE
  5
217
330
70
100
AcDbEntity
  8
bemaßung
 62
     7
370
     9
100
AcDbPolyline
 90
        4
 70
     0
 43
0.0
 10
56.73502605256889
 20
145.7609654479946
 10
55.35873414323659
 20
145.9419757211544
 10
55.35873414323659
 20
145.5799198970579
 10
56.73502605256889
 20
145.7609654479946
  0
LINE
  5
218
330
70
100
AcDbEntity
  8
bemaßung
 62
     7
370
     9
100
AcDbLine
 10
55.35873414323659
 20
145.9287465548253
 30
0.0
 11
55.46156886283528
 21
145.9287465548253
 31
0.0
  0
LINE
  5
219
330
70
100
AcDbEntity
  8
bemaßung
 62
     7
370
     9
100
AcDbLine
 10
55.35873414323659
 20
145.9287465548253
 30
0.0
 11
55.46156886283528
 21
145.9287465548253
 31
0.0
  0
LINE
  5
21A
330
70
100
AcDbEntity
  8
bemaßung
 62
     7
370
     9
100
AcDbLine
 10
55.35873414323659
 20
145.9008065555381
 30
0.0
 11
55.67376469075504
 21
145.9008065555381
 31
0.0
  0
LINE
  5
21B
330
70
100
AcDbEntity
  8
bemaßung
 62
     7
370
     9
100
AcDbLine
 10
55.35873414323659
 20
145.8729055190872
 30
0.0
 11
55.88617218533608
 21
145.8729055190872
 31
0.0
  0
LINE
  5
21C
330
70
100
AcDbEntity
  8
bemaßung
 62
     7
370
     9
100
AcDbLine
 10
55.35873414323659
 20
145.8449971125174
 30
0.0
 11
56.09836943041994
 21
145.8449971125174
 31
0.0
  0
LINE
  5
21D
330
70
100
AcDbEntity
  8
bemaßung
 62
     7
370
     9
100
AcDbLine
 10
55.35873414323659
 20
145.8167748910152
 30
0.0
 11
56.31042273006809
 21
145.8167748910152
 31
0.0
  0
LINE
  5
21E
330
70
100
AcDbEntity
  8
bemaßung
 62
     7
370
     9
100
AcDbLine
 10
55.35873414323659
 20
145.7890465583893
 30
0.0
 11
56.52265383576474
 21
145.7890465583893
 31
0.0
  0
LINE
  5
21F
330
70
100
AcDbEntity
  8
bemaßung
 62
     7
370
     9
100
AcDbLine
 10
55.35873414323659
 20
145.7609654479946
 30
0.0
 11
56.73502605256889
 21
145.7609654479946
 31
0.0
  0
LINE
  5
220
330
70
100
AcDbEntity
  8
bemaßung
 62
     7
370
     9
100
AcDbLine
 10
55.35873414323659
 20
145.5933607300484
 30
0.0
 11
55.46156886283528
 21
145.5933607300484
 31
0.0
  0
LINE
  5
221
330
70
100
AcDbEntity
  8
bemaßung
 62
     7
370
     9
100
AcDbLine
 10
55.35873414323659
 20
145.5933607300484
 30
0.0
 11
55.46156886283528
 21
145.5933607300484
 31
0.0
  0
LINE
  5
222
330
70
100
AcDbEntity
  8
bemaßung
 62
     7
370
     9
100
AcDbLine
 10
55.35873414323659
 20
145.6212654515587
 30
0.0
 11
55.67376469075504
 21
145.6212654515587
 31
0.0
  0
LINE
  5
223
330
70
100
AcDbEntity
  8
bemaßung
 62
     7
370
     9
100
AcDbLine
 10
55.35873414323659
 20
145.649170173069
 30
0.0
 11
55.88617218533608
 21
145.649170173069
 31
0.0
  0
LINE
  5
224
330
70
100
AcDbEntity
  8
bemaßung
 62
     7
370
     9
100
AcDbLine
 10
55.35873414323659
 20
145.6772512834637
 30
0.0
 11
56.09836943041994
 21
145.6772512834637
 31
0.0
  0
LINE
  5
225
330
70
100
AcDbEntity
  8
bemaßung
 62
     7
370
     9
100
AcDbLine
 10
55.35873414323659
 20
145.705156004974
 30
0.0
 11
56.31042273006809
 21
145.705156004974
 31
0.0
  0
LINE
  5
226
330
70
100
AcDbEntity
  8
bemaßung
 62
     7
370
     9
100
AcDbLine
 10
55.35873414323659
 20
145.7330607264843
 30
0.0
 11
56.52265383576474
 21
145.7330607264843
 31
0.0
  0
LINE
  5
227
330
70
100
AcDbEntity
  8
bemaßung
 62
     7
370
     9
100
AcDbLine
 10
55.35873414323659
 20
145.7609654479946
 30
0.0
 11
56.73502605256889
 21
145.7609654479946
 31
0.0
  0
LINE
  5
228
330
70
100
AcDbEntity
  8
bemaßung
 62
     7
370
     9
100
AcDbLine
 10
52.85757504037981
 20
151.5693808553651
 30
0.0
 11
44.49081525383363
 21
151.5693808553651
 31
0.0
  0
LINE
  5
229
330
70
100
AcDbEntity
  8
bemaßung
 62
     7
370
     9
100
AcDbLine
 10
56.73502605256889
 20
171.3695666238242
 30
0.0
 11
44.49081525383363
 21
171.3695666238242
 31
0.0
  0
LINE
  5
22A
330
70
100
AcDbEntity
  8
bemaßung
 62
     7
370
     9
100
AcDbLine
 10
45.59067050355176
 20
151.5693808553651
 30
0.0
 11
45.59067050355176
 21
171.3695666238242
 31
0.0
  0
LWPOLYLINE
  5
22B
330
70
100
AcDbEntity
  8
bemaßung
 62
     7
370
     9
100
AcDbPolyline
 90
        4
 70
     0
 43
0.0
 10
45.59067050355176
 20
151.5693808553651
 10
45.77171605448845
 20
152.9443360728749
 10
45.40980134149945
 20
152.9443360728749
 10
45.59067050355176
 20
151.5693808553651
  0
LINE
  5
22C
330
70
100
AcDbEntity
  8
bemaßung
 62
     7
370
     9
100
AcDbLine
 10
45.75845276633811
 20
152.9443360728749
 30
0.0
 11
45.75845276633811
 21
152.8426969339913
 31
0.0
  0
LINE
  5
22D
330
70
100
AcDbEntity
  8
bemaßung
 62
     7
370
     9
100
AcDbLine
 10
45.75845276633811
 20
152.9443360728749
 30
0.0
 11
45.75845276633811
 21
152.8426969339913
 31
0.0
  0
LINE
  5
22E
330
70
100
AcDbEntity
  8
bemaßung
 62
     7
370
     9
100
AcDbLine
 10
45.7305468888721
 20
152.9443360728749
 30
0.0
 11
45.7305468888721
 21
152.630642217179
 31
0.0
  0
LINE
  5
22F
330
70
100
AcDbEntity
  8
bemaßung
 62
     7
370
     9
100
AcDbLine
 10
45.70264216736179
 20
152.9443360728749
 30
0.0
 11
45.70264216736179
 21
152.4182700003748
 31
0.0
  0
LINE
  5
230
330
70
100
AcDbEntity
  8
bemaßung
 62
     7
370
     9
100
AcDbLine
 10
45.67473744585147
 20
152.9443360728749
 30
0.0
 11
45.67473744585147
 21
152.2062152835626
 31
0.0
  0
LINE
  5
231
330
70
100
AcDbEntity
  8
bemaßung
 62
     7
370
     9
100
AcDbLine
 10
45.64665633545677
 20
152.9443360728749
 30
0.0
 11
45.64665633545677
 21
151.9938077889815
 31
0.0
  0
LINE
  5
232
330
70
100
AcDbEntity
  8
bemaßung
 62
     7
370
     9
100
AcDbLine
 10
45.61875276637312
 20
152.9443360728749
 30
0.0
 11
45.61875276637312
 21
151.7817883499462
 31
0.0
  0
LINE
  5
233
330
70
100
AcDbEntity
  8
bemaßung
 62
     7
370
     9
100
AcDbLine
 10
45.59067050355176
 20
152.9443360728749
 30
0.0
 11
45.59067050355176
 21
151.5693808553651
 31
0.0
  0
LINE
  5
234
330
70
100
AcDbEntity
  8
bemaßung
 62
     7
370
     9
100
AcDbLine
 10
45.42306578560549
 20
152.9443360728749
 30
0.0
 11
45.42306578560549
 21
152.8426969339913
 31
0.0
  0
LINE
  5
235
330
70
100
AcDbEntity
  8
bemaßung
 62
     7
370
     9
100
AcDbLine
 10
45.42306578560549
 20
152.9443360728749
 30
0.0
 11
45.42306578560549
 21
152.8426969339913
 31
0.0
  0
LINE
  5
236
330
70
100
AcDbEntity
  8
bemaßung
 62
     7
370
     9
100
AcDbLine
 10
45.4509705071158
 20
152.9443360728749
 30
0.0
 11
45.4509705071158
 21
152.630642217179
 31
0.0
  0
LINE
  5
237
330
70
100
AcDbEntity
  8
bemaßung
 62
     7
370
     9
100
AcDbLine
 10
45.47887522862612
 20
152.9443360728749
 30
0.0
 11
45.47887522862612
 21
152.4182700003748
 31
0.0
  0
LINE
  5
238
330
70
100
AcDbEntity
  8
bemaßung
 62
     7
370
     9
100
AcDbLine
 10
45.50677995013643
 20
152.9443360728749
 30
0.0
 11
45.50677995013643
 21
152.2062152835626
 31
0.0
  0
LINE
  5
239
330
70
100
AcDbEntity
  8
bemaßung
 62
     7
370
     9
100
AcDbLine
 10
45.53486106053113
 20
152.9443360728749
 30
0.0
 11
45.53486106053113
 21
151.9938077889815
 31
0.0
  0
LINE
  5
23A
330
70
100
AcDbEntity
  8
bemaßung
 62
     7
370
     9
100
AcDbLine
 10
45.56276578204144
 20
152.9443360728749
 30
0.0
 11
45.56276578204144
 21
151.7817883499462
 31
0.0
  0
LINE
  5
23B
330
70
100
AcDbEntity
  8
bemaßung
 62
     7
370
     9
100
AcDbLine
 10
45.59067050355176
 20
152.9443360728749
 30
0.0
 11
45.59067050355176
 21
151.5693808553651
 31
0.0
  0
LWPOLYLINE
  5
23C
330
70
100
AcDbEntity
  8
bemaßung
 62
     7
370
     9
100
AcDbPolyline
 90
        4
 70
     0
 43
0.0
 10
45.59067050355176
 20
171.3695666238242
 10
45.40980134149945
 20
169.9946109408539
 10
45.77171605448845
 20
169.9946109408539
 10
45.59067050355176
 20
171.3695666238242
  0
LINE
  5
23D
330
70
100
AcDbEntity
  8
bemaßung
 62
     7
370
     9
100
AcDbLine
 10
45.42306578560549
 20
169.9946109408539
 30
0.0
 11
45.42306578560549
 21
170.0962462160388
 31
0.0
  0
LINE
  5
23E
330
70
100
AcDbEntity
  8
bemaßung
 62
     7
370
     9
100
AcDbLine
 10
45.42306578560549
 20
169.9946109408539
 30
0.0
 11
45.42306578560549
 21
170.0962462160388
 31
0.0
  0
LINE
  5
23F
330
70
100
AcDbEntity
  8
bemaßung
 62
     7
370
     9
100
AcDbLine
 10
45.4509705071158
 20
169.9946109408539
 30
0.0
 11
45.4509705071158
 21
170.308300932851
 31
0.0
  0
LINE
  5
240
330
70
100
AcDbEntity
  8
bemaßung
 62
     7
370
     9
100
AcDbLine
 10
45.47887522862612
 20
169.9946109408539
 30
0.0
 11
45.47887522862612
 21
170.5204967607708
 31
0.0
  0
LINE
  5
241
330
70
100
AcDbEntity
  8
bemaßung
 62
     7
370
     9
100
AcDbLine
 10
45.50677995013643
 20
169.9946109408539
 30
0.0
 11
45.50677995013643
 21
170.732551477583
 31
0.0
  0
LINE
  5
242
330
70
100
AcDbEntity
  8
bemaßung
 62
     7
370
     9
100
AcDbLine
 10
45.53486106053113
 20
169.9946109408539
 30
0.0
 11
45.53486106053113
 21
170.9451000832716
 31
0.0
  0
LINE
  5
243
330
70
100
AcDbEntity
  8
bemaßung
 62
     7
370
     9
100
AcDbLine
 10
45.56276578204144
 20
169.9946109408539
 30
0.0
 11
45.56276578204144
 21
171.1571548000838
 31
0.0
  0
LINE
  5
244
330
70
100
AcDbEntity
  8
bemaßung
 62
     7
370
     9
100
AcDbLine
 10
45.59067050355176
 20
169.9946109408539
 30
0.0
 11
45.59067050355176
 21
171.3695666238242
 31
0.0
  0
LINE
  5
245
330
70
100
AcDbEntity
  8
bemaßung
 62
     7
370
     9
100
AcDbLine
 10
45.75845276633811
 20
169.9946109408539
 30
0.0
 11
45.75845276633811
 21
170.0962462160388
 31
0.0
  0
LINE
  5
246
330
70
100
AcDbEntity
  8
bemaßung
 62
     7
370
     9
100
AcDbLine
 10
45.75845276633811
 20
169.9946109408539
 30
0.0
 11
45.75845276633811
 21
170.0962462160388
 31
0.0
  0
LINE
  5
247
330
70
100
AcDbEntity
  8
bemaßung
 62
     7
370
     9
100
AcDbLine
 10
45.7305468888721
 20
169.9946109408539
 30
0.0
 11
45.7305468888721
 21
170.308300932851
 31
0.0
  0
LINE
  5
248
330
70
100
AcDbEntity
  8
bemaßung
 62
     7
370
     9
100
AcDbLine
 10
45.70264216736179
 20
169.9946109408539
 30
0.0
 11
45.70264216736179
 21
170.5204967607708
 31
0.0
  0
LINE
  5
249
330
70
100
AcDbEntity
  8
bemaßung
 62
     7
370
     9
100
AcDbLine
 10
45.67473744585147
 20
169.9946109408539
 30
0.0
 11
45.67473744585147
 21
170.732551477583
 31
0.0
  0
LINE
  5
24A
330
70
100
AcDbEntity
  8
bemaßung
 62
     7
370
     9
100
AcDbLine
 10
45.64665633545677
 20
169.9946109408539
 30
0.0
 11
45.64665633545677
 21
170.9451000832716
 31
0.0
  0
LINE
  5
24B
330
70
100
AcDbEntity
  8
bemaßung
 62
     7
370
     9
100
AcDbLine
 10
45.61875276637312
 20
169.9946109408539
 30
0.0
 11
45.61875276637312
 21
171.1571548000838
 31
0.0
  0
LINE
  5
24C
330
70
100
AcDbEntity
  8
bemaßung
 62
     7
370
     9
100
AcDbLine
 10
45.59067050355176
 20
169.9946109408539
 30
0.0
 11
45.59067050355176
 21
171.3695666238242
 31
0.0
  0
LINE
  5
24E
330
70
100
AcDbEntity
  8
Ebene 5
 62
     7
370
     9
100
AcDbLine
 10
83.8077450765842
 20
151.5757711867267
 30
0.0
 11
102.6258788209684
 21
151.5757711867267
 31
0.0
  0
LINE
  5
24F
330
70
100
AcDbEntity
  8
Ebene 5
 62
     7
370
     9
100
AcDbLine
 10
83.86470047298587
 20
161.2007131287646
 30
0.0
 11
105.6176312983776
 21
161.2007131287646
 31
0.0
  0
LINE
  5
250
330
70
100
AcDbEntity
  8
Ebene 5
 62
     7
370
     9
100
AcDbLine
 10
85.11342329434224
 20
151.5757711867267
 30
0.0
 11
85.11342329434224
 21
161.2007131287646
 31
0.0
  0
MTEXT
  5
251
330
70
100
AcDbEntity
  8
Ebene 5
100
AcDbMText
 10
83.8304989075363
 20
153.4541830315014
 30
0.0
 40
0.2
 41
0.0
 46
0.0
 71
     7
 72
     1
  1
\C7;\FINDEX Univers 45 Light|b0|i0|c1;\H2.497667;\W1.000000;17,5
 11
0.0000000000000001
 21
1.0
 31
0.0
 73
     1
 44
1.0
  0
LWPOLYLINE
  5
252
330
70
100
AcDbEntity
  8
Ebene 5
 62
     7
370
     9
100
AcDbPolyline
 90
        4
 70
     0
 43
0.0
 10
85.11342329434224
 20
151.5757711867267
 10
85.36682357205682
 20
153.5007207695784
 10
84.8602170444056
 20
153.5007207695784
 10
85.11342329434224
 20
151.5757711867267
  0
LINE
  5
253
330
70
100
AcDbEntity
  8
Ebene 5
 62
     7
370
     9
100
AcDbLine
 10
85.36488329427978
 20
153.5007207695784
 30
0.0
 11
85.36488329427978
 21
153.4857806306934
 31
0.0
  0
LINE
  5
254
330
70
100
AcDbEntity
  8
Ebene 5
 62
     7
370
     9
100
AcDbLine
 10
85.36488329427978
 20
153.5007207695784
 30
0.0
 11
85.36488329427978
 21
153.4857806306934
 31
0.0
  0
LINE
  5
255
330
70
100
AcDbEntity
  8
Ebene 5
 62
     7
370
     9
100
AcDbLine
 10
85.33694329428671
 20
153.5007207695784
 30
0.0
 11
85.33694329428671
 21
153.2735142418578
 31
0.0
  0
LINE
  5
256
330
70
100
AcDbEntity
  8
Ebene 5
 62
     7
370
     9
100
AcDbLine
 10
85.30900329429366
 20
153.5007207695784
 30
0.0
 11
85.30900329429366
 21
153.0614418807996
 31
0.0
  0
LINE
  5
257
330
70
100
AcDbEntity
  8
Ebene 5
 62
     7
370
     9
100
AcDbLine
 10
85.28106329430059
 20
153.5007207695784
 30
0.0
 11
85.28106329430059
 21
152.8491754919634
 31
0.0
  0
LINE
  5
258
330
70
100
AcDbEntity
  8
Ebene 5
 62
     7
370
     9
100
AcDbLine
 10
85.25312329430752
 20
153.5007207695784
 30
0.0
 11
85.25312329430752
 21
152.6369091031278
 31
0.0
  0
LINE
  5
259
330
70
100
AcDbEntity
  8
Ebene 5
 62
     7
370
     9
100
AcDbLine
 10
85.22518329431447
 20
153.5007207695784
 30
0.0
 11
85.22518329431447
 21
152.4246427142923
 31
0.0
  0
LINE
  5
25A
330
70
100
AcDbEntity
  8
Ebene 5
 62
     7
370
     9
100
AcDbLine
 10
85.19724329432142
 20
153.5007207695784
 30
0.0
 11
85.19724329432142
 21
152.212376325456
 31
0.0
  0
LINE
  5
25B
330
70
100
AcDbEntity
  8
Ebene 5
 62
     7
370
     9
100
AcDbLine
 10
85.16930329432836
 20
153.5007207695784
 30
0.0
 11
85.16930329432836
 21
152.0003039643978
 31
0.0
  0
LINE
  5
25C
330
70
100
AcDbEntity
  8
Ebene 5
 62
     7
370
     9
100
AcDbLine
 10
85.14136329433529
 20
153.5007207695784
 30
0.0
 11
85.14136329433529
 21
151.7880375755622
 31
0.0
  0
LINE
  5
25D
330
70
100
AcDbEntity
  8
Ebene 5
 62
     7
370
     9
100
AcDbLine
 10
85.11342329434224
 20
153.5007207695784
 30
0.0
 11
85.11342329434224
 21
151.5757711867267
 31
0.0
  0
LINE
  5
25E
330
70
100
AcDbEntity
  8
Ebene 5
 62
     7
370
     9
100
AcDbLine
 10
84.8621573221833
 20
153.5007207695784
 30
0.0
 11
84.8621573221833
 21
153.4857806306934
 31
0.0
  0
LINE
  5
25F
330
70
100
AcDbEntity
  8
Ebene 5
 62
     7
370
     9
100
AcDbLine
 10
84.8621573221833
 20
153.5007207695784
 30
0.0
 11
84.8621573221833
 21
153.4857806306934
 31
0.0
  0
LINE
  5
260
330
70
100
AcDbEntity
  8
Ebene 5
 62
     7
370
     9
100
AcDbLine
 10
84.89009732217573
 20
153.5007207695784
 30
0.0
 11
84.89009732217573
 21
153.2735142418578
 31
0.0
  0
LINE
  5
261
330
70
100
AcDbEntity
  8
Ebene 5
 62
     7
370
     9
100
AcDbLine
 10
84.91803732216878
 20
153.5007207695784
 30
0.0
 11
84.91803732216878
 21
153.0614418807996
 31
0.0
  0
LINE
  5
262
330
70
100
AcDbEntity
  8
Ebene 5
 62
     7
370
     9
100
AcDbLine
 10
84.94597732216183
 20
153.5007207695784
 30
0.0
 11
84.94597732216183
 21
152.8491754919634
 31
0.0
  0
LINE
  5
263
330
70
100
AcDbEntity
  8
Ebene 5
 62
     7
370
     9
100
AcDbLine
 10
84.97391732215488
 20
153.5007207695784
 30
0.0
 11
84.97391732215488
 21
152.6369091031278
 31
0.0
  0
LINE
  5
264
330
70
100
AcDbEntity
  8
Ebene 5
 62
     7
370
     9
100
AcDbLine
 10
85.00185732214795
 20
153.5007207695784
 30
0.0
 11
85.00185732214795
 21
152.4246427142923
 31
0.0
  0
LINE
  5
265
330
70
100
AcDbEntity
  8
Ebene 5
 62
     7
370
     9
100
AcDbLine
 10
85.02979732214102
 20
153.5007207695784
 30
0.0
 11
85.02979732214102
 21
152.212376325456
 31
0.0
  0
LINE
  5
266
330
70
100
AcDbEntity
  8
Ebene 5
 62
     7
370
     9
100
AcDbLine
 10
85.05773732213407
 20
153.5007207695784
 30
0.0
 11
85.05773732213407
 21
152.0003039643978
 31
0.0
  0
LINE
  5
267
330
70
100
AcDbEntity
  8
Ebene 5
 62
     7
370
     9
100
AcDbLine
 10
85.08567732212714
 20
153.5007207695784
 30
0.0
 11
85.08567732212714
 21
151.7880375755622
 31
0.0
  0
LINE
  5
268
330
70
100
AcDbEntity
  8
Ebene 5
 62
     7
370
     9
100
AcDbLine
 10
85.11342329434224
 20
153.5007207695784
 30
0.0
 11
85.11342329434224
 21
151.5757711867267
 31
0.0
  0
LWPOLYLINE
  5
269
330
70
100
AcDbEntity
  8
Ebene 5
 62
     7
370
     9
100
AcDbPolyline
 90
        4
 70
     0
 43
0.0
 10
85.11342329434224
 20
161.2007131287646
 10
84.8602170444056
 20
159.2757635459129
 10
85.36682357205682
 20
159.2757635459129
 10
85.11342329434224
 20
161.2007131287646
  0
LINE
  5
26A
330
70
100
AcDbEntity
  8
Ebene 5
 62
     7
370
     9
100
AcDbLine
 10
84.8621573221833
 20
159.2757635459129
 30
0.0
 11
84.8621573221833
 21
159.2907036847979
 31
0.0
  0
LINE
  5
26B
330
70
100
AcDbEntity
  8
Ebene 5
 62
     7
370
     9
100
AcDbLine
 10
84.8621573221833
 20
159.2757635459129
 30
0.0
 11
84.8621573221833
 21
159.2907036847979
 31
0.0
  0
LINE
  5
26C
330
70
100
AcDbEntity
  8
Ebene 5
 62
     7
370
     9
100
AcDbLine
 10
84.89009732217573
 20
159.2757635459129
 30
0.0
 11
84.89009732217573
 21
159.5029700736335
 31
0.0
  0
LINE
  5
26D
330
70
100
AcDbEntity
  8
Ebene 5
 62
     7
370
     9
100
AcDbLine
 10
84.91803732216878
 20
159.2757635459129
 30
0.0
 11
84.91803732216878
 21
159.715236462469
 31
0.0
  0
LINE
  5
26E
330
70
100
AcDbEntity
  8
Ebene 5
 62
     7
370
     9
100
AcDbLine
 10
84.94597732216183
 20
159.2757635459129
 30
0.0
 11
84.94597732216183
 21
159.9275028513052
 31
0.0
  0
LINE
  5
26F
330
70
100
AcDbEntity
  8
Ebene 5
 62
     7
370
     9
100
AcDbLine
 10
84.97391732215488
 20
159.2757635459129
 30
0.0
 11
84.97391732215488
 21
160.1395752123635
 31
0.0
  0
LINE
  5
270
330
70
100
AcDbEntity
  8
Ebene 5
 62
     7
370
     9
100
AcDbLine
 10
85.00185732214795
 20
159.2757635459129
 30
0.0
 11
85.00185732214795
 21
160.351841601199
 31
0.0
  0
LINE
  5
271
330
70
100
AcDbEntity
  8
Ebene 5
 62
     7
370
     9
100
AcDbLine
 10
85.02979732214102
 20
159.2757635459129
 30
0.0
 11
85.02979732214102
 21
160.5641079900346
 31
0.0
  0
LINE
  5
272
330
70
100
AcDbEntity
  8
Ebene 5
 62
     7
370
     9
100
AcDbLine
 10
85.05773732213407
 20
159.2757635459129
 30
0.0
 11
85.05773732213407
 21
160.7763743788708
 31
0.0
  0
LINE
  5
273
330
70
100
AcDbEntity
  8
Ebene 5
 62
     7
370
     9
100
AcDbLine
 10
85.08567732212714
 20
159.2757635459129
 30
0.0
 11
85.08567732212714
 21
160.9888347954843
 31
0.0
  0
LINE
  5
274
330
70
100
AcDbEntity
  8
Ebene 5
 62
     7
370
     9
100
AcDbLine
 10
85.11342329434224
 20
159.2757635459129
 30
0.0
 11
85.11342329434224
 21
161.2007131287646
 31
0.0
  0
LINE
  5
275
330
70
100
AcDbEntity
  8
Ebene 5
 62
     7
370
     9
100
AcDbLine
 10
85.36488329427978
 20
159.2757635459129
 30
0.0
 11
85.36488329427978
 21
159.2907036847979
 31
0.0
  0
LINE
  5
276
330
70
100
AcDbEntity
  8
Ebene 5
 62
     7
370
     9
100
AcDbLine
 10
85.36488329427978
 20
159.2757635459129
 30
0.0
 11
85.36488329427978
 21
159.2907036847979
 31
0.0
  0
LINE
  5
277
330
70
100
AcDbEntity
  8
Ebene 5
 62
     7
370
     9
100
AcDbLine
 10
85.33694329428671
 20
159.2757635459129
 30
0.0
 11
85.33694329428671
 21
159.5029700736335
 31
0.0
  0
LINE
  5
278
330
70
100
AcDbEntity
  8
Ebene 5
 62
     7
370
     9
100
AcDbLine
 10
85.30900329429366
 20
159.2757635459129
 30
0.0
 11
85.30900329429366
 21
159.715236462469
 31
0.0
  0
LINE
  5
279
330
70
100
AcDbEntity
  8
Ebene 5
 62
     7
370
     9
100
AcDbLine
 10
85.28106329430059
 20
159.2757635459129
 30
0.0
 11
85.28106329430059
 21
159.9275028513052
 31
0.0
  0
LINE
  5
27A
330
70
100
AcDbEntity
  8
Ebene 5
 62
     7
370
     9
100
AcDbLine
 10
85.25312329430752
 20
159.2757635459129
 30
0.0
 11
85.25312329430752
 21
160.1395752123635
 31
0.0
  0
LINE
  5
27B
330
70
100
AcDbEntity
  8
Ebene 5
 62
     7
370
     9
100
AcDbLine
 10
85.22518329431447
 20
159.2757635459129
 30
0.0
 11
85.22518329431447
 21
160.351841601199
 31
0.0
  0
LINE
  5
27C
330
70
100
AcDbEntity
  8
Ebene 5
 62
     7
370
     9
100
AcDbLine
 10
85.19724329432142
 20
159.2757635459129
 30
0.0
 11
85.19724329432142
 21
160.5641079900346
 31
0.0
  0
LINE
  5
27D
330
70
100
AcDbEntity
  8
Ebene 5
 62
     7
370
     9
100
AcDbLine
 10
85.16930329432836
 20
159.2757635459129
 30
0.0
 11
85.16930329432836
 21
160.7763743788708
 31
0.0
  0
LINE
  5
27E
330
70
100
AcDbEntity
  8
Ebene 5
 62
     7
370
     9
100
AcDbLine
 10
85.14136329433529
 20
159.2757635459129
 30
0.0
 11
85.14136329433529
 21
160.9888347954843
 31
0.0
  0
LINE
  5
27F
330
70
100
AcDbEntity
  8
Ebene 5
 62
     7
370
     9
100
AcDbLine
 10
85.11342329434224
 20
159.2757635459129
 30
0.0
 11
85.11342329434224
 21
161.2007131287646
 31
0.0
  0
LINE
  5
280
330
70
100
AcDbEntity
  8
Ebene 5
 62
     7
370
     9
100
AcDbLine
 10
90.01692208333031
 20
154.6010522970815
 30
0.0
 11
105.6270423709346
 21
154.6010522970815
 31
0.0
  0
LINE
  5
281
330
70
100
AcDbEntity
  8
Ebene 5
 62
     7
370
     9
100
AcDbLine
 10
90.99284250682121
 20
161.2007131287646
 30
0.0
 11
90.99284250682121
 21
154.6010522970815
 31
0.0
  0
MTEXT
  5
282
330
70
100
AcDbEntity
  8
Ebene 5
100
AcDbMText
 10
89.71010341520811
 20
155.7792672085731
 30
0.0
 40
0.2
 41
0.0
 46
0.0
 71
     7
 72
     1
  1
\C7;\FINDEX Univers 45 Light|b0|i0|c1;\H2.497667;\W1.000000;12
 11
0.0000000000000001
 21
1.0
 31
0.0
 73
     1
 44
1.0
  0
LWPOLYLINE
  5
283
330
70
100
AcDbEntity
  8
Ebene 5
 62
     7
370
     9
100
AcDbPolyline
 90
        4
 70
     0
 43
0.0
 10
90.99284250682121
 20
161.2007131287646
 10
90.73963625688394
 20
159.2757635459129
 10
91.24624278453515
 20
159.2757635459129
 10
90.99284250682121
 20
161.2007131287646
  0
LINE
  5
284
330
70
100
AcDbEntity
  8
Ebene 5
 62
     7
370
     9
100
AcDbLine
 10
90.74157653466098
 20
159.2757635459129
 30
0.0
 11
90.74157653466098
 21
159.2907036847979
 31
0.0
  0
LINE
  5
285
330
70
100
AcDbEntity
  8
Ebene 5
 62
     7
370
     9
100
AcDbLine
 10
90.74157653466098
 20
159.2757635459129
 30
0.0
 11
90.74157653466098
 21
159.2907036847979
 31
0.0
  0
LINE
  5
286
330
70
100
AcDbEntity
  8
Ebene 5
 62
     7
370
     9
100
AcDbLine
 10
90.76951653465405
 20
159.2757635459129
 30
0.0
 11
90.76951653465405
 21
159.5029700736335
 31
0.0
  0
LINE
  5
287
330
70
100
AcDbEntity
  8
Ebene 5
 62
     7
370
     9
100
AcDbLine
 10
90.7974565346471
 20
159.2757635459129
 30
0.0
 11
90.7974565346471
 21
159.715236462469
 31
0.0
  0
LINE
  5
288
330
70
100
AcDbEntity
  8
Ebene 5
 62
     7
370
     9
100
AcDbLine
 10
90.82539653464015
 20
159.2757635459129
 30
0.0
 11
90.82539653464015
 21
159.9275028513052
 31
0.0
  0
LINE
  5
289
330
70
100
AcDbEntity
  8
Ebene 5
 62
     7
370
     9
100
AcDbLine
 10
90.85333653463321
 20
159.2757635459129
 30
0.0
 11
90.85333653463321
 21
160.1395752123635
 31
0.0
  0
LINE
  5
28A
330
70
100
AcDbEntity
  8
Ebene 5
 62
     7
370
     9
100
AcDbLine
 10
90.88127653462628
 20
159.2757635459129
 30
0.0
 11
90.88127653462628
 21
160.351841601199
 31
0.0
  0
LINE
  5
28B
330
70
100
AcDbEntity
  8
Ebene 5
 62
     7
370
     9
100
AcDbLine
 10
90.90921653461935
 20
159.2757635459129
 30
0.0
 11
90.90921653461935
 21
160.5641079900346
 31
0.0
  0
LINE
  5
28C
330
70
100
AcDbEntity
  8
Ebene 5
 62
     7
370
     9
100
AcDbLine
 10
90.93696250683445
 20
159.2757635459129
 30
0.0
 11
90.93696250683445
 21
160.7763743788708
 31
0.0
  0
LINE
  5
28D
330
70
100
AcDbEntity
  8
Ebene 5
 62
     7
370
     9
100
AcDbLine
 10
90.96490250682814
 20
159.2757635459129
 30
0.0
 11
90.96490250682814
 21
160.9888347954843
 31
0.0
  0
LINE
  5
28E
330
70
100
AcDbEntity
  8
Ebene 5
 62
     7
370
     9
100
AcDbLine
 10
90.99284250682121
 20
159.2757635459129
 30
0.0
 11
90.99284250682121
 21
161.2007131287646
 31
0.0
  0
LINE
  5
28F
330
70
100
AcDbEntity
  8
Ebene 5
 62
     7
370
     9
100
AcDbLine
 10
91.24449653453543
 20
159.2757635459129
 30
0.0
 11
91.24449653453543
 21
159.2907036847979
 31
0.0
  0
LINE
  5
290
330
70
100
AcDbEntity
  8
Ebene 5
 62
     7
370
     9
100
AcDbLine
 10
91.24449653453543
 20
159.2757635459129
 30
0.0
 11
91.24449653453543
 21
159.2907036847979
 31
0.0
  0
LINE
  5
291
330
70
100
AcDbEntity
  8
Ebene 5
 62
     7
370
     9
100
AcDbLine
 10
91.2163625067644
 20
159.2757635459129
 30
0.0
 11
91.2163625067644
 21
159.5029700736335
 31
0.0
  0
LINE
  5
292
330
70
100
AcDbEntity
  8
Ebene 5
 62
     7
370
     9
100
AcDbLine
 10
91.18842250677134
 20
159.2757635459129
 30
0.0
 11
91.18842250677134
 21
159.715236462469
 31
0.0
  0
LINE
  5
293
330
70
100
AcDbEntity
  8
Ebene 5
 62
     7
370
     9
100
AcDbLine
 10
91.16048250677891
 20
159.2757635459129
 30
0.0
 11
91.16048250677891
 21
159.9275028513052
 31
0.0
  0
LINE
  5
294
330
70
100
AcDbEntity
  8
Ebene 5
 62
     7
370
     9
100
AcDbLine
 10
91.13254250678586
 20
159.2757635459129
 30
0.0
 11
91.13254250678586
 21
160.1395752123635
 31
0.0
  0
LINE
  5
295
330
70
100
AcDbEntity
  8
Ebene 5
 62
     7
370
     9
100
AcDbLine
 10
91.10460250679279
 20
159.2757635459129
 30
0.0
 11
91.10460250679279
 21
160.351841601199
 31
0.0
  0
LINE
  5
296
330
70
100
AcDbEntity
  8
Ebene 5
 62
     7
370
     9
100
AcDbLine
 10
91.07666250679974
 20
159.2757635459129
 30
0.0
 11
91.07666250679974
 21
160.5641079900346
 31
0.0
  0
LINE
  5
297
330
70
100
AcDbEntity
  8
Ebene 5
 62
     7
370
     9
100
AcDbLine
 10
91.04872250680669
 20
159.2757635459129
 30
0.0
 11
91.04872250680669
 21
160.7763743788708
 31
0.0
  0
LINE
  5
298
330
70
100
AcDbEntity
  8
Ebene 5
 62
     7
370
     9
100
AcDbLine
 10
91.02078250681426
 20
159.2757635459129
 30
0.0
 11
91.02078250681426
 21
160.9888347954843
 31
0.0
  0
LINE
  5
299
330
70
100
AcDbEntity
  8
Ebene 5
 62
     7
370
     9
100
AcDbLine
 10
90.99284250682121
 20
159.2757635459129
 30
0.0
 11
90.99284250682121
 21
161.2007131287646
 31
0.0
  0
LWPOLYLINE
  5
29A
330
70
100
AcDbEntity
  8
Ebene 5
 62
     7
370
     9
100
AcDbPolyline
 90
        4
 70
     0
 43
0.0
 10
90.99284250682121
 20
154.6010522970815
 10
91.24624278453515
 20
156.5258078521553
 10
90.73963625688394
 20
156.5258078521553
 10
90.99284250682121
 20
154.6010522970815
  0
LINE
  5
29B
330
70
100
AcDbEntity
  8
Ebene 5
 62
     7
370
     9
100
AcDbLine
 10
91.24449653453543
 20
156.5258078521553
 30
0.0
 11
91.24449653453543
 21
156.5108677132703
 31
0.0
  0
LINE
  5
29C
330
70
100
AcDbEntity
  8
Ebene 5
 62
     7
370
     9
100
AcDbLine
 10
91.24449653453543
 20
156.5258078521553
 30
0.0
 11
91.24449653453543
 21
156.5108677132703
 31
0.0
  0
LINE
  5
29D
330
70
100
AcDbEntity
  8
Ebene 5
 62
     7
370
     9
100
AcDbLine
 10
91.2163625067644
 20
156.5258078521553
 30
0.0
 11
91.2163625067644
 21
156.2987953522126
 31
0.0
  0
LINE
  5
29E
330
70
100
AcDbEntity
  8
Ebene 5
 62
     7
370
     9
100
AcDbLine
 10
91.18842250677134
 20
156.5258078521553
 30
0.0
 11
91.18842250677134
 21
156.0865289633764
 31
0.0
  0
LINE
  5
29F
330
70
100
AcDbEntity
  8
Ebene 5
 62
     7
370
     9
100
AcDbLine
 10
91.16048250677891
 20
156.5258078521553
 30
0.0
 11
91.16048250677891
 21
155.8742625745402
 31
0.0
  0
LINE
  5
2A0
330
70
100
AcDbEntity
  8
Ebene 5
 62
     7
370
     9
100
AcDbLine
 10
91.13254250678586
 20
156.5258078521553
 30
0.0
 11
91.13254250678586
 21
155.6619961857047
 31
0.0
  0
LINE
  5
2A1
330
70
100
AcDbEntity
  8
Ebene 5
 62
     7
370
     9
100
AcDbLine
 10
91.10460250679279
 20
156.5258078521553
 30
0.0
 11
91.10460250679279
 21
155.4499238246471
 31
0.0
  0
LINE
  5
2A2
330
70
100
AcDbEntity
  8
Ebene 5
 62
     7
370
     9
100
AcDbLine
 10
91.07666250679974
 20
156.5258078521553
 30
0.0
 11
91.07666250679974
 21
155.2376574358109
 31
0.0
  0
LINE
  5
2A3
330
70
100
AcDbEntity
  8
Ebene 5
 62
     7
370
     9
100
AcDbLine
 10
91.04872250680669
 20
156.5258078521553
 30
0.0
 11
91.04872250680669
 21
155.0253910469747
 31
0.0
  0
LINE
  5
2A4
330
70
100
AcDbEntity
  8
Ebene 5
 62
     7
370
     9
100
AcDbLine
 10
91.02078250681426
 20
156.5258078521553
 30
0.0
 11
91.02078250681426
 21
154.8131246581391
 31
0.0
  0
LINE
  5
2A5
330
70
100
AcDbEntity
  8
Ebene 5
 62
     7
370
     9
100
AcDbLine
 10
90.99284250682121
 20
156.5258078521553
 30
0.0
 11
90.99284250682121
 21
154.6010522970815
 31
0.0
  0
LINE
  5
2A6
330
70
100
AcDbEntity
  8
Ebene 5
 62
     7
370
     9
100
AcDbLine
 10
90.74157653466098
 20
156.5258078521553
 30
0.0
 11
90.74157653466098
 21
156.5108677132703
 31
0.0
  0
LINE
  5
2A7
330
70
100
AcDbEntity
  8
Ebene 5
 62
     7
370
     9
100
AcDbLine
 10
90.74157653466098
 20
156.5258078521553
 30
0.0
 11
90.74157653466098
 21
156.5108677132703
 31
0.0
  0
LINE
  5
2A8
330
70
100
AcDbEntity
  8
Ebene 5
 62
     7
370
     9
100
AcDbLine
 10
90.76951653465405
 20
156.5258078521553
 30
0.0
 11
90.76951653465405
 21
156.2987953522126
 31
0.0
  0
LINE
  5
2A9
330
70
100
AcDbEntity
  8
Ebene 5
 62
     7
370
     9
100
AcDbLine
 10
90.7974565346471
 20
156.5258078521553
 30
0.0
 11
90.7974565346471
 21
156.0865289633764
 31
0.0
  0
LINE
  5
2AA
330
70
100
AcDbEntity
  8
Ebene 5
 62
     7
370
     9
100
AcDbLine
 10
90.82539653464015
 20
156.5258078521553
 30
0.0
 11
90.82539653464015
 21
155.8742625745402
 31
0.0
  0
LINE
  5
2AB
330
70
100
AcDbEntity
  8
Ebene 5
 62
     7
370
     9
100
AcDbLine
 10
90.85333653463321
 20
156.5258078521553
 30
0.0
 11
90.85333653463321
 21
155.6619961857047
 31
0.0
  0
LINE
  5
2AC
330
70
100
AcDbEntity
  8
Ebene 5
 62
     7
370
     9
100
AcDbLine
 10
90.88127653462628
 20
156.5258078521553
 30
0.0
 11
90.88127653462628
 21
155.4499238246471
 31
0.0
  0
LINE
  5
2AD
330
70
100
AcDbEntity
  8
Ebene 5
 62
     7
370
     9
100
AcDbLine
 10
90.90921653461935
 20
156.5258078521553
 30
0.0
 11
90.90921653461935
 21
155.2376574358109
 31
0.0
  0
LINE
  5
2AE
330
70
100
AcDbEntity
  8
Ebene 5
 62
     7
370
     9
100
AcDbLine
 10
90.93696250683445
 20
156.5258078521553
 30
0.0
 11
90.93696250683445
 21
155.0253910469747
 31
0.0
  0
LINE
  5
2AF
330
70
100
AcDbEntity
  8
Ebene 5
 62
     7
370
     9
100
AcDbLine
 10
90.96490250682814
 20
156.5258078521553
 30
0.0
 11
90.96490250682814
 21
154.8131246581391
 31
0.0
  0
LINE
  5
2B0
330
70
100
AcDbEntity
  8
Ebene 5
 62
     7
370
     9
100
AcDbLine
 10
90.99284250682121
 20
156.5258078521553
 30
0.0
 11
90.99284250682121
 21
154.6010522970815
 31
0.0
  0
ENDSEC
  0
SECTION
  2
OBJECTS
  0
DICTIONARY
  5
C
330
0
100
AcDbDictionary
281
     1
  3
ACAD_COLOR
350
63
  3
ACAD_DETAILVIEWSTYLE
350
6A
  3
ACAD_GROUP
350
D
  3
ACAD_LAYOUT
350
62
  3
ACAD_MATERIAL
350
10
  3
ACAD_MLEADERSTYLE
350
66
  3
ACAD_MLINESTYLE
350
5F
  3
ACAD_PLOTSETTINGS
350
61
  3
ACAD_PLOTSTYLENAME
350
E
  3
ACAD_SCALELIST
350
42
  3
ACAD_SECTIONVIEWSTYLE
350
68
  3
ACAD_TABLESTYLE
350
64
  3
ACAD_VISUALSTYLE
350
29
  3
ACDB_RECOMPOSE_DATA
350
2B9
  3
AcDbVariableDictionary
350
2B1
  0
DICTIONARY
  5
63
102
{ACAD_REACTORS
330
C
102
}
330
C
100
AcDbDictionary
281
     1
  0
DICTIONARY
  5
6A
102
{ACAD_REACTORS
330
C
102
}
330
C
100
AcDbDictionary
281
     1
  3
Imperial24
350
6B
  0
DICTIONARY
  5
D
102
{ACAD_REACTORS
330
C
102
}
330
C
100
AcDbDictionary
281
     1
  0
DICTIONARY
  5
62
102
{ACAD_REACTORS
330
C
102
}
330
C
100
AcDbDictionary
281
     1
  3
Layout1
350
6F
  3
Layout2
350
77
  3
Model
350
73
  0
DICTIONARY
  5
10
102
{ACAD_REACTORS
330
C
102
}
330
C
100
AcDbDictionary
281
     1
  3
ByBlock
350
19
  3
ByLayer
350
11
  3
Global
350
21
  0
DICTIONARY
  5
66
102
{ACAD_REACTORS
330
C
102
}
330
C
100
AcDbDictionary
281
     1
  3
Standard
350
67
  0
DICTIONARY
  5
5F
102
{ACAD_REACTORS
330
C
102
}
330
C
100
AcDbDictionary
281
     1
  3
Standard
350
60
  0
DICTIONARY
  5
61
102
{ACAD_REACTORS
330
C
102
}
330
C
100
AcDbDictionary
281
     1
  0
ACDBDICTIONARYWDFLT
  5
E
102
{ACAD_REACTORS
330
C
102
}
330
C
100
AcDbDictionary
281
     1
  3
Normal
350
F
100
AcDbDictionaryWithDefault
340
F
  0
DICTIONARY
  5
42
102
{ACAD_REACTORS
330
C
102
}
330
C
100
AcDbDictionary
281
     1
  3
A0
350
43
  3
A1
350
44
  3
A2
350
45
  3
A3
350
46
  3
A4
350
47
  3
A5
350
48
  3
A6
350
49
  3
A7
350
4A
  3
A8
350
4B
  3
A9
350
4C
  3
B0
350
4D
  3
B1
350
4E
  3
B2
350
4F
  3
B3
350
50
  3
B4
350
51
  3
B5
350
52
  3
B6
350
53
  0
DICTIONARY
  5
68
102
{ACAD_REACTORS
330
C
102
}
330
C
100
AcDbDictionary
281
     1
  3
Imperial24
350
69
  0
DICTIONARY
  5
64
102
{ACAD_REACTORS
330
C
102
}
330
C
100
AcDbDictionary
281
     1
  3
Standard
350
65
  0
DICTIONARY
  5
29
102
{ACAD_REACTORS
330
C
102
}
330
C
100
AcDbDictionary
281
     1
  3
2dWireframe
350
2F
  3
Basic
350
2E
  3
Brighten
350
35
  3
ColorChange
350
39
  3
Conceptual
350
32
  3
Dim
350
34
  3
EdgeColorOff
350
41
  3
Facepattern
350
38
  3
Flat
350
2A
  3
FlatWithEdges
350
2B
  3
Gouraud
350
2C
  3
GouraudWithEdges
350
2D
  3
Hidden
350
31
  3
JitterOff
350
3F
  3
Linepattern
350
37
  3
OverhangOff
350
40
  3
Realistic
350
33
  3
Shaded
350
3E
  3
Shaded with edges
350
3D
  3
Shades of Gray
350
3A
  3
Sketchy
350
3B
  3
Thicken
350
36
  3
Wireframe
350
30
  3
X-Ray
350
3C
  0
XRECORD
  5
2B9
102
{ACAD_REACTORS
330
C
102
}
330
C
100
AcDbXrecord
280
     1
 90
        1
330
65
  0
DICTIONARY
  5
2B1
102
{ACAD_REACTORS
330
C
102
}
330
C
100
AcDbDictionary
281
     1
  3
CANNOSCALE
350
2B6
  3
CMLEADERSTYLE
350
2B3
  3
CTABLESTYLE
350
2B2
  3
CVIEWDETAILSTYLE
350
2B4
  3
CVIEWSECTIONSTYLE
350
2B5
  0
ACDBDETAILVIEWSTYLE
  5
6B
102
{ACAD_REACTORS
330
6A
102
}
330
6A
100
AcDbModelDocViewStyle
 70
     0
  3
Imperial24
290
     1
300
Imperial24
 90
        0
100
AcDbDetailViewStyle
 70
     0
 71
     0
 90
        3
 71
     1
340
55
 62
   256
 40
0.24
340
0
 62
   256
 40
0.24
300

 40
0.36
280
     3
 71
     2
340
5D
 90
       25
 62
   256
 71
     3
340
55
 62
   256
 40
0.24
 90
        1
 40
0.75
 90
        1
300
%<\AcVar ViewType \f "%tc1">% %<\AcVar ViewDetailId>%\PSCALE %<\AcVar ViewScale \f "%sn">%
 71
     4
340
5D
 90
       25
 62
   256
340
5D
 90
       25
 62
   256
280
     0
  0
LAYOUT
  5
6F
102
{ACAD_REACTORS
330
62
102
}
330
62
100
AcDbPlotSettings
  1

  2

  4

  6

 40
0.0
 41
0.0
 42
0.0
 43
0.0
 44
0.0
 45
0.0
 46
0.0
 47
0.0
 48
0.0
 49
0.0
140
0.0
141
0.0
142
1.0
143
1.0
 70
   688
 72
     0
 73
     0
 74
     5
  7

 75
    16
147
1.0
 76
     0
 77
     2
 78
   300
148
0.0
149
0.0
100
AcDbLayout
  1
Layout1
 70
     1
 71
     1
 10
0.0
 20
0.0
 11
12.0
 21
9.0
 12
0.0
 22
0.0
 32
0.0
 14
0.0
 24
0.0
 34
0.0
 15
0.0
 25
0.0
 35
0.0
146
0.0
 13
0.0
 23
0.0
 33
0.0
 16
1.0
 26
0.0
 36
0.0
 17
0.0
 27
1.0
 37
0.0
 76
     0
330
6C
  0
LAYOUT
  5
77
102
{ACAD_REACTORS
330
62
102
}
330
62
100
AcDbPlotSettings
  1

  2

  4

  6

 40
0.0
 41
0.0
 42
0.0
 43
0.0
 44
0.0
 45
0.0
 46
0.0
 47
0.0
 48
0.0
 49
0.0
140
0.0
141
0.0
142
1.0
143
1.0
 70
   688
 72
     0
 73
     0
 74
     5
  7

 75
    16
147
1.0
 76
     0
 77
     2
 78
   300
148
0.0
149
0.0
100
AcDbLayout
  1
Layout2
 70
     1
 71
     2
 10
0.0
 20
0.0
 11
12.0
 21
9.0
 12
0.0
 22
0.0
 32
0.0
 14
0.0
 24
0.0
 34
0.0
 15
0.0
 25
0.0
 35
0.0
146
0.0
 13
0.0
 23
0.0
 33
0.0
 16
1.0
 26
0.0
 36
0.0
 17
0.0
 27
1.0
 37
0.0
 76
     0
330
74
  0
LAYOUT
  5
73
102
{ACAD_REACTORS
330
62
102
}
330
62
100
AcDbPlotSettings
  1

  2

  4

  6

 40
0.0
 41
0.0
 42
0.0
 43
0.0
 44
0.0
 45
0.0
 46
0.0
 47
0.0
 48
0.0
 49
0.0
140
0.0
141
0.0
142
1.0
143
1.0
 70
  1712
 72
     0
 73
     0
 74
     0
  7

 75
     0
147
1.0
 76
     0
 77
     2
 78
   300
148
0.0
149
0.0
100
AcDbLayout
  1
Model
 70
     1
 71
     0
 10
0.0
 20
0.0
 11
12.0
 21
9.0
 12
0.0
 22
0.0
 32
0.0
 14
0.0
 24
0.0
 34
0.0
 15
0.0
 25
0.0
 35
0.0
146
0.0
 13
0.0
 23
0.0
 33
0.0
 16
1.0
 26
0.0
 36
0.0
 17
0.0
 27
1.0
 37
0.0
 76
     0
330
70
  0
MATERIAL
  5
19
102
{ACAD_XDICTIONARY
360
1A
102
}
102
{ACAD_REACTORS
330
10
102
}
330
10
100
AcDbMaterial
  1
ByBlock
 72
     0
 43
0.0208333333333333
 43
0.0
 43
0.0
 43
0.0
 43
0.0
 43
0.0208333333333333
 43
0.0
 43
0.0
 43
0.0
 43
0.0
 43
1.0
 43
0.0
 43
0.0
 43
0.0
 43
0.0
 43
1.0
 77
     0
 47
0.0208333333333333
 47
0.0
 47
0.0
 47
0.0
 47
0.0
 47
0.0208333333333333
 47
0.0
 47
0.0
 47
0.0
 47
0.0
 47
1.0
 47
0.0
 47
0.0
 47
0.0
 47
0.0
 47
1.0
171
     0
 49
0.0208333333333333
 49
0.0
 49
0.0
 49
0.0
 49
0.0
 49
0.0208333333333333
 49
0.0
 49
0.0
 49
0.0
 49
0.0
 49
1.0
 49
0.0
 49
0.0
 49
0.0
 49
0.0
 49
1.0
175
     0
142
0.0208333333333333
142
0.0
142
0.0
142
0.0
142
0.0
142
0.0208333333333333
142
0.0
142
0.0
142
0.0
142
0.0
142
1.0
142
0.0
142
0.0
142
0.0
142
0.0
142
1.0
179
     0
144
0.0208333333333333
144
0.0
144
0.0
144
0.0
144
0.0
144
0.0208333333333333
144
0.0
144
0.0
144
0.0
144
0.0
144
1.0
144
0.0
144
0.0
144
0.0
144
0.0
144
1.0
147
0.0208333333333333
147
0.0
147
0.0
147
0.0
147
0.0
147
0.0208333333333333
147
0.0
147
0.0
147
0.0
147
0.0
147
1.0
147
0.0
147
0.0
147
0.0
147
0.0
147
1.0
  0
MATERIAL
  5
11
102
{ACAD_XDICTIONARY
360
12
102
}
102
{ACAD_REACTORS
330
10
102
}
330
10
100
AcDbMaterial
  1
ByLayer
 72
     0
 43
0.0208333333333333
 43
0.0
 43
0.0
 43
0.0
 43
0.0
 43
0.0208333333333333
 43
0.0
 43
0.0
 43
0.0
 43
0.0
 43
1.0
 43
0.0
 43
0.0
 43
0.0
 43
0.0
 43
1.0
 77
     0
 47
0.0208333333333333
 47
0.0
 47
0.0
 47
0.0
 47
0.0
 47
0.0208333333333333
 47
0.0
 47
0.0
 47
0.0
 47
0.0
 47
1.0
 47
0.0
 47
0.0
 47
0.0
 47
0.0
 47
1.0
171
     0
 49
0.0208333333333333
 49
0.0
 49
0.0
 49
0.0
 49
0.0
 49
0.0208333333333333
 49
0.0
 49
0.0
 49
0.0
 49
0.0
 49
1.0
 49
0.0
 49
0.0
 49
0.0
 49
0.0
 49
1.0
175
     0
142
0.0208333333333333
142
0.0
142
0.0
142
0.0
142
0.0
142
0.0208333333333333
142
0.0
142
0.0
142
0.0
142
0.0
142
1.0
142
0.0
142
0.0
142
0.0
142
0.0
142
1.0
179
     0
144
0.0208333333333333
144
0.0
144
0.0
144
0.0
144
0.0
144
0.0208333333333333
144
0.0
144
0.0
144
0.0
144
0.0
144
1.0
144
0.0
144
0.0
144
0.0
144
0.0
144
1.0
147
0.0208333333333333
147
0.0
147
0.0
147
0.0
147
0.0
147
0.0208333333333333
147
0.0
147
0.0
147
0.0
147
0.0
147
1.0
147
0.0
147
0.0
147
0.0
147
0.0
147
1.0
  0
MATERIAL
  5
21
102
{ACAD_XDICTIONARY
360
22
102
}
102
{ACAD_REACTORS
330
10
102
}
330
10
100
AcDbMaterial
  1
Global
 72
     0
 43
0.0208333333333333
 43
0.0
 43
0.0
 43
0.0
 43
0.0
 43
0.0208333333333333
 43
0.0
 43
0.0
 43
0.0
 43
0.0
 43
1.0
 43
0.0
 43
0.0
 43
0.0
 43
0.0
 43
1.0
 77
     0
 47
0.0208333333333333
 47
0.0
 47
0.0
 47
0.0
 47
0.0
 47
0.0208333333333333
 47
0.0
 47
0.0
 47
0.0
 47
0.0
 47
1.0
 47
0.0
 47
0.0
 47
0.0
 47
0.0
 47
1.0
171
     0
 49
0.0208333333333333
 49
0.0
 49
0.0
 49
0.0
 49
0.0
 49
0.0208333333333333
 49
0.0
 49
0.0
 49
0.0
 49
0.0
 49
1.0
 49
0.0
 49
0.0
 49
0.0
 49
0.0
 49
1.0
175
     0
142
0.0208333333333333
142
0.0
142
0.0
142
0.0
142
0.0
142
0.0208333333333333
142
0.0
142
0.0
142
0.0
142
0.0
142
1.0
142
0.0
142
0.0
142
0.0
142
0.0
142
1.0
179
     0
144
0.0208333333333333
144
0.0
144
0.0
144
0.0
144
0.0
144
0.0208333333333333
144
0.0
144
0.0
144
0.0
144
0.0
144
1.0
144
0.0
144
0.0
144
0.0
144
0.0
144
1.0
147
0.0208333333333333
147
0.0
147
0.0
147
0.0
147
0.0
147
0.0208333333333333
147
0.0
147
0.0
147
0.0
147
0.0
147
1.0
147
0.0
147
0.0
147
0.0
147
0.0
147
1.0
  0
MLEADERSTYLE
  5
67
102
{ACAD_REACTORS
330
66
102
}
330
66
100
AcDbMLeaderStyle
179
     2
170
     2
171
     1
172
     0
 90
        2
 40
0.0
 41
0.0
173
     1
 91
-1056964608
340
5B
 92
       -2
290
     1
 42
0.09
291
     1
 43
0.36
  3
Standard
 44
0.18
300

342
55
174
     1
178
     6
175
     1
176
     0
 93
-1056964608
 45
0.18
292
     0
297
     0
 46
0.18
 94
-1056964608
 47
1.0
 49
1.0
140
1.0
293
     1
141
0.0
294
     1
177
     0
142
1.0
295
     1
296
     0
143
0.125
271
     0
272
     9
273
     9
298
     1
  0
MLINESTYLE
  5
60
102
{ACAD_REACTORS
330
5F
102
}
330
5F
100
AcDbMlineStyle
  2
STANDARD
 70
     0
  3

 62
   256
 51
90.0
 52
90.0
 71
     2
 49
0.5
 62
   256
  6
BYLAYER
 49
-0.5
 62
   256
  6
BYLAYER
  0
ACDBPLACEHOLDER
  5
F
102
{ACAD_REACTORS
330
E
102
}
330
E
  0
SCALE
  5
43
102
{ACAD_REACTORS
330
42
102
}
330
42
100
AcDbScale
 70
     0
300
1:1
140
1.0
141
1.0
290
     1
  0
SCALE
  5
44
102
{ACAD_REACTORS
330
42
102
}
330
42
100
AcDbScale
 70
     0
300
1/128" = 1'-0"
140
0.0078125
141
12.0
290
     0
  0
SCALE
  5
45
102
{ACAD_REACTORS
330
42
102
}
330
42
100
AcDbScale
 70
     0
300
1/64" = 1'-0"
140
0.015625
141
12.0
290
     0
  0
SCALE
  5
46
102
{ACAD_REACTORS
330
42
102
}
330
42
100
AcDbScale
 70
     0
300
1/32" = 1'-0"
140
0.03125
141
12.0
290
     0
  0
SCALE
  5
47
102
{ACAD_REACTORS
330
42
102
}
330
42
100
AcDbScale
 70
     0
300
1/16" = 1'-0"
140
0.0625
141
12.0
290
     0
  0
SCALE
  5
48
102
{ACAD_REACTORS
330
42
102
}
330
42
100
AcDbScale
 70
     0
300
3/32" = 1'-0"
140
0.09375
141
12.0
290
     0
  0
SCALE
  5
49
102
{ACAD_REACTORS
330
42
102
}
330
42
100
AcDbScale
 70
     0
300
1/8" = 1'-0"
140
0.125
141
12.0
290
     0
  0
SCALE
  5
4A
102
{ACAD_REACTORS
330
42
102
}
330
42
100
AcDbScale
 70
     0
300
3/16" = 1'-0"
140
0.1875
141
12.0
290
     0
  0
SCALE
  5
4B
102
{ACAD_REACTORS
330
42
102
}
330
42
100
AcDbScale
 70
     0
300
1/4" = 1'-0"
140
0.25
141
12.0
290
     0
  0
SCALE
  5
4C
102
{ACAD_REACTORS
330
42
102
}
330
42
100
AcDbScale
 70
     0
300
3/8" = 1'-0"
140
0.375
141
12.0
290
     0
  0
SCALE
  5
4D
102
{ACAD_REACTORS
330
42
102
}
330
42
100
AcDbScale
 70
     0
300
1/2" = 1'-0"
140
0.5
141
12.0
290
     0
  0
SCALE
  5
4E
102
{ACAD_REACTORS
330
42
102
}
330
42
100
AcDbScale
 70
     0
300
3/4" = 1'-0"
140
0.75
141
12.0
290
     0
  0
SCALE
  5
4F
102
{ACAD_REACTORS
330
42
102
}
330
42
100
AcDbScale
 70
     0
300
1" = 1'-0"
140
1.0
141
12.0
290
     0
  0
SCALE
  5
50
102
{ACAD_REACTORS
330
42
102
}
330
42
100
AcDbScale
 70
     0
300
1-1/2" = 1'-0"
140
1.5
141
12.0
290
     0
  0
SCALE
  5
51
102
{ACAD_REACTORS
330
42
102
}
330
42
100
AcDbScale
 70
     0
300
3" = 1'-0"
140
3.0
141
12.0
290
     0
  0
SCALE
  5
52
102
{ACAD_REACTORS
330
42
102
}
330
42
100
AcDbScale
 70
     0
300
6" = 1'-0"
140
6.0
141
12.0
290
     0
  0
SCALE
  5
53
102
{ACAD_REACTORS
330
42
102
}
330
42
100
AcDbScale
 70
     0
300
1'-0" = 1'-0"
140
12.0
141
12.0
290
     0
  0
ACDBSECTIONVIEWSTYLE
  5
69
102
{ACAD_REACTORS
330
68
102
}
330
68
100
AcDbModelDocViewStyle
 70
     0
  3
Imperial24
290
     1
300
Imperial24
 90
        0
100
AcDbSectionViewStyle
 70
     0
 71
     0
 90
       78
 71
     1
340
55
 62
   256
 40
0.24
340
0
340
0
 62
   256
 40
0.24
300
I, O, Q, S, X, Z
 40
0.48
 90
        3
 40
0.18
 90
        1
 71
     2
340
5D
 90
       25
 62
   256
340
5D
 90
       50
 62
   256
 40
0.24
 40
0.0
 40
0.24
 71
     3
340
55
 62
   256
 40
0.24
 90
        1
 40
0.75
 90
        1
300
%<\AcVar ViewType \f "%tc1">% %<\AcVar ViewSectionStartId>%-%<\AcVar ViewSectionEndId>%\PSCALE %<\AcVar ViewScale \f "%sn">%
 71
     4
 62
   256
 62
   257
300
ANSI31
 40
1.0
 90
        0
290
     0
290
     0
 90
        6
 40
0.0
 40
1.570796326794896
 40
0.2617993877991494
 40
1.308996938995747
 40
-0.2617993877991494
 40
1.832595714594046
  0
TABLESTYLE
  5
65
102
{ACAD_XDICTIONARY
360
2B7
102
}
102
{ACAD_REACTORS
330
64
102
}
330
64
100
AcDbTableStyle
280
     0
  3
Standard
 70
     0
 71
     0
 40
0.06
 41
0.06
280
     0
281
     0
  7
Standard
140
0.18
170
     2
 62
     0
 63
     7
283
     0
 90
      512
 91
        0
  1

274
    -2
284
     1
 64
     0
275
    -2
285
     1
 65
     0
276
    -2
286
     1
 66
     0
277
    -2
287
     1
 67
     0
278
    -2
288
     1
 68
     0
279
    -2
289
     1
 69
     0
  7
Standard
140
0.25
170
     5
 62
     0
 63
     7
283
     0
 90
      512
 91
        0
  1

274
    -2
284
     1
 64
     0
275
    -2
285
     1
 65
     0
276
    -2
286
     1
 66
     0
277
    -2
287
     1
 67
     0
278
    -2
288
     1
 68
     0
279
    -2
289
     1
 69
     0
  7
Standard
140
0.18
170
     5
 62
     0
 63
     7
283
     0
 90
      512
 91
        0
  1

274
    -2
284
     1
 64
     0
275
    -2
285
     1
 65
     0
276
    -2
286
     1
 66
     0
277
    -2
287
     1
 67
     0
278
    -2
288
     1
 68
     0
279
    -2
289
     1
 69
     0
  0
VISUALSTYLE
  5
2F
102
{ACAD_REACTORS
330
29
102
}
330
29
100
AcDbVisualStyle
  2
2dWireframe
 70
     4
177
     3
291
     0
 70
    58
 90
        0
176
     1
 90
        2
176
     1
 90
        0
176
     1
 90
        0
176
     1
 40
0.6
176
     1
 40
30.0
176
     1
 62
     7
420
 16777215
176
     1
 90
        1
176
     1
 90
        4
176
     1
 62
     7
176
     1
 62
   257
176
     1
 90
        1
176
     1
 90
        1
176
     1
 40
1.0
176
     1
 90
        0
176
     1
 62
   257
176
     1
 40
1.0
176
     1
 90
        1
176
     1
 90
        6
176
     1
 90
        2
176
     1
 62
     7
176
     1
 90
        5
176
     1
 90
        0
176
     1
 90
        0
176
     1
290
     0
176
     1
 90
        1
176
     1
 40
0.0
176
     1
 90
        0
176
     1
290
     1
176
     1
290
     1
176
     1
290
     0
176
     1
290
     0
176
     1
290
     0
176
     1
290
     0
176
     1
290
     0
176
     1
290
     0
176
     1
290
     0
176
     1
 90
       50
176
     1
 40
0.0
176
     1
 40
1.0
176
     1
 90
        0
176
     1
 62
    18
420
        0
176
     1
 90
       50
176
     1
 90
        3
176
     1
 62
     5
420
      255
176
     1
290
     0
176
     1
 90
       50
176
     1
 90
       50
176
     1
 90
       50
176
     1
290
     0
176
     1
 90
       50
176
     1
 62
   256
176
     0
 40
1.0
176
     0
 90
        2
176
     1
  1
strokes_ogs.tif
176
     1
290
     0
176
     1
 40
1.0
176
     1
 40
1.0
176
     1
  0
VISUALSTYLE
  5
2E
102
{ACAD_REACTORS
330
29
102
}
330
29
100
AcDbVisualStyle
  2
Basic
 70
     7
177
     3
291
     1
 70
    58
 90
        1
176
     1
 90
        0
176
     1
 90
        1
176
     1
 90
        0
176
     1
 40
0.6
176
     1
 40
30.0
176
     1
 62
     7
420
 16777215
176
     1
 90
        0
176
     1
 90
        4
176
     1
 62
     7
176
     1
 62
   257
176
     1
 90
        1
176
     1
 90
        1
176
     1
 40
1.0
176
     1
 90
        8
176
     1
 62
     7
176
     1
 40
1.0
176
     1
 90
        1
176
     1
 90
        6
176
     1
 90
        2
176
     1
 62
     7
176
     1
 90
        5
176
     1
 90
        0
176
     1
 90
        0
176
     1
290
     0
176
     1
 90
        1
176
     1
 40
0.0
176
     1
 90
        0
176
     1
290
     0
176
     1
290
     1
176
     1
290
     1
176
     1
290
     0
176
     1
290
     0
176
     1
290
     0
176
     1
290
     0
176
     1
290
     0
176
     1
290
     0
176
     1
 90
       50
176
     1
 40
0.0
176
     1
 40
1.0
176
     1
 90
        0
176
     1
 62
    18
420
        0
176
     1
 90
       50
176
     1
 90
        3
176
     1
 62
     5
420
      255
176
     1
290
     0
176
     1
 90
       50
176
     1
 90
       50
176
     1
 90
       50
176
     1
290
     0
176
     1
 90
       50
176
     1
 62
   256
176
     0
 40
1.0
176
     0
 90
        2
176
     1
  1
strokes_ogs.tif
176
     1
290
     0
176
     1
 40
1.0
176
     1
 40
1.0
176
     1
  0
VISUALSTYLE
  5
35
102
{ACAD_REACTORS
330
29
102
}
330
29
100
AcDbVisualStyle
  2
Brighten
 70
    12
177
     3
291
     1
 70
    58
 90
        2
176
     1
 90
        2
176
     1
 90
        0
176
     1
 90
        0
176
     1
 40
0.6
176
     1
 40
30.0
176
     1
 62
     7
420
 16777215
176
     1
 90
        1
176
     1
 90
        4
176
     1
 62
     7
176
     1
 62
   257
176
     1
 90
        1
176
     1
 90
        1
176
     1
 40
1.0
176
     1
 90
        8
176
     1
 62
     7
176
     1
 40
1.0
176
     1
 90
        1
176
     1
 90
        6
176
     1
 90
        2
176
     1
 62
     7
176
     1
 90
        5
176
     1
 90
        0
176
     1
 90
        0
176
     1
290
     0
176
     1
 90
        1
176
     1
 40
50.0
176
     1
 90
        0
176
     1
290
     0
176
     1
290
     1
176
     1
290
     1
176
     1
290
     0
176
     1
290
     0
176
     1
290
     0
176
     1
290
     0
176
     1
290
     0
176
     1
290
     0
176
     1
 90
       50
176
     1
 40
0.0
176
     1
 40
1.0
176
     1
 90
        0
176
     1
 62
    18
420
        0
176
     1
 90
       50
176
     1
 90
        3
176
     1
 62
     5
420
      255
176
     1
290
     0
176
     1
 90
       50
176
     1
 90
       50
176
     1
 90
       50
176
     1
290
     0
176
     1
 90
       50
176
     1
 62
   256
176
     0
 40
1.0
176
     0
 90
        2
176
     1
  1
strokes_ogs.tif
176
     1
290
     0
176
     1
 40
1.0
176
     1
 40
1.0
176
     1
  0
VISUALSTYLE
  5
39
102
{ACAD_REACTORS
330
29
102
}
330
29
100
AcDbVisualStyle
  2
ColorChange
 70
    16
177
     3
291
     1
 70
    58
 90
        2
176
     1
 90
        2
176
     1
 90
        3
176
     1
 90
        0
176
     1
 40
0.6
176
     1
 40
30.0
176
     1
 62
     8
420
  8421504
176
     1
 90
        1
176
     1
 90
        4
176
     1
 62
     7
176
     1
 62
   257
176
     1
 90
        1
176
     1
 90
        1
176
     1
 40
1.0
176
     1
 90
        8
176
     1
 62
     8
420
  8421504
176
     1
 40
1.0
176
     1
 90
        1
176
     1
 90
        6
176
     1
 90
        2
176
     1
 62
     7
176
     1
 90
        5
176
     1
 90
        0
176
     1
 90
        0
176
     1
290
     0
176
     1
 90
        1
176
     1
 40
0.0
176
     1
 90
        0
176
     1
290
     0
176
     1
290
     1
176
     1
290
     1
176
     1
290
     0
176
     1
290
     0
176
     1
290
     0
176
     1
290
     0
176
     1
290
     0
176
     1
290
     0
176
     1
 90
       50
176
     1
 40
0.0
176
     1
 40
1.0
176
     1
 90
        0
176
     1
 62
    18
420
        0
176
     1
 90
       50
176
     1
 90
        3
176
     1
 62
     5
420
      255
176
     1
290
     0
176
     1
 90
       50
176
     1
 90
       50
176
     1
 90
       50
176
     1
290
     0
176
     1
 90
       50
176
     1
 62
   256
176
     0
 40
1.0
176
     0
 90
        2
176
     1
  1
strokes_ogs.tif
176
     1
290
     0
176
     1
 40
1.0
176
     1
 40
1.0
176
     1
  0
VISUALSTYLE
  5
32
102
{ACAD_REACTORS
330
29
102
}
330
29
100
AcDbVisualStyle
  2
Conceptual
 70
     9
177
     3
291
     0
 70
    58
 90
        3
176
     1
 90
        2
176
     1
 90
        0
176
     1
 90
        0
176
     1
 40
0.6
176
     1
 40
30.0
176
     1
 62
     7
420
 16777215
176
     1
 90
        2
176
     1
 90
        2
176
     1
 62
     7
176
     1
 62
   257
176
     1
 90
        1
176
     1
 90
        1
176
     1
 40
179.0
176
     1
 90
        8
176
     1
 62
     7
176
     1
 40
1.0
176
     1
 90
        1
176
     1
 90
        6
176
     1
 90
        2
176
     1
 62
     7
176
     1
 90
        3
176
     1
 90
        0
176
     1
 90
        0
176
     1
290
     0
176
     1
 90
        1
176
     1
 40
0.0
176
     1
 90
        0
176
     1
290
     0
176
     1
290
     1
176
     1
290
     1
176
     1
290
     0
176
     1
290
     0
176
     1
290
     0
176
     1
290
     0
176
     1
290
     0
176
     1
290
     0
176
     1
 90
       50
176
     1
 40
0.0
176
     1
 40
1.0
176
     1
 90
        0
176
     1
 62
    18
420
        0
176
     1
 90
       50
176
     1
 90
        3
176
     1
 62
     5
420
      255
176
     1
290
     0
176
     1
 90
       50
176
     1
 90
       50
176
     1
 90
       50
176
     1
290
     0
176
     1
 90
       50
176
     1
 62
   256
176
     0
 40
1.0
176
     0
 90
        2
176
     1
  1
strokes_ogs.tif
176
     1
290
     0
176
     1
 40
1.0
176
     1
 40
1.0
176
     1
  0
VISUALSTYLE
  5
34
102
{ACAD_REACTORS
330
29
102
}
330
29
100
AcDbVisualStyle
  2
Dim
 70
    11
177
     3
291
     1
 70
    58
 90
        2
176
     1
 90
        2
176
     1
 90
        0
176
     1
 90
        0
176
     1
 40
0.6
176
     1
 40
30.0
176
     1
 62
     7
420
 16777215
176
     1
 90
        1
176
     1
 90
        4
176
     1
 62
     7
176
     1
 62
   257
176
     1
 90
        1
176
     1
 90
        1
176
     1
 40
1.0
176
     1
 90
        8
176
     1
 62
     7
176
     1
 40
1.0
176
     1
 90
        1
176
     1
 90
        6
176
     1
 90
        2
176
     1
 62
     7
176
     1
 90
        5
176
     1
 90
        0
176
     1
 90
        0
176
     1
290
     0
176
     1
 90
        1
176
     1
 40
-50.0
176
     1
 90
        0
176
     1
290
     0
176
     1
290
     1
176
     1
290
     1
176
     1
290
     0
176
     1
290
     0
176
     1
290
     0
176
     1
290
     0
176
     1
290
     0
176
     1
290
     0
176
     1
 90
       50
176
     1
 40
0.0
176
     1
 40
1.0
176
     1
 90
        0
176
     1
 62
    18
420
        0
176
     1
 90
       50
176
     1
 90
        3
176
     1
 62
     5
420
      255
176
     1
290
     0
176
     1
 90
       50
176
     1
 90
       50
176
     1
 90
       50
176
     1
290
     0
176
     1
 90
       50
176
     1
 62
   256
176
     0
 40
1.0
176
     0
 90
        2
176
     1
  1
strokes_ogs.tif
176
     1
290
     0
176
     1
 40
1.0
176
     1
 40
1.0
176
     1
  0
VISUALSTYLE
  5
41
102
{ACAD_REACTORS
330
29
102
}
330
29
100
AcDbVisualStyle
  2
EdgeColorOff
 70
    22
177
     3
291
     1
 70
    58
 90
        2
176
     0
 90
        2
176
     0
 90
        0
176
     0
 90
        0
176
     0
 40
0.6
176
     0
 40
30.0
176
     0
 62
     7
420
 16777215
176
     0
 90
        1
176
     0
 90
        4
176
     0
 62
     7
176
     0
 62
   257
176
     0
 90
        1
176
     0
 90
        1
176
     0
 40
1.0
176
     0
 90
        8
176
     2
 62
     7
176
     0
 40
1.0
176
     0
 90
        1
176
     0
 90
        6
176
     0
 90
        2
176
     0
 62
     7
176
     0
 90
        5
176
     0
 90
        0
176
     0
 90
        0
176
     0
290
     0
176
     0
 90
        1
176
     0
 40
0.0
176
     0
 90
        0
176
     0
290
     0
176
     0
290
     1
176
     0
290
     1
176
     0
290
     0
176
     0
290
     0
176
     0
290
     0
176
     0
290
     0
176
     0
290
     0
176
     0
290
     0
176
     0
 90
       50
176
     0
 40
0.0
176
     0
 40
1.0
176
     0
 90
        0
176
     0
 62
    18
420
        0
176
     0
 90
       50
176
     0
 90
        3
176
     0
 62
     5
420
      255
176
     0
290
     0
176
     0
 90
       50
176
     0
 90
       50
176
     0
 90
       50
176
     0
290
     0
176
     0
 90
       50
176
     0
 62
   256
176
     0
 40
1.0
176
     0
 90
        2
176
     0
  1
strokes_ogs.tif
176
     0
290
     0
176
     0
 40
1.0
176
     0
 40
1.0
176
     0
  0
VISUALSTYLE
  5
38
102
{ACAD_REACTORS
330
29
102
}
330
29
100
AcDbVisualStyle
  2
Facepattern
 70
    15
177
     3
291
     1
 70
    58
 90
        2
176
     1
 90
        2
176
     1
 90
        0
176
     1
 90
        0
176
     1
 40
0.6
176
     1
 40
30.0
176
     1
 62
     7
420
 16777215
176
     1
 90
        1
176
     1
 90
        4
176
     1
 62
     7
176
     1
 62
   257
176
     1
 90
        1
176
     1
 90
        1
176
     1
 40
1.0
176
     1
 90
        8
176
     1
 62
     7
176
     1
 40
1.0
176
     1
 90
        1
176
     1
 90
        6
176
     1
 90
        2
176
     1
 62
     7
176
     1
 90
        5
176
     1
 90
        0
176
     1
 90
        0
176
     1
290
     0
176
     1
 90
        1
176
     1
 40
0.0
176
     1
 90
        0
176
     1
290
     0
176
     1
290
     1
176
     1
290
     1
176
     1
290
     0
176
     1
290
     0
176
     1
290
     0
176
     1
290
     0
176
     1
290
     0
176
     1
290
     0
176
     1
 90
       50
176
     1
 40
0.0
176
     1
 40
1.0
176
     1
 90
        0
176
     1
 62
    18
420
        0
176
     1
 90
       50
176
     1
 90
        3
176
     1
 62
     5
420
      255
176
     1
290
     0
176
     1
 90
       50
176
     1
 90
       50
176
     1
 90
       50
176
     1
290
     0
176
     1
 90
       50
176
     1
 62
   256
176
     0
 40
1.0
176
     0
 90
        2
176
     1
  1
strokes_ogs.tif
176
     1
290
     0
176
     1
 40
1.0
176
     1
 40
1.0
176
     1
  0
VISUALSTYLE
  5
2A
102
{ACAD_REACTORS
330
29
102
}
330
29
100
AcDbVisualStyle
  2
Flat
 70
     0
177
     3
291
     1
 70
    58
 90
        2
176
     1
 90
        1
176
     1
 90
        1
176
     1
 90
        2
176
     1
 40
0.6
176
     1
 40
30.0
176
     1
 62
     7
420
 16777215
176
     1
 90
        0
176
     1
 90
        0
176
     1
 62
     7
176
     1
 62
   257
176
     1
 90
        1
176
     1
 90
        1
176
     1
 40
1.0
176
     1
 90
        8
176
     1
 62
     7
176
     1
 40
1.0
176
     1
 90
        1
176
     1
 90
        6
176
     1
 90
        2
176
     1
 62
     7
176
     1
 90
        5
176
     1
 90
        0
176
     1
 90
        0
176
     1
290
     0
176
     1
 90
       13
176
     1
 40
0.0
176
     1
 90
        0
176
     1
290
     0
176
     1
290
     1
176
     1
290
     1
176
     1
290
     0
176
     1
290
     0
176
     1
290
     0
176
     1
290
     0
176
     1
290
     0
176
     1
290
     0
176
     1
 90
       50
176
     1
 40
0.0
176
     1
 40
1.0
176
     1
 90
        0
176
     1
 62
    18
420
        0
176
     1
 90
       50
176
     1
 90
        3
176
     1
 62
     5
420
      255
176
     1
290
     0
176
     1
 90
       50
176
     1
 90
       50
176
     1
 90
       50
176
     1
290
     0
176
     1
 90
       50
176
     1
 62
   256
176
     0
 40
1.0
176
     0
 90
        2
176
     1
  1
strokes_ogs.tif
176
     1
290
     0
176
     1
 40
1.0
176
     1
 40
1.0
176
     1
  0
VISUALSTYLE
  5
2B
102
{ACAD_REACTORS
330
29
102
}
330
29
100
AcDbVisualStyle
  2
FlatWithEdges
 70
     1
177
     3
291
     1
 70
    58
 90
        2
176
     1
 90
        1
176
     1
 90
        1
176
     1
 90
        2
176
     1
 40
0.6
176
     1
 40
30.0
176
     1
 62
     7
420
 16777215
176
     1
 90
        1
176
     1
 90
        0
176
     1
 62
     7
176
     1
 62
   257
176
     1
 90
        1
176
     1
 90
        1
176
     1
 40
1.0
176
     1
 90
        0
176
     1
 62
   257
176
     1
 40
1.0
176
     1
 90
        1
176
     1
 90
        6
176
     1
 90
        2
176
     1
 62
     7
176
     1
 90
        5
176
     1
 90
        0
176
     1
 90
        0
176
     1
290
     0
176
     1
 90
       13
176
     1
 40
0.0
176
     1
 90
        0
176
     1
290
     0
176
     1
290
     1
176
     1
290
     1
176
     1
290
     0
176
     1
290
     0
176
     1
290
     0
176
     1
290
     0
176
     1
290
     0
176
     1
290
     0
176
     1
 90
       50
176
     1
 40
0.0
176
     1
 40
1.0
176
     1
 90
        0
176
     1
 62
    18
420
        0
176
     1
 90
       50
176
     1
 90
        3
176
     1
 62
     5
420
      255
176
     1
290
     0
176
     1
 90
       50
176
     1
 90
       50
176
     1
 90
       50
176
     1
290
     0
176
     1
 90
       50
176
     1
 62
   256
176
     0
 40
1.0
176
     0
 90
        2
176
     1
  1
strokes_ogs.tif
176
     1
290
     0
176
     1
 40
1.0
176
     1
 40
1.0
176
     1
  0
VISUALSTYLE
  5
2C
102
{ACAD_REACTORS
330
29
102
}
330
29
100
AcDbVisualStyle
  2
Gouraud
 70
     2
177
     3
291
     1
 70
    58
 90
        2
176
     1
 90
        2
176
     1
 90
        1
176
     1
 90
        2
176
     1
 40
0.6
176
     1
 40
30.0
176
     1
 62
     7
420
 16777215
176
     1
 90
        0
176
     1
 90
        0
176
     1
 62
     7
176
     1
 62
   257
176
     1
 90
        1
176
     1
 90
        1
176
     1
 40
1.0
176
     1
 90
        0
176
     1
 62
     7
176
     1
 40
1.0
176
     1
 90
        1
176
     1
 90
        6
176
     1
 90
        2
176
     1
 62
     7
176
     1
 90
        5
176
     1
 90
        0
176
     1
 90
        0
176
     1
290
     0
176
     1
 90
       13
176
     1
 40
0.0
176
     1
 90
        0
176
     1
290
     0
176
     1
290
     1
176
     1
290
     1
176
     1
290
     0
176
     1
290
     0
176
     1
290
     0
176
     1
290
     0
176
     1
290
     0
176
     1
290
     0
176
     1
 90
       50
176
     1
 40
0.0
176
     1
 40
1.0
176
     1
 90
        0
176
     1
 62
    18
420
        0
176
     1
 90
       50
176
     1
 90
        3
176
     1
 62
     5
420
      255
176
     1
290
     0
176
     1
 90
       50
176
     1
 90
       50
176
     1
 90
       50
176
     1
290
     0
176
     1
 90
       50
176
     1
 62
   256
176
     0
 40
1.0
176
     0
 90
        2
176
     1
  1
strokes_ogs.tif
176
     1
290
     0
176
     1
 40
1.0
176
     1
 40
1.0
176
     1
  0
VISUALSTYLE
  5
2D
102
{ACAD_REACTORS
330
29
102
}
330
29
100
AcDbVisualStyle
  2
GouraudWithEdges
 70
     3
177
     3
291
     1
 70
    58
 90
        2
176
     1
 90
        2
176
     1
 90
        1
176
     1
 90
        2
176
     1
 40
0.6
176
     1
 40
30.0
176
     1
 62
     7
420
 16777215
176
     1
 90
        1
176
     1
 90
        0
176
     1
 62
     7
176
     1
 62
   257
176
     1
 90
        1
176
     1
 90
        1
176
     1
 40
1.0
176
     1
 90
        0
176
     1
 62
   257
176
     1
 40
1.0
176
     1
 90
        1
176
     1
 90
        6
176
     1
 90
        2
176
     1
 62
     7
176
     1
 90
        5
176
     1
 90
        0
176
     1
 90
        0
176
     1
290
     0
176
     1
 90
       13
176
     1
 40
0.0
176
     1
 90
        0
176
     1
290
     0
176
     1
290
     1
176
     1
290
     1
176
     1
290
     0
176
     1
290
     0
176
     1
290
     0
176
     1
290
     0
176
     1
290
     0
176
     1
290
     0
176
     1
 90
       50
176
     1
 40
0.0
176
     1
 40
1.0
176
     1
 90
        0
176
     1
 62
    18
420
        0
176
     1
 90
       50
176
     1
 90
        3
176
     1
 62
     5
420
      255
176
     1
290
     0
176
     1
 90
       50
176
     1
 90
       50
176
     1
 90
       50
176
     1
290
     0
176
     1
 90
       50
176
     1
 62
   256
176
     0
 40
1.0
176
     0
 90
        2
176
     1
  1
strokes_ogs.tif
176
     1
290
     0
176
     1
 40
1.0
176
     1
 40
1.0
176
     1
  0
VISUALSTYLE
  5
31
102
{ACAD_REACTORS
330
29
102
}
330
29
100
AcDbVisualStyle
  2
Hidden
 70
     6
177
     3
291
     0
 70
    58
 90
        1
176
     1
 90
        2
176
     1
 90
        2
176
     1
 90
        0
176
     1
 40
0.6
176
     1
 40
30.0
176
     1
 62
     7
420
 16777215
176
     1
 90
        2
176
     1
 90
        2
176
     1
 62
     7
176
     1
 62
   257
176
     1
 90
        2
176
     1
 90
        1
176
     1
 40
40.0
176
     1
 90
        0
176
     1
 62
   257
176
     1
 40
1.0
176
     1
 90
        1
176
     1
 90
        6
176
     1
 90
        2
176
     1
 62
     7
176
     1
 90
        3
176
     1
 90
        0
176
     1
 90
        0
176
     1
290
     0
176
     1
 90
        1
176
     1
 40
0.0
176
     1
 90
        0
176
     1
290
     0
176
     1
290
     1
176
     1
290
     1
176
     1
290
     0
176
     1
290
     0
176
     1
290
     0
176
     1
290
     0
176
     1
290
     0
176
     1
290
     0
176
     1
 90
       50
176
     1
 40
0.0
176
     1
 40
1.0
176
     1
 90
        0
176
     1
 62
    18
420
        0
176
     1
 90
       50
176
     1
 90
        3
176
     1
 62
     5
420
      255
176
     1
290
     0
176
     1
 90
       50
176
     1
 90
       50
176
     1
 90
       50
176
     1
290
     0
176
     1
 90
       50
176
     1
 62
   256
176
     0
 40
1.0
176
     0
 90
        2
176
     1
  1
strokes_ogs.tif
176
     1
290
     0
176
     1
 40
1.0
176
     1
 40
1.0
176
     1
  0
VISUALSTYLE
  5
3F
102
{ACAD_REACTORS
330
29
102
}
330
29
100
AcDbVisualStyle
  2
JitterOff
 70
    20
177
     3
291
     1
 70
    58
 90
        2
176
     0
 90
        2
176
     0
 90
        0
176
     0
 90
        0
176
     0
 40
0.6
176
     0
 40
30.0
176
     0
 62
     7
420
 16777215
176
     0
 90
        1
176
     0
 90
        4
176
     0
 62
     7
176
     0
 62
   257
176
     0
 90
        1
176
     0
 90
        1
176
     0
 40
1.0
176
     0
 90
       10
176
     2
 62
     7
176
     0
 40
1.0
176
     0
 90
        1
176
     0
 90
        6
176
     0
 90
        2
176
     0
 62
     7
176
     0
 90
        5
176
     0
 90
        0
176
     0
 90
        0
176
     0
290
     0
176
     0
 90
        1
176
     0
 40
0.0
176
     0
 90
        0
176
     0
290
     0
176
     0
290
     1
176
     0
290
     1
176
     0
290
     0
176
     0
290
     0
176
     0
290
     0
176
     0
290
     0
176
     0
290
     0
176
     0
290
     0
176
     0
 90
       50
176
     0
 40
0.0
176
     0
 40
1.0
176
     0
 90
        0
176
     0
 62
    18
420
        0
176
     0
 90
       50
176
     0
 90
        3
176
     0
 62
     5
420
      255
176
     0
290
     0
176
     0
 90
       50
176
     0
 90
       50
176
     0
 90
       50
176
     0
290
     0
176
     0
 90
       50
176
     0
 62
   256
176
     0
 40
1.0
176
     0
 90
        2
176
     0
  1
strokes_ogs.tif
176
     0
290
     0
176
     0
 40
1.0
176
     0
 40
1.0
176
     0
  0
VISUALSTYLE
  5
37
102
{ACAD_REACTORS
330
29
102
}
330
29
100
AcDbVisualStyle
  2
Linepattern
 70
    14
177
     3
291
     1
 70
    58
 90
        2
176
     1
 90
        2
176
     1
 90
        0
176
     1
 90
        0
176
     1
 40
0.6
176
     1
 40
30.0
176
     1
 62
     7
420
 16777215
176
     1
 90
        1
176
     1
 90
        4
176
     1
 62
     7
176
     1
 62
   257
176
     1
 90
        7
176
     1
 90
        7
176
     1
 40
1.0
176
     1
 90
        8
176
     1
 62
     7
176
     1
 40
1.0
176
     1
 90
        1
176
     1
 90
        6
176
     1
 90
        2
176
     1
 62
     7
176
     1
 90
        5
176
     1
 90
        0
176
     1
 90
        0
176
     1
290
     0
176
     1
 90
        1
176
     1
 40
0.0
176
     1
 90
        0
176
     1
290
     0
176
     1
290
     1
176
     1
290
     1
176
     1
290
     0
176
     1
290
     0
176
     1
290
     0
176
     1
290
     0
176
     1
290
     0
176
     1
290
     0
176
     1
 90
       50
176
     1
 40
0.0
176
     1
 40
1.0
176
     1
 90
        0
176
     1
 62
    18
420
        0
176
     1
 90
       50
176
     1
 90
        3
176
     1
 62
     5
420
      255
176
     1
290
     0
176
     1
 90
       50
176
     1
 90
       50
176
     1
 90
       50
176
     1
290
     0
176
     1
 90
       50
176
     1
 62
   256
176
     0
 40
1.0
176
     0
 90
        2
176
     1
  1
strokes_ogs.tif
176
     1
290
     0
176
     1
 40
1.0
176
     1
 40
1.0
176
     1
  0
VISUALSTYLE
  5
40
102
{ACAD_REACTORS
330
29
102
}
330
29
100
AcDbVisualStyle
  2
OverhangOff
 70
    21
177
     3
291
     1
 70
    58
 90
        2
176
     0
 90
        2
176
     0
 90
        0
176
     0
 90
        0
176
     0
 40
0.6
176
     0
 40
30.0
176
     0
 62
     7
420
 16777215
176
     0
 90
        1
176
     0
 90
        4
176
     0
 62
     7
176
     0
 62
   257
176
     0
 90
        1
176
     0
 90
        1
176
     0
 40
1.0
176
     0
 90
        9
176
     2
 62
     7
176
     0
 40
1.0
176
     0
 90
        1
176
     0
 90
        6
176
     0
 90
        2
176
     0
 62
     7
176
     0
 90
        5
176
     0
 90
        0
176
     0
 90
        0
176
     0
290
     0
176
     0
 90
        1
176
     0
 40
0.0
176
     0
 90
        0
176
     0
290
     0
176
     0
290
     1
176
     0
290
     1
176
     0
290
     0
176
     0
290
     0
176
     0
290
     0
176
     0
290
     0
176
     0
290
     0
176
     0
290
     0
176
     0
 90
       50
176
     0
 40
0.0
176
     0
 40
1.0
176
     0
 90
        0
176
     0
 62
    18
420
        0
176
     0
 90
       50
176
     0
 90
        3
176
     0
 62
     5
420
      255
176
     0
290
     0
176
     0
 90
       50
176
     0
 90
       50
176
     0
 90
       50
176
     0
290
     0
176
     0
 90
       50
176
     0
 62
   256
176
     0
 40
1.0
176
     0
 90
        2
176
     0
  1
strokes_ogs.tif
176
     0
290
     0
176
     0
 40
1.0
176
     0
 40
1.0
176
     0
  0
VISUALSTYLE
  5
33
102
{ACAD_REACTORS
330
29
102
}
330
29
100
AcDbVisualStyle
  2
Realistic
 70
     8
177
     3
291
     0
 70
    58
 90
        2
176
     1
 90
        3
176
     1
 90
        0
176
     1
 90
        2
176
     1
 40
0.6
176
     1
 40
30.0
176
     1
 62
     7
420
 16777215
176
     1
 90
        0
176
     1
 90
        0
176
     1
 62
     7
176
     1
 62
   257
176
     1
 90
        1
176
     1
 90
        1
176
     1
 40
1.0
176
     1
 90
        8
176
     1
 62
   257
176
     1
 40
1.0
176
     1
 90
        1
176
     1
 90
        6
176
     1
 90
        2
176
     1
 62
     7
176
     1
 90
        3
176
     1
 90
        0
176
     1
 90
        0
176
     1
290
     0
176
     1
 90
       13
176
     1
 40
0.0
176
     1
 90
        0
176
     1
290
     0
176
     1
290
     1
176
     1
290
     1
176
     1
290
     0
176
     1
290
     0
176
     1
290
     0
176
     1
290
     0
176
     1
290
     0
176
     1
290
     0
176
     1
 90
       50
176
     1
 40
0.0
176
     1
 40
1.0
176
     1
 90
        0
176
     1
 62
    18
420
        0
176
     1
 90
       50
176
     1
 90
        3
176
     1
 62
     5
420
      255
176
     1
290
     0
176
     1
 90
       50
176
     1
 90
       50
176
     1
 90
       50
176
     1
290
     0
176
     1
 90
       50
176
     1
 62
   256
176
     0
 40
1.0
176
     0
 90
        2
176
     1
  1
strokes_ogs.tif
176
     1
290
     0
176
     1
 40
1.0
176
     1
 40
1.0
176
     1
  0
VISUALSTYLE
  5
3E
102
{ACAD_REACTORS
330
29
102
}
330
29
100
AcDbVisualStyle
  2
Shaded
 70
    27
177
     3
291
     0
 70
    58
 90
        2
176
     1
 90
        2
176
     1
 90
        1
176
     1
 90
        2
176
     1
 40
0.6
176
     1
 40
30.0
176
     1
 62
     7
420
 16777215
176
     1
 90
        0
176
     1
 90
        4
176
     1
 62
     7
176
     1
 62
   257
176
     1
 90
        1
176
     1
 90
        1
176
     1
 40
1.0
176
     1
 90
        8
176
     1
 62
   257
176
     1
 40
1.0
176
     1
 90
        1
176
     1
 90
        6
176
     1
 90
        2
176
     1
 62
     8
420
  7895160
176
     1
 90
        3
176
     1
 90
        0
176
     1
 90
        0
176
     1
290
     0
176
     1
 90
        5
176
     1
 40
0.0
176
     1
 90
        0
176
     1
290
     0
176
     1
290
     1
176
     1
290
     1
176
     1
290
     0
176
     1
290
     0
176
     1
290
     0
176
     1
290
     0
176
     1
290
     0
176
     1
290
     0
176
     1
 90
       50
176
     1
 40
0.0
176
     1
 40
1.0
176
     1
 90
        0
176
     1
 62
    18
420
        0
176
     1
 90
       50
176
     1
 90
        3
176
     1
 62
     5
420
      255
176
     1
290
     0
176
     1
 90
       50
176
     1
 90
       50
176
     1
 90
       50
176
     1
290
     0
176
     1
 90
       50
176
     1
 62
   256
176
     0
 40
1.0
176
     0
 90
        2
176
     1
  1
strokes_ogs.tif
176
     1
290
     0
176
     1
 40
1.0
176
     1
 40
1.0
176
     1
  0
VISUALSTYLE
  5
3D
102
{ACAD_REACTORS
330
29
102
}
330
29
100
AcDbVisualStyle
  2
Shaded with edges
 70
    26
177
     3
291
     0
 70
    58
 90
        2
176
     1
 90
        2
176
     1
 90
        1
176
     1
 90
        2
176
     1
 40
0.6
176
     1
 40
30.0
176
     1
 62
     7
420
 16777215
176
     1
 90
        1
176
     1
 90
        2
176
     1
 62
     7
176
     1
 62
   257
176
     1
 90
        2
176
     1
 90
        1
176
     1
 40
1.0
176
     1
 90
        8
176
     1
 62
   257
176
     1
 40
1.0
176
     1
 90
        1
176
     1
 90
        6
176
     1
 90
        2
176
     1
 62
     7
176
     1
 90
        3
176
     1
 90
        0
176
     1
 90
        0
176
     1
290
     0
176
     1
 90
        5
176
     1
 40
0.0
176
     1
 90
        0
176
     1
290
     0
176
     1
290
     1
176
     1
290
     1
176
     1
290
     0
176
     1
290
     0
176
     1
290
     0
176
     1
290
     0
176
     1
290
     0
176
     1
290
     0
176
     1
 90
       50
176
     1
 40
0.0
176
     1
 40
1.0
176
     1
 90
        0
176
     1
 62
    18
420
        0
176
     1
 90
       50
176
     1
 90
        3
176
     1
 62
     5
420
      255
176
     1
290
     0
176
     1
 90
       50
176
     1
 90
       50
176
     1
 90
       50
176
     1
290
     0
176
     1
 90
       50
176
     1
 62
   256
176
     0
 40
1.0
176
     0
 90
        2
176
     1
  1
strokes_ogs.tif
176
     1
290
     0
176
     1
 40
1.0
176
     1
 40
1.0
176
     1
  0
VISUALSTYLE
  5
3A
102
{ACAD_REACTORS
330
29
102
}
330
29
100
AcDbVisualStyle
  2
Shades of Gray
 70
    23
177
     3
291
     0
 70
    58
 90
        2
176
     1
 90
        2
176
     1
 90
        3
176
     1
 90
        0
176
     1
 40
0.6
176
     1
 40
30.0
176
     1
 62
     7
420
 16777215
176
     1
 90
        2
176
     1
 90
        2
176
     1
 62
     7
176
     1
 62
     7
176
     1
 90
        1
176
     1
 90
        1
176
     1
 40
40.0
176
     1
 90
        8
176
     1
 62
     7
176
     1
 40
1.0
176
     1
 90
        1
176
     1
 90
        6
176
     1
 90
        2
176
     1
 62
     7
176
     1
 90
        3
176
     1
 90
        0
176
     1
 90
        0
176
     1
290
     0
176
     1
 90
        1
176
     1
 40
0.0
176
     1
 90
        0
176
     1
290
     0
176
     1
290
     1
176
     1
290
     1
176
     1
290
     0
176
     1
290
     0
176
     1
290
     0
176
     1
290
     0
176
     1
290
     0
176
     1
290
     0
176
     1
 90
       50
176
     1
 40
0.0
176
     1
 40
1.0
176
     1
 90
        0
176
     1
 62
    18
420
        0
176
     1
 90
       50
176
     1
 90
        3
176
     1
 62
     5
420
      255
176
     1
290
     0
176
     1
 90
       50
176
     1
 90
       50
176
     1
 90
       50
176
     1
290
     0
176
     1
 90
       50
176
     1
 62
   256
176
     0
 40
1.0
176
     0
 90
        2
176
     1
  1
strokes_ogs.tif
176
     1
290
     0
176
     1
 40
1.0
176
     1
 40
1.0
176
     1
  0
VISUALSTYLE
  5
3B
102
{ACAD_REACTORS
330
29
102
}
330
29
100
AcDbVisualStyle
  2
Sketchy
 70
    24
177
     3
291
     0
 70
    58
 90
        1
176
     1
 90
        2
176
     1
 90
        2
176
     1
 90
        0
176
     1
 40
0.6
176
     1
 40
30.0
176
     1
 62
     7
420
 16777215
176
     1
 90
        2
176
     1
 90
        2
176
     1
 62
     7
176
     1
 62
     7
176
     1
 90
        1
176
     1
 90
        1
176
     1
 40
40.0
176
     1
 90
       11
176
     1
 62
     7
176
     1
 40
1.0
176
     1
 90
        1
176
     1
 90
        6
176
     1
 90
        2
176
     1
 62
     7
176
     1
 90
        6
176
     1
 90
        0
176
     1
 90
        0
176
     1
290
     0
176
     1
 90
        1
176
     1
 40
0.0
176
     1
 90
        0
176
     1
290
     0
176
     1
290
     1
176
     1
290
     1
176
     1
290
     0
176
     1
290
     0
176
     1
290
     0
176
     1
290
     0
176
     1
290
     0
176
     1
290
     0
176
     1
 90
       50
176
     1
 40
0.0
176
     1
 40
1.0
176
     1
 90
        0
176
     1
 62
    18
420
        0
176
     1
 90
       50
176
     1
 90
        3
176
     1
 62
     5
420
      255
176
     1
290
     0
176
     1
 90
       50
176
     1
 90
       50
176
     1
 90
       50
176
     1
290
     0
176
     1
 90
       50
176
     1
 62
   256
176
     0
 40
1.0
176
     0
 90
        2
176
     1
  1
strokes_ogs.tif
176
     1
290
     0
176
     1
 40
1.0
176
     1
 40
1.0
176
     1
  0
VISUALSTYLE
  5
36
102
{ACAD_REACTORS
330
29
102
}
330
29
100
AcDbVisualStyle
  2
Thicken
 70
    13
177
     3
291
     1
 70
    58
 90
        2
176
     1
 90
        2
176
     1
 90
        0
176
     1
 90
        0
176
     1
 40
0.6
176
     1
 40
30.0
176
     1
 62
     7
420
 16777215
176
     1
 90
        1
176
     1
 90
        4
176
     1
 62
     7
176
     1
 62
   257
176
     1
 90
        1
176
     1
 90
        1
176
     1
 40
1.0
176
     1
 90
       12
176
     1
 62
     7
176
     1
 40
1.0
176
     1
 90
        1
176
     1
 90
        6
176
     1
 90
        2
176
     1
 62
     7
176
     1
 90
        5
176
     1
 90
        0
176
     1
 90
        0
176
     1
290
     0
176
     1
 90
        1
176
     1
 40
0.0
176
     1
 90
        0
176
     1
290
     0
176
     1
290
     1
176
     1
290
     1
176
     1
290
     0
176
     1
290
     0
176
     1
290
     0
176
     1
290
     0
176
     1
290
     0
176
     1
290
     0
176
     1
 90
       50
176
     1
 40
0.0
176
     1
 40
1.0
176
     1
 90
        0
176
     1
 62
    18
420
        0
176
     1
 90
       50
176
     1
 90
        3
176
     1
 62
     5
420
      255
176
     1
290
     0
176
     1
 90
       50
176
     1
 90
       50
176
     1
 90
       50
176
     1
290
     0
176
     1
 90
       50
176
     1
 62
   256
176
     0
 40
1.0
176
     0
 90
        2
176
     1
  1
strokes_ogs.tif
176
     1
290
     0
176
     1
 40
1.0
176
     1
 40
1.0
176
     1
  0
VISUALSTYLE
  5
30
102
{ACAD_REACTORS
330
29
102
}
330
29
100
AcDbVisualStyle
  2
Wireframe
 70
     5
177
     3
291
     0
 70
    58
 90
        0
176
     1
 90
        2
176
     1
 90
        0
176
     1
 90
        0
176
     1
 40
0.6
176
     1
 40
30.0
176
     1
 62
     7
420
 16777215
176
     1
 90
        1
176
     1
 90
        4
176
     1
 62
     7
176
     1
 62
   257
176
     1
 90
        1
176
     1
 90
        1
176
     1
 40
1.0
176
     1
 90
        0
176
     1
 62
   257
176
     1
 40
1.0
176
     1
 90
        1
176
     1
 90
        6
176
     1
 90
        2
176
     1
 62
     7
176
     1
 90
        3
176
     1
 90
        0
176
     1
 90
        0
176
     1
290
     0
176
     1
 90
        1
176
     1
 40
0.0
176
     1
 90
        0
176
     1
290
     0
176
     1
290
     1
176
     1
290
     1
176
     1
290
     0
176
     1
290
     0
176
     1
290
     0
176
     1
290
     0
176
     1
290
     0
176
     1
290
     0
176
     1
 90
       50
176
     1
 40
0.0
176
     1
 40
1.0
176
     1
 90
        0
176
     1
 62
    18
420
        0
176
     1
 90
       50
176
     1
 90
        3
176
     1
 62
     5
420
      255
176
     1
290
     0
176
     1
 90
       50
176
     1
 90
       50
176
     1
 90
       50
176
     1
290
     0
176
     1
 90
       50
176
     1
 62
   256
176
     0
 40
1.0
176
     0
 90
        2
176
     1
  1
strokes_ogs.tif
176
     1
290
     0
176
     1
 40
1.0
176
     1
 40
1.0
176
     1
  0
VISUALSTYLE
  5
3C
102
{ACAD_REACTORS
330
29
102
}
330
29
100
AcDbVisualStyle
  2
X-Ray
 70
    25
177
     3
291
     0
 70
    58
 90
        2
176
     1
 90
        2
176
     1
 90
        1
176
     1
 90
        1
176
     1
 40
0.5
176
     1
 40
30.0
176
     1
 62
     7
420
 16777215
176
     1
 90
        1
176
     1
 90
        0
176
     1
 62
     7
176
     1
 62
   257
176
     1
 90
        1
176
     1
 90
        1
176
     1
 40
1.0
176
     1
 90
        8
176
     1
 62
     7
176
     1
 40
1.0
176
     1
 90
        1
176
     1
 90
        6
176
     1
 90
        2
176
     1
 62
     7
176
     1
 90
        3
176
     1
 90
        0
176
     1
 90
        0
176
     1
290
     0
176
     1
 90
       13
176
     1
 40
0.0
176
     1
 90
        0
176
     1
290
     0
176
     1
290
     1
176
     1
290
     1
176
     1
290
     0
176
     1
290
     0
176
     1
290
     0
176
     1
290
     0
176
     1
290
     0
176
     1
290
     0
176
     1
 90
       50
176
     1
 40
0.0
176
     1
 40
1.0
176
     1
 90
        0
176
     1
 62
    18
420
        0
176
     1
 90
       50
176
     1
 90
        3
176
     1
 62
     5
420
      255
176
     1
290
     0
176
     1
 90
       50
176
     1
 90
       50
176
     1
 90
       50
176
     1
290
     0
176
     1
 90
       50
176
     1
 62
   256
176
     0
 40
1.0
176
     0
 90
        2
176
     1
  1
strokes_ogs.tif
176
     1
290
     0
176
     1
 40
1.0
176
     1
 40
1.0
176
     1
  0
DICTIONARYVAR
  5
2B6
102
{ACAD_REACTORS
330
2B1
102
}
330
2B1
100
DictionaryVariables
280
     0
  1
1:1
  0
DICTIONARYVAR
  5
2B3
102
{ACAD_REACTORS
330
2B1
102
}
330
2B1
100
DictionaryVariables
280
     0
  1
STANDARD
  0
DICTIONARYVAR
  5
2B2
102
{ACAD_REACTORS
330
2B1
102
}
330
2B1
100
DictionaryVariables
280
     0
  1
STANDARD
  0
DICTIONARYVAR
  5
2B4
102
{ACAD_REACTORS
330
2B1
102
}
330
2B1
100
DictionaryVariables
280
     0
  1
Imperial24
  0
DICTIONARYVAR
  5
2B5
102
{ACAD_REACTORS
330
2B1
102
}
330
2B1
100
DictionaryVariables
280
     0
  1
Imperial24
  0
DICTIONARY
  5
1A
330
19
100
AcDbDictionary
280
     1
281
     1
  3
BUMPTILE
360
1C
  3
DIFFUSETILE
360
1B
  3
OPACITYTILE
360
1F
  3
REFLECTIONTILE
360
1E
  3
REFRACTIONTILE
360
20
  3
SPECULARTILE
360
1D
  0
DICTIONARY
  5
12
330
11
100
AcDbDictionary
280
     1
281
     1
  3
BUMPTILE
360
14
  3
DIFFUSETILE
360
13
  3
OPACITYTILE
360
17
  3
REFLECTIONTILE
360
16
  3
REFRACTIONTILE
360
18
  3
SPECULARTILE
360
15
  0
DICTIONARY
  5
22
330
21
100
AcDbDictionary
280
     1
281
     1
  3
BUMPTILE
360
24
  3
DIFFUSETILE
360
23
  3
OPACITYTILE
360
27
  3
REFLECTIONTILE
360
26
  3
REFRACTIONTILE
360
28
  3
SPECULARTILE
360
25
  0
DICTIONARY
  5
2B7
330
65
100
AcDbDictionary
280
     1
281
     1
  3
ACAD_ROUNDTRIP_2008_TABLESTYLE_CELLSTYLEMAP
360
2B8
  0
XRECORD
  5
1C
102
{ACAD_REACTORS
330
1A
102
}
330
1A
100
AcDbXrecord
280
     1
270
     1
271
     1
  0
XRECORD
  5
1B
102
{ACAD_REACTORS
330
1A
102
}
330
1A
100
AcDbXrecord
280
     1
270
     1
271
     1
  0
XRECORD
  5
1F
102
{ACAD_REACTORS
330
1A
102
}
330
1A
100
AcDbXrecord
280
     1
270
     1
271
     1
  0
XRECORD
  5
1E
102
{ACAD_REACTORS
330
1A
102
}
330
1A
100
AcDbXrecord
280
     1
270
     1
271
     1
  0
XRECORD
  5
20
102
{ACAD_REACTORS
330
1A
102
}
330
1A
100
AcDbXrecord
280
     1
270
     1
271
     1
  0
XRECORD
  5
1D
102
{ACAD_REACTORS
330
1A
102
}
330
1A
100
AcDbXrecord
280
     1
270
     1
271
     1
  0
XRECORD
  5
14
102
{ACAD_REACTORS
330
12
102
}
330
12
100
AcDbXrecord
280
     1
270
     1
271
     1
  0
XRECORD
  5
13
102
{ACAD_REACTORS
330
12
102
}
330
12
100
AcDbXrecord
280
     1
270
     1
271
     1
  0
XRECORD
  5
17
102
{ACAD_REACTORS
330
12
102
}
330
12
100
AcDbXrecord
280
     1
270
     1
271
     1
  0
XRECORD
  5
16
102
{ACAD_REACTORS
330
12
102
}
330
12
100
AcDbXrecord
280
     1
270
     1
271
     1
  0
XRECORD
  5
18
102
{ACAD_REACTORS
330
12
102
}
330
12
100
AcDbXrecord
280
     1
270
     1
271
     1
  0
XRECORD
  5
15
102
{ACAD_REACTORS
330
12
102
}
330
12
100
AcDbXrecord
280
     1
270
     1
271
     1
  0
XRECORD
  5
24
102
{ACAD_REACTORS
330
22
102
}
330
22
100
AcDbXrecord
280
     1
270
     1
271
     1
  0
XRECORD
  5
23
102
{ACAD_REACTORS
330
22
102
}
330
22
100
AcDbXrecord
280
     1
270
     1
271
     1
  0
XRECORD
  5
27
102
{ACAD_REACTORS
330
22
102
}
330
22
100
AcDbXrecord
280
     1
270
     1
271
     1
  0
XRECORD
  5
26
102
{ACAD_REACTORS
330
22
102
}
330
22
100
AcDbXrecord
280
     1
270
     1
271
     1
  0
XRECORD
  5
28
102
{ACAD_REACTORS
330
22
102
}
330
22
100
AcDbXrecord
280
     1
270
     1
271
     1
  0
XRECORD
  5
25
102
{ACAD_REACTORS
330
22
102
}
330
22
100
AcDbXrecord
280
     1
270
     1
271
     1
  0
CELLSTYLEMAP
  5
2B8
102
{ACAD_REACTORS
330
2B7
102
}
330
2B7
100
AcDbCellStyleMap
 90
        3
300
CELLSTYLE
  1
TABLEFORMAT_BEGIN
 90
        5
170
     1
 91
        0
 92
    32768
 62
   257
 93
        1
300
CONTENTFORMAT
  1
CONTENTFORMAT_BEGIN
 90
        0
 91
        0
 92
      512
 93
        0
300

 40
0.0
140
1.0
 94
        5
 62
     0
340
55
144
0.25
309
CONTENTFORMAT_END
171
     0
 94
        0
309
TABLEFORMAT_END
  1
CELLSTYLE_BEGIN
 90
        1
 91
        1
300
_TITLE
309
CELLSTYLE_END
300
CELLSTYLE
  1
TABLEFORMAT_BEGIN
 90
        5
170
     1
 91
        0
 92
        0
 62
   257
 93
        1
300
CONTENTFORMAT
  1
CONTENTFORMAT_BEGIN
 90
        0
 91
        0
 92
      512
 93
        0
300

 40
0.0
140
1.0
 94
        5
 62
     0
340
55
144
0.18
309
CONTENTFORMAT_END
171
     0
 94
        0
309
TABLEFORMAT_END
  1
CELLSTYLE_BEGIN
 90
        2
 91
        1
300
_HEADER
309
CELLSTYLE_END
300
CELLSTYLE
  1
TABLEFORMAT_BEGIN
 90
        5
170
     1
 91
        0
 92
        0
 62
   257
 93
        1
300
CONTENTFORMAT
  1
CONTENTFORMAT_BEGIN
 90
        0
 91
        0
 92
      512
 93
        0
300

 40
0.0
140
1.0
 94
        2
 62
     0
340
55
144
0.18
309
CONTENTFORMAT_END
171
     0
 94
        0
309
TABLEFORMAT_END
  1
CELLSTYLE_BEGIN
 90
        3
 91
        2
300
_DATA
309
CELLSTYLE_END
  0
ENDSEC
  0
EOF
