  0
SECTION
  2
HEADER
  9
$ACADVER
  1
AC1014
  9
$ACADMAINTVER
 70
     9
  9
$DWGCODEPAGE
  3
ASCII
  9
$INSBASE
 10
0.0
 20
0.0
 30
0.0
  9
$EXTMIN
 10
1.000000000000000E+20
 20
1.000000000000000E+20
 30
1.000000000000000E+20
  9
$EXTMAX
 10
-1.000000000000000E+20
 20
-1.000000000000000E+20
 30
-1.000000000000000E+20
  9
$LIMMIN
 10
0.0
 20
0.0
  9
$LIMMAX
 10
12.0
 20
9.0
  9
$ORTHOMODE
 70
     0
  9
$REGENMODE
 70
     1
  9
$FILLMODE
 70
     1
  9
$QTEXTMODE
 70
     0
  9
$MIRRTEXT
 70
     1
  9
$DRAGMODE
 70
     2
  9
$LTSCALE
 40
1.0
  9
$OSMODE
 70
    37
  9
$ATTMODE
 70
     1
  9
$TEXTSIZE
 40
0.2
  9
$TRACEWID
 40
0.05
  9
$TEXTSTYLE
  7
STANDARD
  9
$CLAYER
  8
0
  9
$CELTYPE
  6
BYLAYER
  9
$CECOLOR
 62
   256
  9
$CELTSCALE
 40
1.0
  9
$DELOBJ
 70
     1
  9
$DISPSILH
 70
     0
  9
$DIMSCALE
 40
1.0
  9
$DIMASZ
 40
0.18
  9
$DIMEXO
 40
0.0625
  9
$DIMDLI
 40
0.38
  9
$DIMRND
 40
0.0
  9
$DIMDLE
 40
0.0
  9
$DIMEXE
 40
0.18
  9
$DIMTP
 40
0.0
  9
$DIMTM
 40
0.0
  9
$DIMTXT
 40
0.18
  9
$DIMCEN
 40
0.09
  9
$DIMTSZ
 40
0.0
  9
$DIMTOL
 70
     0
  9
$DIMLIM
 70
     0
  9
$DIMTIH
 70
     1
  9
$DIMTOH
 70
     1
  9
$DIMSE1
 70
     0
  9
$DIMSE2
 70
     0
  9
$DIMTAD
 70
     0
  9
$DIMZIN
 70
     0
  9
$DIMBLK
  1

  9
$DIMASO
 70
     1
  9
$DIMSHO
 70
     1
  9
$DIMPOST
  1

  9
$DIMAPOST
  1

  9
$DIMALT
 70
     0
  9
$DIMALTD
 70
     2
  9
$DIMALTF
 40
25.4
  9
$DIMLFAC
 40
1.0
  9
$DIMTOFL
 70
     0
  9
$DIMTVP
 40
0.0
  9
$DIMTIX
 70
     0
  9
$DIMSOXD
 70
     0
  9
$DIMSAH
 70
     0
  9
$DIMBLK1
  1

  9
$DIMBLK2
  1

  9
$DIMSTYLE
  2
STANDARD
  9
$DIMCLRD
 70
     0
  9
$DIMCLRE
 70
     0
  9
$DIMCLRT
 70
     0
  9
$DIMTFAC
 40
1.0
  9
$DIMGAP
 40
0.09
  9
$DIMJUST
 70
     0
  9
$DIMSD1
 70
     0
  9
$DIMSD2
 70
     0
  9
$DIMTOLJ
 70
     1
  9
$DIMTZIN
 70
     0
  9
$DIMALTZ
 70
     0
  9
$DIMALTTZ
 70
     0
  9
$DIMFIT
 70
     3
  9
$DIMUPT
 70
     0
  9
$DIMUNIT
 70
     2
  9
$DIMDEC
 70
     4
  9
$DIMTDEC
 70
     4
  9
$DIMALTU
 70
     2
  9
$DIMALTTD
 70
     2
  9
$DIMTXSTY
  7
STANDARD
  9
$DIMAUNIT
 70
     0
  9
$LUNITS
 70
     2
  9
$LUPREC
 70
     4
  9
$SKETCHINC
 40
0.1
  9
$FILLETRAD
 40
0.5
  9
$AUNITS
 70
     0
  9
$AUPREC
 70
     0
  9
$MENU
  1
.
  9
$ELEVATION
 40
0.0
  9
$PELEVATION
 40
0.0
  9
$THICKNESS
 40
0.0
  9
$LIMCHECK
 70
     0
  9
$CHAMFERA
 40
0.5
  9
$CHAMFERB
 40
0.5
  9
$CHAMFERC
 40
1.0
  9
$CHAMFERD
 40
0.0
  9
$SKPOLY
 70
     0
  9
$TDCREATE
 40
2455034.356962766
  9
$TDUPDATE
 40
2455034.356962778
  9
$TDINDWG
 40
0.0000000116
  9
$TDUSRTIMER
 40
0.0000000116
  9
$USRTIMER
 70
     1
  9
$ANGBASE
 50
0.0
  9
$ANGDIR
 70
     0
  9
$PDMODE
 70
     0
  9
$PDSIZE
 40
0.0
  9
$PLINEWID
 40
0.0
  9
$COORDS
 70
     1
  9
$SPLFRAME
 70
     0
  9
$SPLINETYPE
 70
     6
  9
$SPLINESEGS
 70
     8
  9
$ATTDIA
 70
     0
  9
$ATTREQ
 70
     1
  9
$HANDLING
 70
     1
  9
$HANDSEED
  5
4CA
  9
$SURFTAB1
 70
     6
  9
$SURFTAB2
 70
     6
  9
$SURFTYPE
 70
     6
  9
$SURFU
 70
     6
  9
$SURFV
 70
     6
  9
$UCSNAME
  2

  9
$UCSORG
 10
0.0
 20
0.0
 30
0.0
  9
$UCSXDIR
 10
1.0
 20
0.0
 30
0.0
  9
$UCSYDIR
 10
0.0
 20
1.0
 30
0.0
  9
$PUCSNAME
  2

  9
$PUCSORG
 10
0.0
 20
0.0
 30
0.0
  9
$PUCSXDIR
 10
1.0
 20
0.0
 30
0.0
  9
$PUCSYDIR
 10
0.0
 20
1.0
 30
0.0
  9
$USERI1
 70
     0
  9
$USERI2
 70
     0
  9
$USERI3
 70
     0
  9
$USERI4
 70
     0
  9
$USERI5
 70
     0
  9
$USERR1
 40
0.0
  9
$USERR2
 40
0.0
  9
$USERR3
 40
0.0
  9
$USERR4
 40
0.0
  9
$USERR5
 40
0.0
  9
$WORLDVIEW
 70
     1
  9
$SHADEDGE
 70
     3
  9
$SHADEDIF
 70
    70
  9
$TILEMODE
 70
     1
  9
$MAXACTVP
 70
    64
  9
$PINSBASE
 10
0.0
 20
0.0
 30
0.0
  9
$PLIMCHECK
 70
     0
  9
$PEXTMIN
 10
1.000000000000000E+20
 20
1.000000000000000E+20
 30
1.000000000000000E+20
  9
$PEXTMAX
 10
-1.000000000000000E+20
 20
-1.000000000000000E+20
 30
-1.000000000000000E+20
  9
$PLIMMIN
 10
0.0
 20
0.0
  9
$PLIMMAX
 10
12.0
 20
9.0
  9
$UNITMODE
 70
     0
  9
$VISRETAIN
 70
     1
  9
$PLINEGEN
 70
     0
  9
$PSLTSCALE
 70
     1
  9
$TREEDEPTH
 70
  3020
  9
$PICKSTYLE
 70
     1
  9
$CMLSTYLE
  2
STANDARD
  9
$CMLJUST
 70
     0
  9
$CMLSCALE
 40
1.0
  9
$PROXYGRAPHICS
 70
     1
  9
$MEASUREMENT
 70
     0
  0
ENDSEC
  0
SECTION
  2
CLASSES
  0
CLASS
  1
ACDBDICTIONARYWDFLT
  2
AcDbDictionaryWithDefault
  3
ObjectDBX Classes
 90
        0
280
     0
281
     0
  0
CLASS
  1
VISUALSTYLE
  2
AcDbVisualStyle
  3
ObjectDBX Classes
 90
     4095
280
     0
281
     0
  0
CLASS
  1
XRECORD
  2
AcDbXrecord
  3
AutoCAD 2000
 90
        0
280
     0
281
     0
  0
CLASS
  1
LWPOLYLINE
  2
AcDbPolyline
  3
AutoCAD 2000
 90
        0
280
     0
281
     1
  0
CLASS
  1
HATCH
  2
AcDbHatch
  3
AutoCAD 2000
 90
        0
280
     0
281
     1
  0
CLASS
  1
ACDBPLACEHOLDER
  2
AcDbPlaceHolder
  3
ObjectDBX Classes
 90
        0
280
     0
281
     0
  0
CLASS
  1
LAYOUT
  2
AcDbLayout
  3
ObjectDBX Classes
 90
        0
280
     0
281
     0
  0
ENDSEC
  0
SECTION
  2
TABLES
  0
TABLE
  2
VPORT
  5
8
330
0
100
AcDbSymbolTable
 70
     1
  0
VPORT
  5
29
330
8
100
AcDbSymbolTableRecord
100
AcDbViewportTableRecord
  2
*ACTIVE
 70
     0
 10
0.0
 20
0.0
 11
1.0
 21
1.0
 12
0.0
 22
0.0
 13
0.0
 23
0.0
 14
0.5
 24
0.5
 15
0.5
 25
0.5
 16
0.0
 26
0.0
 36
1.0
 17
-95.92478520802155
 27
-35.6658482402401
 37
0.0
 40
97.87727885940645
 41
2.250411752192945
 42
50.0
 43
0.0
 44
0.0
 50
0.0
 51
0.0
 71
     0
 72
   100
 73
     1
 74
     3
 75
     0
 76
     0
 77
     0
 78
     0
  0
ENDTAB
  0
TABLE
  2
LTYPE
  5
5
330
0
100
AcDbSymbolTable
 70
     1
  0
LTYPE
  5
14
330
5
100
AcDbSymbolTableRecord
100
AcDbLinetypeTableRecord
  2
BYBLOCK
 70
     0
  3

 72
    65
 73
     0
 40
0.0
  0
LTYPE
  5
15
330
5
100
AcDbSymbolTableRecord
100
AcDbLinetypeTableRecord
  2
BYLAYER
 70
     0
  3

 72
    65
 73
     0
 40
0.0
  0
LTYPE
  5
16
330
5
100
AcDbSymbolTableRecord
100
AcDbLinetypeTableRecord
  2
CONTINUOUS
 70
     0
  3
Solid line
 72
    65
 73
     0
 40
0.0
  0
ENDTAB
  0
TABLE
  2
LAYER
  5
2
330
0
100
AcDbSymbolTable
 70
     5
  0
LAYER
  5
10
330
2
100
AcDbSymbolTableRecord
100
AcDbLayerTableRecord
  2
0
 70
     0
 62
     7
  6
CONTINUOUS
  0
LAYER
  5
3B
330
2
100
AcDbSymbolTableRecord
100
AcDbLayerTableRecord
  2
STANDARDEBENE
 70
     0
 62
     7
  6
CONTINUOUS
  0
LAYER
  5
3C
330
2
100
AcDbSymbolTableRecord
100
AcDbLayerTableRecord
  2
GRAU_10_
 70
     0
 62
     7
  6
CONTINUOUS
  0
LAYER
  5
BA
330
2
100
AcDbSymbolTableRecord
100
AcDbLayerTableRecord
  2
BEMA_UNG
 70
     1
 62
     7
  6
CONTINUOUS
  0
LAYER
  5
4A3
330
2
100
AcDbSymbolTableRecord
100
AcDbLayerTableRecord
  2
TEXT
 70
     1
 62
     7
  6
CONTINUOUS
  0
ENDTAB
  0
TABLE
  2
STYLE
  5
3
330
0
100
AcDbSymbolTable
 70
     1
  0
STYLE
  5
11
330
3
100
AcDbSymbolTableRecord
100
AcDbTextStyleTableRecord
  2
STANDARD
 70
     0
 40
0.0
 41
1.0
 50
0.0
 71
     0
 42
0.2
  3
txt
  4

  0
ENDTAB
  0
TABLE
  2
VIEW
  5
6
330
0
100
AcDbSymbolTable
 70
     0
  0
ENDTAB
  0
TABLE
  2
UCS
  5
7
330
0
100
AcDbSymbolTable
 70
     0
  0
ENDTAB
  0
TABLE
  2
APPID
  5
9
330
0
100
AcDbSymbolTable
 70
     1
  0
APPID
  5
12
330
9
100
AcDbSymbolTableRecord
100
AcDbRegAppTableRecord
  2
ACAD
 70
     0
  0
ENDTAB
  0
TABLE
  2
DIMSTYLE
  5
A
330
0
100
AcDbSymbolTable
 70
     1
  0
DIMSTYLE
105
27
330
A
100
AcDbSymbolTableRecord
100
AcDbDimStyleTableRecord
  2
STANDARD
 70
     0
  3

  4

  5

  6

  7

 40
1.0
 41
0.18
 42
0.0625
 43
0.38
 44
0.18
 45
0.0
 46
0.0
 47
0.0
 48
0.0
140
0.18
141
0.09
142
0.0
143
25.4
144
1.0
145
0.0
146
1.0
147
0.09
 71
     0
 72
     0
 73
     1
 74
     1
 75
     0
 76
     0
 77
     0
 78
     0
170
     0
171
     2
172
     0
173
     0
174
     0
175
     0
176
     0
177
     0
178
     0
270
     2
271
     4
272
     4
273
     2
274
     2
340
11
275
     0
280
     0
281
     0
282
     0
283
     1
284
     0
285
     0
286
     0
287
     3
288
     0
  0
ENDTAB
  0
TABLE
  2
BLOCK_RECORD
  5
1
330
0
100
AcDbSymbolTable
 70
     1
  0
BLOCK_RECORD
  5
1F
330
1
100
AcDbSymbolTableRecord
100
AcDbBlockTableRecord
  2
*MODEL_SPACE
  0
BLOCK_RECORD
  5
1B
330
1
100
AcDbSymbolTableRecord
100
AcDbBlockTableRecord
  2
*PAPER_SPACE
  0
ENDTAB
  0
ENDSEC
  0
SECTION
  2
BLOCKS
  0
BLOCK
  5
20
330
1F
100
AcDbEntity
  8
0
100
AcDbBlockBegin
  2
*MODEL_SPACE
 70
     0
 71
     0
 10
0.0
 20
0.0
 30
0.0
  3
*MODEL_SPACE
  1

  0
ENDBLK
  5
21
330
1F
100
AcDbEntity
  8
0
100
AcDbBlockEnd
  0
BLOCK
  5
1C
330
1B
100
AcDbEntity
 67
     1
  8
0
100
AcDbBlockBegin
  2
*PAPER_SPACE
 70
     0
 71
     0
 10
0.0
 20
0.0
 30
0.0
  3
*PAPER_SPACE
  1

  0
ENDBLK
  5
1D
330
1B
100
AcDbEntity
 67
     1
  8
0
100
AcDbBlockEnd
  0
ENDSEC
  0
SECTION
  2
ENTITIES
  0
POLYLINE
  5
3D
330
1F
100
AcDbEntity
  8
GRAU_10_
 62
   250
100
AcDb2dPolyline
 66
     1
 10
0.0
 20
0.0
 30
0.0
  0
VERTEX
  5
3E
330
3D
100
AcDbEntity
  8
GRAU_10_
 62
   250
100
AcDbVertex
100
AcDb2dVertex
 10
-40.04874467164093
 20
0.136770380991079
 30
0.0
  0
VERTEX
  5
3F
330
3D
100
AcDbEntity
  8
GRAU_10_
 62
   250
100
AcDbVertex
100
AcDb2dVertex
 10
-54.04824392089405
 20
0.136770380991079
 30
0.0
  0
SEQEND
  5
40
330
3D
100
AcDbEntity
  8
GRAU_10_
  0
POLYLINE
  5
41
330
1F
100
AcDbEntity
  8
GRAU_10_
 62
   250
100
AcDb2dPolyline
 66
     1
 10
0.0
 20
0.0
 30
0.0
  0
VERTEX
  5
42
330
41
100
AcDbEntity
  8
GRAU_10_
 62
   250
100
AcDbVertex
100
AcDb2dVertex
 10
-48.12026420876938
 20
12.13682101896718
 30
0.0
  0
VERTEX
  5
43
330
41
100
AcDbEntity
  8
GRAU_10_
 62
   250
100
AcDbVertex
100
AcDb2dVertex
 10
-5.976727845399835
 20
12.13682101896718
 30
0.0
  0
SEQEND
  5
44
330
41
100
AcDbEntity
  8
GRAU_10_
  0
POLYLINE
  5
45
330
1F
100
AcDbEntity
  8
GRAU_10_
 62
   250
100
AcDb2dPolyline
 66
     1
 10
0.0
 20
0.0
 30
0.0
  0
VERTEX
  5
46
330
45
100
AcDbEntity
  8
GRAU_10_
 62
   250
100
AcDbVertex
100
AcDb2dVertex
 10
-0.0485758783872598
 20
0.136770380991079
 30
0.0
  0
VERTEX
  5
47
330
45
100
AcDbEntity
  8
GRAU_10_
 62
   250
100
AcDbVertex
100
AcDb2dVertex
 10
-14.04893640207987
 20
0.136770380991079
 30
0.0
  0
SEQEND
  5
48
330
45
100
AcDbEntity
  8
GRAU_10_
  0
POLYLINE
  5
49
330
1F
100
AcDbEntity
  8
GRAU_10_
 62
   250
100
AcDb2dPolyline
 66
     1
 10
0.0
 20
0.0
 30
0.0
  0
VERTEX
  5
4A
330
49
100
AcDbEntity
  8
GRAU_10_
 62
   250
100
AcDbVertex
100
AcDb2dVertex
 10
-23.04873753009108
 20
0.6369985754471162
 30
0.0
  0
VERTEX
  5
4B
330
49
100
AcDbEntity
  8
GRAU_10_
 62
   250
100
AcDbVertex
100
AcDb2dVertex
 10
-23.04873753009108
 20
8.337136574267285
 30
0.0
  0
SEQEND
  5
4C
330
49
100
AcDbEntity
  8
GRAU_10_
  0
POLYLINE
  5
4D
330
1F
100
AcDbEntity
  8
GRAU_10_
 62
   250
100
AcDb2dPolyline
 66
     1
 10
0.0
 20
0.0
 30
0.0
  0
VERTEX
  5
4E
330
4D
100
AcDbEntity
  8
GRAU_10_
 62
   250
100
AcDbVertex
100
AcDb2dVertex
 10
-14.04893640207987
 20
0.6369985754471162
 30
0.0
  0
VERTEX
  5
4F
330
4D
100
AcDbEntity
  8
GRAU_10_
 62
   250
100
AcDbVertex
100
AcDb2dVertex
 10
-23.04873753009108
 20
0.6369985754471162
 30
0.0
  0
SEQEND
  5
50
330
4D
100
AcDbEntity
  8
GRAU_10_
  0
POLYLINE
  5
51
330
1F
100
AcDbEntity
  8
GRAU_10_
 62
   250
100
AcDb2dPolyline
 66
     1
 10
0.0
 20
0.0
 30
0.0
  0
VERTEX
  5
52
330
51
100
AcDbEntity
  8
GRAU_10_
 62
   250
100
AcDbVertex
100
AcDb2dVertex
 10
-14.04893640207987
 20
0.136770380991079
 30
0.0
  0
VERTEX
  5
53
330
51
100
AcDbEntity
  8
GRAU_10_
 62
   250
100
AcDbVertex
100
AcDb2dVertex
 10
-14.04893640207987
 20
0.6369985754471162
 30
0.0
  0
SEQEND
  5
54
330
51
100
AcDbEntity
  8
GRAU_10_
  0
POLYLINE
  5
55
330
1F
100
AcDbEntity
  8
GRAU_10_
 62
   250
100
AcDb2dPolyline
 66
     1
 10
0.0
 20
0.0
 30
0.0
  0
VERTEX
  5
56
330
55
100
AcDbEntity
  8
GRAU_10_
 62
   250
100
AcDbVertex
100
AcDb2dVertex
 10
-0.0485758783872598
 20
0.136770380991079
 30
0.0
  0
VERTEX
  5
57
330
55
100
AcDbEntity
  8
GRAU_10_
 62
   250
100
AcDbVertex
100
AcDb2dVertex
 10
-0.0485758783872598
 20
1.868965533694216
 30
0.0
  0
VERTEX
  5
58
330
55
100
AcDbEntity
  8
GRAU_10_
 62
   250
100
AcDbVertex
100
AcDb2dVertex
 10
-5.976727845399835
 20
12.13682101896718
 30
0.0
  0
SEQEND
  5
59
330
55
100
AcDbEntity
  8
GRAU_10_
  0
POLYLINE
  5
5A
330
1F
100
AcDbEntity
  8
GRAU_10_
 62
   250
100
AcDb2dPolyline
 66
     1
 10
0.0
 20
0.0
 30
0.0
  0
VERTEX
  5
5B
330
5A
100
AcDbEntity
  8
GRAU_10_
 62
   250
100
AcDbVertex
100
AcDb2dVertex
 10
-48.12026420876938
 20
12.13682101896718
 30
0.0
  0
VERTEX
  5
5C
330
5A
100
AcDbEntity
  8
GRAU_10_
 62
   250
100
AcDbVertex
100
AcDb2dVertex
 10
-54.04824392089405
 20
1.868965533694216
 30
0.0
  0
VERTEX
  5
5D
330
5A
100
AcDbEntity
  8
GRAU_10_
 62
   250
100
AcDbVertex
100
AcDb2dVertex
 10
-54.04824392089405
 20
0.136770380991079
 30
0.0
  0
SEQEND
  5
5E
330
5A
100
AcDbEntity
  8
GRAU_10_
  0
POLYLINE
  5
5F
330
1F
100
AcDbEntity
  8
GRAU_10_
 62
   250
100
AcDb2dPolyline
 66
     1
 10
0.0
 20
0.0
 30
0.0
  0
VERTEX
  5
60
330
5F
100
AcDbEntity
  8
GRAU_10_
 62
   250
100
AcDbVertex
100
AcDb2dVertex
 10
-40.04874467164093
 20
0.136770380991079
 30
0.0
  0
VERTEX
  5
61
330
5F
100
AcDbEntity
  8
GRAU_10_
 62
   250
100
AcDbVertex
100
AcDb2dVertex
 10
-40.04874467164093
 20
0.6369985754471162
 30
0.0
  0
SEQEND
  5
62
330
5F
100
AcDbEntity
  8
GRAU_10_
  0
POLYLINE
  5
63
330
1F
100
AcDbEntity
  8
GRAU_10_
 62
   250
100
AcDb2dPolyline
 66
     1
 10
0.0
 20
0.0
 30
0.0
  0
VERTEX
  5
64
330
63
100
AcDbEntity
  8
GRAU_10_
 62
   250
100
AcDbVertex
100
AcDb2dVertex
 10
-31.04859903385392
 20
0.6369985754471162
 30
0.0
  0
VERTEX
  5
65
330
63
100
AcDbEntity
  8
GRAU_10_
 62
   250
100
AcDbVertex
100
AcDb2dVertex
 10
-40.04874467164093
 20
0.6369985754471162
 30
0.0
  0
SEQEND
  5
66
330
63
100
AcDbEntity
  8
GRAU_10_
  0
POLYLINE
  5
67
330
1F
100
AcDbEntity
  8
GRAU_10_
 62
   250
100
AcDb2dPolyline
 66
     1
 10
0.0
 20
0.0
 30
0.0
  0
VERTEX
  5
68
330
67
100
AcDbEntity
  8
GRAU_10_
 62
   250
100
AcDbVertex
100
AcDb2dVertex
 10
-31.04859903385392
 20
8.337136574267285
 30
0.0
  0
VERTEX
  5
69
330
67
100
AcDbEntity
  8
GRAU_10_
 62
   250
100
AcDbVertex
100
AcDb2dVertex
 10
-31.04859903385392
 20
0.6369985754471162
 30
0.0
  0
SEQEND
  5
6A
330
67
100
AcDbEntity
  8
GRAU_10_
  0
POLYLINE
  5
6B
330
1F
100
AcDbEntity
  8
GRAU_10_
 62
   250
100
AcDb2dPolyline
 66
     1
 10
0.0
 20
0.0
 30
0.0
  0
VERTEX
  5
6C
330
6B
100
AcDbEntity
  8
GRAU_10_
 62
   250
100
AcDbVertex
100
AcDb2dVertex
 10
-23.04873753009108
 20
8.337136574267285
 30
0.0
  0
VERTEX
  5
6D
330
6B
100
AcDbEntity
  8
GRAU_10_
 62
   250
100
AcDbVertex
100
AcDb2dVertex
 10
-31.04859903385392
 20
8.337136574267285
 30
0.0
  0
SEQEND
  5
6E
330
6B
100
AcDbEntity
  8
GRAU_10_
  0
POLYLINE
  5
6F
330
1F
100
AcDbEntity
  8
GRAU_10_
 62
   250
100
AcDb2dPolyline
 66
     1
 10
0.0
 20
0.0
 30
0.0
  0
VERTEX
  5
70
330
6F
100
AcDbEntity
  8
GRAU_10_
 62
   250
100
AcDbVertex
100
AcDb2dVertex
 10
-31.04859903385392
 20
0.6369985754471162
 30
0.0
  0
VERTEX
  5
71
330
6F
100
AcDbEntity
  8
GRAU_10_
 62
   250
100
AcDbVertex
100
AcDb2dVertex
 10
-30.93215472963482
 20
0.6369985754471162
 30
0.0
  0
VERTEX
  5
72
330
6F
100
AcDbEntity
  8
GRAU_10_
 62
   250
100
AcDbVertex
100
AcDb2dVertex
 10
-30.59040103204502
 20
0.6369985754471162
 30
0.0
  0
VERTEX
  5
73
330
6F
100
AcDbEntity
  8
GRAU_10_
 62
   250
100
AcDbVertex
100
AcDb2dVertex
 10
-30.04280274341701
 20
0.6369985754471162
 30
0.0
  0
VERTEX
  5
74
330
6F
100
AcDbEntity
  8
GRAU_10_
 62
   250
100
AcDbVertex
100
AcDb2dVertex
 10
-29.32105476312403
 20
0.6369985754471162
 30
0.0
  0
VERTEX
  5
75
330
6F
100
AcDbEntity
  8
GRAU_10_
 62
   250
100
AcDbVertex
100
AcDb2dVertex
 10
-28.46701502892533
 20
0.6369985754471162
 30
0.0
  0
VERTEX
  5
76
330
6F
100
AcDbEntity
  8
GRAU_10_
 62
   250
100
AcDbVertex
100
AcDb2dVertex
 10
-27.53063745831134
 20
0.6369985754471162
 30
0.0
  0
VERTEX
  5
77
330
6F
100
AcDbEntity
  8
GRAU_10_
 62
   250
100
AcDbVertex
100
AcDb2dVertex
 10
-26.56652685074576
 20
0.6369985754471162
 30
0.0
  0
VERTEX
  5
78
330
6F
100
AcDbEntity
  8
GRAU_10_
 62
   250
100
AcDbVertex
100
AcDb2dVertex
 10
-25.63032153501968
 20
0.6369985754471162
 30
0.0
  0
VERTEX
  5
79
330
6F
100
AcDbEntity
  8
GRAU_10_
 62
   250
100
AcDbVertex
100
AcDb2dVertex
 10
-24.77628180082097
 20
0.6369985754471162
 30
0.0
  0
VERTEX
  5
7A
330
6F
100
AcDbEntity
  8
GRAU_10_
 62
   250
100
AcDbVertex
100
AcDb2dVertex
 10
-24.054533820528
 20
0.6369985754471162
 30
0.0
  0
VERTEX
  5
7B
330
6F
100
AcDbEntity
  8
GRAU_10_
 62
   250
100
AcDbVertex
100
AcDb2dVertex
 10
-23.50693553189999
 20
0.6369985754471162
 30
0.0
  0
VERTEX
  5
7C
330
6F
100
AcDbEntity
  8
GRAU_10_
 62
   250
100
AcDbVertex
100
AcDb2dVertex
 10
-23.1646650696465
 20
0.6369985754471162
 30
0.0
  0
VERTEX
  5
7D
330
6F
100
AcDbEntity
  8
GRAU_10_
 62
   250
100
AcDbVertex
100
AcDb2dVertex
 10
-23.04873753009108
 20
0.6369985754471162
 30
0.0
  0
SEQEND
  5
7E
330
6F
100
AcDbEntity
  8
GRAU_10_
  0
POLYLINE
  5
7F
330
1F
100
AcDbEntity
  8
GRAU_10_
 62
   250
100
AcDb2dPolyline
 66
     1
 10
0.0
 20
0.0
 30
0.0
  0
VERTEX
  5
80
330
7F
100
AcDbEntity
  8
GRAU_10_
 62
   250
100
AcDbVertex
100
AcDb2dVertex
 10
-93.72061166247767
 20
0.136770380991079
 30
0.0
  0
VERTEX
  5
81
330
7F
100
AcDbEntity
  8
GRAU_10_
 62
   250
100
AcDbVertex
100
AcDb2dVertex
 10
-93.72061166247767
 20
1.868965533694216
 30
0.0
  0
SEQEND
  5
82
330
7F
100
AcDbEntity
  8
GRAU_10_
  0
POLYLINE
  5
83
330
1F
100
AcDbEntity
  8
GRAU_10_
 62
   250
100
AcDb2dPolyline
 66
     1
 10
0.0
 20
0.0
 30
0.0
  0
VERTEX
  5
84
330
83
100
AcDbEntity
  8
GRAU_10_
 62
   250
100
AcDbVertex
100
AcDb2dVertex
 10
-93.72061166247767
 20
12.13682101896718
 30
0.0
  0
VERTEX
  5
85
330
83
100
AcDbEntity
  8
GRAU_10_
 62
   250
100
AcDbVertex
100
AcDb2dVertex
 10
-93.72061166247767
 20
1.868965533694216
 30
0.0
  0
SEQEND
  5
86
330
83
100
AcDbEntity
  8
GRAU_10_
  0
POLYLINE
  5
87
330
1F
100
AcDbEntity
  8
GRAU_10_
 62
   250
100
AcDb2dPolyline
 66
     1
 10
0.0
 20
0.0
 30
0.0
  0
VERTEX
  5
88
330
87
100
AcDbEntity
  8
GRAU_10_
 62
   250
100
AcDbVertex
100
AcDb2dVertex
 10
-203.7210327802033
 20
12.13682101896718
 30
0.0
  0
VERTEX
  5
89
330
87
100
AcDbEntity
  8
GRAU_10_
 62
   250
100
AcDbVertex
100
AcDb2dVertex
 10
-93.72061166247767
 20
12.13682101896718
 30
0.0
  0
SEQEND
  5
8A
330
87
100
AcDbEntity
  8
GRAU_10_
  0
POLYLINE
  5
8B
330
1F
100
AcDbEntity
  8
GRAU_10_
 62
   250
100
AcDb2dPolyline
 66
     1
 10
0.0
 20
0.0
 30
0.0
  0
VERTEX
  5
8C
330
8B
100
AcDbEntity
  8
GRAU_10_
 62
   250
100
AcDbVertex
100
AcDb2dVertex
 10
-203.7210327802033
 20
0.136770380991079
 30
0.0
  0
VERTEX
  5
8D
330
8B
100
AcDbEntity
  8
GRAU_10_
 62
   250
100
AcDbVertex
100
AcDb2dVertex
 10
-93.72061166247767
 20
0.136770380991079
 30
0.0
  0
SEQEND
  5
8E
330
8B
100
AcDbEntity
  8
GRAU_10_
  0
POLYLINE
  5
8F
330
1F
100
AcDbEntity
  8
GRAU_10_
 62
   250
100
AcDb2dPolyline
 66
     1
 10
0.0
 20
0.0
 30
0.0
  0
VERTEX
  5
90
330
8F
100
AcDbEntity
  8
GRAU_10_
 62
   250
100
AcDbVertex
100
AcDb2dVertex
 10
-203.7210327802033
 20
0.136770380991079
 30
0.0
  0
VERTEX
  5
91
330
8F
100
AcDbEntity
  8
GRAU_10_
 62
   250
100
AcDbVertex
100
AcDb2dVertex
 10
-203.7210327802033
 20
1.868965533694216
 30
0.0
  0
VERTEX
  5
92
330
8F
100
AcDbEntity
  8
GRAU_10_
 62
   250
100
AcDbVertex
100
AcDb2dVertex
 10
-203.7210327802033
 20
12.13682101896718
 30
0.0
  0
SEQEND
  5
93
330
8F
100
AcDbEntity
  8
GRAU_10_
  0
POLYLINE
  5
94
330
1F
100
AcDbEntity
  8
GRAU_10_
 62
   250
100
AcDb2dPolyline
 66
     1
 10
0.0
 20
0.0
 30
0.0
  0
VERTEX
  5
95
330
94
100
AcDbEntity
  8
GRAU_10_
 62
   250
100
AcDbVertex
100
AcDb2dVertex
 10
-93.72061166247767
 20
1.868965533694216
 30
0.0
  0
VERTEX
  5
96
330
94
100
AcDbEntity
  8
GRAU_10_
 62
   250
100
AcDbVertex
100
AcDb2dVertex
 10
-203.7210327802033
 20
1.868965533694216
 30
0.0
  0
SEQEND
  5
97
330
94
100
AcDbEntity
  8
GRAU_10_
  0
POLYLINE
  5
98
330
1F
100
AcDbEntity
  8
GRAU_10_
 62
   250
100
AcDb2dPolyline
 66
     1
 10
0.0
 20
0.0
 30
0.0
  0
VERTEX
  5
99
330
98
100
AcDbEntity
  8
GRAU_10_
 62
   250
100
AcDbVertex
100
AcDb2dVertex
 10
-93.72061166247767
 20
-29.4683326922769
 30
0.0
  0
VERTEX
  5
9A
330
98
100
AcDbEntity
  8
GRAU_10_
 62
   250
100
AcDbVertex
100
AcDb2dVertex
 10
-93.72061166247767
 20
-35.39648465928947
 30
0.0
  0
SEQEND
  5
9B
330
98
100
AcDbEntity
  8
GRAU_10_
  0
POLYLINE
  5
9C
330
1F
100
AcDbEntity
  8
GRAU_10_
 62
   250
100
AcDb2dPolyline
 66
     1
 10
0.0
 20
0.0
 30
0.0
  0
VERTEX
  5
9D
330
9C
100
AcDbEntity
  8
GRAU_10_
 62
   250
100
AcDbVertex
100
AcDb2dVertex
 10
-93.72061166247767
 20
-77.540021022659
 30
0.0
  0
VERTEX
  5
9E
330
9C
100
AcDbEntity
  8
GRAU_10_
 62
   250
100
AcDbVertex
100
AcDb2dVertex
 10
-93.72061166247767
 20
-35.39648465928947
 30
0.0
  0
SEQEND
  5
9F
330
9C
100
AcDbEntity
  8
GRAU_10_
  0
POLYLINE
  5
A0
330
1F
100
AcDbEntity
  8
GRAU_10_
 62
   250
100
AcDb2dPolyline
 66
     1
 10
0.0
 20
0.0
 30
0.0
  0
VERTEX
  5
A1
330
A0
100
AcDbEntity
  8
GRAU_10_
 62
   250
100
AcDbVertex
100
AcDb2dVertex
 10
-93.72061166247767
 20
-77.540021022659
 30
0.0
  0
VERTEX
  5
A2
330
A0
100
AcDbEntity
  8
GRAU_10_
 62
   250
100
AcDbVertex
100
AcDb2dVertex
 10
-93.72061166247767
 20
-83.46851749944739
 30
0.0
  0
SEQEND
  5
A3
330
A0
100
AcDbEntity
  8
GRAU_10_
  0
POLYLINE
  5
A4
330
1F
100
AcDbEntity
  8
GRAU_10_
 62
   250
100
AcDb2dPolyline
 66
     1
 10
0.0
 20
0.0
 30
0.0
  0
VERTEX
  5
A5
330
A4
100
AcDbEntity
  8
GRAU_10_
 62
   250
100
AcDbVertex
100
AcDb2dVertex
 10
-93.72061166247767
 20
-35.39648465928947
 30
0.0
  0
VERTEX
  5
A6
330
A4
100
AcDbEntity
  8
GRAU_10_
 62
   250
100
AcDbVertex
100
AcDb2dVertex
 10
-203.7210327802033
 20
-35.39648465928947
 30
0.0
  0
VERTEX
  5
A7
330
A4
100
AcDbEntity
  8
GRAU_10_
 62
   250
100
AcDbVertex
100
AcDb2dVertex
 10
-203.7210327802033
 20
-77.540021022659
 30
0.0
  0
VERTEX
  5
A8
330
A4
100
AcDbEntity
  8
GRAU_10_
 62
   250
100
AcDbVertex
100
AcDb2dVertex
 10
-93.72061166247767
 20
-77.540021022659
 30
0.0
  0
SEQEND
  5
A9
330
A4
100
AcDbEntity
  8
GRAU_10_
  0
POLYLINE
  5
AA
330
1F
100
AcDbEntity
  8
GRAU_10_
 62
   250
100
AcDb2dPolyline
 66
     1
 10
0.0
 20
0.0
 30
0.0
  0
VERTEX
  5
AB
330
AA
100
AcDbEntity
  8
GRAU_10_
 62
   250
100
AcDbVertex
100
AcDb2dVertex
 10
-203.7210327802033
 20
-83.46851749944739
 30
0.0
  0
VERTEX
  5
AC
330
AA
100
AcDbEntity
  8
GRAU_10_
 62
   250
100
AcDbVertex
100
AcDb2dVertex
 10
-203.7210327802033
 20
-77.540021022659
 30
0.0
  0
SEQEND
  5
AD
330
AA
100
AcDbEntity
  8
GRAU_10_
  0
POLYLINE
  5
AE
330
1F
100
AcDbEntity
  8
GRAU_10_
 62
   250
100
AcDb2dPolyline
 66
     1
 10
0.0
 20
0.0
 30
0.0
  0
VERTEX
  5
AF
330
AE
100
AcDbEntity
  8
GRAU_10_
 62
   250
100
AcDbVertex
100
AcDb2dVertex
 10
-203.7210327802033
 20
-35.39648465928947
 30
0.0
  0
VERTEX
  5
B0
330
AE
100
AcDbEntity
  8
GRAU_10_
 62
   250
100
AcDbVertex
100
AcDb2dVertex
 10
-203.7210327802033
 20
-29.4683326922769
 30
0.0
  0
SEQEND
  5
B1
330
AE
100
AcDbEntity
  8
GRAU_10_
  0
POLYLINE
  5
B2
330
1F
100
AcDbEntity
  8
GRAU_10_
 62
   250
100
AcDb2dPolyline
 66
     1
 10
0.0
 20
0.0
 30
0.0
  0
VERTEX
  5
B3
330
B2
100
AcDbEntity
  8
GRAU_10_
 62
   250
100
AcDbVertex
100
AcDb2dVertex
 10
-93.72061166247767
 20
-83.46851749944739
 30
0.0
  0
VERTEX
  5
B4
330
B2
100
AcDbEntity
  8
GRAU_10_
 62
   250
100
AcDbVertex
100
AcDb2dVertex
 10
-203.7210327802033
 20
-83.46851749944739
 30
0.0
  0
SEQEND
  5
B5
330
B2
100
AcDbEntity
  8
GRAU_10_
  0
POLYLINE
  5
B6
330
1F
100
AcDbEntity
  8
GRAU_10_
 62
   250
100
AcDb2dPolyline
 66
     1
 10
0.0
 20
0.0
 30
0.0
  0
VERTEX
  5
B7
330
B6
100
AcDbEntity
  8
GRAU_10_
 62
   250
100
AcDbVertex
100
AcDb2dVertex
 10
-203.7210327802033
 20
-29.4683326922769
 30
0.0
  0
VERTEX
  5
B8
330
B6
100
AcDbEntity
  8
GRAU_10_
 62
   250
100
AcDbVertex
100
AcDb2dVertex
 10
-93.72061166247767
 20
-29.4683326922769
 30
0.0
  0
SEQEND
  5
B9
330
B6
100
AcDbEntity
  8
GRAU_10_
  0
POLYLINE
  5
BB
330
1F
100
AcDbEntity
  8
BEMA_UNG
 62
     7
100
AcDb2dPolyline
 66
     1
 10
0.0
 20
0.0
 30
0.0
  0
VERTEX
  5
BC
330
BB
100
AcDbEntity
  8
BEMA_UNG
 62
     7
100
AcDbVertex
100
AcDb2dVertex
 10
-93.80846165530569
 20
12.13682101896718
 30
0.0
  0
VERTEX
  5
BD
330
BB
100
AcDbEntity
  8
BEMA_UNG
 62
     7
100
AcDbVertex
100
AcDb2dVertex
 10
-76.97605851968068
 20
12.13682101896718
 30
0.0
  0
SEQEND
  5
BE
330
BB
100
AcDbEntity
  8
BEMA_UNG
  0
POLYLINE
  5
BF
330
1F
100
AcDbEntity
  8
BEMA_UNG
 62
     7
100
AcDb2dPolyline
 66
     1
 10
0.0
 20
0.0
 30
0.0
  0
VERTEX
  5
C0
330
BF
100
AcDbEntity
  8
BEMA_UNG
 62
     7
100
AcDbVertex
100
AcDb2dVertex
 10
-94.00879408993117
 20
0.136770380991079
 30
0.0
  0
VERTEX
  5
C1
330
BF
100
AcDbEntity
  8
BEMA_UNG
 62
     7
100
AcDbVertex
100
AcDb2dVertex
 10
-77.17639095430616
 20
0.136770380991079
 30
0.0
  0
SEQEND
  5
C2
330
BF
100
AcDbEntity
  8
BEMA_UNG
  0
POLYLINE
  5
C3
330
1F
100
AcDbEntity
  8
BEMA_UNG
 62
     7
100
AcDb2dPolyline
 66
     1
 10
0.0
 20
0.0
 30
0.0
  0
VERTEX
  5
C4
330
C3
100
AcDbEntity
  8
BEMA_UNG
 62
     7
100
AcDbVertex
100
AcDb2dVertex
 10
-79.19728529912648
 20
12.13682101896718
 30
0.0
  0
VERTEX
  5
C5
330
C3
100
AcDbEntity
  8
BEMA_UNG
 62
     7
100
AcDbVertex
100
AcDb2dVertex
 10
-79.19728529912648
 20
0.136770380991079
 30
0.0
  0
SEQEND
  5
C6
330
C3
100
AcDbEntity
  8
BEMA_UNG
  0
POLYLINE
  5
C7
330
1F
100
AcDbEntity
  8
BEMA_UNG
 62
     7
100
AcDb2dPolyline
 66
     1
 10
0.0
 20
0.0
 30
0.0
  0
VERTEX
  5
C8
330
C7
100
AcDbEntity
  8
BEMA_UNG
 62
     7
100
AcDbVertex
100
AcDb2dVertex
 10
-79.19728529912648
 20
12.13682101896718
 30
0.0
  0
VERTEX
  5
C9
330
C7
100
AcDbEntity
  8
BEMA_UNG
 62
     7
100
AcDbVertex
100
AcDb2dVertex
 10
-79.65772261447806
 20
8.63720458898575
 30
0.0
  0
VERTEX
  5
CA
330
C7
100
AcDbEntity
  8
BEMA_UNG
 62
     7
100
AcDbVertex
100
AcDb2dVertex
 10
-78.73633121911121
 20
8.63720458898575
 30
0.0
  0
VERTEX
  5
CB
330
C7
100
AcDbEntity
  8
BEMA_UNG
 62
     7
100
AcDbVertex
100
AcDb2dVertex
 10
-79.19728529912648
 20
12.13682101896718
 30
0.0
  0
SEQEND
  5
CC
330
C7
100
AcDbEntity
  8
BEMA_UNG
  0
POLYLINE
  5
CD
330
1F
100
AcDbEntity
  8
BEMA_UNG
 62
     7
100
AcDb2dPolyline
 66
     1
 10
0.0
 20
0.0
 30
0.0
  0
VERTEX
  5
CE
330
CD
100
AcDbEntity
  8
BEMA_UNG
 62
     7
100
AcDbVertex
100
AcDb2dVertex
 10
-79.6541052618322
 20
8.63720458898575
 30
0.0
  0
VERTEX
  5
CF
330
CD
100
AcDbEntity
  8
BEMA_UNG
 62
     7
100
AcDbVertex
100
AcDb2dVertex
 10
-79.6541052618322
 20
8.664420861273646
 30
0.0
  0
SEQEND
  5
D0
330
CD
100
AcDbEntity
  8
BEMA_UNG
  0
POLYLINE
  5
D1
330
1F
100
AcDbEntity
  8
BEMA_UNG
 62
     7
100
AcDb2dPolyline
 66
     1
 10
0.0
 20
0.0
 30
0.0
  0
VERTEX
  5
D2
330
D1
100
AcDbEntity
  8
BEMA_UNG
 62
     7
100
AcDbVertex
100
AcDb2dVertex
 10
-79.6541052618322
 20
8.63720458898575
 30
0.0
  0
VERTEX
  5
D3
330
D1
100
AcDbEntity
  8
BEMA_UNG
 62
     7
100
AcDbVertex
100
AcDb2dVertex
 10
-79.6541052618322
 20
8.664420861273646
 30
0.0
  0
SEQEND
  5
D4
330
D1
100
AcDbEntity
  8
BEMA_UNG
  0
POLYLINE
  5
D5
330
1F
100
AcDbEntity
  8
BEMA_UNG
 62
     7
100
AcDb2dPolyline
 66
     1
 10
0.0
 20
0.0
 30
0.0
  0
VERTEX
  5
D6
330
D5
100
AcDbEntity
  8
BEMA_UNG
 62
     7
100
AcDbVertex
100
AcDb2dVertex
 10
-79.60346232479016
 20
8.63720458898575
 30
0.0
  0
VERTEX
  5
D7
330
D5
100
AcDbEntity
  8
BEMA_UNG
 62
     7
100
AcDbVertex
100
AcDb2dVertex
 10
-79.60346232479016
 20
9.049927300389559
 30
0.0
  0
SEQEND
  5
D8
330
D5
100
AcDbEntity
  8
BEMA_UNG
  0
POLYLINE
  5
D9
330
1F
100
AcDbEntity
  8
BEMA_UNG
 62
     7
100
AcDb2dPolyline
 66
     1
 10
0.0
 20
0.0
 30
0.0
  0
VERTEX
  5
DA
330
D9
100
AcDbEntity
  8
BEMA_UNG
 62
     7
100
AcDbVertex
100
AcDb2dVertex
 10
-79.55264713286023
 20
8.63720458898575
 30
0.0
  0
VERTEX
  5
DB
330
D9
100
AcDbEntity
  8
BEMA_UNG
 62
     7
100
AcDbVertex
100
AcDb2dVertex
 10
-79.55264713286023
 20
9.435950504169167
 30
0.0
  0
SEQEND
  5
DC
330
D9
100
AcDbEntity
  8
BEMA_UNG
  0
POLYLINE
  5
DD
330
1F
100
AcDbEntity
  8
BEMA_UNG
 62
     7
100
AcDb2dPolyline
 66
     1
 10
0.0
 20
0.0
 30
0.0
  0
VERTEX
  5
DE
330
DD
100
AcDbEntity
  8
BEMA_UNG
 62
     7
100
AcDbVertex
100
AcDb2dVertex
 10
-79.50183194093029
 20
8.63720458898575
 30
0.0
  0
VERTEX
  5
DF
330
DD
100
AcDbEntity
  8
BEMA_UNG
 62
     7
100
AcDbVertex
100
AcDb2dVertex
 10
-79.50183194093029
 20
9.821629198172978
 30
0.0
  0
SEQEND
  5
E0
330
DD
100
AcDbEntity
  8
BEMA_UNG
  0
POLYLINE
  5
E1
330
1F
100
AcDbEntity
  8
BEMA_UNG
 62
     7
100
AcDb2dPolyline
 66
     1
 10
0.0
 20
0.0
 30
0.0
  0
VERTEX
  5
E2
330
E1
100
AcDbEntity
  8
BEMA_UNG
 62
     7
100
AcDbVertex
100
AcDb2dVertex
 10
-79.45101674900036
 20
8.63720458898575
 30
0.0
  0
VERTEX
  5
E3
330
E1
100
AcDbEntity
  8
BEMA_UNG
 62
     7
100
AcDbVertex
100
AcDb2dVertex
 10
-79.45101674900036
 20
10.20782465684048
 30
0.0
  0
SEQEND
  5
E4
330
E1
100
AcDbEntity
  8
BEMA_UNG
  0
POLYLINE
  5
E5
330
1F
100
AcDbEntity
  8
BEMA_UNG
 62
     7
100
AcDb2dPolyline
 66
     1
 10
0.0
 20
0.0
 30
0.0
  0
VERTEX
  5
E6
330
E5
100
AcDbEntity
  8
BEMA_UNG
 62
     7
100
AcDbVertex
100
AcDb2dVertex
 10
-79.40020155707042
 20
8.63720458898575
 30
0.0
  0
VERTEX
  5
E7
330
E5
100
AcDbEntity
  8
BEMA_UNG
 62
     7
100
AcDbVertex
100
AcDb2dVertex
 10
-79.40020155707042
 20
10.59341722340034
 30
0.0
  0
SEQEND
  5
E8
330
E5
100
AcDbEntity
  8
BEMA_UNG
  0
POLYLINE
  5
E9
330
1F
100
AcDbEntity
  8
BEMA_UNG
 62
     7
100
AcDb2dPolyline
 66
     1
 10
0.0
 20
0.0
 30
0.0
  0
VERTEX
  5
EA
330
E9
100
AcDbEntity
  8
BEMA_UNG
 62
     7
100
AcDbVertex
100
AcDb2dVertex
 10
-79.34973087491629
 20
8.63720458898575
 30
0.0
  0
VERTEX
  5
EB
330
E9
100
AcDbEntity
  8
BEMA_UNG
 62
     7
100
AcDbVertex
100
AcDb2dVertex
 10
-79.34973087491629
 20
10.979354299736
 30
0.0
  0
SEQEND
  5
EC
330
E9
100
AcDbEntity
  8
BEMA_UNG
  0
POLYLINE
  5
ED
330
1F
100
AcDbEntity
  8
BEMA_UNG
 62
     7
100
AcDb2dPolyline
 66
     1
 10
0.0
 20
0.0
 30
0.0
  0
VERTEX
  5
EE
330
ED
100
AcDbEntity
  8
BEMA_UNG
 62
     7
100
AcDbVertex
100
AcDb2dVertex
 10
-79.29891568298635
 20
8.63720458898575
 30
0.0
  0
VERTEX
  5
EF
330
ED
100
AcDbEntity
  8
BEMA_UNG
 62
     7
100
AcDbVertex
100
AcDb2dVertex
 10
-79.29891568298635
 20
11.36494686629587
 30
0.0
  0
SEQEND
  5
F0
330
ED
100
AcDbEntity
  8
BEMA_UNG
  0
POLYLINE
  5
F1
330
1F
100
AcDbEntity
  8
BEMA_UNG
 62
     7
100
AcDb2dPolyline
 66
     1
 10
0.0
 20
0.0
 30
0.0
  0
VERTEX
  5
F2
330
F1
100
AcDbEntity
  8
BEMA_UNG
 62
     7
100
AcDbVertex
100
AcDb2dVertex
 10
-79.24810049105642
 20
8.63720458898575
 30
0.0
  0
VERTEX
  5
F3
330
F1
100
AcDbEntity
  8
BEMA_UNG
 62
     7
100
AcDbVertex
100
AcDb2dVertex
 10
-79.24810049105642
 20
11.75122845240732
 30
0.0
  0
SEQEND
  5
F4
330
F1
100
AcDbEntity
  8
BEMA_UNG
  0
POLYLINE
  5
F5
330
1F
100
AcDbEntity
  8
BEMA_UNG
 62
     7
100
AcDb2dPolyline
 66
     1
 10
0.0
 20
0.0
 30
0.0
  0
VERTEX
  5
F6
330
F5
100
AcDbEntity
  8
BEMA_UNG
 62
     7
100
AcDbVertex
100
AcDb2dVertex
 10
-79.19728529912648
 20
8.63720458898575
 30
0.0
  0
VERTEX
  5
F7
330
F5
100
AcDbEntity
  8
BEMA_UNG
 62
     7
100
AcDbVertex
100
AcDb2dVertex
 10
-79.19728529912648
 20
12.13682101896718
 30
0.0
  0
SEQEND
  5
F8
330
F5
100
AcDbEntity
  8
BEMA_UNG
  0
POLYLINE
  5
F9
330
1F
100
AcDbEntity
  8
BEMA_UNG
 62
     7
100
AcDb2dPolyline
 66
     1
 10
0.0
 20
0.0
 30
0.0
  0
VERTEX
  5
FA
330
F9
100
AcDbEntity
  8
BEMA_UNG
 62
     7
100
AcDbVertex
100
AcDb2dVertex
 10
-78.73977631686917
 20
8.63720458898575
 30
0.0
  0
VERTEX
  5
FB
330
F9
100
AcDbEntity
  8
BEMA_UNG
 62
     7
100
AcDbVertex
100
AcDb2dVertex
 10
-78.73977631686917
 20
8.664420861273646
 30
0.0
  0
SEQEND
  5
FC
330
F9
100
AcDbEntity
  8
BEMA_UNG
  0
POLYLINE
  5
FD
330
1F
100
AcDbEntity
  8
BEMA_UNG
 62
     7
100
AcDb2dPolyline
 66
     1
 10
0.0
 20
0.0
 30
0.0
  0
VERTEX
  5
FE
330
FD
100
AcDbEntity
  8
BEMA_UNG
 62
     7
100
AcDbVertex
100
AcDb2dVertex
 10
-78.73977631686917
 20
8.63720458898575
 30
0.0
  0
VERTEX
  5
FF
330
FD
100
AcDbEntity
  8
BEMA_UNG
 62
     7
100
AcDbVertex
100
AcDb2dVertex
 10
-78.73977631686917
 20
8.664420861273646
 30
0.0
  0
SEQEND
  5
100
330
FD
100
AcDbEntity
  8
BEMA_UNG
  0
POLYLINE
  5
101
330
1F
100
AcDbEntity
  8
BEMA_UNG
 62
     7
100
AcDb2dPolyline
 66
     1
 10
0.0
 20
0.0
 30
0.0
  0
VERTEX
  5
102
330
101
100
AcDbEntity
  8
BEMA_UNG
 62
     7
100
AcDbVertex
100
AcDb2dVertex
 10
-78.7905915087991
 20
8.63720458898575
 30
0.0
  0
VERTEX
  5
103
330
101
100
AcDbEntity
  8
BEMA_UNG
 62
     7
100
AcDbVertex
100
AcDb2dVertex
 10
-78.7905915087991
 20
9.049927300389559
 30
0.0
  0
SEQEND
  5
104
330
101
100
AcDbEntity
  8
BEMA_UNG
  0
POLYLINE
  5
105
330
1F
100
AcDbEntity
  8
BEMA_UNG
 62
     7
100
AcDb2dPolyline
 66
     1
 10
0.0
 20
0.0
 30
0.0
  0
VERTEX
  5
106
330
105
100
AcDbEntity
  8
BEMA_UNG
 62
     7
100
AcDbVertex
100
AcDb2dVertex
 10
-78.84140670072904
 20
8.63720458898575
 30
0.0
  0
VERTEX
  5
107
330
105
100
AcDbEntity
  8
BEMA_UNG
 62
     7
100
AcDbVertex
100
AcDb2dVertex
 10
-78.84140670072904
 20
9.435950504169167
 30
0.0
  0
SEQEND
  5
108
330
105
100
AcDbEntity
  8
BEMA_UNG
  0
POLYLINE
  5
109
330
1F
100
AcDbEntity
  8
BEMA_UNG
 62
     7
100
AcDb2dPolyline
 66
     1
 10
0.0
 20
0.0
 30
0.0
  0
VERTEX
  5
10A
330
109
100
AcDbEntity
  8
BEMA_UNG
 62
     7
100
AcDbVertex
100
AcDb2dVertex
 10
-78.89256640243477
 20
8.63720458898575
 30
0.0
  0
VERTEX
  5
10B
330
109
100
AcDbEntity
  8
BEMA_UNG
 62
     7
100
AcDbVertex
100
AcDb2dVertex
 10
-78.89256640243477
 20
9.821629198172978
 30
0.0
  0
SEQEND
  5
10C
330
109
100
AcDbEntity
  8
BEMA_UNG
  0
POLYLINE
  5
10D
330
1F
100
AcDbEntity
  8
BEMA_UNG
 62
     7
100
AcDb2dPolyline
 66
     1
 10
0.0
 20
0.0
 30
0.0
  0
VERTEX
  5
10E
330
10D
100
AcDbEntity
  8
BEMA_UNG
 62
     7
100
AcDbVertex
100
AcDb2dVertex
 10
-78.94338159436471
 20
8.63720458898575
 30
0.0
  0
VERTEX
  5
10F
330
10D
100
AcDbEntity
  8
BEMA_UNG
 62
     7
100
AcDbVertex
100
AcDb2dVertex
 10
-78.94338159436471
 20
10.20782465684048
 30
0.0
  0
SEQEND
  5
110
330
10D
100
AcDbEntity
  8
BEMA_UNG
  0
POLYLINE
  5
111
330
1F
100
AcDbEntity
  8
BEMA_UNG
 62
     7
100
AcDb2dPolyline
 66
     1
 10
0.0
 20
0.0
 30
0.0
  0
VERTEX
  5
112
330
111
100
AcDbEntity
  8
BEMA_UNG
 62
     7
100
AcDbVertex
100
AcDb2dVertex
 10
-78.99419678629464
 20
8.63720458898575
 30
0.0
  0
VERTEX
  5
113
330
111
100
AcDbEntity
  8
BEMA_UNG
 62
     7
100
AcDbVertex
100
AcDb2dVertex
 10
-78.99419678629464
 20
10.59341722340034
 30
0.0
  0
SEQEND
  5
114
330
111
100
AcDbEntity
  8
BEMA_UNG
  0
POLYLINE
  5
115
330
1F
100
AcDbEntity
  8
BEMA_UNG
 62
     7
100
AcDb2dPolyline
 66
     1
 10
0.0
 20
0.0
 30
0.0
  0
VERTEX
  5
116
330
115
100
AcDbEntity
  8
BEMA_UNG
 62
     7
100
AcDbVertex
100
AcDb2dVertex
 10
-79.04501197822458
 20
8.63720458898575
 30
0.0
  0
VERTEX
  5
117
330
115
100
AcDbEntity
  8
BEMA_UNG
 62
     7
100
AcDbVertex
100
AcDb2dVertex
 10
-79.04501197822458
 20
10.979354299736
 30
0.0
  0
SEQEND
  5
118
330
115
100
AcDbEntity
  8
BEMA_UNG
  0
POLYLINE
  5
119
330
1F
100
AcDbEntity
  8
BEMA_UNG
 62
     7
100
AcDb2dPolyline
 66
     1
 10
0.0
 20
0.0
 30
0.0
  0
VERTEX
  5
11A
330
119
100
AcDbEntity
  8
BEMA_UNG
 62
     7
100
AcDbVertex
100
AcDb2dVertex
 10
-79.0956549152666
 20
8.63720458898575
 30
0.0
  0
VERTEX
  5
11B
330
119
100
AcDbEntity
  8
BEMA_UNG
 62
     7
100
AcDbVertex
100
AcDb2dVertex
 10
-79.0956549152666
 20
11.36494686629587
 30
0.0
  0
SEQEND
  5
11C
330
119
100
AcDbEntity
  8
BEMA_UNG
  0
POLYLINE
  5
11D
330
1F
100
AcDbEntity
  8
BEMA_UNG
 62
     7
100
AcDb2dPolyline
 66
     1
 10
0.0
 20
0.0
 30
0.0
  0
VERTEX
  5
11E
330
11D
100
AcDbEntity
  8
BEMA_UNG
 62
     7
100
AcDbVertex
100
AcDb2dVertex
 10
-79.14664236208445
 20
8.63720458898575
 30
0.0
  0
VERTEX
  5
11F
330
11D
100
AcDbEntity
  8
BEMA_UNG
 62
     7
100
AcDbVertex
100
AcDb2dVertex
 10
-79.14664236208445
 20
11.75122845240732
 30
0.0
  0
SEQEND
  5
120
330
11D
100
AcDbEntity
  8
BEMA_UNG
  0
POLYLINE
  5
121
330
1F
100
AcDbEntity
  8
BEMA_UNG
 62
     7
100
AcDb2dPolyline
 66
     1
 10
0.0
 20
0.0
 30
0.0
  0
VERTEX
  5
122
330
121
100
AcDbEntity
  8
BEMA_UNG
 62
     7
100
AcDbVertex
100
AcDb2dVertex
 10
-79.19728529912648
 20
8.63720458898575
 30
0.0
  0
VERTEX
  5
123
330
121
100
AcDbEntity
  8
BEMA_UNG
 62
     7
100
AcDbVertex
100
AcDb2dVertex
 10
-79.19728529912648
 20
12.13682101896718
 30
0.0
  0
SEQEND
  5
124
330
121
100
AcDbEntity
  8
BEMA_UNG
  0
POLYLINE
  5
125
330
1F
100
AcDbEntity
  8
BEMA_UNG
 62
     7
100
AcDb2dPolyline
 66
     1
 10
0.0
 20
0.0
 30
0.0
  0
VERTEX
  5
126
330
125
100
AcDbEntity
  8
BEMA_UNG
 62
     7
100
AcDbVertex
100
AcDb2dVertex
 10
-79.19728529912648
 20
0.136770380991079
 30
0.0
  0
VERTEX
  5
127
330
125
100
AcDbEntity
  8
BEMA_UNG
 62
     7
100
AcDbVertex
100
AcDb2dVertex
 10
-78.73633121911121
 20
3.636989703080154
 30
0.0
  0
VERTEX
  5
128
330
125
100
AcDbEntity
  8
BEMA_UNG
 62
     7
100
AcDbVertex
100
AcDb2dVertex
 10
-79.65772261447806
 20
3.636989703080154
 30
0.0
  0
VERTEX
  5
129
330
125
100
AcDbEntity
  8
BEMA_UNG
 62
     7
100
AcDbVertex
100
AcDb2dVertex
 10
-79.19728529912648
 20
0.136770380991079
 30
0.0
  0
SEQEND
  5
12A
330
125
100
AcDbEntity
  8
BEMA_UNG
  0
POLYLINE
  5
12B
330
1F
100
AcDbEntity
  8
BEMA_UNG
 62
     7
100
AcDb2dPolyline
 66
     1
 10
0.0
 20
0.0
 30
0.0
  0
VERTEX
  5
12C
330
12B
100
AcDbEntity
  8
BEMA_UNG
 62
     7
100
AcDbVertex
100
AcDb2dVertex
 10
-78.73977631686917
 20
3.636989703080154
 30
0.0
  0
VERTEX
  5
12D
330
12B
100
AcDbEntity
  8
BEMA_UNG
 62
     7
100
AcDbVertex
100
AcDb2dVertex
 10
-78.73977631686917
 20
3.609773430792257
 30
0.0
  0
SEQEND
  5
12E
330
12B
100
AcDbEntity
  8
BEMA_UNG
  0
POLYLINE
  5
12F
330
1F
100
AcDbEntity
  8
BEMA_UNG
 62
     7
100
AcDb2dPolyline
 66
     1
 10
0.0
 20
0.0
 30
0.0
  0
VERTEX
  5
130
330
12F
100
AcDbEntity
  8
BEMA_UNG
 62
     7
100
AcDbVertex
100
AcDb2dVertex
 10
-78.73977631686917
 20
3.636989703080154
 30
0.0
  0
VERTEX
  5
131
330
12F
100
AcDbEntity
  8
BEMA_UNG
 62
     7
100
AcDbVertex
100
AcDb2dVertex
 10
-78.73977631686917
 20
3.609773430792257
 30
0.0
  0
SEQEND
  5
132
330
12F
100
AcDbEntity
  8
BEMA_UNG
  0
POLYLINE
  5
133
330
1F
100
AcDbEntity
  8
BEMA_UNG
 62
     7
100
AcDb2dPolyline
 66
     1
 10
0.0
 20
0.0
 30
0.0
  0
VERTEX
  5
134
330
133
100
AcDbEntity
  8
BEMA_UNG
 62
     7
100
AcDbVertex
100
AcDb2dVertex
 10
-78.7905915087991
 20
3.636989703080154
 30
0.0
  0
VERTEX
  5
135
330
133
100
AcDbEntity
  8
BEMA_UNG
 62
     7
100
AcDbVertex
100
AcDb2dVertex
 10
-78.7905915087991
 20
3.223577972124752
 30
0.0
  0
SEQEND
  5
136
330
133
100
AcDbEntity
  8
BEMA_UNG
  0
POLYLINE
  5
137
330
1F
100
AcDbEntity
  8
BEMA_UNG
 62
     7
100
AcDb2dPolyline
 66
     1
 10
0.0
 20
0.0
 30
0.0
  0
VERTEX
  5
138
330
137
100
AcDbEntity
  8
BEMA_UNG
 62
     7
100
AcDbVertex
100
AcDb2dVertex
 10
-78.84140670072904
 20
3.636989703080154
 30
0.0
  0
VERTEX
  5
139
330
137
100
AcDbEntity
  8
BEMA_UNG
 62
     7
100
AcDbVertex
100
AcDb2dVertex
 10
-78.84140670072904
 20
2.838416042784635
 30
0.0
  0
SEQEND
  5
13A
330
137
100
AcDbEntity
  8
BEMA_UNG
  0
POLYLINE
  5
13B
330
1F
100
AcDbEntity
  8
BEMA_UNG
 62
     7
100
AcDb2dPolyline
 66
     1
 10
0.0
 20
0.0
 30
0.0
  0
VERTEX
  5
13C
330
13B
100
AcDbEntity
  8
BEMA_UNG
 62
     7
100
AcDbVertex
100
AcDb2dVertex
 10
-78.89256640243477
 20
3.636989703080154
 30
0.0
  0
VERTEX
  5
13D
330
13B
100
AcDbEntity
  8
BEMA_UNG
 62
     7
100
AcDbVertex
100
AcDb2dVertex
 10
-78.89256640243477
 20
2.452048329229232
 30
0.0
  0
SEQEND
  5
13E
330
13B
100
AcDbEntity
  8
BEMA_UNG
  0
POLYLINE
  5
13F
330
1F
100
AcDbEntity
  8
BEMA_UNG
 62
     7
100
AcDb2dPolyline
 66
     1
 10
0.0
 20
0.0
 30
0.0
  0
VERTEX
  5
140
330
13F
100
AcDbEntity
  8
BEMA_UNG
 62
     7
100
AcDbVertex
100
AcDb2dVertex
 10
-78.94338159436471
 20
3.636989703080154
 30
0.0
  0
VERTEX
  5
141
330
13F
100
AcDbEntity
  8
BEMA_UNG
 62
     7
100
AcDbVertex
100
AcDb2dVertex
 10
-78.94338159436471
 20
2.066369635225421
 30
0.0
  0
SEQEND
  5
142
330
13F
100
AcDbEntity
  8
BEMA_UNG
  0
POLYLINE
  5
143
330
1F
100
AcDbEntity
  8
BEMA_UNG
 62
     7
100
AcDb2dPolyline
 66
     1
 10
0.0
 20
0.0
 30
0.0
  0
VERTEX
  5
144
330
143
100
AcDbEntity
  8
BEMA_UNG
 62
     7
100
AcDbVertex
100
AcDb2dVertex
 10
-78.99419678629464
 20
3.636989703080154
 30
0.0
  0
VERTEX
  5
145
330
143
100
AcDbEntity
  8
BEMA_UNG
 62
     7
100
AcDbVertex
100
AcDb2dVertex
 10
-78.99419678629464
 20
1.680174176557915
 30
0.0
  0
SEQEND
  5
146
330
143
100
AcDbEntity
  8
BEMA_UNG
  0
POLYLINE
  5
147
330
1F
100
AcDbEntity
  8
BEMA_UNG
 62
     7
100
AcDb2dPolyline
 66
     1
 10
0.0
 20
0.0
 30
0.0
  0
VERTEX
  5
148
330
147
100
AcDbEntity
  8
BEMA_UNG
 62
     7
100
AcDbVertex
100
AcDb2dVertex
 10
-79.04501197822458
 20
3.636989703080154
 30
0.0
  0
VERTEX
  5
149
330
147
100
AcDbEntity
  8
BEMA_UNG
 62
     7
100
AcDbVertex
100
AcDb2dVertex
 10
-79.04501197822458
 20
1.295012247217799
 30
0.0
  0
SEQEND
  5
14A
330
147
100
AcDbEntity
  8
BEMA_UNG
  0
POLYLINE
  5
14B
330
1F
100
AcDbEntity
  8
BEMA_UNG
 62
     7
100
AcDb2dPolyline
 66
     1
 10
0.0
 20
0.0
 30
0.0
  0
VERTEX
  5
14C
330
14B
100
AcDbEntity
  8
BEMA_UNG
 62
     7
100
AcDbVertex
100
AcDb2dVertex
 10
-79.0956549152666
 20
3.636989703080154
 30
0.0
  0
VERTEX
  5
14D
330
14B
100
AcDbEntity
  8
BEMA_UNG
 62
     7
100
AcDbVertex
100
AcDb2dVertex
 10
-79.0956549152666
 20
0.9086445336623953
 30
0.0
  0
SEQEND
  5
14E
330
14B
100
AcDbEntity
  8
BEMA_UNG
  0
POLYLINE
  5
14F
330
1F
100
AcDbEntity
  8
BEMA_UNG
 62
     7
100
AcDb2dPolyline
 66
     1
 10
0.0
 20
0.0
 30
0.0
  0
VERTEX
  5
150
330
14F
100
AcDbEntity
  8
BEMA_UNG
 62
     7
100
AcDbVertex
100
AcDb2dVertex
 10
-79.14664236208445
 20
3.636989703080154
 30
0.0
  0
VERTEX
  5
151
330
14F
100
AcDbEntity
  8
BEMA_UNG
 62
     7
100
AcDbVertex
100
AcDb2dVertex
 10
-79.14664236208445
 20
0.5229658396585843
 30
0.0
  0
SEQEND
  5
152
330
14F
100
AcDbEntity
  8
BEMA_UNG
  0
POLYLINE
  5
153
330
1F
100
AcDbEntity
  8
BEMA_UNG
 62
     7
100
AcDb2dPolyline
 66
     1
 10
0.0
 20
0.0
 30
0.0
  0
VERTEX
  5
154
330
153
100
AcDbEntity
  8
BEMA_UNG
 62
     7
100
AcDbVertex
100
AcDb2dVertex
 10
-79.19728529912648
 20
3.636989703080154
 30
0.0
  0
VERTEX
  5
155
330
153
100
AcDbEntity
  8
BEMA_UNG
 62
     7
100
AcDbVertex
100
AcDb2dVertex
 10
-79.19728529912648
 20
0.136770380991079
 30
0.0
  0
SEQEND
  5
156
330
153
100
AcDbEntity
  8
BEMA_UNG
  0
POLYLINE
  5
157
330
1F
100
AcDbEntity
  8
BEMA_UNG
 62
     7
100
AcDb2dPolyline
 66
     1
 10
0.0
 20
0.0
 30
0.0
  0
VERTEX
  5
158
330
157
100
AcDbEntity
  8
BEMA_UNG
 62
     7
100
AcDbVertex
100
AcDb2dVertex
 10
-79.6541052618322
 20
3.636989703080154
 30
0.0
  0
VERTEX
  5
159
330
157
100
AcDbEntity
  8
BEMA_UNG
 62
     7
100
AcDbVertex
100
AcDb2dVertex
 10
-79.6541052618322
 20
3.609773430792257
 30
0.0
  0
SEQEND
  5
15A
330
157
100
AcDbEntity
  8
BEMA_UNG
  0
POLYLINE
  5
15B
330
1F
100
AcDbEntity
  8
BEMA_UNG
 62
     7
100
AcDb2dPolyline
 66
     1
 10
0.0
 20
0.0
 30
0.0
  0
VERTEX
  5
15C
330
15B
100
AcDbEntity
  8
BEMA_UNG
 62
     7
100
AcDbVertex
100
AcDb2dVertex
 10
-79.6541052618322
 20
3.636989703080154
 30
0.0
  0
VERTEX
  5
15D
330
15B
100
AcDbEntity
  8
BEMA_UNG
 62
     7
100
AcDbVertex
100
AcDb2dVertex
 10
-79.6541052618322
 20
3.609773430792257
 30
0.0
  0
SEQEND
  5
15E
330
15B
100
AcDbEntity
  8
BEMA_UNG
  0
POLYLINE
  5
15F
330
1F
100
AcDbEntity
  8
BEMA_UNG
 62
     7
100
AcDb2dPolyline
 66
     1
 10
0.0
 20
0.0
 30
0.0
  0
VERTEX
  5
160
330
15F
100
AcDbEntity
  8
BEMA_UNG
 62
     7
100
AcDbVertex
100
AcDb2dVertex
 10
-79.60346232479016
 20
3.636989703080154
 30
0.0
  0
VERTEX
  5
161
330
15F
100
AcDbEntity
  8
BEMA_UNG
 62
     7
100
AcDbVertex
100
AcDb2dVertex
 10
-79.60346232479016
 20
3.223577972124752
 30
0.0
  0
SEQEND
  5
162
330
15F
100
AcDbEntity
  8
BEMA_UNG
  0
POLYLINE
  5
163
330
1F
100
AcDbEntity
  8
BEMA_UNG
 62
     7
100
AcDb2dPolyline
 66
     1
 10
0.0
 20
0.0
 30
0.0
  0
VERTEX
  5
164
330
163
100
AcDbEntity
  8
BEMA_UNG
 62
     7
100
AcDbVertex
100
AcDb2dVertex
 10
-79.55264713286023
 20
3.636989703080154
 30
0.0
  0
VERTEX
  5
165
330
163
100
AcDbEntity
  8
BEMA_UNG
 62
     7
100
AcDbVertex
100
AcDb2dVertex
 10
-79.55264713286023
 20
2.838416042784635
 30
0.0
  0
SEQEND
  5
166
330
163
100
AcDbEntity
  8
BEMA_UNG
  0
POLYLINE
  5
167
330
1F
100
AcDbEntity
  8
BEMA_UNG
 62
     7
100
AcDb2dPolyline
 66
     1
 10
0.0
 20
0.0
 30
0.0
  0
VERTEX
  5
168
330
167
100
AcDbEntity
  8
BEMA_UNG
 62
     7
100
AcDbVertex
100
AcDb2dVertex
 10
-79.50183194093029
 20
3.636989703080154
 30
0.0
  0
VERTEX
  5
169
330
167
100
AcDbEntity
  8
BEMA_UNG
 62
     7
100
AcDbVertex
100
AcDb2dVertex
 10
-79.50183194093029
 20
2.452048329229232
 30
0.0
  0
SEQEND
  5
16A
330
167
100
AcDbEntity
  8
BEMA_UNG
  0
POLYLINE
  5
16B
330
1F
100
AcDbEntity
  8
BEMA_UNG
 62
     7
100
AcDb2dPolyline
 66
     1
 10
0.0
 20
0.0
 30
0.0
  0
VERTEX
  5
16C
330
16B
100
AcDbEntity
  8
BEMA_UNG
 62
     7
100
AcDbVertex
100
AcDb2dVertex
 10
-79.45101674900036
 20
3.636989703080154
 30
0.0
  0
VERTEX
  5
16D
330
16B
100
AcDbEntity
  8
BEMA_UNG
 62
     7
100
AcDbVertex
100
AcDb2dVertex
 10
-79.45101674900036
 20
2.066369635225421
 30
0.0
  0
SEQEND
  5
16E
330
16B
100
AcDbEntity
  8
BEMA_UNG
  0
POLYLINE
  5
16F
330
1F
100
AcDbEntity
  8
BEMA_UNG
 62
     7
100
AcDb2dPolyline
 66
     1
 10
0.0
 20
0.0
 30
0.0
  0
VERTEX
  5
170
330
16F
100
AcDbEntity
  8
BEMA_UNG
 62
     7
100
AcDbVertex
100
AcDb2dVertex
 10
-79.40020155707042
 20
3.636989703080154
 30
0.0
  0
VERTEX
  5
171
330
16F
100
AcDbEntity
  8
BEMA_UNG
 62
     7
100
AcDbVertex
100
AcDb2dVertex
 10
-79.40020155707042
 20
1.680174176557915
 30
0.0
  0
SEQEND
  5
172
330
16F
100
AcDbEntity
  8
BEMA_UNG
  0
POLYLINE
  5
173
330
1F
100
AcDbEntity
  8
BEMA_UNG
 62
     7
100
AcDb2dPolyline
 66
     1
 10
0.0
 20
0.0
 30
0.0
  0
VERTEX
  5
174
330
173
100
AcDbEntity
  8
BEMA_UNG
 62
     7
100
AcDbVertex
100
AcDb2dVertex
 10
-79.34973087491629
 20
3.636989703080154
 30
0.0
  0
VERTEX
  5
175
330
173
100
AcDbEntity
  8
BEMA_UNG
 62
     7
100
AcDbVertex
100
AcDb2dVertex
 10
-79.34973087491629
 20
1.295012247217799
 30
0.0
  0
SEQEND
  5
176
330
173
100
AcDbEntity
  8
BEMA_UNG
  0
POLYLINE
  5
177
330
1F
100
AcDbEntity
  8
BEMA_UNG
 62
     7
100
AcDb2dPolyline
 66
     1
 10
0.0
 20
0.0
 30
0.0
  0
VERTEX
  5
178
330
177
100
AcDbEntity
  8
BEMA_UNG
 62
     7
100
AcDbVertex
100
AcDb2dVertex
 10
-79.29891568298635
 20
3.636989703080154
 30
0.0
  0
VERTEX
  5
179
330
177
100
AcDbEntity
  8
BEMA_UNG
 62
     7
100
AcDbVertex
100
AcDb2dVertex
 10
-79.29891568298635
 20
0.9086445336623953
 30
0.0
  0
SEQEND
  5
17A
330
177
100
AcDbEntity
  8
BEMA_UNG
  0
POLYLINE
  5
17B
330
1F
100
AcDbEntity
  8
BEMA_UNG
 62
     7
100
AcDb2dPolyline
 66
     1
 10
0.0
 20
0.0
 30
0.0
  0
VERTEX
  5
17C
330
17B
100
AcDbEntity
  8
BEMA_UNG
 62
     7
100
AcDbVertex
100
AcDb2dVertex
 10
-79.24810049105642
 20
3.636989703080154
 30
0.0
  0
VERTEX
  5
17D
330
17B
100
AcDbEntity
  8
BEMA_UNG
 62
     7
100
AcDbVertex
100
AcDb2dVertex
 10
-79.24810049105642
 20
0.5229658396585843
 30
0.0
  0
SEQEND
  5
17E
330
17B
100
AcDbEntity
  8
BEMA_UNG
  0
POLYLINE
  5
17F
330
1F
100
AcDbEntity
  8
BEMA_UNG
 62
     7
100
AcDb2dPolyline
 66
     1
 10
0.0
 20
0.0
 30
0.0
  0
VERTEX
  5
180
330
17F
100
AcDbEntity
  8
BEMA_UNG
 62
     7
100
AcDbVertex
100
AcDb2dVertex
 10
-79.19728529912648
 20
3.636989703080154
 30
0.0
  0
VERTEX
  5
181
330
17F
100
AcDbEntity
  8
BEMA_UNG
 62
     7
100
AcDbVertex
100
AcDb2dVertex
 10
-79.19728529912648
 20
0.136770380991079
 30
0.0
  0
SEQEND
  5
182
330
17F
100
AcDbEntity
  8
BEMA_UNG
  0
POLYLINE
  5
183
330
1F
100
AcDbEntity
  8
BEMA_UNG
 62
     7
100
AcDb2dPolyline
 66
     1
 10
0.0
 20
0.0
 30
0.0
  0
VERTEX
  5
184
330
183
100
AcDbEntity
  8
BEMA_UNG
 62
     7
100
AcDbVertex
100
AcDb2dVertex
 10
-93.60795696579233
 20
-29.4683326922769
 30
0.0
  0
VERTEX
  5
185
330
183
100
AcDbEntity
  8
BEMA_UNG
 62
     7
100
AcDbVertex
100
AcDb2dVertex
 10
-76.77572608505521
 20
-29.4683326922769
 30
0.0
  0
SEQEND
  5
186
330
183
100
AcDbEntity
  8
BEMA_UNG
  0
POLYLINE
  5
187
330
1F
100
AcDbEntity
  8
BEMA_UNG
 62
     7
100
AcDb2dPolyline
 66
     1
 10
0.0
 20
0.0
 30
0.0
  0
VERTEX
  5
188
330
187
100
AcDbEntity
  8
BEMA_UNG
 62
     7
100
AcDbVertex
100
AcDb2dVertex
 10
-94.00879408993117
 20
-83.46851749944739
 30
0.0
  0
VERTEX
  5
189
330
187
100
AcDbEntity
  8
BEMA_UNG
 62
     7
100
AcDbVertex
100
AcDb2dVertex
 10
-76.57522139554183
 20
-83.46851749944739
 30
0.0
  0
SEQEND
  5
18A
330
187
100
AcDbEntity
  8
BEMA_UNG
  0
POLYLINE
  5
18B
330
1F
100
AcDbEntity
  8
BEMA_UNG
 62
     7
100
AcDb2dPolyline
 66
     1
 10
0.0
 20
0.0
 30
0.0
  0
VERTEX
  5
18C
330
18B
100
AcDbEntity
  8
BEMA_UNG
 62
     7
100
AcDbVertex
100
AcDb2dVertex
 10
-79.08635315132011
 20
-29.4683326922769
 30
0.0
  0
VERTEX
  5
18D
330
18B
100
AcDbEntity
  8
BEMA_UNG
 62
     7
100
AcDbVertex
100
AcDb2dVertex
 10
-79.08635315132011
 20
-83.46851749944739
 30
0.0
  0
SEQEND
  5
18E
330
18B
100
AcDbEntity
  8
BEMA_UNG
  0
POLYLINE
  5
18F
330
1F
100
AcDbEntity
  8
BEMA_UNG
 62
     7
100
AcDb2dPolyline
 66
     1
 10
0.0
 20
0.0
 30
0.0
  0
VERTEX
  5
190
330
18F
100
AcDbEntity
  8
BEMA_UNG
 62
     7
100
AcDbVertex
100
AcDb2dVertex
 10
-79.08635315132011
 20
-29.4683326922769
 30
0.0
  0
VERTEX
  5
191
330
18F
100
AcDbEntity
  8
BEMA_UNG
 62
     7
100
AcDbVertex
100
AcDb2dVertex
 10
-79.54747948622328
 20
-32.96786299481438
 30
0.0
  0
VERTEX
  5
192
330
18F
100
AcDbEntity
  8
BEMA_UNG
 62
     7
100
AcDbVertex
100
AcDb2dVertex
 10
-78.62522681641694
 20
-32.96786299481438
 30
0.0
  0
VERTEX
  5
193
330
18F
100
AcDbEntity
  8
BEMA_UNG
 62
     7
100
AcDbVertex
100
AcDb2dVertex
 10
-79.08635315132011
 20
-29.4683326922769
 30
0.0
  0
SEQEND
  5
194
330
18F
100
AcDbEntity
  8
BEMA_UNG
  0
POLYLINE
  5
195
330
1F
100
AcDbEntity
  8
BEMA_UNG
 62
     7
100
AcDb2dPolyline
 66
     1
 10
0.0
 20
0.0
 30
0.0
  0
VERTEX
  5
196
330
195
100
AcDbEntity
  8
BEMA_UNG
 62
     7
100
AcDbVertex
100
AcDb2dVertex
 10
-79.54317311402583
 20
-32.96786299481438
 30
0.0
  0
VERTEX
  5
197
330
195
100
AcDbEntity
  8
BEMA_UNG
 62
     7
100
AcDbVertex
100
AcDb2dVertex
 10
-79.54317311402583
 20
-32.94081897741438
 30
0.0
  0
SEQEND
  5
198
330
195
100
AcDbEntity
  8
BEMA_UNG
  0
POLYLINE
  5
199
330
1F
100
AcDbEntity
  8
BEMA_UNG
 62
     7
100
AcDb2dPolyline
 66
     1
 10
0.0
 20
0.0
 30
0.0
  0
VERTEX
  5
19A
330
199
100
AcDbEntity
  8
BEMA_UNG
 62
     7
100
AcDbVertex
100
AcDb2dVertex
 10
-79.54317311402583
 20
-32.96786299481438
 30
0.0
  0
VERTEX
  5
19B
330
199
100
AcDbEntity
  8
BEMA_UNG
 62
     7
100
AcDbVertex
100
AcDb2dVertex
 10
-79.54317311402583
 20
-32.94081897741438
 30
0.0
  0
SEQEND
  5
19C
330
199
100
AcDbEntity
  8
BEMA_UNG
  0
POLYLINE
  5
19D
330
1F
100
AcDbEntity
  8
BEMA_UNG
 62
     7
100
AcDb2dPolyline
 66
     1
 10
0.0
 20
0.0
 30
0.0
  0
VERTEX
  5
19E
330
19D
100
AcDbEntity
  8
BEMA_UNG
 62
     7
100
AcDbVertex
100
AcDb2dVertex
 10
-79.49235792209589
 20
-32.96786299481438
 30
0.0
  0
VERTEX
  5
19F
330
19D
100
AcDbEntity
  8
BEMA_UNG
 62
     7
100
AcDbVertex
100
AcDb2dVertex
 10
-79.49235792209589
 20
-32.55514028341057
 30
0.0
  0
SEQEND
  5
1A0
330
19D
100
AcDbEntity
  8
BEMA_UNG
  0
POLYLINE
  5
1A1
330
1F
100
AcDbEntity
  8
BEMA_UNG
 62
     7
100
AcDb2dPolyline
 66
     1
 10
0.0
 20
0.0
 30
0.0
  0
VERTEX
  5
1A2
330
1A1
100
AcDbEntity
  8
BEMA_UNG
 62
     7
100
AcDbVertex
100
AcDb2dVertex
 10
-79.44188723994176
 20
-32.96786299481438
 30
0.0
  0
VERTEX
  5
1A3
330
1A1
100
AcDbEntity
  8
BEMA_UNG
 62
     7
100
AcDbVertex
100
AcDb2dVertex
 10
-79.44188723994176
 20
-32.16894482474306
 30
0.0
  0
SEQEND
  5
1A4
330
1A1
100
AcDbEntity
  8
BEMA_UNG
  0
POLYLINE
  5
1A5
330
1F
100
AcDbEntity
  8
BEMA_UNG
 62
     7
100
AcDb2dPolyline
 66
     1
 10
0.0
 20
0.0
 30
0.0
  0
VERTEX
  5
1A6
330
1A5
100
AcDbEntity
  8
BEMA_UNG
 62
     7
100
AcDbVertex
100
AcDb2dVertex
 10
-79.39107204801182
 20
-32.96786299481438
 30
0.0
  0
VERTEX
  5
1A7
330
1A5
100
AcDbEntity
  8
BEMA_UNG
 62
     7
100
AcDbVertex
100
AcDb2dVertex
 10
-79.39107204801182
 20
-31.78361064051505
 30
0.0
  0
SEQEND
  5
1A8
330
1A5
100
AcDbEntity
  8
BEMA_UNG
  0
POLYLINE
  5
1A9
330
1F
100
AcDbEntity
  8
BEMA_UNG
 62
     7
100
AcDb2dPolyline
 66
     1
 10
0.0
 20
0.0
 30
0.0
  0
VERTEX
  5
1AA
330
1A9
100
AcDbEntity
  8
BEMA_UNG
 62
     7
100
AcDbVertex
100
AcDb2dVertex
 10
-79.3402568560819
 20
-32.96786299481438
 30
0.0
  0
VERTEX
  5
1AB
330
1A9
100
AcDbEntity
  8
BEMA_UNG
 62
     7
100
AcDbVertex
100
AcDb2dVertex
 10
-79.3402568560819
 20
-31.39741518184754
 30
0.0
  0
SEQEND
  5
1AC
330
1A9
100
AcDbEntity
  8
BEMA_UNG
  0
POLYLINE
  5
1AD
330
1F
100
AcDbEntity
  8
BEMA_UNG
 62
     7
100
AcDb2dPolyline
 66
     1
 10
0.0
 20
0.0
 30
0.0
  0
VERTEX
  5
1AE
330
1AD
100
AcDbEntity
  8
BEMA_UNG
 62
     7
100
AcDbVertex
100
AcDb2dVertex
 10
-79.28944166415195
 20
-32.96786299481438
 30
0.0
  0
VERTEX
  5
1AF
330
1AD
100
AcDbEntity
  8
BEMA_UNG
 62
     7
100
AcDbVertex
100
AcDb2dVertex
 10
-79.28944166415195
 20
-31.01173648784373
 30
0.0
  0
SEQEND
  5
1B0
330
1AD
100
AcDbEntity
  8
BEMA_UNG
  0
POLYLINE
  5
1B1
330
1F
100
AcDbEntity
  8
BEMA_UNG
 62
     7
100
AcDb2dPolyline
 66
     1
 10
0.0
 20
0.0
 30
0.0
  0
VERTEX
  5
1B2
330
1B1
100
AcDbEntity
  8
BEMA_UNG
 62
     7
100
AcDbVertex
100
AcDb2dVertex
 10
-79.23879872710992
 20
-32.96786299481438
 30
0.0
  0
VERTEX
  5
1B3
330
1B1
100
AcDbEntity
  8
BEMA_UNG
 62
     7
100
AcDbVertex
100
AcDb2dVertex
 10
-79.23879872710992
 20
-30.62554102917623
 30
0.0
  0
SEQEND
  5
1B4
330
1B1
100
AcDbEntity
  8
BEMA_UNG
  0
POLYLINE
  5
1B5
330
1F
100
AcDbEntity
  8
BEMA_UNG
 62
     7
100
AcDb2dPolyline
 66
     1
 10
0.0
 20
0.0
 30
0.0
  0
VERTEX
  5
1B6
330
1B5
100
AcDbEntity
  8
BEMA_UNG
 62
     7
100
AcDbVertex
100
AcDb2dVertex
 10
-79.18781128029208
 20
-32.96786299481438
 30
0.0
  0
VERTEX
  5
1B7
330
1B5
100
AcDbEntity
  8
BEMA_UNG
 62
     7
100
AcDbVertex
100
AcDb2dVertex
 10
-79.18781128029208
 20
-30.23986233517241
 30
0.0
  0
SEQEND
  5
1B8
330
1B5
100
AcDbEntity
  8
BEMA_UNG
  0
POLYLINE
  5
1B9
330
1F
100
AcDbEntity
  8
BEMA_UNG
 62
     7
100
AcDb2dPolyline
 66
     1
 10
0.0
 20
0.0
 30
0.0
  0
VERTEX
  5
1BA
330
1B9
100
AcDbEntity
  8
BEMA_UNG
 62
     7
100
AcDbVertex
100
AcDb2dVertex
 10
-79.13716834325005
 20
-32.96786299481438
 30
0.0
  0
VERTEX
  5
1BB
330
1B9
100
AcDbEntity
  8
BEMA_UNG
 62
     7
100
AcDbVertex
100
AcDb2dVertex
 10
-79.13716834325005
 20
-29.85401138628071
 30
0.0
  0
SEQEND
  5
1BC
330
1B9
100
AcDbEntity
  8
BEMA_UNG
  0
POLYLINE
  5
1BD
330
1F
100
AcDbEntity
  8
BEMA_UNG
 62
     7
100
AcDb2dPolyline
 66
     1
 10
0.0
 20
0.0
 30
0.0
  0
VERTEX
  5
1BE
330
1BD
100
AcDbEntity
  8
BEMA_UNG
 62
     7
100
AcDbVertex
100
AcDb2dVertex
 10
-79.08635315132011
 20
-32.96786299481438
 30
0.0
  0
VERTEX
  5
1BF
330
1BD
100
AcDbEntity
  8
BEMA_UNG
 62
     7
100
AcDbVertex
100
AcDb2dVertex
 10
-79.08635315132011
 20
-29.4683326922769
 30
0.0
  0
SEQEND
  5
1C0
330
1BD
100
AcDbEntity
  8
BEMA_UNG
  0
POLYLINE
  5
1C1
330
1F
100
AcDbEntity
  8
BEMA_UNG
 62
     7
100
AcDb2dPolyline
 66
     1
 10
0.0
 20
0.0
 30
0.0
  0
VERTEX
  5
1C2
330
1C1
100
AcDbEntity
  8
BEMA_UNG
 62
     7
100
AcDbVertex
100
AcDb2dVertex
 10
-78.6286719141749
 20
-32.96786299481438
 30
0.0
  0
VERTEX
  5
1C3
330
1C1
100
AcDbEntity
  8
BEMA_UNG
 62
     7
100
AcDbVertex
100
AcDb2dVertex
 10
-78.6286719141749
 20
-32.94081897741438
 30
0.0
  0
SEQEND
  5
1C4
330
1C1
100
AcDbEntity
  8
BEMA_UNG
  0
POLYLINE
  5
1C5
330
1F
100
AcDbEntity
  8
BEMA_UNG
 62
     7
100
AcDb2dPolyline
 66
     1
 10
0.0
 20
0.0
 30
0.0
  0
VERTEX
  5
1C6
330
1C5
100
AcDbEntity
  8
BEMA_UNG
 62
     7
100
AcDbVertex
100
AcDb2dVertex
 10
-78.6286719141749
 20
-32.96786299481438
 30
0.0
  0
VERTEX
  5
1C7
330
1C5
100
AcDbEntity
  8
BEMA_UNG
 62
     7
100
AcDbVertex
100
AcDb2dVertex
 10
-78.6286719141749
 20
-32.94081897741438
 30
0.0
  0
SEQEND
  5
1C8
330
1C5
100
AcDbEntity
  8
BEMA_UNG
  0
POLYLINE
  5
1C9
330
1F
100
AcDbEntity
  8
BEMA_UNG
 62
     7
100
AcDb2dPolyline
 66
     1
 10
0.0
 20
0.0
 30
0.0
  0
VERTEX
  5
1CA
330
1C9
100
AcDbEntity
  8
BEMA_UNG
 62
     7
100
AcDbVertex
100
AcDb2dVertex
 10
-78.67948710610484
 20
-32.96786299481438
 30
0.0
  0
VERTEX
  5
1CB
330
1C9
100
AcDbEntity
  8
BEMA_UNG
 62
     7
100
AcDbVertex
100
AcDb2dVertex
 10
-78.67948710610484
 20
-32.55514028341057
 30
0.0
  0
SEQEND
  5
1CC
330
1C9
100
AcDbEntity
  8
BEMA_UNG
  0
POLYLINE
  5
1CD
330
1F
100
AcDbEntity
  8
BEMA_UNG
 62
     7
100
AcDb2dPolyline
 66
     1
 10
0.0
 20
0.0
 30
0.0
  0
VERTEX
  5
1CE
330
1CD
100
AcDbEntity
  8
BEMA_UNG
 62
     7
100
AcDbVertex
100
AcDb2dVertex
 10
-78.73030229803477
 20
-32.96786299481438
 30
0.0
  0
VERTEX
  5
1CF
330
1CD
100
AcDbEntity
  8
BEMA_UNG
 62
     7
100
AcDbVertex
100
AcDb2dVertex
 10
-78.73030229803477
 20
-32.16894482474306
 30
0.0
  0
SEQEND
  5
1D0
330
1CD
100
AcDbEntity
  8
BEMA_UNG
  0
POLYLINE
  5
1D1
330
1F
100
AcDbEntity
  8
BEMA_UNG
 62
     7
100
AcDb2dPolyline
 66
     1
 10
0.0
 20
0.0
 30
0.0
  0
VERTEX
  5
1D2
330
1D1
100
AcDbEntity
  8
BEMA_UNG
 62
     7
100
AcDbVertex
100
AcDb2dVertex
 10
-78.78111748996471
 20
-32.96786299481438
 30
0.0
  0
VERTEX
  5
1D3
330
1D1
100
AcDbEntity
  8
BEMA_UNG
 62
     7
100
AcDbVertex
100
AcDb2dVertex
 10
-78.78111748996471
 20
-31.78361064051505
 30
0.0
  0
SEQEND
  5
1D4
330
1D1
100
AcDbEntity
  8
BEMA_UNG
  0
POLYLINE
  5
1D5
330
1F
100
AcDbEntity
  8
BEMA_UNG
 62
     7
100
AcDb2dPolyline
 66
     1
 10
0.0
 20
0.0
 30
0.0
  0
VERTEX
  5
1D6
330
1D5
100
AcDbEntity
  8
BEMA_UNG
 62
     7
100
AcDbVertex
100
AcDb2dVertex
 10
-78.83193268189464
 20
-32.96786299481438
 30
0.0
  0
VERTEX
  5
1D7
330
1D5
100
AcDbEntity
  8
BEMA_UNG
 62
     7
100
AcDbVertex
100
AcDb2dVertex
 10
-78.83193268189464
 20
-31.39741518184754
 30
0.0
  0
SEQEND
  5
1D8
330
1D5
100
AcDbEntity
  8
BEMA_UNG
  0
POLYLINE
  5
1D9
330
1F
100
AcDbEntity
  8
BEMA_UNG
 62
     7
100
AcDb2dPolyline
 66
     1
 10
0.0
 20
0.0
 30
0.0
  0
VERTEX
  5
1DA
330
1D9
100
AcDbEntity
  8
BEMA_UNG
 62
     7
100
AcDbVertex
100
AcDb2dVertex
 10
-78.88274787382457
 20
-32.96786299481438
 30
0.0
  0
VERTEX
  5
1DB
330
1D9
100
AcDbEntity
  8
BEMA_UNG
 62
     7
100
AcDbVertex
100
AcDb2dVertex
 10
-78.88274787382457
 20
-31.01173648784373
 30
0.0
  0
SEQEND
  5
1DC
330
1D9
100
AcDbEntity
  8
BEMA_UNG
  0
POLYLINE
  5
1DD
330
1F
100
AcDbEntity
  8
BEMA_UNG
 62
     7
100
AcDb2dPolyline
 66
     1
 10
0.0
 20
0.0
 30
0.0
  0
VERTEX
  5
1DE
330
1DD
100
AcDbEntity
  8
BEMA_UNG
 62
     7
100
AcDbVertex
100
AcDb2dVertex
 10
-78.93356306575451
 20
-32.96786299481438
 30
0.0
  0
VERTEX
  5
1DF
330
1DD
100
AcDbEntity
  8
BEMA_UNG
 62
     7
100
AcDbVertex
100
AcDb2dVertex
 10
-78.93356306575451
 20
-30.62554102917623
 30
0.0
  0
SEQEND
  5
1E0
330
1DD
100
AcDbEntity
  8
BEMA_UNG
  0
POLYLINE
  5
1E1
330
1F
100
AcDbEntity
  8
BEMA_UNG
 62
     7
100
AcDb2dPolyline
 66
     1
 10
0.0
 20
0.0
 30
0.0
  0
VERTEX
  5
1E2
330
1E1
100
AcDbEntity
  8
BEMA_UNG
 62
     7
100
AcDbVertex
100
AcDb2dVertex
 10
-78.98472276746024
 20
-32.96786299481438
 30
0.0
  0
VERTEX
  5
1E3
330
1E1
100
AcDbEntity
  8
BEMA_UNG
 62
     7
100
AcDbVertex
100
AcDb2dVertex
 10
-78.98472276746024
 20
-30.23986233517241
 30
0.0
  0
SEQEND
  5
1E4
330
1E1
100
AcDbEntity
  8
BEMA_UNG
  0
POLYLINE
  5
1E5
330
1F
100
AcDbEntity
  8
BEMA_UNG
 62
     7
100
AcDb2dPolyline
 66
     1
 10
0.0
 20
0.0
 30
0.0
  0
VERTEX
  5
1E6
330
1E5
100
AcDbEntity
  8
BEMA_UNG
 62
     7
100
AcDbVertex
100
AcDb2dVertex
 10
-79.03553795939018
 20
-32.96786299481438
 30
0.0
  0
VERTEX
  5
1E7
330
1E5
100
AcDbEntity
  8
BEMA_UNG
 62
     7
100
AcDbVertex
100
AcDb2dVertex
 10
-79.03553795939018
 20
-29.85401138628071
 30
0.0
  0
SEQEND
  5
1E8
330
1E5
100
AcDbEntity
  8
BEMA_UNG
  0
POLYLINE
  5
1E9
330
1F
100
AcDbEntity
  8
BEMA_UNG
 62
     7
100
AcDb2dPolyline
 66
     1
 10
0.0
 20
0.0
 30
0.0
  0
VERTEX
  5
1EA
330
1E9
100
AcDbEntity
  8
BEMA_UNG
 62
     7
100
AcDbVertex
100
AcDb2dVertex
 10
-79.08635315132011
 20
-32.96786299481438
 30
0.0
  0
VERTEX
  5
1EB
330
1E9
100
AcDbEntity
  8
BEMA_UNG
 62
     7
100
AcDbVertex
100
AcDb2dVertex
 10
-79.08635315132011
 20
-29.4683326922769
 30
0.0
  0
SEQEND
  5
1EC
330
1E9
100
AcDbEntity
  8
BEMA_UNG
  0
POLYLINE
  5
1ED
330
1F
100
AcDbEntity
  8
BEMA_UNG
 62
     7
100
AcDb2dPolyline
 66
     1
 10
0.0
 20
0.0
 30
0.0
  0
VERTEX
  5
1EE
330
1ED
100
AcDbEntity
  8
BEMA_UNG
 62
     7
100
AcDbVertex
100
AcDb2dVertex
 10
-79.08635315132011
 20
-83.46851749944739
 30
0.0
  0
VERTEX
  5
1EF
330
1ED
100
AcDbEntity
  8
BEMA_UNG
 62
     7
100
AcDbVertex
100
AcDb2dVertex
 10
-78.62522681641694
 20
-79.9684704322462
 30
0.0
  0
VERTEX
  5
1F0
330
1ED
100
AcDbEntity
  8
BEMA_UNG
 62
     7
100
AcDbVertex
100
AcDb2dVertex
 10
-79.54747948622328
 20
-79.9684704322462
 30
0.0
  0
VERTEX
  5
1F1
330
1ED
100
AcDbEntity
  8
BEMA_UNG
 62
     7
100
AcDbVertex
100
AcDb2dVertex
 10
-79.08635315132011
 20
-83.46851749944739
 30
0.0
  0
SEQEND
  5
1F2
330
1ED
100
AcDbEntity
  8
BEMA_UNG
  0
POLYLINE
  5
1F3
330
1F
100
AcDbEntity
  8
BEMA_UNG
 62
     7
100
AcDb2dPolyline
 66
     1
 10
0.0
 20
0.0
 30
0.0
  0
VERTEX
  5
1F4
330
1F3
100
AcDbEntity
  8
BEMA_UNG
 62
     7
100
AcDbVertex
100
AcDb2dVertex
 10
-78.6286719141749
 20
-79.9684704322462
 30
0.0
  0
VERTEX
  5
1F5
330
1F3
100
AcDbEntity
  8
BEMA_UNG
 62
     7
100
AcDbVertex
100
AcDb2dVertex
 10
-78.6286719141749
 20
-79.9956867045341
 30
0.0
  0
SEQEND
  5
1F6
330
1F3
100
AcDbEntity
  8
BEMA_UNG
  0
POLYLINE
  5
1F7
330
1F
100
AcDbEntity
  8
BEMA_UNG
 62
     7
100
AcDb2dPolyline
 66
     1
 10
0.0
 20
0.0
 30
0.0
  0
VERTEX
  5
1F8
330
1F7
100
AcDbEntity
  8
BEMA_UNG
 62
     7
100
AcDbVertex
100
AcDb2dVertex
 10
-78.6286719141749
 20
-79.9684704322462
 30
0.0
  0
VERTEX
  5
1F9
330
1F7
100
AcDbEntity
  8
BEMA_UNG
 62
     7
100
AcDbVertex
100
AcDb2dVertex
 10
-78.6286719141749
 20
-79.9956867045341
 30
0.0
  0
SEQEND
  5
1FA
330
1F7
100
AcDbEntity
  8
BEMA_UNG
  0
POLYLINE
  5
1FB
330
1F
100
AcDbEntity
  8
BEMA_UNG
 62
     7
100
AcDb2dPolyline
 66
     1
 10
0.0
 20
0.0
 30
0.0
  0
VERTEX
  5
1FC
330
1FB
100
AcDbEntity
  8
BEMA_UNG
 62
     7
100
AcDbVertex
100
AcDb2dVertex
 10
-78.67948710610484
 20
-79.9684704322462
 30
0.0
  0
VERTEX
  5
1FD
330
1FB
100
AcDbEntity
  8
BEMA_UNG
 62
     7
100
AcDbVertex
100
AcDb2dVertex
 10
-78.67948710610484
 20
-80.38084863387422
 30
0.0
  0
SEQEND
  5
1FE
330
1FB
100
AcDbEntity
  8
BEMA_UNG
  0
POLYLINE
  5
1FF
330
1F
100
AcDbEntity
  8
BEMA_UNG
 62
     7
100
AcDb2dPolyline
 66
     1
 10
0.0
 20
0.0
 30
0.0
  0
VERTEX
  5
200
330
1FF
100
AcDbEntity
  8
BEMA_UNG
 62
     7
100
AcDbVertex
100
AcDb2dVertex
 10
-78.73030229803477
 20
-79.9684704322462
 30
0.0
  0
VERTEX
  5
201
330
1FF
100
AcDbEntity
  8
BEMA_UNG
 62
     7
100
AcDbVertex
100
AcDb2dVertex
 10
-78.73030229803477
 20
-80.76687183765382
 30
0.0
  0
SEQEND
  5
202
330
1FF
100
AcDbEntity
  8
BEMA_UNG
  0
POLYLINE
  5
203
330
1F
100
AcDbEntity
  8
BEMA_UNG
 62
     7
100
AcDb2dPolyline
 66
     1
 10
0.0
 20
0.0
 30
0.0
  0
VERTEX
  5
204
330
203
100
AcDbEntity
  8
BEMA_UNG
 62
     7
100
AcDbVertex
100
AcDb2dVertex
 10
-78.78111748996471
 20
-79.9684704322462
 30
0.0
  0
VERTEX
  5
205
330
203
100
AcDbEntity
  8
BEMA_UNG
 62
     7
100
AcDbVertex
100
AcDb2dVertex
 10
-78.78111748996471
 20
-81.15323955120923
 30
0.0
  0
SEQEND
  5
206
330
203
100
AcDbEntity
  8
BEMA_UNG
  0
POLYLINE
  5
207
330
1F
100
AcDbEntity
  8
BEMA_UNG
 62
     7
100
AcDb2dPolyline
 66
     1
 10
0.0
 20
0.0
 30
0.0
  0
VERTEX
  5
208
330
207
100
AcDbEntity
  8
BEMA_UNG
 62
     7
100
AcDbVertex
100
AcDb2dVertex
 10
-78.83193268189464
 20
-79.9684704322462
 30
0.0
  0
VERTEX
  5
209
330
207
100
AcDbEntity
  8
BEMA_UNG
 62
     7
100
AcDbVertex
100
AcDb2dVertex
 10
-78.83193268189464
 20
-81.53909050010094
 30
0.0
  0
SEQEND
  5
20A
330
207
100
AcDbEntity
  8
BEMA_UNG
  0
POLYLINE
  5
20B
330
1F
100
AcDbEntity
  8
BEMA_UNG
 62
     7
100
AcDb2dPolyline
 66
     1
 10
0.0
 20
0.0
 30
0.0
  0
VERTEX
  5
20C
330
20B
100
AcDbEntity
  8
BEMA_UNG
 62
     7
100
AcDbVertex
100
AcDb2dVertex
 10
-78.88274787382457
 20
-79.9684704322462
 30
0.0
  0
VERTEX
  5
20D
330
20B
100
AcDbEntity
  8
BEMA_UNG
 62
     7
100
AcDbVertex
100
AcDb2dVertex
 10
-78.88274787382457
 20
-81.92511370388054
 30
0.0
  0
SEQEND
  5
20E
330
20B
100
AcDbEntity
  8
BEMA_UNG
  0
POLYLINE
  5
20F
330
1F
100
AcDbEntity
  8
BEMA_UNG
 62
     7
100
AcDb2dPolyline
 66
     1
 10
0.0
 20
0.0
 30
0.0
  0
VERTEX
  5
210
330
20F
100
AcDbEntity
  8
BEMA_UNG
 62
     7
100
AcDbVertex
100
AcDb2dVertex
 10
-78.93356306575451
 20
-79.9684704322462
 30
0.0
  0
VERTEX
  5
211
330
20F
100
AcDbEntity
  8
BEMA_UNG
 62
     7
100
AcDbVertex
100
AcDb2dVertex
 10
-78.93356306575451
 20
-82.31027563322066
 30
0.0
  0
SEQEND
  5
212
330
20F
100
AcDbEntity
  8
BEMA_UNG
  0
POLYLINE
  5
213
330
1F
100
AcDbEntity
  8
BEMA_UNG
 62
     7
100
AcDb2dPolyline
 66
     1
 10
0.0
 20
0.0
 30
0.0
  0
VERTEX
  5
214
330
213
100
AcDbEntity
  8
BEMA_UNG
 62
     7
100
AcDbVertex
100
AcDb2dVertex
 10
-78.98472276746024
 20
-79.9684704322462
 30
0.0
  0
VERTEX
  5
215
330
213
100
AcDbEntity
  8
BEMA_UNG
 62
     7
100
AcDbVertex
100
AcDb2dVertex
 10
-78.98472276746024
 20
-82.69664334677607
 30
0.0
  0
SEQEND
  5
216
330
213
100
AcDbEntity
  8
BEMA_UNG
  0
POLYLINE
  5
217
330
1F
100
AcDbEntity
  8
BEMA_UNG
 62
     7
100
AcDb2dPolyline
 66
     1
 10
0.0
 20
0.0
 30
0.0
  0
VERTEX
  5
218
330
217
100
AcDbEntity
  8
BEMA_UNG
 62
     7
100
AcDbVertex
100
AcDb2dVertex
 10
-79.03553795939018
 20
-79.9684704322462
 30
0.0
  0
VERTEX
  5
219
330
217
100
AcDbEntity
  8
BEMA_UNG
 62
     7
100
AcDbVertex
100
AcDb2dVertex
 10
-79.03553795939018
 20
-83.08249429566777
 30
0.0
  0
SEQEND
  5
21A
330
217
100
AcDbEntity
  8
BEMA_UNG
  0
POLYLINE
  5
21B
330
1F
100
AcDbEntity
  8
BEMA_UNG
 62
     7
100
AcDb2dPolyline
 66
     1
 10
0.0
 20
0.0
 30
0.0
  0
VERTEX
  5
21C
330
21B
100
AcDbEntity
  8
BEMA_UNG
 62
     7
100
AcDbVertex
100
AcDb2dVertex
 10
-79.08635315132011
 20
-79.9684704322462
 30
0.0
  0
VERTEX
  5
21D
330
21B
100
AcDbEntity
  8
BEMA_UNG
 62
     7
100
AcDbVertex
100
AcDb2dVertex
 10
-79.08635315132011
 20
-83.46851749944739
 30
0.0
  0
SEQEND
  5
21E
330
21B
100
AcDbEntity
  8
BEMA_UNG
  0
POLYLINE
  5
21F
330
1F
100
AcDbEntity
  8
BEMA_UNG
 62
     7
100
AcDb2dPolyline
 66
     1
 10
0.0
 20
0.0
 30
0.0
  0
VERTEX
  5
220
330
21F
100
AcDbEntity
  8
BEMA_UNG
 62
     7
100
AcDbVertex
100
AcDb2dVertex
 10
-79.54317311402583
 20
-79.9684704322462
 30
0.0
  0
VERTEX
  5
221
330
21F
100
AcDbEntity
  8
BEMA_UNG
 62
     7
100
AcDbVertex
100
AcDb2dVertex
 10
-79.54317311402583
 20
-79.9956867045341
 30
0.0
  0
SEQEND
  5
222
330
21F
100
AcDbEntity
  8
BEMA_UNG
  0
POLYLINE
  5
223
330
1F
100
AcDbEntity
  8
BEMA_UNG
 62
     7
100
AcDb2dPolyline
 66
     1
 10
0.0
 20
0.0
 30
0.0
  0
VERTEX
  5
224
330
223
100
AcDbEntity
  8
BEMA_UNG
 62
     7
100
AcDbVertex
100
AcDb2dVertex
 10
-79.54317311402583
 20
-79.9684704322462
 30
0.0
  0
VERTEX
  5
225
330
223
100
AcDbEntity
  8
BEMA_UNG
 62
     7
100
AcDbVertex
100
AcDb2dVertex
 10
-79.54317311402583
 20
-79.9956867045341
 30
0.0
  0
SEQEND
  5
226
330
223
100
AcDbEntity
  8
BEMA_UNG
  0
POLYLINE
  5
227
330
1F
100
AcDbEntity
  8
BEMA_UNG
 62
     7
100
AcDb2dPolyline
 66
     1
 10
0.0
 20
0.0
 30
0.0
  0
VERTEX
  5
228
330
227
100
AcDbEntity
  8
BEMA_UNG
 62
     7
100
AcDbVertex
100
AcDb2dVertex
 10
-79.49235792209589
 20
-79.9684704322462
 30
0.0
  0
VERTEX
  5
229
330
227
100
AcDbEntity
  8
BEMA_UNG
 62
     7
100
AcDbVertex
100
AcDb2dVertex
 10
-79.49235792209589
 20
-80.38084863387422
 30
0.0
  0
SEQEND
  5
22A
330
227
100
AcDbEntity
  8
BEMA_UNG
  0
POLYLINE
  5
22B
330
1F
100
AcDbEntity
  8
BEMA_UNG
 62
     7
100
AcDb2dPolyline
 66
     1
 10
0.0
 20
0.0
 30
0.0
  0
VERTEX
  5
22C
330
22B
100
AcDbEntity
  8
BEMA_UNG
 62
     7
100
AcDbVertex
100
AcDb2dVertex
 10
-79.44188723994176
 20
-79.9684704322462
 30
0.0
  0
VERTEX
  5
22D
330
22B
100
AcDbEntity
  8
BEMA_UNG
 62
     7
100
AcDbVertex
100
AcDb2dVertex
 10
-79.44188723994176
 20
-80.76687183765382
 30
0.0
  0
SEQEND
  5
22E
330
22B
100
AcDbEntity
  8
BEMA_UNG
  0
POLYLINE
  5
22F
330
1F
100
AcDbEntity
  8
BEMA_UNG
 62
     7
100
AcDb2dPolyline
 66
     1
 10
0.0
 20
0.0
 30
0.0
  0
VERTEX
  5
230
330
22F
100
AcDbEntity
  8
BEMA_UNG
 62
     7
100
AcDbVertex
100
AcDb2dVertex
 10
-79.39107204801182
 20
-79.9684704322462
 30
0.0
  0
VERTEX
  5
231
330
22F
100
AcDbEntity
  8
BEMA_UNG
 62
     7
100
AcDbVertex
100
AcDb2dVertex
 10
-79.39107204801182
 20
-81.15323955120923
 30
0.0
  0
SEQEND
  5
232
330
22F
100
AcDbEntity
  8
BEMA_UNG
  0
POLYLINE
  5
233
330
1F
100
AcDbEntity
  8
BEMA_UNG
 62
     7
100
AcDb2dPolyline
 66
     1
 10
0.0
 20
0.0
 30
0.0
  0
VERTEX
  5
234
330
233
100
AcDbEntity
  8
BEMA_UNG
 62
     7
100
AcDbVertex
100
AcDb2dVertex
 10
-79.3402568560819
 20
-79.9684704322462
 30
0.0
  0
VERTEX
  5
235
330
233
100
AcDbEntity
  8
BEMA_UNG
 62
     7
100
AcDbVertex
100
AcDb2dVertex
 10
-79.3402568560819
 20
-81.53909050010094
 30
0.0
  0
SEQEND
  5
236
330
233
100
AcDbEntity
  8
BEMA_UNG
  0
POLYLINE
  5
237
330
1F
100
AcDbEntity
  8
BEMA_UNG
 62
     7
100
AcDb2dPolyline
 66
     1
 10
0.0
 20
0.0
 30
0.0
  0
VERTEX
  5
238
330
237
100
AcDbEntity
  8
BEMA_UNG
 62
     7
100
AcDbVertex
100
AcDb2dVertex
 10
-79.28944166415195
 20
-79.9684704322462
 30
0.0
  0
VERTEX
  5
239
330
237
100
AcDbEntity
  8
BEMA_UNG
 62
     7
100
AcDbVertex
100
AcDb2dVertex
 10
-79.28944166415195
 20
-81.92511370388054
 30
0.0
  0
SEQEND
  5
23A
330
237
100
AcDbEntity
  8
BEMA_UNG
  0
POLYLINE
  5
23B
330
1F
100
AcDbEntity
  8
BEMA_UNG
 62
     7
100
AcDb2dPolyline
 66
     1
 10
0.0
 20
0.0
 30
0.0
  0
VERTEX
  5
23C
330
23B
100
AcDbEntity
  8
BEMA_UNG
 62
     7
100
AcDbVertex
100
AcDb2dVertex
 10
-79.23879872710992
 20
-79.9684704322462
 30
0.0
  0
VERTEX
  5
23D
330
23B
100
AcDbEntity
  8
BEMA_UNG
 62
     7
100
AcDbVertex
100
AcDb2dVertex
 10
-79.23879872710992
 20
-82.31027563322066
 30
0.0
  0
SEQEND
  5
23E
330
23B
100
AcDbEntity
  8
BEMA_UNG
  0
POLYLINE
  5
23F
330
1F
100
AcDbEntity
  8
BEMA_UNG
 62
     7
100
AcDb2dPolyline
 66
     1
 10
0.0
 20
0.0
 30
0.0
  0
VERTEX
  5
240
330
23F
100
AcDbEntity
  8
BEMA_UNG
 62
     7
100
AcDbVertex
100
AcDb2dVertex
 10
-79.18781128029208
 20
-79.9684704322462
 30
0.0
  0
VERTEX
  5
241
330
23F
100
AcDbEntity
  8
BEMA_UNG
 62
     7
100
AcDbVertex
100
AcDb2dVertex
 10
-79.18781128029208
 20
-82.69664334677607
 30
0.0
  0
SEQEND
  5
242
330
23F
100
AcDbEntity
  8
BEMA_UNG
  0
POLYLINE
  5
243
330
1F
100
AcDbEntity
  8
BEMA_UNG
 62
     7
100
AcDb2dPolyline
 66
     1
 10
0.0
 20
0.0
 30
0.0
  0
VERTEX
  5
244
330
243
100
AcDbEntity
  8
BEMA_UNG
 62
     7
100
AcDbVertex
100
AcDb2dVertex
 10
-79.13716834325005
 20
-79.9684704322462
 30
0.0
  0
VERTEX
  5
245
330
243
100
AcDbEntity
  8
BEMA_UNG
 62
     7
100
AcDbVertex
100
AcDb2dVertex
 10
-79.13716834325005
 20
-83.08249429566777
 30
0.0
  0
SEQEND
  5
246
330
243
100
AcDbEntity
  8
BEMA_UNG
  0
POLYLINE
  5
247
330
1F
100
AcDbEntity
  8
BEMA_UNG
 62
     7
100
AcDb2dPolyline
 66
     1
 10
0.0
 20
0.0
 30
0.0
  0
VERTEX
  5
248
330
247
100
AcDbEntity
  8
BEMA_UNG
 62
     7
100
AcDbVertex
100
AcDb2dVertex
 10
-79.08635315132011
 20
-79.9684704322462
 30
0.0
  0
VERTEX
  5
249
330
247
100
AcDbEntity
  8
BEMA_UNG
 62
     7
100
AcDbVertex
100
AcDb2dVertex
 10
-79.08635315132011
 20
-83.46851749944739
 30
0.0
  0
SEQEND
  5
24A
330
247
100
AcDbEntity
  8
BEMA_UNG
  0
POLYLINE
  5
24B
330
1F
100
AcDbEntity
  8
BEMA_UNG
 62
     7
100
AcDb2dPolyline
 66
     1
 10
0.0
 20
0.0
 30
0.0
  0
VERTEX
  5
24C
330
24B
100
AcDbEntity
  8
BEMA_UNG
 62
     7
100
AcDbVertex
100
AcDb2dVertex
 10
-203.7210327802033
 20
-35.39648465928947
 30
0.0
  0
VERTEX
  5
24D
330
24B
100
AcDbEntity
  8
BEMA_UNG
 62
     7
100
AcDbVertex
100
AcDb2dVertex
 10
-203.7210327802033
 20
-17.4452860267664
 30
0.0
  0
SEQEND
  5
24E
330
24B
100
AcDbEntity
  8
BEMA_UNG
  0
POLYLINE
  5
24F
330
1F
100
AcDbEntity
  8
BEMA_UNG
 62
     7
100
AcDb2dPolyline
 66
     1
 10
0.0
 20
0.0
 30
0.0
  0
VERTEX
  5
250
330
24F
100
AcDbEntity
  8
BEMA_UNG
 62
     7
100
AcDbVertex
100
AcDb2dVertex
 10
-93.72061166247767
 20
-35.39648465928947
 30
0.0
  0
VERTEX
  5
251
330
24F
100
AcDbEntity
  8
BEMA_UNG
 62
     7
100
AcDbVertex
100
AcDb2dVertex
 10
-93.72061166247767
 20
-17.4452860267664
 30
0.0
  0
SEQEND
  5
252
330
24F
100
AcDbEntity
  8
BEMA_UNG
  0
POLYLINE
  5
253
330
1F
100
AcDbEntity
  8
BEMA_UNG
 62
     7
100
AcDb2dPolyline
 66
     1
 10
0.0
 20
0.0
 30
0.0
  0
VERTEX
  5
254
330
253
100
AcDbEntity
  8
BEMA_UNG
 62
     7
100
AcDbVertex
100
AcDb2dVertex
 10
-203.7210327802033
 20
-19.44516527526316
 30
0.0
  0
VERTEX
  5
255
330
253
100
AcDbEntity
  8
BEMA_UNG
 62
     7
100
AcDbVertex
100
AcDb2dVertex
 10
-93.72061166247767
 20
-19.44516527526316
 30
0.0
  0
SEQEND
  5
256
330
253
100
AcDbEntity
  8
BEMA_UNG
  0
POLYLINE
  5
257
330
1F
100
AcDbEntity
  8
BEMA_UNG
 62
     7
100
AcDb2dPolyline
 66
     1
 10
0.0
 20
0.0
 30
0.0
  0
VERTEX
  5
258
330
257
100
AcDbEntity
  8
BEMA_UNG
 62
     7
100
AcDbVertex
100
AcDb2dVertex
 10
-203.7210327802033
 20
-19.44516527526316
 30
0.0
  0
VERTEX
  5
259
330
257
100
AcDbEntity
  8
BEMA_UNG
 62
     7
100
AcDbVertex
100
AcDb2dVertex
 10
-200.2202966934505
 20
-19.90594710039053
 30
0.0
  0
VERTEX
  5
25A
330
257
100
AcDbEntity
  8
BEMA_UNG
 62
     7
100
AcDbVertex
100
AcDb2dVertex
 10
-200.2202966934505
 20
-18.98421119524788
 30
0.0
  0
VERTEX
  5
25B
330
257
100
AcDbEntity
  8
BEMA_UNG
 62
     7
100
AcDbVertex
100
AcDb2dVertex
 10
-203.7210327802033
 20
-19.44516527526316
 30
0.0
  0
SEQEND
  5
25C
330
257
100
AcDbEntity
  8
BEMA_UNG
  0
POLYLINE
  5
25D
330
1F
100
AcDbEntity
  8
BEMA_UNG
 62
     7
100
AcDb2dPolyline
 66
     1
 10
0.0
 20
0.0
 30
0.0
  0
VERTEX
  5
25E
330
25D
100
AcDbEntity
  8
BEMA_UNG
 62
     7
100
AcDbVertex
100
AcDb2dVertex
 10
-200.2202966934505
 20
-19.90198523796888
 30
0.0
  0
VERTEX
  5
25F
330
25D
100
AcDbEntity
  8
BEMA_UNG
 62
     7
100
AcDbVertex
100
AcDb2dVertex
 10
-200.2478574755142
 20
-19.90198523796888
 30
0.0
  0
SEQEND
  5
260
330
25D
100
AcDbEntity
  8
BEMA_UNG
  0
POLYLINE
  5
261
330
1F
100
AcDbEntity
  8
BEMA_UNG
 62
     7
100
AcDb2dPolyline
 66
     1
 10
0.0
 20
0.0
 30
0.0
  0
VERTEX
  5
262
330
261
100
AcDbEntity
  8
BEMA_UNG
 62
     7
100
AcDbVertex
100
AcDb2dVertex
 10
-200.2202966934505
 20
-19.90198523796888
 30
0.0
  0
VERTEX
  5
263
330
261
100
AcDbEntity
  8
BEMA_UNG
 62
     7
100
AcDbVertex
100
AcDb2dVertex
 10
-200.2478574755142
 20
-19.90198523796888
 30
0.0
  0
SEQEND
  5
264
330
261
100
AcDbEntity
  8
BEMA_UNG
  0
POLYLINE
  5
265
330
1F
100
AcDbEntity
  8
BEMA_UNG
 62
     7
100
AcDb2dPolyline
 66
     1
 10
0.0
 20
0.0
 30
0.0
  0
VERTEX
  5
266
330
265
100
AcDbEntity
  8
BEMA_UNG
 62
     7
100
AcDbVertex
100
AcDb2dVertex
 10
-200.2202966934505
 20
-19.85168681070264
 30
0.0
  0
VERTEX
  5
267
330
265
100
AcDbEntity
  8
BEMA_UNG
 62
     7
100
AcDbVertex
100
AcDb2dVertex
 10
-200.6338806792938
 20
-19.85168681070264
 30
0.0
  0
SEQEND
  5
268
330
265
100
AcDbEntity
  8
BEMA_UNG
  0
POLYLINE
  5
269
330
1F
100
AcDbEntity
  8
BEMA_UNG
 62
     7
100
AcDb2dPolyline
 66
     1
 10
0.0
 20
0.0
 30
0.0
  0
VERTEX
  5
26A
330
269
100
AcDbEntity
  8
BEMA_UNG
 62
     7
100
AcDbVertex
100
AcDb2dVertex
 10
-200.2202966934505
 20
-19.8008716187727
 30
0.0
  0
VERTEX
  5
26B
330
269
100
AcDbEntity
  8
BEMA_UNG
 62
     7
100
AcDbVertex
100
AcDb2dVertex
 10
-201.0193871184098
 20
-19.8008716187727
 30
0.0
  0
SEQEND
  5
26C
330
269
100
AcDbEntity
  8
BEMA_UNG
  0
POLYLINE
  5
26D
330
1F
100
AcDbEntity
  8
BEMA_UNG
 62
     7
100
AcDb2dPolyline
 66
     1
 10
0.0
 20
0.0
 30
0.0
  0
VERTEX
  5
26E
330
26D
100
AcDbEntity
  8
BEMA_UNG
 62
     7
100
AcDbVertex
100
AcDb2dVertex
 10
-200.2202966934505
 20
-19.75005642684277
 30
0.0
  0
VERTEX
  5
26F
330
26D
100
AcDbEntity
  8
BEMA_UNG
 62
     7
100
AcDbVertex
100
AcDb2dVertex
 10
-201.4057548319651
 20
-19.75005642684277
 30
0.0
  0
SEQEND
  5
270
330
26D
100
AcDbEntity
  8
BEMA_UNG
  0
POLYLINE
  5
271
330
1F
100
AcDbEntity
  8
BEMA_UNG
 62
     7
100
AcDb2dPolyline
 66
     1
 10
0.0
 20
0.0
 30
0.0
  0
VERTEX
  5
272
330
271
100
AcDbEntity
  8
BEMA_UNG
 62
     7
100
AcDbVertex
100
AcDb2dVertex
 10
-200.2202966934505
 20
-19.69924123491283
 30
0.0
  0
VERTEX
  5
273
330
271
100
AcDbEntity
  8
BEMA_UNG
 62
     7
100
AcDbVertex
100
AcDb2dVertex
 10
-201.7912612710811
 20
-19.69924123491283
 30
0.0
  0
SEQEND
  5
274
330
271
100
AcDbEntity
  8
BEMA_UNG
  0
POLYLINE
  5
275
330
1F
100
AcDbEntity
  8
BEMA_UNG
 62
     7
100
AcDb2dPolyline
 66
     1
 10
0.0
 20
0.0
 30
0.0
  0
VERTEX
  5
276
330
275
100
AcDbEntity
  8
BEMA_UNG
 62
     7
100
AcDbVertex
100
AcDb2dVertex
 10
-200.2202966934505
 20
-19.6484260429829
 30
0.0
  0
VERTEX
  5
277
330
275
100
AcDbEntity
  8
BEMA_UNG
 62
     7
100
AcDbVertex
100
AcDb2dVertex
 10
-202.1776289846365
 20
-19.6484260429829
 30
0.0
  0
SEQEND
  5
278
330
275
100
AcDbEntity
  8
BEMA_UNG
  0
POLYLINE
  5
279
330
1F
100
AcDbEntity
  8
BEMA_UNG
 62
     7
100
AcDb2dPolyline
 66
     1
 10
0.0
 20
0.0
 30
0.0
  0
VERTEX
  5
27A
330
279
100
AcDbEntity
  8
BEMA_UNG
 62
     7
100
AcDbVertex
100
AcDb2dVertex
 10
-200.2202966934505
 20
-19.59761085105296
 30
0.0
  0
VERTEX
  5
27B
330
279
100
AcDbEntity
  8
BEMA_UNG
 62
     7
100
AcDbVertex
100
AcDb2dVertex
 10
-202.5627909139766
 20
-19.59761085105296
 30
0.0
  0
SEQEND
  5
27C
330
279
100
AcDbEntity
  8
BEMA_UNG
  0
POLYLINE
  5
27D
330
1F
100
AcDbEntity
  8
BEMA_UNG
 62
     7
100
AcDb2dPolyline
 66
     1
 10
0.0
 20
0.0
 30
0.0
  0
VERTEX
  5
27E
330
27D
100
AcDbEntity
  8
BEMA_UNG
 62
     7
100
AcDbVertex
100
AcDb2dVertex
 10
-200.2202966934505
 20
-19.54679565912303
 30
0.0
  0
VERTEX
  5
27F
330
27D
100
AcDbEntity
  8
BEMA_UNG
 62
     7
100
AcDbVertex
100
AcDb2dVertex
 10
-202.949158627532
 20
-19.54679565912303
 30
0.0
  0
SEQEND
  5
280
330
27D
100
AcDbEntity
  8
BEMA_UNG
  0
POLYLINE
  5
281
330
1F
100
AcDbEntity
  8
BEMA_UNG
 62
     7
100
AcDb2dPolyline
 66
     1
 10
0.0
 20
0.0
 30
0.0
  0
VERTEX
  5
282
330
281
100
AcDbEntity
  8
BEMA_UNG
 62
     7
100
AcDbVertex
100
AcDb2dVertex
 10
-200.2202966934505
 20
-19.49598046719309
 30
0.0
  0
VERTEX
  5
283
330
281
100
AcDbEntity
  8
BEMA_UNG
 62
     7
100
AcDbVertex
100
AcDb2dVertex
 10
-203.3346650666479
 20
-19.49598046719309
 30
0.0
  0
SEQEND
  5
284
330
281
100
AcDbEntity
  8
BEMA_UNG
  0
POLYLINE
  5
285
330
1F
100
AcDbEntity
  8
BEMA_UNG
 62
     7
100
AcDb2dPolyline
 66
     1
 10
0.0
 20
0.0
 30
0.0
  0
VERTEX
  5
286
330
285
100
AcDbEntity
  8
BEMA_UNG
 62
     7
100
AcDbVertex
100
AcDb2dVertex
 10
-200.2202966934505
 20
-19.44516527526316
 30
0.0
  0
VERTEX
  5
287
330
285
100
AcDbEntity
  8
BEMA_UNG
 62
     7
100
AcDbVertex
100
AcDb2dVertex
 10
-203.7210327802033
 20
-19.44516527526316
 30
0.0
  0
SEQEND
  5
288
330
285
100
AcDbEntity
  8
BEMA_UNG
  0
POLYLINE
  5
289
330
1F
100
AcDbEntity
  8
BEMA_UNG
 62
     7
100
AcDb2dPolyline
 66
     1
 10
0.0
 20
0.0
 30
0.0
  0
VERTEX
  5
28A
330
289
100
AcDbEntity
  8
BEMA_UNG
 62
     7
100
AcDbVertex
100
AcDb2dVertex
 10
-200.2202966934505
 20
-18.98765629300584
 30
0.0
  0
VERTEX
  5
28B
330
289
100
AcDbEntity
  8
BEMA_UNG
 62
     7
100
AcDbVertex
100
AcDb2dVertex
 10
-200.2478574755142
 20
-18.98765629300584
 30
0.0
  0
SEQEND
  5
28C
330
289
100
AcDbEntity
  8
BEMA_UNG
  0
POLYLINE
  5
28D
330
1F
100
AcDbEntity
  8
BEMA_UNG
 62
     7
100
AcDb2dPolyline
 66
     1
 10
0.0
 20
0.0
 30
0.0
  0
VERTEX
  5
28E
330
28D
100
AcDbEntity
  8
BEMA_UNG
 62
     7
100
AcDbVertex
100
AcDb2dVertex
 10
-200.2202966934505
 20
-18.98765629300584
 30
0.0
  0
VERTEX
  5
28F
330
28D
100
AcDbEntity
  8
BEMA_UNG
 62
     7
100
AcDbVertex
100
AcDb2dVertex
 10
-200.2478574755142
 20
-18.98765629300584
 30
0.0
  0
SEQEND
  5
290
330
28D
100
AcDbEntity
  8
BEMA_UNG
  0
POLYLINE
  5
291
330
1F
100
AcDbEntity
  8
BEMA_UNG
 62
     7
100
AcDb2dPolyline
 66
     1
 10
0.0
 20
0.0
 30
0.0
  0
VERTEX
  5
292
330
291
100
AcDbEntity
  8
BEMA_UNG
 62
     7
100
AcDbVertex
100
AcDb2dVertex
 10
-200.2202966934505
 20
-19.03847148493578
 30
0.0
  0
VERTEX
  5
293
330
291
100
AcDbEntity
  8
BEMA_UNG
 62
     7
100
AcDbVertex
100
AcDb2dVertex
 10
-200.6338806792938
 20
-19.03847148493578
 30
0.0
  0
SEQEND
  5
294
330
291
100
AcDbEntity
  8
BEMA_UNG
  0
POLYLINE
  5
295
330
1F
100
AcDbEntity
  8
BEMA_UNG
 62
     7
100
AcDb2dPolyline
 66
     1
 10
0.0
 20
0.0
 30
0.0
  0
VERTEX
  5
296
330
295
100
AcDbEntity
  8
BEMA_UNG
 62
     7
100
AcDbVertex
100
AcDb2dVertex
 10
-200.2202966934505
 20
-19.08928667686572
 30
0.0
  0
VERTEX
  5
297
330
295
100
AcDbEntity
  8
BEMA_UNG
 62
     7
100
AcDbVertex
100
AcDb2dVertex
 10
-201.0193871184098
 20
-19.08928667686572
 30
0.0
  0
SEQEND
  5
298
330
295
100
AcDbEntity
  8
BEMA_UNG
  0
POLYLINE
  5
299
330
1F
100
AcDbEntity
  8
BEMA_UNG
 62
     7
100
AcDb2dPolyline
 66
     1
 10
0.0
 20
0.0
 30
0.0
  0
VERTEX
  5
29A
330
299
100
AcDbEntity
  8
BEMA_UNG
 62
     7
100
AcDbVertex
100
AcDb2dVertex
 10
-200.2202966934505
 20
-19.14010186879565
 30
0.0
  0
VERTEX
  5
29B
330
299
100
AcDbEntity
  8
BEMA_UNG
 62
     7
100
AcDbVertex
100
AcDb2dVertex
 10
-201.4057548319651
 20
-19.14010186879565
 30
0.0
  0
SEQEND
  5
29C
330
299
100
AcDbEntity
  8
BEMA_UNG
  0
POLYLINE
  5
29D
330
1F
100
AcDbEntity
  8
BEMA_UNG
 62
     7
100
AcDb2dPolyline
 66
     1
 10
0.0
 20
0.0
 30
0.0
  0
VERTEX
  5
29E
330
29D
100
AcDbEntity
  8
BEMA_UNG
 62
     7
100
AcDbVertex
100
AcDb2dVertex
 10
-200.2202966934505
 20
-19.19091706072559
 30
0.0
  0
VERTEX
  5
29F
330
29D
100
AcDbEntity
  8
BEMA_UNG
 62
     7
100
AcDbVertex
100
AcDb2dVertex
 10
-201.7912612710811
 20
-19.19091706072559
 30
0.0
  0
SEQEND
  5
2A0
330
29D
100
AcDbEntity
  8
BEMA_UNG
  0
POLYLINE
  5
2A1
330
1F
100
AcDbEntity
  8
BEMA_UNG
 62
     7
100
AcDb2dPolyline
 66
     1
 10
0.0
 20
0.0
 30
0.0
  0
VERTEX
  5
2A2
330
2A1
100
AcDbEntity
  8
BEMA_UNG
 62
     7
100
AcDbVertex
100
AcDb2dVertex
 10
-200.2202966934505
 20
-19.24173225265552
 30
0.0
  0
VERTEX
  5
2A3
330
2A1
100
AcDbEntity
  8
BEMA_UNG
 62
     7
100
AcDbVertex
100
AcDb2dVertex
 10
-202.1776289846365
 20
-19.24173225265552
 30
0.0
  0
SEQEND
  5
2A4
330
2A1
100
AcDbEntity
  8
BEMA_UNG
  0
POLYLINE
  5
2A5
330
1F
100
AcDbEntity
  8
BEMA_UNG
 62
     7
100
AcDb2dPolyline
 66
     1
 10
0.0
 20
0.0
 30
0.0
  0
VERTEX
  5
2A6
330
2A5
100
AcDbEntity
  8
BEMA_UNG
 62
     7
100
AcDbVertex
100
AcDb2dVertex
 10
-200.2202966934505
 20
-19.29254744458546
 30
0.0
  0
VERTEX
  5
2A7
330
2A5
100
AcDbEntity
  8
BEMA_UNG
 62
     7
100
AcDbVertex
100
AcDb2dVertex
 10
-202.5627909139766
 20
-19.29254744458546
 30
0.0
  0
SEQEND
  5
2A8
330
2A5
100
AcDbEntity
  8
BEMA_UNG
  0
POLYLINE
  5
2A9
330
1F
100
AcDbEntity
  8
BEMA_UNG
 62
     7
100
AcDb2dPolyline
 66
     1
 10
0.0
 20
0.0
 30
0.0
  0
VERTEX
  5
2AA
330
2A9
100
AcDbEntity
  8
BEMA_UNG
 62
     7
100
AcDbVertex
100
AcDb2dVertex
 10
-200.2202966934505
 20
-19.34319038162749
 30
0.0
  0
VERTEX
  5
2AB
330
2A9
100
AcDbEntity
  8
BEMA_UNG
 62
     7
100
AcDbVertex
100
AcDb2dVertex
 10
-202.949158627532
 20
-19.34319038162749
 30
0.0
  0
SEQEND
  5
2AC
330
2A9
100
AcDbEntity
  8
BEMA_UNG
  0
POLYLINE
  5
2AD
330
1F
100
AcDbEntity
  8
BEMA_UNG
 62
     7
100
AcDb2dPolyline
 66
     1
 10
0.0
 20
0.0
 30
0.0
  0
VERTEX
  5
2AE
330
2AD
100
AcDbEntity
  8
BEMA_UNG
 62
     7
100
AcDbVertex
100
AcDb2dVertex
 10
-200.2202966934505
 20
-19.39452233822112
 30
0.0
  0
VERTEX
  5
2AF
330
2AD
100
AcDbEntity
  8
BEMA_UNG
 62
     7
100
AcDbVertex
100
AcDb2dVertex
 10
-203.3346650666479
 20
-19.39452233822112
 30
0.0
  0
SEQEND
  5
2B0
330
2AD
100
AcDbEntity
  8
BEMA_UNG
  0
POLYLINE
  5
2B1
330
1F
100
AcDbEntity
  8
BEMA_UNG
 62
     7
100
AcDb2dPolyline
 66
     1
 10
0.0
 20
0.0
 30
0.0
  0
VERTEX
  5
2B2
330
2B1
100
AcDbEntity
  8
BEMA_UNG
 62
     7
100
AcDbVertex
100
AcDb2dVertex
 10
-200.2202966934505
 20
-19.44516527526316
 30
0.0
  0
VERTEX
  5
2B3
330
2B1
100
AcDbEntity
  8
BEMA_UNG
 62
     7
100
AcDbVertex
100
AcDb2dVertex
 10
-203.7210327802033
 20
-19.44516527526316
 30
0.0
  0
SEQEND
  5
2B4
330
2B1
100
AcDbEntity
  8
BEMA_UNG
  0
POLYLINE
  5
2B5
330
1F
100
AcDbEntity
  8
BEMA_UNG
 62
     7
100
AcDb2dPolyline
 66
     1
 10
0.0
 20
0.0
 30
0.0
  0
VERTEX
  5
2B6
330
2B5
100
AcDbEntity
  8
BEMA_UNG
 62
     7
100
AcDbVertex
100
AcDb2dVertex
 10
-93.72061166247767
 20
-19.44516527526316
 30
0.0
  0
VERTEX
  5
2B7
330
2B5
100
AcDbEntity
  8
BEMA_UNG
 62
     7
100
AcDbVertex
100
AcDb2dVertex
 10
-97.22083098456675
 20
-18.98421119524788
 30
0.0
  0
VERTEX
  5
2B8
330
2B5
100
AcDbEntity
  8
BEMA_UNG
 62
     7
100
AcDbVertex
100
AcDb2dVertex
 10
-97.22083098456675
 20
-19.90594710039053
 30
0.0
  0
VERTEX
  5
2B9
330
2B5
100
AcDbEntity
  8
BEMA_UNG
 62
     7
100
AcDbVertex
100
AcDb2dVertex
 10
-93.72061166247767
 20
-19.44516527526316
 30
0.0
  0
SEQEND
  5
2BA
330
2B5
100
AcDbEntity
  8
BEMA_UNG
  0
POLYLINE
  5
2BB
330
1F
100
AcDbEntity
  8
BEMA_UNG
 62
     7
100
AcDb2dPolyline
 66
     1
 10
0.0
 20
0.0
 30
0.0
  0
VERTEX
  5
2BC
330
2BB
100
AcDbEntity
  8
BEMA_UNG
 62
     7
100
AcDbVertex
100
AcDb2dVertex
 10
-97.22083098456675
 20
-18.98765629300584
 30
0.0
  0
VERTEX
  5
2BD
330
2BB
100
AcDbEntity
  8
BEMA_UNG
 62
     7
100
AcDbVertex
100
AcDb2dVertex
 10
-97.19361471227884
 20
-18.98765629300584
 30
0.0
  0
SEQEND
  5
2BE
330
2BB
100
AcDbEntity
  8
BEMA_UNG
  0
POLYLINE
  5
2BF
330
1F
100
AcDbEntity
  8
BEMA_UNG
 62
     7
100
AcDb2dPolyline
 66
     1
 10
0.0
 20
0.0
 30
0.0
  0
VERTEX
  5
2C0
330
2BF
100
AcDbEntity
  8
BEMA_UNG
 62
     7
100
AcDbVertex
100
AcDb2dVertex
 10
-97.22083098456675
 20
-18.98765629300584
 30
0.0
  0
VERTEX
  5
2C1
330
2BF
100
AcDbEntity
  8
BEMA_UNG
 62
     7
100
AcDbVertex
100
AcDb2dVertex
 10
-97.19361471227884
 20
-18.98765629300584
 30
0.0
  0
SEQEND
  5
2C2
330
2BF
100
AcDbEntity
  8
BEMA_UNG
  0
POLYLINE
  5
2C3
330
1F
100
AcDbEntity
  8
BEMA_UNG
 62
     7
100
AcDb2dPolyline
 66
     1
 10
0.0
 20
0.0
 30
0.0
  0
VERTEX
  5
2C4
330
2C3
100
AcDbEntity
  8
BEMA_UNG
 62
     7
100
AcDbVertex
100
AcDb2dVertex
 10
-97.22083098456675
 20
-19.03847148493578
 30
0.0
  0
VERTEX
  5
2C5
330
2C3
100
AcDbEntity
  8
BEMA_UNG
 62
     7
100
AcDbVertex
100
AcDb2dVertex
 10
-96.80741925361134
 20
-19.03847148493578
 30
0.0
  0
SEQEND
  5
2C6
330
2C3
100
AcDbEntity
  8
BEMA_UNG
  0
POLYLINE
  5
2C7
330
1F
100
AcDbEntity
  8
BEMA_UNG
 62
     7
100
AcDb2dPolyline
 66
     1
 10
0.0
 20
0.0
 30
0.0
  0
VERTEX
  5
2C8
330
2C7
100
AcDbEntity
  8
BEMA_UNG
 62
     7
100
AcDbVertex
100
AcDb2dVertex
 10
-97.22083098456675
 20
-19.08928667686572
 30
0.0
  0
VERTEX
  5
2C9
330
2C7
100
AcDbEntity
  8
BEMA_UNG
 62
     7
100
AcDbVertex
100
AcDb2dVertex
 10
-96.42174055960753
 20
-19.08928667686572
 30
0.0
  0
SEQEND
  5
2CA
330
2C7
100
AcDbEntity
  8
BEMA_UNG
  0
POLYLINE
  5
2CB
330
1F
100
AcDbEntity
  8
BEMA_UNG
 62
     7
100
AcDb2dPolyline
 66
     1
 10
0.0
 20
0.0
 30
0.0
  0
VERTEX
  5
2CC
330
2CB
100
AcDbEntity
  8
BEMA_UNG
 62
     7
100
AcDbVertex
100
AcDb2dVertex
 10
-97.22083098456675
 20
-19.14010186879565
 30
0.0
  0
VERTEX
  5
2CD
330
2CB
100
AcDbEntity
  8
BEMA_UNG
 62
     7
100
AcDbVertex
100
AcDb2dVertex
 10
-96.03554510094003
 20
-19.14010186879565
 30
0.0
  0
SEQEND
  5
2CE
330
2CB
100
AcDbEntity
  8
BEMA_UNG
  0
POLYLINE
  5
2CF
330
1F
100
AcDbEntity
  8
BEMA_UNG
 62
     7
100
AcDb2dPolyline
 66
     1
 10
0.0
 20
0.0
 30
0.0
  0
VERTEX
  5
2D0
330
2CF
100
AcDbEntity
  8
BEMA_UNG
 62
     7
100
AcDbVertex
100
AcDb2dVertex
 10
-97.22083098456675
 20
-19.19091706072559
 30
0.0
  0
VERTEX
  5
2D1
330
2CF
100
AcDbEntity
  8
BEMA_UNG
 62
     7
100
AcDbVertex
100
AcDb2dVertex
 10
-95.65021091671201
 20
-19.19091706072559
 30
0.0
  0
SEQEND
  5
2D2
330
2CF
100
AcDbEntity
  8
BEMA_UNG
  0
POLYLINE
  5
2D3
330
1F
100
AcDbEntity
  8
BEMA_UNG
 62
     7
100
AcDb2dPolyline
 66
     1
 10
0.0
 20
0.0
 30
0.0
  0
VERTEX
  5
2D4
330
2D3
100
AcDbEntity
  8
BEMA_UNG
 62
     7
100
AcDbVertex
100
AcDb2dVertex
 10
-97.22083098456675
 20
-19.24173225265552
 30
0.0
  0
VERTEX
  5
2D5
330
2D3
100
AcDbEntity
  8
BEMA_UNG
 62
     7
100
AcDbVertex
100
AcDb2dVertex
 10
-95.26401545804451
 20
-19.24173225265552
 30
0.0
  0
SEQEND
  5
2D6
330
2D3
100
AcDbEntity
  8
BEMA_UNG
  0
POLYLINE
  5
2D7
330
1F
100
AcDbEntity
  8
BEMA_UNG
 62
     7
100
AcDb2dPolyline
 66
     1
 10
0.0
 20
0.0
 30
0.0
  0
VERTEX
  5
2D8
330
2D7
100
AcDbEntity
  8
BEMA_UNG
 62
     7
100
AcDbVertex
100
AcDb2dVertex
 10
-97.22083098456675
 20
-19.29254744458546
 30
0.0
  0
VERTEX
  5
2D9
330
2D7
100
AcDbEntity
  8
BEMA_UNG
 62
     7
100
AcDbVertex
100
AcDb2dVertex
 10
-94.8783367640407
 20
-19.29254744458546
 30
0.0
  0
SEQEND
  5
2DA
330
2D7
100
AcDbEntity
  8
BEMA_UNG
  0
POLYLINE
  5
2DB
330
1F
100
AcDbEntity
  8
BEMA_UNG
 62
     7
100
AcDb2dPolyline
 66
     1
 10
0.0
 20
0.0
 30
0.0
  0
VERTEX
  5
2DC
330
2DB
100
AcDbEntity
  8
BEMA_UNG
 62
     7
100
AcDbVertex
100
AcDb2dVertex
 10
-97.22083098456675
 20
-19.34319038162749
 30
0.0
  0
VERTEX
  5
2DD
330
2DB
100
AcDbEntity
  8
BEMA_UNG
 62
     7
100
AcDbVertex
100
AcDb2dVertex
 10
-94.4921413053732
 20
-19.34319038162749
 30
0.0
  0
SEQEND
  5
2DE
330
2DB
100
AcDbEntity
  8
BEMA_UNG
  0
POLYLINE
  5
2DF
330
1F
100
AcDbEntity
  8
BEMA_UNG
 62
     7
100
AcDb2dPolyline
 66
     1
 10
0.0
 20
0.0
 30
0.0
  0
VERTEX
  5
2E0
330
2DF
100
AcDbEntity
  8
BEMA_UNG
 62
     7
100
AcDbVertex
100
AcDb2dVertex
 10
-97.22083098456675
 20
-19.39452233822112
 30
0.0
  0
VERTEX
  5
2E1
330
2DF
100
AcDbEntity
  8
BEMA_UNG
 62
     7
100
AcDbVertex
100
AcDb2dVertex
 10
-94.10611810159358
 20
-19.39452233822112
 30
0.0
  0
SEQEND
  5
2E2
330
2DF
100
AcDbEntity
  8
BEMA_UNG
  0
POLYLINE
  5
2E3
330
1F
100
AcDbEntity
  8
BEMA_UNG
 62
     7
100
AcDb2dPolyline
 66
     1
 10
0.0
 20
0.0
 30
0.0
  0
VERTEX
  5
2E4
330
2E3
100
AcDbEntity
  8
BEMA_UNG
 62
     7
100
AcDbVertex
100
AcDb2dVertex
 10
-97.22083098456675
 20
-19.44516527526316
 30
0.0
  0
VERTEX
  5
2E5
330
2E3
100
AcDbEntity
  8
BEMA_UNG
 62
     7
100
AcDbVertex
100
AcDb2dVertex
 10
-93.72061166247767
 20
-19.44516527526316
 30
0.0
  0
SEQEND
  5
2E6
330
2E3
100
AcDbEntity
  8
BEMA_UNG
  0
POLYLINE
  5
2E7
330
1F
100
AcDbEntity
  8
BEMA_UNG
 62
     7
100
AcDb2dPolyline
 66
     1
 10
0.0
 20
0.0
 30
0.0
  0
VERTEX
  5
2E8
330
2E7
100
AcDbEntity
  8
BEMA_UNG
 62
     7
100
AcDbVertex
100
AcDb2dVertex
 10
-97.22083098456675
 20
-19.90198523796888
 30
0.0
  0
VERTEX
  5
2E9
330
2E7
100
AcDbEntity
  8
BEMA_UNG
 62
     7
100
AcDbVertex
100
AcDb2dVertex
 10
-97.19361471227884
 20
-19.90198523796888
 30
0.0
  0
SEQEND
  5
2EA
330
2E7
100
AcDbEntity
  8
BEMA_UNG
  0
POLYLINE
  5
2EB
330
1F
100
AcDbEntity
  8
BEMA_UNG
 62
     7
100
AcDb2dPolyline
 66
     1
 10
0.0
 20
0.0
 30
0.0
  0
VERTEX
  5
2EC
330
2EB
100
AcDbEntity
  8
BEMA_UNG
 62
     7
100
AcDbVertex
100
AcDb2dVertex
 10
-97.22083098456675
 20
-19.90198523796888
 30
0.0
  0
VERTEX
  5
2ED
330
2EB
100
AcDbEntity
  8
BEMA_UNG
 62
     7
100
AcDbVertex
100
AcDb2dVertex
 10
-97.19361471227884
 20
-19.90198523796888
 30
0.0
  0
SEQEND
  5
2EE
330
2EB
100
AcDbEntity
  8
BEMA_UNG
  0
POLYLINE
  5
2EF
330
1F
100
AcDbEntity
  8
BEMA_UNG
 62
     7
100
AcDb2dPolyline
 66
     1
 10
0.0
 20
0.0
 30
0.0
  0
VERTEX
  5
2F0
330
2EF
100
AcDbEntity
  8
BEMA_UNG
 62
     7
100
AcDbVertex
100
AcDb2dVertex
 10
-97.22083098456675
 20
-19.85168681070264
 30
0.0
  0
VERTEX
  5
2F1
330
2EF
100
AcDbEntity
  8
BEMA_UNG
 62
     7
100
AcDbVertex
100
AcDb2dVertex
 10
-96.80741925361134
 20
-19.85168681070264
 30
0.0
  0
SEQEND
  5
2F2
330
2EF
100
AcDbEntity
  8
BEMA_UNG
  0
POLYLINE
  5
2F3
330
1F
100
AcDbEntity
  8
BEMA_UNG
 62
     7
100
AcDb2dPolyline
 66
     1
 10
0.0
 20
0.0
 30
0.0
  0
VERTEX
  5
2F4
330
2F3
100
AcDbEntity
  8
BEMA_UNG
 62
     7
100
AcDbVertex
100
AcDb2dVertex
 10
-97.22083098456675
 20
-19.8008716187727
 30
0.0
  0
VERTEX
  5
2F5
330
2F3
100
AcDbEntity
  8
BEMA_UNG
 62
     7
100
AcDbVertex
100
AcDb2dVertex
 10
-96.42174055960753
 20
-19.8008716187727
 30
0.0
  0
SEQEND
  5
2F6
330
2F3
100
AcDbEntity
  8
BEMA_UNG
  0
POLYLINE
  5
2F7
330
1F
100
AcDbEntity
  8
BEMA_UNG
 62
     7
100
AcDb2dPolyline
 66
     1
 10
0.0
 20
0.0
 30
0.0
  0
VERTEX
  5
2F8
330
2F7
100
AcDbEntity
  8
BEMA_UNG
 62
     7
100
AcDbVertex
100
AcDb2dVertex
 10
-97.22083098456675
 20
-19.75005642684277
 30
0.0
  0
VERTEX
  5
2F9
330
2F7
100
AcDbEntity
  8
BEMA_UNG
 62
     7
100
AcDbVertex
100
AcDb2dVertex
 10
-96.03554510094003
 20
-19.75005642684277
 30
0.0
  0
SEQEND
  5
2FA
330
2F7
100
AcDbEntity
  8
BEMA_UNG
  0
POLYLINE
  5
2FB
330
1F
100
AcDbEntity
  8
BEMA_UNG
 62
     7
100
AcDb2dPolyline
 66
     1
 10
0.0
 20
0.0
 30
0.0
  0
VERTEX
  5
2FC
330
2FB
100
AcDbEntity
  8
BEMA_UNG
 62
     7
100
AcDbVertex
100
AcDb2dVertex
 10
-97.22083098456675
 20
-19.69924123491283
 30
0.0
  0
VERTEX
  5
2FD
330
2FB
100
AcDbEntity
  8
BEMA_UNG
 62
     7
100
AcDbVertex
100
AcDb2dVertex
 10
-95.65021091671201
 20
-19.69924123491283
 30
0.0
  0
SEQEND
  5
2FE
330
2FB
100
AcDbEntity
  8
BEMA_UNG
  0
POLYLINE
  5
2FF
330
1F
100
AcDbEntity
  8
BEMA_UNG
 62
     7
100
AcDb2dPolyline
 66
     1
 10
0.0
 20
0.0
 30
0.0
  0
VERTEX
  5
300
330
2FF
100
AcDbEntity
  8
BEMA_UNG
 62
     7
100
AcDbVertex
100
AcDb2dVertex
 10
-97.22083098456675
 20
-19.6484260429829
 30
0.0
  0
VERTEX
  5
301
330
2FF
100
AcDbEntity
  8
BEMA_UNG
 62
     7
100
AcDbVertex
100
AcDb2dVertex
 10
-95.26401545804451
 20
-19.6484260429829
 30
0.0
  0
SEQEND
  5
302
330
2FF
100
AcDbEntity
  8
BEMA_UNG
  0
POLYLINE
  5
303
330
1F
100
AcDbEntity
  8
BEMA_UNG
 62
     7
100
AcDb2dPolyline
 66
     1
 10
0.0
 20
0.0
 30
0.0
  0
VERTEX
  5
304
330
303
100
AcDbEntity
  8
BEMA_UNG
 62
     7
100
AcDbVertex
100
AcDb2dVertex
 10
-97.22083098456675
 20
-19.59761085105296
 30
0.0
  0
VERTEX
  5
305
330
303
100
AcDbEntity
  8
BEMA_UNG
 62
     7
100
AcDbVertex
100
AcDb2dVertex
 10
-94.8783367640407
 20
-19.59761085105296
 30
0.0
  0
SEQEND
  5
306
330
303
100
AcDbEntity
  8
BEMA_UNG
  0
POLYLINE
  5
307
330
1F
100
AcDbEntity
  8
BEMA_UNG
 62
     7
100
AcDb2dPolyline
 66
     1
 10
0.0
 20
0.0
 30
0.0
  0
VERTEX
  5
308
330
307
100
AcDbEntity
  8
BEMA_UNG
 62
     7
100
AcDbVertex
100
AcDb2dVertex
 10
-97.22083098456675
 20
-19.54679565912303
 30
0.0
  0
VERTEX
  5
309
330
307
100
AcDbEntity
  8
BEMA_UNG
 62
     7
100
AcDbVertex
100
AcDb2dVertex
 10
-94.4921413053732
 20
-19.54679565912303
 30
0.0
  0
SEQEND
  5
30A
330
307
100
AcDbEntity
  8
BEMA_UNG
  0
POLYLINE
  5
30B
330
1F
100
AcDbEntity
  8
BEMA_UNG
 62
     7
100
AcDb2dPolyline
 66
     1
 10
0.0
 20
0.0
 30
0.0
  0
VERTEX
  5
30C
330
30B
100
AcDbEntity
  8
BEMA_UNG
 62
     7
100
AcDbVertex
100
AcDb2dVertex
 10
-97.22083098456675
 20
-19.49598046719309
 30
0.0
  0
VERTEX
  5
30D
330
30B
100
AcDbEntity
  8
BEMA_UNG
 62
     7
100
AcDbVertex
100
AcDb2dVertex
 10
-94.10611810159358
 20
-19.49598046719309
 30
0.0
  0
SEQEND
  5
30E
330
30B
100
AcDbEntity
  8
BEMA_UNG
  0
POLYLINE
  5
30F
330
1F
100
AcDbEntity
  8
BEMA_UNG
 62
     7
100
AcDb2dPolyline
 66
     1
 10
0.0
 20
0.0
 30
0.0
  0
VERTEX
  5
310
330
30F
100
AcDbEntity
  8
BEMA_UNG
 62
     7
100
AcDbVertex
100
AcDb2dVertex
 10
-97.22083098456675
 20
-19.44516527526316
 30
0.0
  0
VERTEX
  5
311
330
30F
100
AcDbEntity
  8
BEMA_UNG
 62
     7
100
AcDbVertex
100
AcDb2dVertex
 10
-93.72061166247767
 20
-19.44516527526316
 30
0.0
  0
SEQEND
  5
312
330
30F
100
AcDbEntity
  8
BEMA_UNG
  0
POLYLINE
  5
313
330
1F
100
AcDbEntity
  8
BEMA_UNG
 62
     7
100
AcDb2dPolyline
 66
     1
 10
0.0
 20
0.0
 30
0.0
  0
VERTEX
  5
314
330
313
100
AcDbEntity
  8
BEMA_UNG
 62
     7
100
AcDbVertex
100
AcDb2dVertex
 10
-40.04874467164093
 20
0.136770380991079
 30
0.0
  0
VERTEX
  5
315
330
313
100
AcDbEntity
  8
BEMA_UNG
 62
     7
100
AcDbVertex
100
AcDb2dVertex
 10
-40.04874467164093
 20
-11.7713822742914
 30
0.0
  0
SEQEND
  5
316
330
313
100
AcDbEntity
  8
BEMA_UNG
  0
POLYLINE
  5
317
330
1F
100
AcDbEntity
  8
BEMA_UNG
 62
     7
100
AcDb2dPolyline
 66
     1
 10
0.0
 20
0.0
 30
0.0
  0
VERTEX
  5
318
330
317
100
AcDbEntity
  8
BEMA_UNG
 62
     7
100
AcDbVertex
100
AcDb2dVertex
 10
-14.04893640207987
 20
0.136770380991079
 30
0.0
  0
VERTEX
  5
319
330
317
100
AcDbEntity
  8
BEMA_UNG
 62
     7
100
AcDbVertex
100
AcDb2dVertex
 10
-14.04893640207987
 20
-11.7713822742914
 30
0.0
  0
SEQEND
  5
31A
330
317
100
AcDbEntity
  8
BEMA_UNG
  0
POLYLINE
  5
31B
330
1F
100
AcDbEntity
  8
BEMA_UNG
 62
     7
100
AcDb2dPolyline
 66
     1
 10
0.0
 20
0.0
 30
0.0
  0
VERTEX
  5
31C
330
31B
100
AcDbEntity
  8
BEMA_UNG
 62
     7
100
AcDbVertex
100
AcDb2dVertex
 10
-40.04874467164093
 20
-9.771503025794635
 30
0.0
  0
VERTEX
  5
31D
330
31B
100
AcDbEntity
  8
BEMA_UNG
 62
     7
100
AcDbVertex
100
AcDb2dVertex
 10
-14.04893640207987
 20
-9.771503025794635
 30
0.0
  0
SEQEND
  5
31E
330
31B
100
AcDbEntity
  8
BEMA_UNG
  0
POLYLINE
  5
31F
330
1F
100
AcDbEntity
  8
BEMA_UNG
 62
     7
100
AcDb2dPolyline
 66
     1
 10
0.0
 20
0.0
 30
0.0
  0
VERTEX
  5
320
330
31F
100
AcDbEntity
  8
BEMA_UNG
 62
     7
100
AcDbVertex
100
AcDb2dVertex
 10
-40.04874467164093
 20
-9.771503025794635
 30
0.0
  0
VERTEX
  5
321
330
31F
100
AcDbEntity
  8
BEMA_UNG
 62
     7
100
AcDbVertex
100
AcDb2dVertex
 10
-36.54886985932765
 20
-10.23262936069781
 30
0.0
  0
VERTEX
  5
322
330
31F
100
AcDbEntity
  8
BEMA_UNG
 62
     7
100
AcDbVertex
100
AcDb2dVertex
 10
-36.54886985932765
 20
-9.311065710443055
 30
0.0
  0
VERTEX
  5
323
330
31F
100
AcDbEntity
  8
BEMA_UNG
 62
     7
100
AcDbVertex
100
AcDb2dVertex
 10
-40.04874467164093
 20
-9.771503025794635
 30
0.0
  0
SEQEND
  5
324
330
31F
100
AcDbEntity
  8
BEMA_UNG
  0
POLYLINE
  5
325
330
1F
100
AcDbEntity
  8
BEMA_UNG
 62
     7
100
AcDb2dPolyline
 66
     1
 10
0.0
 20
0.0
 30
0.0
  0
VERTEX
  5
326
330
325
100
AcDbEntity
  8
BEMA_UNG
 62
     7
100
AcDbVertex
100
AcDb2dVertex
 10
-36.54886985932765
 20
-10.22901200805195
 30
0.0
  0
VERTEX
  5
327
330
325
100
AcDbEntity
  8
BEMA_UNG
 62
     7
100
AcDbVertex
100
AcDb2dVertex
 10
-36.57591387672765
 20
-10.22901200805195
 30
0.0
  0
SEQEND
  5
328
330
325
100
AcDbEntity
  8
BEMA_UNG
  0
POLYLINE
  5
329
330
1F
100
AcDbEntity
  8
BEMA_UNG
 62
     7
100
AcDb2dPolyline
 66
     1
 10
0.0
 20
0.0
 30
0.0
  0
VERTEX
  5
32A
330
329
100
AcDbEntity
  8
BEMA_UNG
 62
     7
100
AcDbVertex
100
AcDb2dVertex
 10
-36.54886985932765
 20
-10.22901200805195
 30
0.0
  0
VERTEX
  5
32B
330
329
100
AcDbEntity
  8
BEMA_UNG
 62
     7
100
AcDbVertex
100
AcDb2dVertex
 10
-36.57591387672765
 20
-10.22901200805195
 30
0.0
  0
SEQEND
  5
32C
330
329
100
AcDbEntity
  8
BEMA_UNG
  0
POLYLINE
  5
32D
330
1F
100
AcDbEntity
  8
BEMA_UNG
 62
     7
100
AcDb2dPolyline
 66
     1
 10
0.0
 20
0.0
 30
0.0
  0
VERTEX
  5
32E
330
32D
100
AcDbEntity
  8
BEMA_UNG
 62
     7
100
AcDbVertex
100
AcDb2dVertex
 10
-36.54886985932765
 20
-10.17819681612201
 30
0.0
  0
VERTEX
  5
32F
330
32D
100
AcDbEntity
  8
BEMA_UNG
 62
     7
100
AcDbVertex
100
AcDb2dVertex
 10
-36.96159257073146
 20
-10.17819681612201
 30
0.0
  0
SEQEND
  5
330
330
32D
100
AcDbEntity
  8
BEMA_UNG
  0
POLYLINE
  5
331
330
1F
100
AcDbEntity
  8
BEMA_UNG
 62
     7
100
AcDb2dPolyline
 66
     1
 10
0.0
 20
0.0
 30
0.0
  0
VERTEX
  5
332
330
331
100
AcDbEntity
  8
BEMA_UNG
 62
     7
100
AcDbVertex
100
AcDb2dVertex
 10
-36.54886985932765
 20
-10.12755387907998
 30
0.0
  0
VERTEX
  5
333
330
331
100
AcDbEntity
  8
BEMA_UNG
 62
     7
100
AcDbVertex
100
AcDb2dVertex
 10
-37.34778802939897
 20
-10.12755387907998
 30
0.0
  0
SEQEND
  5
334
330
331
100
AcDbEntity
  8
BEMA_UNG
  0
POLYLINE
  5
335
330
1F
100
AcDbEntity
  8
BEMA_UNG
 62
     7
100
AcDb2dPolyline
 66
     1
 10
0.0
 20
0.0
 30
0.0
  0
VERTEX
  5
336
330
335
100
AcDbEntity
  8
BEMA_UNG
 62
     7
100
AcDbVertex
100
AcDb2dVertex
 10
-36.54886985932765
 20
-10.07622192248635
 30
0.0
  0
VERTEX
  5
337
330
335
100
AcDbEntity
  8
BEMA_UNG
 62
     7
100
AcDbVertex
100
AcDb2dVertex
 10
-37.73346672340278
 20
-10.07622192248635
 30
0.0
  0
SEQEND
  5
338
330
335
100
AcDbEntity
  8
BEMA_UNG
  0
POLYLINE
  5
339
330
1F
100
AcDbEntity
  8
BEMA_UNG
 62
     7
100
AcDb2dPolyline
 66
     1
 10
0.0
 20
0.0
 30
0.0
  0
VERTEX
  5
33A
330
339
100
AcDbEntity
  8
BEMA_UNG
 62
     7
100
AcDbVertex
100
AcDb2dVertex
 10
-36.54886985932765
 20
-10.02557898544431
 30
0.0
  0
VERTEX
  5
33B
330
339
100
AcDbEntity
  8
BEMA_UNG
 62
     7
100
AcDbVertex
100
AcDb2dVertex
 10
-38.11966218207029
 20
-10.02557898544431
 30
0.0
  0
SEQEND
  5
33C
330
339
100
AcDbEntity
  8
BEMA_UNG
  0
POLYLINE
  5
33D
330
1F
100
AcDbEntity
  8
BEMA_UNG
 62
     7
100
AcDb2dPolyline
 66
     1
 10
0.0
 20
0.0
 30
0.0
  0
VERTEX
  5
33E
330
33D
100
AcDbEntity
  8
BEMA_UNG
 62
     7
100
AcDbVertex
100
AcDb2dVertex
 10
-36.54886985932765
 20
-9.974591538626477
 30
0.0
  0
VERTEX
  5
33F
330
33D
100
AcDbEntity
  8
BEMA_UNG
 62
     7
100
AcDbVertex
100
AcDb2dVertex
 10
-38.5053408760741
 20
-9.974591538626477
 30
0.0
  0
SEQEND
  5
340
330
33D
100
AcDbEntity
  8
BEMA_UNG
  0
POLYLINE
  5
341
330
1F
100
AcDbEntity
  8
BEMA_UNG
 62
     7
100
AcDb2dPolyline
 66
     1
 10
0.0
 20
0.0
 30
0.0
  0
VERTEX
  5
342
330
341
100
AcDbEntity
  8
BEMA_UNG
 62
     7
100
AcDbVertex
100
AcDb2dVertex
 10
-36.54886985932765
 20
-9.92394860158444
 30
0.0
  0
VERTEX
  5
343
330
341
100
AcDbEntity
  8
BEMA_UNG
 62
     7
100
AcDbVertex
100
AcDb2dVertex
 10
-38.89119182496581
 20
-9.92394860158444
 30
0.0
  0
SEQEND
  5
344
330
341
100
AcDbEntity
  8
BEMA_UNG
  0
POLYLINE
  5
345
330
1F
100
AcDbEntity
  8
BEMA_UNG
 62
     7
100
AcDb2dPolyline
 66
     1
 10
0.0
 20
0.0
 30
0.0
  0
VERTEX
  5
346
330
345
100
AcDbEntity
  8
BEMA_UNG
 62
     7
100
AcDbVertex
100
AcDb2dVertex
 10
-36.54886985932765
 20
-9.873133409654505
 30
0.0
  0
VERTEX
  5
347
330
345
100
AcDbEntity
  8
BEMA_UNG
 62
     7
100
AcDbVertex
100
AcDb2dVertex
 10
-39.27687051896962
 20
-9.873133409654505
 30
0.0
  0
SEQEND
  5
348
330
345
100
AcDbEntity
  8
BEMA_UNG
  0
POLYLINE
  5
349
330
1F
100
AcDbEntity
  8
BEMA_UNG
 62
     7
100
AcDb2dPolyline
 66
     1
 10
0.0
 20
0.0
 30
0.0
  0
VERTEX
  5
34A
330
349
100
AcDbEntity
  8
BEMA_UNG
 62
     7
100
AcDbVertex
100
AcDb2dVertex
 10
-36.54886985932765
 20
-9.82231821772457
 30
0.0
  0
VERTEX
  5
34B
330
349
100
AcDbEntity
  8
BEMA_UNG
 62
     7
100
AcDbVertex
100
AcDb2dVertex
 10
-39.66306597763712
 20
-9.82231821772457
 30
0.0
  0
SEQEND
  5
34C
330
349
100
AcDbEntity
  8
BEMA_UNG
  0
POLYLINE
  5
34D
330
1F
100
AcDbEntity
  8
BEMA_UNG
 62
     7
100
AcDb2dPolyline
 66
     1
 10
0.0
 20
0.0
 30
0.0
  0
VERTEX
  5
34E
330
34D
100
AcDbEntity
  8
BEMA_UNG
 62
     7
100
AcDbVertex
100
AcDb2dVertex
 10
-36.54886985932765
 20
-9.771503025794635
 30
0.0
  0
VERTEX
  5
34F
330
34D
100
AcDbEntity
  8
BEMA_UNG
 62
     7
100
AcDbVertex
100
AcDb2dVertex
 10
-40.04874467164093
 20
-9.771503025794635
 30
0.0
  0
SEQEND
  5
350
330
34D
100
AcDbEntity
  8
BEMA_UNG
  0
POLYLINE
  5
351
330
1F
100
AcDbEntity
  8
BEMA_UNG
 62
     7
100
AcDb2dPolyline
 66
     1
 10
0.0
 20
0.0
 30
0.0
  0
VERTEX
  5
352
330
351
100
AcDbEntity
  8
BEMA_UNG
 62
     7
100
AcDbVertex
100
AcDb2dVertex
 10
-36.54886985932765
 20
-9.314683063088916
 30
0.0
  0
VERTEX
  5
353
330
351
100
AcDbEntity
  8
BEMA_UNG
 62
     7
100
AcDbVertex
100
AcDb2dVertex
 10
-36.57591387672765
 20
-9.314683063088916
 30
0.0
  0
SEQEND
  5
354
330
351
100
AcDbEntity
  8
BEMA_UNG
  0
POLYLINE
  5
355
330
1F
100
AcDbEntity
  8
BEMA_UNG
 62
     7
100
AcDb2dPolyline
 66
     1
 10
0.0
 20
0.0
 30
0.0
  0
VERTEX
  5
356
330
355
100
AcDbEntity
  8
BEMA_UNG
 62
     7
100
AcDbVertex
100
AcDb2dVertex
 10
-36.54886985932765
 20
-9.314683063088916
 30
0.0
  0
VERTEX
  5
357
330
355
100
AcDbEntity
  8
BEMA_UNG
 62
     7
100
AcDbVertex
100
AcDb2dVertex
 10
-36.57591387672765
 20
-9.314683063088916
 30
0.0
  0
SEQEND
  5
358
330
355
100
AcDbEntity
  8
BEMA_UNG
  0
POLYLINE
  5
359
330
1F
100
AcDbEntity
  8
BEMA_UNG
 62
     7
100
AcDb2dPolyline
 66
     1
 10
0.0
 20
0.0
 30
0.0
  0
VERTEX
  5
35A
330
359
100
AcDbEntity
  8
BEMA_UNG
 62
     7
100
AcDbVertex
100
AcDb2dVertex
 10
-36.54886985932765
 20
-9.36549825501885
 30
0.0
  0
VERTEX
  5
35B
330
359
100
AcDbEntity
  8
BEMA_UNG
 62
     7
100
AcDbVertex
100
AcDb2dVertex
 10
-36.96159257073146
 20
-9.36549825501885
 30
0.0
  0
SEQEND
  5
35C
330
359
100
AcDbEntity
  8
BEMA_UNG
  0
POLYLINE
  5
35D
330
1F
100
AcDbEntity
  8
BEMA_UNG
 62
     7
100
AcDb2dPolyline
 66
     1
 10
0.0
 20
0.0
 30
0.0
  0
VERTEX
  5
35E
330
35D
100
AcDbEntity
  8
BEMA_UNG
 62
     7
100
AcDbVertex
100
AcDb2dVertex
 10
-36.54886985932765
 20
-9.416141192060888
 30
0.0
  0
VERTEX
  5
35F
330
35D
100
AcDbEntity
  8
BEMA_UNG
 62
     7
100
AcDbVertex
100
AcDb2dVertex
 10
-37.34778802939897
 20
-9.416141192060888
 30
0.0
  0
SEQEND
  5
360
330
35D
100
AcDbEntity
  8
BEMA_UNG
  0
POLYLINE
  5
361
330
1F
100
AcDbEntity
  8
BEMA_UNG
 62
     7
100
AcDb2dPolyline
 66
     1
 10
0.0
 20
0.0
 30
0.0
  0
VERTEX
  5
362
330
361
100
AcDbEntity
  8
BEMA_UNG
 62
     7
100
AcDbVertex
100
AcDb2dVertex
 10
-36.54886985932765
 20
-9.46712863887872
 30
0.0
  0
VERTEX
  5
363
330
361
100
AcDbEntity
  8
BEMA_UNG
 62
     7
100
AcDbVertex
100
AcDb2dVertex
 10
-37.73346672340278
 20
-9.46712863887872
 30
0.0
  0
SEQEND
  5
364
330
361
100
AcDbEntity
  8
BEMA_UNG
  0
POLYLINE
  5
365
330
1F
100
AcDbEntity
  8
BEMA_UNG
 62
     7
100
AcDb2dPolyline
 66
     1
 10
0.0
 20
0.0
 30
0.0
  0
VERTEX
  5
366
330
365
100
AcDbEntity
  8
BEMA_UNG
 62
     7
100
AcDbVertex
100
AcDb2dVertex
 10
-36.54886985932765
 20
-9.517771575920756
 30
0.0
  0
VERTEX
  5
367
330
365
100
AcDbEntity
  8
BEMA_UNG
 62
     7
100
AcDbVertex
100
AcDb2dVertex
 10
-38.11966218207029
 20
-9.517771575920756
 30
0.0
  0
SEQEND
  5
368
330
365
100
AcDbEntity
  8
BEMA_UNG
  0
POLYLINE
  5
369
330
1F
100
AcDbEntity
  8
BEMA_UNG
 62
     7
100
AcDb2dPolyline
 66
     1
 10
0.0
 20
0.0
 30
0.0
  0
VERTEX
  5
36A
330
369
100
AcDbEntity
  8
BEMA_UNG
 62
     7
100
AcDbVertex
100
AcDb2dVertex
 10
-36.54886985932765
 20
-9.56875902273859
 30
0.0
  0
VERTEX
  5
36B
330
369
100
AcDbEntity
  8
BEMA_UNG
 62
     7
100
AcDbVertex
100
AcDb2dVertex
 10
-38.5053408760741
 20
-9.56875902273859
 30
0.0
  0
SEQEND
  5
36C
330
369
100
AcDbEntity
  8
BEMA_UNG
  0
POLYLINE
  5
36D
330
1F
100
AcDbEntity
  8
BEMA_UNG
 62
     7
100
AcDb2dPolyline
 66
     1
 10
0.0
 20
0.0
 30
0.0
  0
VERTEX
  5
36E
330
36D
100
AcDbEntity
  8
BEMA_UNG
 62
     7
100
AcDbVertex
100
AcDb2dVertex
 10
-36.54886985932765
 20
-9.61905745000483
 30
0.0
  0
VERTEX
  5
36F
330
36D
100
AcDbEntity
  8
BEMA_UNG
 62
     7
100
AcDbVertex
100
AcDb2dVertex
 10
-38.89119182496581
 20
-9.61905745000483
 30
0.0
  0
SEQEND
  5
370
330
36D
100
AcDbEntity
  8
BEMA_UNG
  0
POLYLINE
  5
371
330
1F
100
AcDbEntity
  8
BEMA_UNG
 62
     7
100
AcDb2dPolyline
 66
     1
 10
0.0
 20
0.0
 30
0.0
  0
VERTEX
  5
372
330
371
100
AcDbEntity
  8
BEMA_UNG
 62
     7
100
AcDbVertex
100
AcDb2dVertex
 10
-36.54886985932765
 20
-9.669872641934765
 30
0.0
  0
VERTEX
  5
373
330
371
100
AcDbEntity
  8
BEMA_UNG
 62
     7
100
AcDbVertex
100
AcDb2dVertex
 10
-39.27687051896962
 20
-9.669872641934765
 30
0.0
  0
SEQEND
  5
374
330
371
100
AcDbEntity
  8
BEMA_UNG
  0
POLYLINE
  5
375
330
1F
100
AcDbEntity
  8
BEMA_UNG
 62
     7
100
AcDb2dPolyline
 66
     1
 10
0.0
 20
0.0
 30
0.0
  0
VERTEX
  5
376
330
375
100
AcDbEntity
  8
BEMA_UNG
 62
     7
100
AcDbVertex
100
AcDb2dVertex
 10
-36.54886985932765
 20
-9.7206878338647
 30
0.0
  0
VERTEX
  5
377
330
375
100
AcDbEntity
  8
BEMA_UNG
 62
     7
100
AcDbVertex
100
AcDb2dVertex
 10
-39.66306597763712
 20
-9.7206878338647
 30
0.0
  0
SEQEND
  5
378
330
375
100
AcDbEntity
  8
BEMA_UNG
  0
POLYLINE
  5
379
330
1F
100
AcDbEntity
  8
BEMA_UNG
 62
     7
100
AcDb2dPolyline
 66
     1
 10
0.0
 20
0.0
 30
0.0
  0
VERTEX
  5
37A
330
379
100
AcDbEntity
  8
BEMA_UNG
 62
     7
100
AcDbVertex
100
AcDb2dVertex
 10
-36.54886985932765
 20
-9.771503025794635
 30
0.0
  0
VERTEX
  5
37B
330
379
100
AcDbEntity
  8
BEMA_UNG
 62
     7
100
AcDbVertex
100
AcDb2dVertex
 10
-40.04874467164093
 20
-9.771503025794635
 30
0.0
  0
SEQEND
  5
37C
330
379
100
AcDbEntity
  8
BEMA_UNG
  0
POLYLINE
  5
37D
330
1F
100
AcDbEntity
  8
BEMA_UNG
 62
     7
100
AcDb2dPolyline
 66
     1
 10
0.0
 20
0.0
 30
0.0
  0
VERTEX
  5
37E
330
37D
100
AcDbEntity
  8
BEMA_UNG
 62
     7
100
AcDbVertex
100
AcDb2dVertex
 10
-14.04893640207987
 20
-9.771503025794635
 30
0.0
  0
VERTEX
  5
37F
330
37D
100
AcDbEntity
  8
BEMA_UNG
 62
     7
100
AcDbVertex
100
AcDb2dVertex
 10
-17.54846670461735
 20
-9.311065710443055
 30
0.0
  0
VERTEX
  5
380
330
37D
100
AcDbEntity
  8
BEMA_UNG
 62
     7
100
AcDbVertex
100
AcDb2dVertex
 10
-17.54846670461735
 20
-10.23262936069781
 30
0.0
  0
VERTEX
  5
381
330
37D
100
AcDbEntity
  8
BEMA_UNG
 62
     7
100
AcDbVertex
100
AcDb2dVertex
 10
-14.04893640207987
 20
-9.771503025794635
 30
0.0
  0
SEQEND
  5
382
330
37D
100
AcDbEntity
  8
BEMA_UNG
  0
POLYLINE
  5
383
330
1F
100
AcDbEntity
  8
BEMA_UNG
 62
     7
100
AcDb2dPolyline
 66
     1
 10
0.0
 20
0.0
 30
0.0
  0
VERTEX
  5
384
330
383
100
AcDbEntity
  8
BEMA_UNG
 62
     7
100
AcDbVertex
100
AcDb2dVertex
 10
-17.54846670461735
 20
-9.314683063088916
 30
0.0
  0
VERTEX
  5
385
330
383
100
AcDbEntity
  8
BEMA_UNG
 62
     7
100
AcDbVertex
100
AcDb2dVertex
 10
-17.52125043232945
 20
-9.314683063088916
 30
0.0
  0
SEQEND
  5
386
330
383
100
AcDbEntity
  8
BEMA_UNG
  0
POLYLINE
  5
387
330
1F
100
AcDbEntity
  8
BEMA_UNG
 62
     7
100
AcDb2dPolyline
 66
     1
 10
0.0
 20
0.0
 30
0.0
  0
VERTEX
  5
388
330
387
100
AcDbEntity
  8
BEMA_UNG
 62
     7
100
AcDbVertex
100
AcDb2dVertex
 10
-17.54846670461735
 20
-9.314683063088916
 30
0.0
  0
VERTEX
  5
389
330
387
100
AcDbEntity
  8
BEMA_UNG
 62
     7
100
AcDbVertex
100
AcDb2dVertex
 10
-17.52125043232945
 20
-9.314683063088916
 30
0.0
  0
SEQEND
  5
38A
330
387
100
AcDbEntity
  8
BEMA_UNG
  0
POLYLINE
  5
38B
330
1F
100
AcDbEntity
  8
BEMA_UNG
 62
     7
100
AcDb2dPolyline
 66
     1
 10
0.0
 20
0.0
 30
0.0
  0
VERTEX
  5
38C
330
38B
100
AcDbEntity
  8
BEMA_UNG
 62
     7
100
AcDbVertex
100
AcDb2dVertex
 10
-17.54846670461735
 20
-9.36549825501885
 30
0.0
  0
VERTEX
  5
38D
330
38B
100
AcDbEntity
  8
BEMA_UNG
 62
     7
100
AcDbVertex
100
AcDb2dVertex
 10
-17.13574399321354
 20
-9.36549825501885
 30
0.0
  0
SEQEND
  5
38E
330
38B
100
AcDbEntity
  8
BEMA_UNG
  0
POLYLINE
  5
38F
330
1F
100
AcDbEntity
  8
BEMA_UNG
 62
     7
100
AcDb2dPolyline
 66
     1
 10
0.0
 20
0.0
 30
0.0
  0
VERTEX
  5
390
330
38F
100
AcDbEntity
  8
BEMA_UNG
 62
     7
100
AcDbVertex
100
AcDb2dVertex
 10
-17.54846670461735
 20
-9.416141192060888
 30
0.0
  0
VERTEX
  5
391
330
38F
100
AcDbEntity
  8
BEMA_UNG
 62
     7
100
AcDbVertex
100
AcDb2dVertex
 10
-16.74989304432183
 20
-9.416141192060888
 30
0.0
  0
SEQEND
  5
392
330
38F
100
AcDbEntity
  8
BEMA_UNG
  0
POLYLINE
  5
393
330
1F
100
AcDbEntity
  8
BEMA_UNG
 62
     7
100
AcDb2dPolyline
 66
     1
 10
0.0
 20
0.0
 30
0.0
  0
VERTEX
  5
394
330
393
100
AcDbEntity
  8
BEMA_UNG
 62
     7
100
AcDbVertex
100
AcDb2dVertex
 10
-17.54846670461735
 20
-9.46712863887872
 30
0.0
  0
VERTEX
  5
395
330
393
100
AcDbEntity
  8
BEMA_UNG
 62
     7
100
AcDbVertex
100
AcDb2dVertex
 10
-16.36352533076643
 20
-9.46712863887872
 30
0.0
  0
SEQEND
  5
396
330
393
100
AcDbEntity
  8
BEMA_UNG
  0
POLYLINE
  5
397
330
1F
100
AcDbEntity
  8
BEMA_UNG
 62
     7
100
AcDb2dPolyline
 66
     1
 10
0.0
 20
0.0
 30
0.0
  0
VERTEX
  5
398
330
397
100
AcDbEntity
  8
BEMA_UNG
 62
     7
100
AcDbVertex
100
AcDb2dVertex
 10
-17.54846670461735
 20
-9.517771575920756
 30
0.0
  0
VERTEX
  5
399
330
397
100
AcDbEntity
  8
BEMA_UNG
 62
     7
100
AcDbVertex
100
AcDb2dVertex
 10
-15.97784663676262
 20
-9.517771575920756
 30
0.0
  0
SEQEND
  5
39A
330
397
100
AcDbEntity
  8
BEMA_UNG
  0
POLYLINE
  5
39B
330
1F
100
AcDbEntity
  8
BEMA_UNG
 62
     7
100
AcDb2dPolyline
 66
     1
 10
0.0
 20
0.0
 30
0.0
  0
VERTEX
  5
39C
330
39B
100
AcDbEntity
  8
BEMA_UNG
 62
     7
100
AcDbVertex
100
AcDb2dVertex
 10
-17.54846670461735
 20
-9.56875902273859
 30
0.0
  0
VERTEX
  5
39D
330
39B
100
AcDbEntity
  8
BEMA_UNG
 62
     7
100
AcDbVertex
100
AcDb2dVertex
 10
-15.5923401976467
 20
-9.56875902273859
 30
0.0
  0
SEQEND
  5
39E
330
39B
100
AcDbEntity
  8
BEMA_UNG
  0
POLYLINE
  5
39F
330
1F
100
AcDbEntity
  8
BEMA_UNG
 62
     7
100
AcDb2dPolyline
 66
     1
 10
0.0
 20
0.0
 30
0.0
  0
VERTEX
  5
3A0
330
39F
100
AcDbEntity
  8
BEMA_UNG
 62
     7
100
AcDbVertex
100
AcDb2dVertex
 10
-17.54846670461735
 20
-9.61905745000483
 30
0.0
  0
VERTEX
  5
3A1
330
39F
100
AcDbEntity
  8
BEMA_UNG
 62
     7
100
AcDbVertex
100
AcDb2dVertex
 10
-15.20648924875499
 20
-9.61905745000483
 30
0.0
  0
SEQEND
  5
3A2
330
39F
100
AcDbEntity
  8
BEMA_UNG
  0
POLYLINE
  5
3A3
330
1F
100
AcDbEntity
  8
BEMA_UNG
 62
     7
100
AcDb2dPolyline
 66
     1
 10
0.0
 20
0.0
 30
0.0
  0
VERTEX
  5
3A4
330
3A3
100
AcDbEntity
  8
BEMA_UNG
 62
     7
100
AcDbVertex
100
AcDb2dVertex
 10
-17.54846670461735
 20
-9.669872641934765
 30
0.0
  0
VERTEX
  5
3A5
330
3A3
100
AcDbEntity
  8
BEMA_UNG
 62
     7
100
AcDbVertex
100
AcDb2dVertex
 10
-14.82012153519959
 20
-9.669872641934765
 30
0.0
  0
SEQEND
  5
3A6
330
3A3
100
AcDbEntity
  8
BEMA_UNG
  0
POLYLINE
  5
3A7
330
1F
100
AcDbEntity
  8
BEMA_UNG
 62
     7
100
AcDb2dPolyline
 66
     1
 10
0.0
 20
0.0
 30
0.0
  0
VERTEX
  5
3A8
330
3A7
100
AcDbEntity
  8
BEMA_UNG
 62
     7
100
AcDbVertex
100
AcDb2dVertex
 10
-17.54846670461735
 20
-9.7206878338647
 30
0.0
  0
VERTEX
  5
3A9
330
3A7
100
AcDbEntity
  8
BEMA_UNG
 62
     7
100
AcDbVertex
100
AcDb2dVertex
 10
-14.43409833141998
 20
-9.7206878338647
 30
0.0
  0
SEQEND
  5
3AA
330
3A7
100
AcDbEntity
  8
BEMA_UNG
  0
POLYLINE
  5
3AB
330
1F
100
AcDbEntity
  8
BEMA_UNG
 62
     7
100
AcDb2dPolyline
 66
     1
 10
0.0
 20
0.0
 30
0.0
  0
VERTEX
  5
3AC
330
3AB
100
AcDbEntity
  8
BEMA_UNG
 62
     7
100
AcDbVertex
100
AcDb2dVertex
 10
-17.54846670461735
 20
-9.771503025794635
 30
0.0
  0
VERTEX
  5
3AD
330
3AB
100
AcDbEntity
  8
BEMA_UNG
 62
     7
100
AcDbVertex
100
AcDb2dVertex
 10
-14.04893640207987
 20
-9.771503025794635
 30
0.0
  0
SEQEND
  5
3AE
330
3AB
100
AcDbEntity
  8
BEMA_UNG
  0
POLYLINE
  5
3AF
330
1F
100
AcDbEntity
  8
BEMA_UNG
 62
     7
100
AcDb2dPolyline
 66
     1
 10
0.0
 20
0.0
 30
0.0
  0
VERTEX
  5
3B0
330
3AF
100
AcDbEntity
  8
BEMA_UNG
 62
     7
100
AcDbVertex
100
AcDb2dVertex
 10
-17.54846670461735
 20
-10.22901200805195
 30
0.0
  0
VERTEX
  5
3B1
330
3AF
100
AcDbEntity
  8
BEMA_UNG
 62
     7
100
AcDbVertex
100
AcDb2dVertex
 10
-17.52125043232945
 20
-10.22901200805195
 30
0.0
  0
SEQEND
  5
3B2
330
3AF
100
AcDbEntity
  8
BEMA_UNG
  0
POLYLINE
  5
3B3
330
1F
100
AcDbEntity
  8
BEMA_UNG
 62
     7
100
AcDb2dPolyline
 66
     1
 10
0.0
 20
0.0
 30
0.0
  0
VERTEX
  5
3B4
330
3B3
100
AcDbEntity
  8
BEMA_UNG
 62
     7
100
AcDbVertex
100
AcDb2dVertex
 10
-17.54846670461735
 20
-10.22901200805195
 30
0.0
  0
VERTEX
  5
3B5
330
3B3
100
AcDbEntity
  8
BEMA_UNG
 62
     7
100
AcDbVertex
100
AcDb2dVertex
 10
-17.52125043232945
 20
-10.22901200805195
 30
0.0
  0
SEQEND
  5
3B6
330
3B3
100
AcDbEntity
  8
BEMA_UNG
  0
POLYLINE
  5
3B7
330
1F
100
AcDbEntity
  8
BEMA_UNG
 62
     7
100
AcDb2dPolyline
 66
     1
 10
0.0
 20
0.0
 30
0.0
  0
VERTEX
  5
3B8
330
3B7
100
AcDbEntity
  8
BEMA_UNG
 62
     7
100
AcDbVertex
100
AcDb2dVertex
 10
-17.54846670461735
 20
-10.17819681612201
 30
0.0
  0
VERTEX
  5
3B9
330
3B7
100
AcDbEntity
  8
BEMA_UNG
 62
     7
100
AcDbVertex
100
AcDb2dVertex
 10
-17.13574399321354
 20
-10.17819681612201
 30
0.0
  0
SEQEND
  5
3BA
330
3B7
100
AcDbEntity
  8
BEMA_UNG
  0
POLYLINE
  5
3BB
330
1F
100
AcDbEntity
  8
BEMA_UNG
 62
     7
100
AcDb2dPolyline
 66
     1
 10
0.0
 20
0.0
 30
0.0
  0
VERTEX
  5
3BC
330
3BB
100
AcDbEntity
  8
BEMA_UNG
 62
     7
100
AcDbVertex
100
AcDb2dVertex
 10
-17.54846670461735
 20
-10.12755387907998
 30
0.0
  0
VERTEX
  5
3BD
330
3BB
100
AcDbEntity
  8
BEMA_UNG
 62
     7
100
AcDbVertex
100
AcDb2dVertex
 10
-16.74989304432183
 20
-10.12755387907998
 30
0.0
  0
SEQEND
  5
3BE
330
3BB
100
AcDbEntity
  8
BEMA_UNG
  0
POLYLINE
  5
3BF
330
1F
100
AcDbEntity
  8
BEMA_UNG
 62
     7
100
AcDb2dPolyline
 66
     1
 10
0.0
 20
0.0
 30
0.0
  0
VERTEX
  5
3C0
330
3BF
100
AcDbEntity
  8
BEMA_UNG
 62
     7
100
AcDbVertex
100
AcDb2dVertex
 10
-17.54846670461735
 20
-10.07622192248635
 30
0.0
  0
VERTEX
  5
3C1
330
3BF
100
AcDbEntity
  8
BEMA_UNG
 62
     7
100
AcDbVertex
100
AcDb2dVertex
 10
-16.36352533076643
 20
-10.07622192248635
 30
0.0
  0
SEQEND
  5
3C2
330
3BF
100
AcDbEntity
  8
BEMA_UNG
  0
POLYLINE
  5
3C3
330
1F
100
AcDbEntity
  8
BEMA_UNG
 62
     7
100
AcDb2dPolyline
 66
     1
 10
0.0
 20
0.0
 30
0.0
  0
VERTEX
  5
3C4
330
3C3
100
AcDbEntity
  8
BEMA_UNG
 62
     7
100
AcDbVertex
100
AcDb2dVertex
 10
-17.54846670461735
 20
-10.02557898544431
 30
0.0
  0
VERTEX
  5
3C5
330
3C3
100
AcDbEntity
  8
BEMA_UNG
 62
     7
100
AcDbVertex
100
AcDb2dVertex
 10
-15.97784663676262
 20
-10.02557898544431
 30
0.0
  0
SEQEND
  5
3C6
330
3C3
100
AcDbEntity
  8
BEMA_UNG
  0
POLYLINE
  5
3C7
330
1F
100
AcDbEntity
  8
BEMA_UNG
 62
     7
100
AcDb2dPolyline
 66
     1
 10
0.0
 20
0.0
 30
0.0
  0
VERTEX
  5
3C8
330
3C7
100
AcDbEntity
  8
BEMA_UNG
 62
     7
100
AcDbVertex
100
AcDb2dVertex
 10
-17.54846670461735
 20
-9.974591538626477
 30
0.0
  0
VERTEX
  5
3C9
330
3C7
100
AcDbEntity
  8
BEMA_UNG
 62
     7
100
AcDbVertex
100
AcDb2dVertex
 10
-15.5923401976467
 20
-9.974591538626477
 30
0.0
  0
SEQEND
  5
3CA
330
3C7
100
AcDbEntity
  8
BEMA_UNG
  0
POLYLINE
  5
3CB
330
1F
100
AcDbEntity
  8
BEMA_UNG
 62
     7
100
AcDb2dPolyline
 66
     1
 10
0.0
 20
0.0
 30
0.0
  0
VERTEX
  5
3CC
330
3CB
100
AcDbEntity
  8
BEMA_UNG
 62
     7
100
AcDbVertex
100
AcDb2dVertex
 10
-17.54846670461735
 20
-9.92394860158444
 30
0.0
  0
VERTEX
  5
3CD
330
3CB
100
AcDbEntity
  8
BEMA_UNG
 62
     7
100
AcDbVertex
100
AcDb2dVertex
 10
-15.20648924875499
 20
-9.92394860158444
 30
0.0
  0
SEQEND
  5
3CE
330
3CB
100
AcDbEntity
  8
BEMA_UNG
  0
POLYLINE
  5
3CF
330
1F
100
AcDbEntity
  8
BEMA_UNG
 62
     7
100
AcDb2dPolyline
 66
     1
 10
0.0
 20
0.0
 30
0.0
  0
VERTEX
  5
3D0
330
3CF
100
AcDbEntity
  8
BEMA_UNG
 62
     7
100
AcDbVertex
100
AcDb2dVertex
 10
-17.54846670461735
 20
-9.873133409654505
 30
0.0
  0
VERTEX
  5
3D1
330
3CF
100
AcDbEntity
  8
BEMA_UNG
 62
     7
100
AcDbVertex
100
AcDb2dVertex
 10
-14.82012153519959
 20
-9.873133409654505
 30
0.0
  0
SEQEND
  5
3D2
330
3CF
100
AcDbEntity
  8
BEMA_UNG
  0
POLYLINE
  5
3D3
330
1F
100
AcDbEntity
  8
BEMA_UNG
 62
     7
100
AcDb2dPolyline
 66
     1
 10
0.0
 20
0.0
 30
0.0
  0
VERTEX
  5
3D4
330
3D3
100
AcDbEntity
  8
BEMA_UNG
 62
     7
100
AcDbVertex
100
AcDb2dVertex
 10
-17.54846670461735
 20
-9.82231821772457
 30
0.0
  0
VERTEX
  5
3D5
330
3D3
100
AcDbEntity
  8
BEMA_UNG
 62
     7
100
AcDbVertex
100
AcDb2dVertex
 10
-14.43409833141998
 20
-9.82231821772457
 30
0.0
  0
SEQEND
  5
3D6
330
3D3
100
AcDbEntity
  8
BEMA_UNG
  0
POLYLINE
  5
3D7
330
1F
100
AcDbEntity
  8
BEMA_UNG
 62
     7
100
AcDb2dPolyline
 66
     1
 10
0.0
 20
0.0
 30
0.0
  0
VERTEX
  5
3D8
330
3D7
100
AcDbEntity
  8
BEMA_UNG
 62
     7
100
AcDbVertex
100
AcDb2dVertex
 10
-17.54846670461735
 20
-9.771503025794635
 30
0.0
  0
VERTEX
  5
3D9
330
3D7
100
AcDbEntity
  8
BEMA_UNG
 62
     7
100
AcDbVertex
100
AcDb2dVertex
 10
-14.04893640207987
 20
-9.771503025794635
 30
0.0
  0
SEQEND
  5
3DA
330
3D7
100
AcDbEntity
  8
BEMA_UNG
  0
POLYLINE
  5
3DB
330
1F
100
AcDbEntity
  8
BEMA_UNG
 62
     7
100
AcDb2dPolyline
 66
     1
 10
0.0
 20
0.0
 30
0.0
  0
VERTEX
  5
3DC
330
3DB
100
AcDbEntity
  8
BEMA_UNG
 62
     7
100
AcDbVertex
100
AcDb2dVertex
 10
-14.04893640207987
 20
0.6369985754471162
 30
0.0
  0
VERTEX
  5
3DD
330
3DB
100
AcDbEntity
  8
BEMA_UNG
 62
     7
100
AcDbVertex
100
AcDb2dVertex
 10
12.00375411806591
 20
0.6369985754471162
 30
0.0
  0
SEQEND
  5
3DE
330
3DB
100
AcDbEntity
  8
BEMA_UNG
  0
POLYLINE
  5
3DF
330
1F
100
AcDbEntity
  8
BEMA_UNG
 62
     7
100
AcDb2dPolyline
 66
     1
 10
0.0
 20
0.0
 30
0.0
  0
VERTEX
  5
3E0
330
3DF
100
AcDbEntity
  8
BEMA_UNG
 62
     7
100
AcDbVertex
100
AcDb2dVertex
 10
-0.0485758783872598
 20
0.136770380991079
 30
0.0
  0
VERTEX
  5
3E1
330
3DF
100
AcDbEntity
  8
BEMA_UNG
 62
     7
100
AcDbVertex
100
AcDb2dVertex
 10
12.00375411806591
 20
0.136770380991079
 30
0.0
  0
SEQEND
  5
3E2
330
3DF
100
AcDbEntity
  8
BEMA_UNG
  0
POLYLINE
  5
3E3
330
1F
100
AcDbEntity
  8
BEMA_UNG
 62
     7
100
AcDb2dPolyline
 66
     1
 10
0.0
 20
0.0
 30
0.0
  0
VERTEX
  5
3E4
330
3E3
100
AcDbEntity
  8
BEMA_UNG
 62
     7
100
AcDbVertex
100
AcDb2dVertex
 10
10.00421937934495
 20
9.386857861118212
 30
0.0
  0
VERTEX
  5
3E5
330
3E3
100
AcDbEntity
  8
BEMA_UNG
 62
     7
100
AcDbVertex
100
AcDb2dVertex
 10
10.00421937934495
 20
-8.613261159567916
 30
0.0
  0
SEQEND
  5
3E6
330
3E3
100
AcDbEntity
  8
BEMA_UNG
  0
POLYLINE
  5
3E7
330
1F
100
AcDbEntity
  8
BEMA_UNG
 62
     7
100
AcDb2dPolyline
 66
     1
 10
0.0
 20
0.0
 30
0.0
  0
VERTEX
  5
3E8
330
3E7
100
AcDbEntity
  8
BEMA_UNG
 62
     7
100
AcDbVertex
100
AcDb2dVertex
 10
10.00421937934495
 20
0.6369985754471162
 30
0.0
  0
VERTEX
  5
3E9
330
3E7
100
AcDbEntity
  8
BEMA_UNG
 62
     7
100
AcDbVertex
100
AcDb2dVertex
 10
10.46500120447232
 20
4.137217897536192
 30
0.0
  0
VERTEX
  5
3EA
330
3E7
100
AcDbEntity
  8
BEMA_UNG
 62
     7
100
AcDbVertex
100
AcDb2dVertex
 10
9.543093044441775
 20
4.137217897536192
 30
0.0
  0
VERTEX
  5
3EB
330
3E7
100
AcDbEntity
  8
BEMA_UNG
 62
     7
100
AcDbVertex
100
AcDb2dVertex
 10
10.00421937934495
 20
0.6369985754471162
 30
0.0
  0
SEQEND
  5
3EC
330
3E7
100
AcDbEntity
  8
BEMA_UNG
  0
POLYLINE
  5
3ED
330
1F
100
AcDbEntity
  8
BEMA_UNG
 62
     7
100
AcDb2dPolyline
 66
     1
 10
0.0
 20
0.0
 30
0.0
  0
VERTEX
  5
3EE
330
3ED
100
AcDbEntity
  8
BEMA_UNG
 62
     7
100
AcDbVertex
100
AcDb2dVertex
 10
10.46138385182646
 20
4.137217897536192
 30
0.0
  0
VERTEX
  5
3EF
330
3ED
100
AcDbEntity
  8
BEMA_UNG
 62
     7
100
AcDbVertex
100
AcDb2dVertex
 10
10.46138385182646
 20
4.110001625248294
 30
0.0
  0
SEQEND
  5
3F0
330
3ED
100
AcDbEntity
  8
BEMA_UNG
  0
POLYLINE
  5
3F1
330
1F
100
AcDbEntity
  8
BEMA_UNG
 62
     7
100
AcDb2dPolyline
 66
     1
 10
0.0
 20
0.0
 30
0.0
  0
VERTEX
  5
3F2
330
3F1
100
AcDbEntity
  8
BEMA_UNG
 62
     7
100
AcDbVertex
100
AcDb2dVertex
 10
10.46138385182646
 20
4.137217897536192
 30
0.0
  0
VERTEX
  5
3F3
330
3F1
100
AcDbEntity
  8
BEMA_UNG
 62
     7
100
AcDbVertex
100
AcDb2dVertex
 10
10.46138385182646
 20
4.110001625248294
 30
0.0
  0
SEQEND
  5
3F4
330
3F1
100
AcDbEntity
  8
BEMA_UNG
  0
POLYLINE
  5
3F5
330
1F
100
AcDbEntity
  8
BEMA_UNG
 62
     7
100
AcDb2dPolyline
 66
     1
 10
0.0
 20
0.0
 30
0.0
  0
VERTEX
  5
3F6
330
3F5
100
AcDbEntity
  8
BEMA_UNG
 62
     7
100
AcDbVertex
100
AcDb2dVertex
 10
10.41022415012073
 20
4.137217897536192
 30
0.0
  0
VERTEX
  5
3F7
330
3F5
100
AcDbEntity
  8
BEMA_UNG
 62
     7
100
AcDbVertex
100
AcDb2dVertex
 10
10.41022415012073
 20
3.723806166580789
 30
0.0
  0
SEQEND
  5
3F8
330
3F5
100
AcDbEntity
  8
BEMA_UNG
  0
POLYLINE
  5
3F9
330
1F
100
AcDbEntity
  8
BEMA_UNG
 62
     7
100
AcDb2dPolyline
 66
     1
 10
0.0
 20
0.0
 30
0.0
  0
VERTEX
  5
3FA
330
3F9
100
AcDbEntity
  8
BEMA_UNG
 62
     7
100
AcDbVertex
100
AcDb2dVertex
 10
10.35992572285449
 20
4.137217897536192
 30
0.0
  0
VERTEX
  5
3FB
330
3F9
100
AcDbEntity
  8
BEMA_UNG
 62
     7
100
AcDbVertex
100
AcDb2dVertex
 10
10.35992572285449
 20
3.338299727464876
 30
0.0
  0
SEQEND
  5
3FC
330
3F9
100
AcDbEntity
  8
BEMA_UNG
  0
POLYLINE
  5
3FD
330
1F
100
AcDbEntity
  8
BEMA_UNG
 62
     7
100
AcDb2dPolyline
 66
     1
 10
0.0
 20
0.0
 30
0.0
  0
VERTEX
  5
3FE
330
3FD
100
AcDbEntity
  8
BEMA_UNG
 62
     7
100
AcDbVertex
100
AcDb2dVertex
 10
10.30893827603666
 20
4.137217897536192
 30
0.0
  0
VERTEX
  5
3FF
330
3FD
100
AcDbEntity
  8
BEMA_UNG
 62
     7
100
AcDbVertex
100
AcDb2dVertex
 10
10.30893827603666
 20
2.951932013909473
 30
0.0
  0
SEQEND
  5
400
330
3FD
100
AcDbEntity
  8
BEMA_UNG
  0
POLYLINE
  5
401
330
1F
100
AcDbEntity
  8
BEMA_UNG
 62
     7
100
AcDb2dPolyline
 66
     1
 10
0.0
 20
0.0
 30
0.0
  0
VERTEX
  5
402
330
401
100
AcDbEntity
  8
BEMA_UNG
 62
     7
100
AcDbVertex
100
AcDb2dVertex
 10
10.25829533899462
 20
4.137217897536192
 30
0.0
  0
VERTEX
  5
403
330
401
100
AcDbEntity
  8
BEMA_UNG
 62
     7
100
AcDbVertex
100
AcDb2dVertex
 10
10.25829533899462
 20
2.565908810129866
 30
0.0
  0
SEQEND
  5
404
330
401
100
AcDbEntity
  8
BEMA_UNG
  0
POLYLINE
  5
405
330
1F
100
AcDbEntity
  8
BEMA_UNG
 62
     7
100
AcDb2dPolyline
 66
     1
 10
0.0
 20
0.0
 30
0.0
  0
VERTEX
  5
406
330
405
100
AcDbEntity
  8
BEMA_UNG
 62
     7
100
AcDbVertex
100
AcDb2dVertex
 10
10.20730789217679
 20
4.137217897536192
 30
0.0
  0
VERTEX
  5
407
330
405
100
AcDbEntity
  8
BEMA_UNG
 62
     7
100
AcDbVertex
100
AcDb2dVertex
 10
10.20730789217679
 20
2.180402371013953
 30
0.0
  0
SEQEND
  5
408
330
405
100
AcDbEntity
  8
BEMA_UNG
  0
POLYLINE
  5
409
330
1F
100
AcDbEntity
  8
BEMA_UNG
 62
     7
100
AcDb2dPolyline
 66
     1
 10
0.0
 20
0.0
 30
0.0
  0
VERTEX
  5
40A
330
409
100
AcDbEntity
  8
BEMA_UNG
 62
     7
100
AcDbVertex
100
AcDb2dVertex
 10
10.15666495513475
 20
4.137217897536192
 30
0.0
  0
VERTEX
  5
40B
330
409
100
AcDbEntity
  8
BEMA_UNG
 62
     7
100
AcDbVertex
100
AcDb2dVertex
 10
10.15666495513475
 20
1.79489593189804
 30
0.0
  0
SEQEND
  5
40C
330
409
100
AcDbEntity
  8
BEMA_UNG
  0
POLYLINE
  5
40D
330
1F
100
AcDbEntity
  8
BEMA_UNG
 62
     7
100
AcDb2dPolyline
 66
     1
 10
0.0
 20
0.0
 30
0.0
  0
VERTEX
  5
40E
330
40D
100
AcDbEntity
  8
BEMA_UNG
 62
     7
100
AcDbVertex
100
AcDb2dVertex
 10
10.10584976320482
 20
4.137217897536192
 30
0.0
  0
VERTEX
  5
40F
330
40D
100
AcDbEntity
  8
BEMA_UNG
 62
     7
100
AcDbVertex
100
AcDb2dVertex
 10
10.10584976320482
 20
1.408528218342636
 30
0.0
  0
SEQEND
  5
410
330
40D
100
AcDbEntity
  8
BEMA_UNG
  0
POLYLINE
  5
411
330
1F
100
AcDbEntity
  8
BEMA_UNG
 62
     7
100
AcDb2dPolyline
 66
     1
 10
0.0
 20
0.0
 30
0.0
  0
VERTEX
  5
412
330
411
100
AcDbEntity
  8
BEMA_UNG
 62
     7
100
AcDbVertex
100
AcDb2dVertex
 10
10.05503457127488
 20
4.137217897536192
 30
0.0
  0
VERTEX
  5
413
330
411
100
AcDbEntity
  8
BEMA_UNG
 62
     7
100
AcDbVertex
100
AcDb2dVertex
 10
10.05503457127488
 20
1.022505014563029
 30
0.0
  0
SEQEND
  5
414
330
411
100
AcDbEntity
  8
BEMA_UNG
  0
POLYLINE
  5
415
330
1F
100
AcDbEntity
  8
BEMA_UNG
 62
     7
100
AcDb2dPolyline
 66
     1
 10
0.0
 20
0.0
 30
0.0
  0
VERTEX
  5
416
330
415
100
AcDbEntity
  8
BEMA_UNG
 62
     7
100
AcDbVertex
100
AcDb2dVertex
 10
10.00421937934495
 20
4.137217897536192
 30
0.0
  0
VERTEX
  5
417
330
415
100
AcDbEntity
  8
BEMA_UNG
 62
     7
100
AcDbVertex
100
AcDb2dVertex
 10
10.00421937934495
 20
0.6369985754471162
 30
0.0
  0
SEQEND
  5
418
330
415
100
AcDbEntity
  8
BEMA_UNG
  0
POLYLINE
  5
419
330
1F
100
AcDbEntity
  8
BEMA_UNG
 62
     7
100
AcDb2dPolyline
 66
     1
 10
0.0
 20
0.0
 30
0.0
  0
VERTEX
  5
41A
330
419
100
AcDbEntity
  8
BEMA_UNG
 62
     7
100
AcDbVertex
100
AcDb2dVertex
 10
9.546710397087635
 20
4.137217897536192
 30
0.0
  0
VERTEX
  5
41B
330
419
100
AcDbEntity
  8
BEMA_UNG
 62
     7
100
AcDbVertex
100
AcDb2dVertex
 10
9.546710397087635
 20
4.110001625248294
 30
0.0
  0
SEQEND
  5
41C
330
419
100
AcDbEntity
  8
BEMA_UNG
  0
POLYLINE
  5
41D
330
1F
100
AcDbEntity
  8
BEMA_UNG
 62
     7
100
AcDb2dPolyline
 66
     1
 10
0.0
 20
0.0
 30
0.0
  0
VERTEX
  5
41E
330
41D
100
AcDbEntity
  8
BEMA_UNG
 62
     7
100
AcDbVertex
100
AcDb2dVertex
 10
9.546710397087635
 20
4.137217897536192
 30
0.0
  0
VERTEX
  5
41F
330
41D
100
AcDbEntity
  8
BEMA_UNG
 62
     7
100
AcDbVertex
100
AcDb2dVertex
 10
9.546710397087635
 20
4.110001625248294
 30
0.0
  0
SEQEND
  5
420
330
41D
100
AcDbEntity
  8
BEMA_UNG
  0
POLYLINE
  5
421
330
1F
100
AcDbEntity
  8
BEMA_UNG
 62
     7
100
AcDb2dPolyline
 66
     1
 10
0.0
 20
0.0
 30
0.0
  0
VERTEX
  5
422
330
421
100
AcDbEntity
  8
BEMA_UNG
 62
     7
100
AcDbVertex
100
AcDb2dVertex
 10
9.59752558901757
 20
4.137217897536192
 30
0.0
  0
VERTEX
  5
423
330
421
100
AcDbEntity
  8
BEMA_UNG
 62
     7
100
AcDbVertex
100
AcDb2dVertex
 10
9.59752558901757
 20
3.723806166580789
 30
0.0
  0
SEQEND
  5
424
330
421
100
AcDbEntity
  8
BEMA_UNG
  0
POLYLINE
  5
425
330
1F
100
AcDbEntity
  8
BEMA_UNG
 62
     7
100
AcDb2dPolyline
 66
     1
 10
0.0
 20
0.0
 30
0.0
  0
VERTEX
  5
426
330
425
100
AcDbEntity
  8
BEMA_UNG
 62
     7
100
AcDbVertex
100
AcDb2dVertex
 10
9.6486852907233
 20
4.137217897536192
 30
0.0
  0
VERTEX
  5
427
330
425
100
AcDbEntity
  8
BEMA_UNG
 62
     7
100
AcDbVertex
100
AcDb2dVertex
 10
9.6486852907233
 20
3.338299727464876
 30
0.0
  0
SEQEND
  5
428
330
425
100
AcDbEntity
  8
BEMA_UNG
  0
POLYLINE
  5
429
330
1F
100
AcDbEntity
  8
BEMA_UNG
 62
     7
100
AcDb2dPolyline
 66
     1
 10
0.0
 20
0.0
 30
0.0
  0
VERTEX
  5
42A
330
429
100
AcDbEntity
  8
BEMA_UNG
 62
     7
100
AcDbVertex
100
AcDb2dVertex
 10
9.699500482653235
 20
4.137217897536192
 30
0.0
  0
VERTEX
  5
42B
330
429
100
AcDbEntity
  8
BEMA_UNG
 62
     7
100
AcDbVertex
100
AcDb2dVertex
 10
9.699500482653235
 20
2.951932013909473
 30
0.0
  0
SEQEND
  5
42C
330
429
100
AcDbEntity
  8
BEMA_UNG
  0
POLYLINE
  5
42D
330
1F
100
AcDbEntity
  8
BEMA_UNG
 62
     7
100
AcDb2dPolyline
 66
     1
 10
0.0
 20
0.0
 30
0.0
  0
VERTEX
  5
42E
330
42D
100
AcDbEntity
  8
BEMA_UNG
 62
     7
100
AcDbVertex
100
AcDb2dVertex
 10
9.750143419695272
 20
4.137217897536192
 30
0.0
  0
VERTEX
  5
42F
330
42D
100
AcDbEntity
  8
BEMA_UNG
 62
     7
100
AcDbVertex
100
AcDb2dVertex
 10
9.750143419695272
 20
2.565908810129866
 30
0.0
  0
SEQEND
  5
430
330
42D
100
AcDbEntity
  8
BEMA_UNG
  0
POLYLINE
  5
431
330
1F
100
AcDbEntity
  8
BEMA_UNG
 62
     7
100
AcDb2dPolyline
 66
     1
 10
0.0
 20
0.0
 30
0.0
  0
VERTEX
  5
432
330
431
100
AcDbEntity
  8
BEMA_UNG
 62
     7
100
AcDbVertex
100
AcDb2dVertex
 10
9.801130866513105
 20
4.137217897536192
 30
0.0
  0
VERTEX
  5
433
330
431
100
AcDbEntity
  8
BEMA_UNG
 62
     7
100
AcDbVertex
100
AcDb2dVertex
 10
9.801130866513105
 20
2.180402371013953
 30
0.0
  0
SEQEND
  5
434
330
431
100
AcDbEntity
  8
BEMA_UNG
  0
POLYLINE
  5
435
330
1F
100
AcDbEntity
  8
BEMA_UNG
 62
     7
100
AcDb2dPolyline
 66
     1
 10
0.0
 20
0.0
 30
0.0
  0
VERTEX
  5
436
330
435
100
AcDbEntity
  8
BEMA_UNG
 62
     7
100
AcDbVertex
100
AcDb2dVertex
 10
9.851773803555142
 20
4.137217897536192
 30
0.0
  0
VERTEX
  5
437
330
435
100
AcDbEntity
  8
BEMA_UNG
 62
     7
100
AcDbVertex
100
AcDb2dVertex
 10
9.851773803555142
 20
1.79489593189804
 30
0.0
  0
SEQEND
  5
438
330
435
100
AcDbEntity
  8
BEMA_UNG
  0
POLYLINE
  5
439
330
1F
100
AcDbEntity
  8
BEMA_UNG
 62
     7
100
AcDb2dPolyline
 66
     1
 10
0.0
 20
0.0
 30
0.0
  0
VERTEX
  5
43A
330
439
100
AcDbEntity
  8
BEMA_UNG
 62
     7
100
AcDbVertex
100
AcDb2dVertex
 10
9.902588995485077
 20
4.137217897536192
 30
0.0
  0
VERTEX
  5
43B
330
439
100
AcDbEntity
  8
BEMA_UNG
 62
     7
100
AcDbVertex
100
AcDb2dVertex
 10
9.902588995485077
 20
1.408528218342636
 30
0.0
  0
SEQEND
  5
43C
330
439
100
AcDbEntity
  8
BEMA_UNG
  0
POLYLINE
  5
43D
330
1F
100
AcDbEntity
  8
BEMA_UNG
 62
     7
100
AcDb2dPolyline
 66
     1
 10
0.0
 20
0.0
 30
0.0
  0
VERTEX
  5
43E
330
43D
100
AcDbEntity
  8
BEMA_UNG
 62
     7
100
AcDbVertex
100
AcDb2dVertex
 10
9.953404187415012
 20
4.137217897536192
 30
0.0
  0
VERTEX
  5
43F
330
43D
100
AcDbEntity
  8
BEMA_UNG
 62
     7
100
AcDbVertex
100
AcDb2dVertex
 10
9.953404187415012
 20
1.022505014563029
 30
0.0
  0
SEQEND
  5
440
330
43D
100
AcDbEntity
  8
BEMA_UNG
  0
POLYLINE
  5
441
330
1F
100
AcDbEntity
  8
BEMA_UNG
 62
     7
100
AcDb2dPolyline
 66
     1
 10
0.0
 20
0.0
 30
0.0
  0
VERTEX
  5
442
330
441
100
AcDbEntity
  8
BEMA_UNG
 62
     7
100
AcDbVertex
100
AcDb2dVertex
 10
10.00421937934495
 20
4.137217897536192
 30
0.0
  0
VERTEX
  5
443
330
441
100
AcDbEntity
  8
BEMA_UNG
 62
     7
100
AcDbVertex
100
AcDb2dVertex
 10
10.00421937934495
 20
0.6369985754471162
 30
0.0
  0
SEQEND
  5
444
330
441
100
AcDbEntity
  8
BEMA_UNG
  0
POLYLINE
  5
445
330
1F
100
AcDbEntity
  8
BEMA_UNG
 62
     7
100
AcDb2dPolyline
 66
     1
 10
0.0
 20
0.0
 30
0.0
  0
VERTEX
  5
446
330
445
100
AcDbEntity
  8
BEMA_UNG
 62
     7
100
AcDbVertex
100
AcDb2dVertex
 10
10.00421937934495
 20
0.136770380991079
 30
0.0
  0
VERTEX
  5
447
330
445
100
AcDbEntity
  8
BEMA_UNG
 62
     7
100
AcDbVertex
100
AcDb2dVertex
 10
9.543093044441775
 20
-3.362759921546404
 30
0.0
  0
VERTEX
  5
448
330
445
100
AcDbEntity
  8
BEMA_UNG
 62
     7
100
AcDbVertex
100
AcDb2dVertex
 10
10.46500120447232
 20
-3.362759921546404
 30
0.0
  0
VERTEX
  5
449
330
445
100
AcDbEntity
  8
BEMA_UNG
 62
     7
100
AcDbVertex
100
AcDb2dVertex
 10
10.00421937934495
 20
0.136770380991079
 30
0.0
  0
SEQEND
  5
44A
330
445
100
AcDbEntity
  8
BEMA_UNG
  0
POLYLINE
  5
44B
330
1F
100
AcDbEntity
  8
BEMA_UNG
 62
     7
100
AcDb2dPolyline
 66
     1
 10
0.0
 20
0.0
 30
0.0
  0
VERTEX
  5
44C
330
44B
100
AcDbEntity
  8
BEMA_UNG
 62
     7
100
AcDbVertex
100
AcDb2dVertex
 10
9.546710397087635
 20
-3.362759921546404
 30
0.0
  0
VERTEX
  5
44D
330
44B
100
AcDbEntity
  8
BEMA_UNG
 62
     7
100
AcDbVertex
100
AcDb2dVertex
 10
9.546710397087635
 20
-3.335543649258507
 30
0.0
  0
SEQEND
  5
44E
330
44B
100
AcDbEntity
  8
BEMA_UNG
  0
POLYLINE
  5
44F
330
1F
100
AcDbEntity
  8
BEMA_UNG
 62
     7
100
AcDb2dPolyline
 66
     1
 10
0.0
 20
0.0
 30
0.0
  0
VERTEX
  5
450
330
44F
100
AcDbEntity
  8
BEMA_UNG
 62
     7
100
AcDbVertex
100
AcDb2dVertex
 10
9.546710397087635
 20
-3.362759921546404
 30
0.0
  0
VERTEX
  5
451
330
44F
100
AcDbEntity
  8
BEMA_UNG
 62
     7
100
AcDbVertex
100
AcDb2dVertex
 10
9.546710397087635
 20
-3.335543649258507
 30
0.0
  0
SEQEND
  5
452
330
44F
100
AcDbEntity
  8
BEMA_UNG
  0
POLYLINE
  5
453
330
1F
100
AcDbEntity
  8
BEMA_UNG
 62
     7
100
AcDb2dPolyline
 66
     1
 10
0.0
 20
0.0
 30
0.0
  0
VERTEX
  5
454
330
453
100
AcDbEntity
  8
BEMA_UNG
 62
     7
100
AcDbVertex
100
AcDb2dVertex
 10
9.59752558901757
 20
-3.362759921546404
 30
0.0
  0
VERTEX
  5
455
330
453
100
AcDbEntity
  8
BEMA_UNG
 62
     7
100
AcDbVertex
100
AcDb2dVertex
 10
9.59752558901757
 20
-2.950037210142594
 30
0.0
  0
SEQEND
  5
456
330
453
100
AcDbEntity
  8
BEMA_UNG
  0
POLYLINE
  5
457
330
1F
100
AcDbEntity
  8
BEMA_UNG
 62
     7
100
AcDb2dPolyline
 66
     1
 10
0.0
 20
0.0
 30
0.0
  0
VERTEX
  5
458
330
457
100
AcDbEntity
  8
BEMA_UNG
 62
     7
100
AcDbVertex
100
AcDb2dVertex
 10
9.6486852907233
 20
-3.362759921546404
 30
0.0
  0
VERTEX
  5
459
330
457
100
AcDbEntity
  8
BEMA_UNG
 62
     7
100
AcDbVertex
100
AcDb2dVertex
 10
9.6486852907233
 20
-2.563841751475088
 30
0.0
  0
SEQEND
  5
45A
330
457
100
AcDbEntity
  8
BEMA_UNG
  0
POLYLINE
  5
45B
330
1F
100
AcDbEntity
  8
BEMA_UNG
 62
     7
100
AcDb2dPolyline
 66
     1
 10
0.0
 20
0.0
 30
0.0
  0
VERTEX
  5
45C
330
45B
100
AcDbEntity
  8
BEMA_UNG
 62
     7
100
AcDbVertex
100
AcDb2dVertex
 10
9.699500482653235
 20
-3.362759921546404
 30
0.0
  0
VERTEX
  5
45D
330
45B
100
AcDbEntity
  8
BEMA_UNG
 62
     7
100
AcDbVertex
100
AcDb2dVertex
 10
9.699500482653235
 20
-2.178507567247074
 30
0.0
  0
SEQEND
  5
45E
330
45B
100
AcDbEntity
  8
BEMA_UNG
  0
POLYLINE
  5
45F
330
1F
100
AcDbEntity
  8
BEMA_UNG
 62
     7
100
AcDb2dPolyline
 66
     1
 10
0.0
 20
0.0
 30
0.0
  0
VERTEX
  5
460
330
45F
100
AcDbEntity
  8
BEMA_UNG
 62
     7
100
AcDbVertex
100
AcDb2dVertex
 10
9.750143419695272
 20
-3.362759921546404
 30
0.0
  0
VERTEX
  5
461
330
45F
100
AcDbEntity
  8
BEMA_UNG
 62
     7
100
AcDbVertex
100
AcDb2dVertex
 10
9.750143419695272
 20
-1.79213985369167
 30
0.0
  0
SEQEND
  5
462
330
45F
100
AcDbEntity
  8
BEMA_UNG
  0
POLYLINE
  5
463
330
1F
100
AcDbEntity
  8
BEMA_UNG
 62
     7
100
AcDb2dPolyline
 66
     1
 10
0.0
 20
0.0
 30
0.0
  0
VERTEX
  5
464
330
463
100
AcDbEntity
  8
BEMA_UNG
 62
     7
100
AcDbVertex
100
AcDb2dVertex
 10
9.801130866513105
 20
-3.362759921546404
 30
0.0
  0
VERTEX
  5
465
330
463
100
AcDbEntity
  8
BEMA_UNG
 62
     7
100
AcDbVertex
100
AcDb2dVertex
 10
9.801130866513105
 20
-1.406633414575757
 30
0.0
  0
SEQEND
  5
466
330
463
100
AcDbEntity
  8
BEMA_UNG
  0
POLYLINE
  5
467
330
1F
100
AcDbEntity
  8
BEMA_UNG
 62
     7
100
AcDb2dPolyline
 66
     1
 10
0.0
 20
0.0
 30
0.0
  0
VERTEX
  5
468
330
467
100
AcDbEntity
  8
BEMA_UNG
 62
     7
100
AcDbVertex
100
AcDb2dVertex
 10
9.851773803555142
 20
-3.362759921546404
 30
0.0
  0
VERTEX
  5
469
330
467
100
AcDbEntity
  8
BEMA_UNG
 62
     7
100
AcDbVertex
100
AcDb2dVertex
 10
9.851773803555142
 20
-1.020437955908252
 30
0.0
  0
SEQEND
  5
46A
330
467
100
AcDbEntity
  8
BEMA_UNG
  0
POLYLINE
  5
46B
330
1F
100
AcDbEntity
  8
BEMA_UNG
 62
     7
100
AcDb2dPolyline
 66
     1
 10
0.0
 20
0.0
 30
0.0
  0
VERTEX
  5
46C
330
46B
100
AcDbEntity
  8
BEMA_UNG
 62
     7
100
AcDbVertex
100
AcDb2dVertex
 10
9.902588995485077
 20
-3.362759921546404
 30
0.0
  0
VERTEX
  5
46D
330
46B
100
AcDbEntity
  8
BEMA_UNG
 62
     7
100
AcDbVertex
100
AcDb2dVertex
 10
9.902588995485077
 20
-0.6347592619044411
 30
0.0
  0
SEQEND
  5
46E
330
46B
100
AcDbEntity
  8
BEMA_UNG
  0
POLYLINE
  5
46F
330
1F
100
AcDbEntity
  8
BEMA_UNG
 62
     7
100
AcDb2dPolyline
 66
     1
 10
0.0
 20
0.0
 30
0.0
  0
VERTEX
  5
470
330
46F
100
AcDbEntity
  8
BEMA_UNG
 62
     7
100
AcDbVertex
100
AcDb2dVertex
 10
9.953404187415012
 20
-3.362759921546404
 30
0.0
  0
VERTEX
  5
471
330
46F
100
AcDbEntity
  8
BEMA_UNG
 62
     7
100
AcDbVertex
100
AcDb2dVertex
 10
9.953404187415012
 20
-0.2487360581248339
 30
0.0
  0
SEQEND
  5
472
330
46F
100
AcDbEntity
  8
BEMA_UNG
  0
POLYLINE
  5
473
330
1F
100
AcDbEntity
  8
BEMA_UNG
 62
     7
100
AcDb2dPolyline
 66
     1
 10
0.0
 20
0.0
 30
0.0
  0
VERTEX
  5
474
330
473
100
AcDbEntity
  8
BEMA_UNG
 62
     7
100
AcDbVertex
100
AcDb2dVertex
 10
10.00421937934495
 20
-3.362759921546404
 30
0.0
  0
VERTEX
  5
475
330
473
100
AcDbEntity
  8
BEMA_UNG
 62
     7
100
AcDbVertex
100
AcDb2dVertex
 10
10.00421937934495
 20
0.136770380991079
 30
0.0
  0
SEQEND
  5
476
330
473
100
AcDbEntity
  8
BEMA_UNG
  0
POLYLINE
  5
477
330
1F
100
AcDbEntity
  8
BEMA_UNG
 62
     7
100
AcDb2dPolyline
 66
     1
 10
0.0
 20
0.0
 30
0.0
  0
VERTEX
  5
478
330
477
100
AcDbEntity
  8
BEMA_UNG
 62
     7
100
AcDbVertex
100
AcDb2dVertex
 10
10.46138385182646
 20
-3.362759921546404
 30
0.0
  0
VERTEX
  5
479
330
477
100
AcDbEntity
  8
BEMA_UNG
 62
     7
100
AcDbVertex
100
AcDb2dVertex
 10
10.46138385182646
 20
-3.335543649258507
 30
0.0
  0
SEQEND
  5
47A
330
477
100
AcDbEntity
  8
BEMA_UNG
  0
POLYLINE
  5
47B
330
1F
100
AcDbEntity
  8
BEMA_UNG
 62
     7
100
AcDb2dPolyline
 66
     1
 10
0.0
 20
0.0
 30
0.0
  0
VERTEX
  5
47C
330
47B
100
AcDbEntity
  8
BEMA_UNG
 62
     7
100
AcDbVertex
100
AcDb2dVertex
 10
10.46138385182646
 20
-3.362759921546404
 30
0.0
  0
VERTEX
  5
47D
330
47B
100
AcDbEntity
  8
BEMA_UNG
 62
     7
100
AcDbVertex
100
AcDb2dVertex
 10
10.46138385182646
 20
-3.335543649258507
 30
0.0
  0
SEQEND
  5
47E
330
47B
100
AcDbEntity
  8
BEMA_UNG
  0
POLYLINE
  5
47F
330
1F
100
AcDbEntity
  8
BEMA_UNG
 62
     7
100
AcDb2dPolyline
 66
     1
 10
0.0
 20
0.0
 30
0.0
  0
VERTEX
  5
480
330
47F
100
AcDbEntity
  8
BEMA_UNG
 62
     7
100
AcDbVertex
100
AcDb2dVertex
 10
10.41022415012073
 20
-3.362759921546404
 30
0.0
  0
VERTEX
  5
481
330
47F
100
AcDbEntity
  8
BEMA_UNG
 62
     7
100
AcDbVertex
100
AcDb2dVertex
 10
10.41022415012073
 20
-2.950037210142594
 30
0.0
  0
SEQEND
  5
482
330
47F
100
AcDbEntity
  8
BEMA_UNG
  0
POLYLINE
  5
483
330
1F
100
AcDbEntity
  8
BEMA_UNG
 62
     7
100
AcDb2dPolyline
 66
     1
 10
0.0
 20
0.0
 30
0.0
  0
VERTEX
  5
484
330
483
100
AcDbEntity
  8
BEMA_UNG
 62
     7
100
AcDbVertex
100
AcDb2dVertex
 10
10.35992572285449
 20
-3.362759921546404
 30
0.0
  0
VERTEX
  5
485
330
483
100
AcDbEntity
  8
BEMA_UNG
 62
     7
100
AcDbVertex
100
AcDb2dVertex
 10
10.35992572285449
 20
-2.563841751475088
 30
0.0
  0
SEQEND
  5
486
330
483
100
AcDbEntity
  8
BEMA_UNG
  0
POLYLINE
  5
487
330
1F
100
AcDbEntity
  8
BEMA_UNG
 62
     7
100
AcDb2dPolyline
 66
     1
 10
0.0
 20
0.0
 30
0.0
  0
VERTEX
  5
488
330
487
100
AcDbEntity
  8
BEMA_UNG
 62
     7
100
AcDbVertex
100
AcDb2dVertex
 10
10.30893827603666
 20
-3.362759921546404
 30
0.0
  0
VERTEX
  5
489
330
487
100
AcDbEntity
  8
BEMA_UNG
 62
     7
100
AcDbVertex
100
AcDb2dVertex
 10
10.30893827603666
 20
-2.178507567247074
 30
0.0
  0
SEQEND
  5
48A
330
487
100
AcDbEntity
  8
BEMA_UNG
  0
POLYLINE
  5
48B
330
1F
100
AcDbEntity
  8
BEMA_UNG
 62
     7
100
AcDb2dPolyline
 66
     1
 10
0.0
 20
0.0
 30
0.0
  0
VERTEX
  5
48C
330
48B
100
AcDbEntity
  8
BEMA_UNG
 62
     7
100
AcDbVertex
100
AcDb2dVertex
 10
10.25829533899462
 20
-3.362759921546404
 30
0.0
  0
VERTEX
  5
48D
330
48B
100
AcDbEntity
  8
BEMA_UNG
 62
     7
100
AcDbVertex
100
AcDb2dVertex
 10
10.25829533899462
 20
-1.79213985369167
 30
0.0
  0
SEQEND
  5
48E
330
48B
100
AcDbEntity
  8
BEMA_UNG
  0
POLYLINE
  5
48F
330
1F
100
AcDbEntity
  8
BEMA_UNG
 62
     7
100
AcDb2dPolyline
 66
     1
 10
0.0
 20
0.0
 30
0.0
  0
VERTEX
  5
490
330
48F
100
AcDbEntity
  8
BEMA_UNG
 62
     7
100
AcDbVertex
100
AcDb2dVertex
 10
10.20730789217679
 20
-3.362759921546404
 30
0.0
  0
VERTEX
  5
491
330
48F
100
AcDbEntity
  8
BEMA_UNG
 62
     7
100
AcDbVertex
100
AcDb2dVertex
 10
10.20730789217679
 20
-1.406633414575757
 30
0.0
  0
SEQEND
  5
492
330
48F
100
AcDbEntity
  8
BEMA_UNG
  0
POLYLINE
  5
493
330
1F
100
AcDbEntity
  8
BEMA_UNG
 62
     7
100
AcDb2dPolyline
 66
     1
 10
0.0
 20
0.0
 30
0.0
  0
VERTEX
  5
494
330
493
100
AcDbEntity
  8
BEMA_UNG
 62
     7
100
AcDbVertex
100
AcDb2dVertex
 10
10.15666495513475
 20
-3.362759921546404
 30
0.0
  0
VERTEX
  5
495
330
493
100
AcDbEntity
  8
BEMA_UNG
 62
     7
100
AcDbVertex
100
AcDb2dVertex
 10
10.15666495513475
 20
-1.020437955908252
 30
0.0
  0
SEQEND
  5
496
330
493
100
AcDbEntity
  8
BEMA_UNG
  0
POLYLINE
  5
497
330
1F
100
AcDbEntity
  8
BEMA_UNG
 62
     7
100
AcDb2dPolyline
 66
     1
 10
0.0
 20
0.0
 30
0.0
  0
VERTEX
  5
498
330
497
100
AcDbEntity
  8
BEMA_UNG
 62
     7
100
AcDbVertex
100
AcDb2dVertex
 10
10.10584976320482
 20
-3.362759921546404
 30
0.0
  0
VERTEX
  5
499
330
497
100
AcDbEntity
  8
BEMA_UNG
 62
     7
100
AcDbVertex
100
AcDb2dVertex
 10
10.10584976320482
 20
-0.6347592619044411
 30
0.0
  0
SEQEND
  5
49A
330
497
100
AcDbEntity
  8
BEMA_UNG
  0
POLYLINE
  5
49B
330
1F
100
AcDbEntity
  8
BEMA_UNG
 62
     7
100
AcDb2dPolyline
 66
     1
 10
0.0
 20
0.0
 30
0.0
  0
VERTEX
  5
49C
330
49B
100
AcDbEntity
  8
BEMA_UNG
 62
     7
100
AcDbVertex
100
AcDb2dVertex
 10
10.05503457127488
 20
-3.362759921546404
 30
0.0
  0
VERTEX
  5
49D
330
49B
100
AcDbEntity
  8
BEMA_UNG
 62
     7
100
AcDbVertex
100
AcDb2dVertex
 10
10.05503457127488
 20
-0.2487360581248339
 30
0.0
  0
SEQEND
  5
49E
330
49B
100
AcDbEntity
  8
BEMA_UNG
  0
POLYLINE
  5
49F
330
1F
100
AcDbEntity
  8
BEMA_UNG
 62
     7
100
AcDb2dPolyline
 66
     1
 10
0.0
 20
0.0
 30
0.0
  0
VERTEX
  5
4A0
330
49F
100
AcDbEntity
  8
BEMA_UNG
 62
     7
100
AcDbVertex
100
AcDb2dVertex
 10
10.00421937934495
 20
-3.362759921546404
 30
0.0
  0
VERTEX
  5
4A1
330
49F
100
AcDbEntity
  8
BEMA_UNG
 62
     7
100
AcDbVertex
100
AcDb2dVertex
 10
10.00421937934495
 20
0.136770380991079
 30
0.0
  0
SEQEND
  5
4A2
330
49F
100
AcDbEntity
  8
BEMA_UNG
  0
MTEXT
  5
4A4
330
1F
100
AcDbEntity
  8
TEXT
 62
     7
100
AcDbMText
 10
-81.4886198179468
 20
4.772493924104327
 30
0.0
 40
3.311188396084465
 41
0.0
 71
     7
 72
     1
  1
\fINDEX Univers 45 Light|b0|i0|c0|p34;\W1;12
 11
-4.371139000186241E-8
 21
0.999999999999999
 31
0.0
  0
MTEXT
  5
4A5
330
1F
100
AcDbEntity
  8
TEXT
 62
     7
100
AcDbMText
 10
-81.37751541525253
 20
-58.30414543619202
 30
0.0
 40
3.311188396084465
 41
0.0
 71
     7
 72
     1
  1
\fINDEX Univers 45 Light|b0|i0|c0|p34;\W1;54
 11
-4.371139000186241E-8
 21
0.999999999999999
 31
0.0
  0
MTEXT
  5
4A6
330
1F
100
AcDbEntity
  8
TEXT
 62
     7
100
AcDbMText
 10
-150.8484284692137
 20
-17.15400301133074
 30
0.0
 40
3.311188396084465
 41
0.0
 71
     7
 72
     1
  1
\fINDEX Univers 45 Light|b0|i0|c0|p34;\W1;110
  0
MTEXT
  5
4A7
330
1F
100
AcDbEntity
  8
TEXT
 62
     7
100
AcDbMText
 10
-28.72195226301449
 20
-7.47982399719852
 30
0.0
 40
3.311188396084465
 41
0.0
 71
     7
 72
     1
  1
\fINDEX Univers 45 Light|b0|i0|c0|p34;\W1;26
  0
MTEXT
  5
4A8
330
1F
100
AcDbEntity
  8
TEXT
 62
     7
100
AcDbMText
 10
7.712540350748832
 20
-1.814188479342625
 30
0.0
 40
3.311188396084465
 41
0.0
 71
     7
 72
     1
  1
\fINDEX Univers 45 Light|b0|i0|c0|p34;\W1;0,5
 11
-4.371139000186241E-8
 21
0.999999999999999
 31
0.0
  0
ENDSEC
  0
SECTION
  2
OBJECTS
  0
DICTIONARY
  5
C
330
0
100
AcDbDictionary
  3
ACAD_GROUP
350
D
  3
ACAD_LAYOUT
350
1A
  3
ACAD_MLINESTYLE
350
17
  3
ACAD_PLOTSETTINGS
350
19
  3
ACAD_TABLESTYLE
350
4C9
  3
ACAD_VISUALSTYLE
350
2A
  3
ACDBHEADERROUNDTRIPXREC
350
4A9
  0
DICTIONARY
  5
D
102
{ACAD_REACTORS
330
C
102
}
330
C
100
AcDbDictionary
  0
DICTIONARY
  5
1A
102
{ACAD_REACTORS
330
C
102
}
330
C
100
AcDbDictionary
  0
DICTIONARY
  5
17
102
{ACAD_REACTORS
330
C
102
}
330
C
100
AcDbDictionary
  3
STANDARD
350
18
  0
DICTIONARY
  5
19
102
{ACAD_REACTORS
330
C
102
}
330
C
100
AcDbDictionary
  0
DICTIONARY
  5
4C9
102
{ACAD_REACTORS
330
C
102
}
330
C
100
AcDbDictionary
  0
DICTIONARY
  5
2A
102
{ACAD_REACTORS
330
C
102
}
330
C
100
AcDbDictionary
  3
2DWIREFRAME
350
2F
  3
3D_HIDDEN
350
31
  3
3DWIREFRAME
350
30
  3
BASIC
350
32
  3
BRIGHTEN
350
36
  3
COLORCHANGE
350
3A
  3
CONCEPTUAL
350
34
  3
DIM
350
35
  3
FACEPATTERN
350
39
  3
FLAT
350
2B
  3
FLATWITHEDGES
350
2C
  3
GOURAUD
350
2D
  3
GOURAUDWITHEDGES
350
2E
  3
LINEPATTERN
350
38
  3
REALISTIC
350
33
  3
THICKEN
350
37
  0
DICTIONARY
  5
4A9
102
{ACAD_REACTORS
330
C
102
}
330
C
100
AcDbDictionary
  3
CEPSNTYPE
350
4B2
  3
DIMSTYLEDATA
350
4C8
  3
FINGERPRINTGUID
350
4B3
  3
HYPERLINKBASE
350
4AC
  3
INSUNITS
350
4B1
  3
LAYOUTDICT
350
4AE
  3
LWETCUNION
350
4B0
  3
PLOTSETDICT
350
4AF
  3
PSVPSCALE
350
4B5
  3
PUCSBASE
350
4B8
  3
PUCSORGBACK
350
4BE
  3
PUCSORGBOTTOM
350
4BA
  3
PUCSORGFRONT
350
4BD
  3
PUCSORGLEFT
350
4BB
  3
PUCSORGRIGHT
350
4BC
  3
PUCSORGTOP
350
4B9
  3
PUCSORTHOREF
350
4B6
  3
PUCSORTHOVIEW
350
4B7
  3
STYLESHEET
350
4AD
  3
TSTACKALIGN
350
4AA
  3
TSTACKSIZE
350
4AB
  3
UCSBASE
350
4C1
  3
UCSORGBACK
350
4C7
  3
UCSORGBOTTOM
350
4C3
  3
UCSORGFRONT
350
4C6
  3
UCSORGLEFT
350
4C4
  3
UCSORGRIGHT
350
4C5
  3
UCSORGTOP
350
4C2
  3
UCSORTHOREF
350
4BF
  3
UCSORTHOVIEW
350
4C0
  3
VERSIONGUID
350
4B4
  0
MLINESTYLE
  5
18
102
{ACAD_REACTORS
330
17
102
}
330
17
100
AcDbMlineStyle
  2
Standard
 70
     0
  3

 62
   256
 51
90.0
 52
90.0
 71
     2
 49
0.5
 62
   256
  6
BYLAYER
 49
-0.5
 62
   256
  6
BYLAYER
  0
VISUALSTYLE
  5
2F
102
{ACAD_REACTORS
330
2A
102
}
330
2A
100
AcDbVisualStyle
  2
2dWireframe
 70
     4
 71
     0
 72
     2
 73
     0
 90
        0
 40
-0.6
 41
-30.0
 62
     5
 63
     7
 74
     1
 91
        4
 64
     7
 65
   257
 75
     1
175
     1
 42
1.0
 92
        0
 66
   257
 43
1.0
 76
     1
 77
     6
 78
     2
 67
     7
 79
     5
170
     0
171
     0
290
     0
174
     0
 93
        1
 44
0.0
173
     0
291
     0
 45
0.0
1001
ACAD
1000
AcDbSavedByObjectVersion
1070
     0
  0
VISUALSTYLE
  5
31
102
{ACAD_REACTORS
330
2A
102
}
330
2A
100
AcDbVisualStyle
  2
3D Hidden
 70
     6
 71
     1
 72
     2
 73
     2
 90
        0
 40
-0.6
 41
-30.0
 62
     5
 63
     7
 74
     2
 91
        2
 64
     7
 65
   257
 75
     2
175
     1
 42
40.0
 92
        0
 66
   257
 43
1.0
 76
     1
 77
     6
 78
     2
 67
     7
 79
     3
170
     0
171
     0
290
     0
174
     0
 93
        1
 44
0.0
173
     0
291
     0
 45
0.0
1001
ACAD
1000
AcDbSavedByObjectVersion
1070
     0
  0
VISUALSTYLE
  5
30
102
{ACAD_REACTORS
330
2A
102
}
330
2A
100
AcDbVisualStyle
  2
3dWireframe
 70
     5
 71
     0
 72
     2
 73
     0
 90
        0
 40
-0.6
 41
-30.0
 62
     5
 63
     7
 74
     1
 91
        4
 64
     7
 65
   257
 75
     1
175
     1
 42
1.0
 92
        0
 66
   257
 43
1.0
 76
     1
 77
     6
 78
     2
 67
     7
 79
     5
170
     0
171
     0
290
     0
174
     0
 93
        1
 44
0.0
173
     0
291
     0
 45
0.0
1001
ACAD
1000
AcDbSavedByObjectVersion
1070
     0
  0
VISUALSTYLE
  5
32
102
{ACAD_REACTORS
330
2A
102
}
330
2A
100
AcDbVisualStyle
  2
Basic
 70
     7
 71
     1
 72
     0
 73
     1
 90
        0
 40
-0.6
 41
-30.0
 62
     5
 63
     7
 74
     0
 91
        4
 64
     7
 65
   257
 75
     1
175
     1
 42
1.0
 92
        8
 66
     7
 43
1.0
 76
     1
 77
     6
 78
     2
 67
     7
 79
     5
170
     0
171
     0
290
     0
174
     0
 93
        1
 44
0.0
173
     0
291
     1
 45
0.0
1001
ACAD
1000
AcDbSavedByObjectVersion
1070
     0
  0
VISUALSTYLE
  5
36
102
{ACAD_REACTORS
330
2A
102
}
330
2A
100
AcDbVisualStyle
  2
Brighten
 70
    12
 71
     2
 72
     2
 73
     0
 90
        0
 40
-0.6
 41
-30.0
 62
     5
 63
     7
 74
     1
 91
        4
 64
     7
 65
   257
 75
     1
175
     1
 42
1.0
 92
        8
 66
     7
 43
1.0
 76
     1
 77
     6
 78
     2
 67
     7
 79
     5
170
     0
171
     0
290
     0
174
     0
 93
        1
 44
50.0
173
     0
291
     1
 45
0.0
1001
ACAD
1000
AcDbSavedByObjectVersion
1070
     0
  0
VISUALSTYLE
  5
3A
102
{ACAD_REACTORS
330
2A
102
}
330
2A
100
AcDbVisualStyle
  2
ColorChange
 70
    16
 71
     2
 72
     2
 73
     3
 90
        0
 40
-0.6
 41
-30.0
 62
     5
 63
     8
 74
     1
 91
        4
 64
     7
 65
   257
 75
     1
175
     1
 42
1.0
 92
        8
 66
     8
 43
1.0
 76
     1
 77
     6
 78
     2
 67
     7
 79
     5
170
     0
171
     0
290
     0
174
     0
 93
        1
 44
0.0
173
     0
291
     1
 45
0.0
1001
ACAD
1000
AcDbSavedByObjectVersion
1070
     0
  0
VISUALSTYLE
  5
34
102
{ACAD_REACTORS
330
2A
102
}
330
2A
100
AcDbVisualStyle
  2
Conceptual
 70
     9
 71
     3
 72
     2
 73
     0
 90
        0
 40
-0.6
 41
-30.0
 62
     5
 63
     7
 74
     2
 91
        2
 64
     7
 65
   257
 75
     1
175
     1
 42
40.0
 92
        8
 66
     7
 43
1.0
 76
     1
 77
     6
 78
     2
 67
     7
 79
     3
170
     0
171
     0
290
     0
174
     0
 93
        1
 44
0.0
173
     0
291
     0
 45
0.0
1001
ACAD
1000
AcDbSavedByObjectVersion
1070
     0
  0
VISUALSTYLE
  5
35
102
{ACAD_REACTORS
330
2A
102
}
330
2A
100
AcDbVisualStyle
  2
Dim
 70
    11
 71
     2
 72
     2
 73
     0
 90
        0
 40
-0.6
 41
-30.0
 62
     5
 63
     7
 74
     1
 91
        4
 64
     7
 65
   257
 75
     1
175
     1
 42
1.0
 92
        8
 66
     7
 43
1.0
 76
     1
 77
     6
 78
     2
 67
     7
 79
     5
170
     0
171
     0
290
     0
174
     0
 93
        1
 44
-50.0
173
     0
291
     1
 45
0.0
1001
ACAD
1000
AcDbSavedByObjectVersion
1070
     0
  0
VISUALSTYLE
  5
39
102
{ACAD_REACTORS
330
2A
102
}
330
2A
100
AcDbVisualStyle
  2
Facepattern
 70
    15
 71
     2
 72
     2
 73
     0
 90
        0
 40
-0.6
 41
-30.0
 62
     5
 63
     7
 74
     1
 91
        4
 64
     7
 65
   257
 75
     1
175
     1
 42
1.0
 92
        8
 66
     7
 43
1.0
 76
     1
 77
     6
 78
     2
 67
     7
 79
     5
170
     0
171
     0
290
     0
174
     0
 93
        1
 44
0.0
173
     0
291
     1
 45
0.0
1001
ACAD
1000
AcDbSavedByObjectVersion
1070
     0
  0
VISUALSTYLE
  5
2B
102
{ACAD_REACTORS
330
2A
102
}
330
2A
100
AcDbVisualStyle
  2
Flat
 70
     0
 71
     2
 72
     1
 73
     1
 90
        2
 40
-0.6
 41
30.0
 62
     5
 63
     7
 74
     0
 91
        4
 64
     7
 65
   257
 75
     1
175
     1
 42
1.0
 92
        8
 66
     7
 43
1.0
 76
     1
 77
     6
 78
     2
 67
     7
 79
     5
170
     0
171
     0
290
     0
174
     0
 93
       13
 44
0.0
173
     0
291
     1
 45
0.0
1001
ACAD
1000
AcDbSavedByObjectVersion
1070
     0
  0
VISUALSTYLE
  5
2C
102
{ACAD_REACTORS
330
2A
102
}
330
2A
100
AcDbVisualStyle
  2
FlatWithEdges
 70
     1
 71
     2
 72
     1
 73
     1
 90
        2
 40
-0.6
 41
30.0
 62
     5
 63
     7
 74
     1
 91
        4
 64
     7
 65
   257
 75
     1
175
     1
 42
1.0
 92
        0
 66
   257
 43
1.0
 76
     1
 77
     6
 78
     2
 67
     7
 79
     5
170
     0
171
     0
290
     0
174
     0
 93
       13
 44
0.0
173
     0
291
     1
 45
0.0
1001
ACAD
1000
AcDbSavedByObjectVersion
1070
     0
  0
VISUALSTYLE
  5
2D
102
{ACAD_REACTORS
330
2A
102
}
330
2A
100
AcDbVisualStyle
  2
Gouraud
 70
     2
 71
     2
 72
     2
 73
     1
 90
        2
 40
-0.6
 41
30.0
 62
     5
 63
     7
 74
     0
 91
        4
 64
     7
 65
   257
 75
     1
175
     1
 42
1.0
 92
        0
 66
     7
 43
1.0
 76
     1
 77
     6
 78
     2
 67
     7
 79
     5
170
     0
171
     0
290
     0
174
     0
 93
       13
 44
0.0
173
     0
291
     1
 45
0.0
1001
ACAD
1000
AcDbSavedByObjectVersion
1070
     0
  0
VISUALSTYLE
  5
2E
102
{ACAD_REACTORS
330
2A
102
}
330
2A
100
AcDbVisualStyle
  2
GouraudWithEdges
 70
     3
 71
     2
 72
     2
 73
     1
 90
        2
 40
-0.6
 41
30.0
 62
     5
 63
     7
 74
     1
 91
        4
 64
     7
 65
   257
 75
     1
175
     1
 42
1.0
 92
        0
 66
   257
 43
1.0
 76
     1
 77
     6
 78
     2
 67
     7
 79
     5
170
     0
171
     0
290
     0
174
     0
 93
       13
 44
0.0
173
     0
291
     1
 45
0.0
1001
ACAD
1000
AcDbSavedByObjectVersion
1070
     0
  0
VISUALSTYLE
  5
38
102
{ACAD_REACTORS
330
2A
102
}
330
2A
100
AcDbVisualStyle
  2
Linepattern
 70
    14
 71
     2
 72
     2
 73
     0
 90
        0
 40
-0.6
 41
-30.0
 62
     5
 63
     7
 74
     1
 91
        4
 64
     7
 65
   257
 75
     7
175
     7
 42
1.0
 92
        8
 66
     7
 43
1.0
 76
     1
 77
     6
 78
     2
 67
     7
 79
     5
170
     0
171
     0
290
     0
174
     0
 93
        1
 44
0.0
173
     0
291
     1
 45
0.0
1001
ACAD
1000
AcDbSavedByObjectVersion
1070
     0
  0
VISUALSTYLE
  5
33
102
{ACAD_REACTORS
330
2A
102
}
330
2A
100
AcDbVisualStyle
  2
Realistic
 70
     8
 71
     2
 72
     2
 73
     0
 90
        0
 40
-0.6
 41
-30.0
 62
     5
 63
     7
 74
     1
 91
        0
 64
     7
 65
   257
 75
     1
175
     1
 42
1.0
 92
        8
 66
     8
 43
1.0
 76
     1
 77
     6
 78
     2
 67
     7
 79
     5
170
     0
171
     0
290
     0
174
     0
 93
       13
 44
0.0
173
     0
291
     0
 45
0.0
1001
ACAD
1000
AcDbSavedByObjectVersion
1070
     0
  0
VISUALSTYLE
  5
37
102
{ACAD_REACTORS
330
2A
102
}
330
2A
100
AcDbVisualStyle
  2
Thicken
 70
    13
 71
     2
 72
     2
 73
     0
 90
        0
 40
-0.6
 41
-30.0
 62
     5
 63
     7
 74
     1
 91
        4
 64
     7
 65
   257
 75
     1
175
     1
 42
1.0
 92
       12
 66
     7
 43
1.0
 76
     1
 77
     6
 78
     2
 67
     7
 79
     5
170
     0
171
     0
290
     0
174
     0
 93
        1
 44
0.0
173
     0
291
     1
 45
0.0
1001
ACAD
1000
AcDbSavedByObjectVersion
1070
     0
  0
XRECORD
  5
4B2
102
{ACAD_REACTORS
330
4A9
102
}
330
4A9
100
AcDbXrecord
 90
        0
  0
XRECORD
  5
4C8
102
{ACAD_REACTORS
330
4A9
102
}
330
4A9
100
AcDbXrecord
1000
DSTYLE
1002
{
1070
   340
340
11
1002
}
  0
XRECORD
  5
4B3
102
{ACAD_REACTORS
330
4A9
102
}
330
4A9
100
AcDbXrecord
  1
{14AD21FE-845E-4E46-8A85-E5F666C9F81E}
  0
XRECORD
  5
4AC
102
{ACAD_REACTORS
330
4A9
102
}
330
4A9
100
AcDbXrecord
  1

  0
XRECORD
  5
4B1
102
{ACAD_REACTORS
330
4A9
102
}
330
4A9
100
AcDbXrecord
 90
        1
  0
XRECORD
  5
4AE
102
{ACAD_REACTORS
330
4A9
102
}
330
4A9
100
AcDbXrecord
340
1A
  0
XRECORD
  5
4B0
102
{ACAD_REACTORS
330
4A9
102
}
330
4A9
100
AcDbXrecord
 90
    10269
  0
XRECORD
  5
4AF
102
{ACAD_REACTORS
330
4A9
102
}
330
4A9
100
AcDbXrecord
340
19
  0
XRECORD
  5
4B5
102
{ACAD_REACTORS
330
4A9
102
}
330
4A9
100
AcDbXrecord
 40
0.0
  0
XRECORD
  5
4B8
102
{ACAD_REACTORS
330
4A9
102
}
330
4A9
100
AcDbXrecord
340
0
  0
XRECORD
  5
4BE
102
{ACAD_REACTORS
330
4A9
102
}
330
4A9
100
AcDbXrecord
 10
0.0
 20
0.0
 30
0.0
  0
XRECORD
  5
4BA
102
{ACAD_REACTORS
330
4A9
102
}
330
4A9
100
AcDbXrecord
 10
0.0
 20
0.0
 30
0.0
  0
XRECORD
  5
4BD
102
{ACAD_REACTORS
330
4A9
102
}
330
4A9
100
AcDbXrecord
 10
0.0
 20
0.0
 30
0.0
  0
XRECORD
  5
4BB
102
{ACAD_REACTORS
330
4A9
102
}
330
4A9
100
AcDbXrecord
 10
0.0
 20
0.0
 30
0.0
  0
XRECORD
  5
4BC
102
{ACAD_REACTORS
330
4A9
102
}
330
4A9
100
AcDbXrecord
 10
0.0
 20
0.0
 30
0.0
  0
XRECORD
  5
4B9
102
{ACAD_REACTORS
330
4A9
102
}
330
4A9
100
AcDbXrecord
 10
0.0
 20
0.0
 30
0.0
  0
XRECORD
  5
4B6
102
{ACAD_REACTORS
330
4A9
102
}
330
4A9
100
AcDbXrecord
340
0
  0
XRECORD
  5
4B7
102
{ACAD_REACTORS
330
4A9
102
}
330
4A9
100
AcDbXrecord
 70
     0
  0
XRECORD
  5
4AD
102
{ACAD_REACTORS
330
4A9
102
}
330
4A9
100
AcDbXrecord
  1

  0
XRECORD
  5
4AA
102
{ACAD_REACTORS
330
4A9
102
}
330
4A9
100
AcDbXrecord
 90
        1
  0
XRECORD
  5
4AB
102
{ACAD_REACTORS
330
4A9
102
}
330
4A9
100
AcDbXrecord
 90
       70
  0
XRECORD
  5
4C1
102
{ACAD_REACTORS
330
4A9
102
}
330
4A9
100
AcDbXrecord
340
0
  0
XRECORD
  5
4C7
102
{ACAD_REACTORS
330
4A9
102
}
330
4A9
100
AcDbXrecord
 10
0.0
 20
0.0
 30
0.0
  0
XRECORD
  5
4C3
102
{ACAD_REACTORS
330
4A9
102
}
330
4A9
100
AcDbXrecord
 10
0.0
 20
0.0
 30
0.0
  0
XRECORD
  5
4C6
102
{ACAD_REACTORS
330
4A9
102
}
330
4A9
100
AcDbXrecord
 10
0.0
 20
0.0
 30
0.0
  0
XRECORD
  5
4C4
102
{ACAD_REACTORS
330
4A9
102
}
330
4A9
100
AcDbXrecord
 10
0.0
 20
0.0
 30
0.0
  0
XRECORD
  5
4C5
102
{ACAD_REACTORS
330
4A9
102
}
330
4A9
100
AcDbXrecord
 10
0.0
 20
0.0
 30
0.0
  0
XRECORD
  5
4C2
102
{ACAD_REACTORS
330
4A9
102
}
330
4A9
100
AcDbXrecord
 10
0.0
 20
0.0
 30
0.0
  0
XRECORD
  5
4BF
102
{ACAD_REACTORS
330
4A9
102
}
330
4A9
100
AcDbXrecord
340
0
  0
XRECORD
  5
4C0
102
{ACAD_REACTORS
330
4A9
102
}
330
4A9
100
AcDbXrecord
 70
     0
  0
XRECORD
  5
4B4
102
{ACAD_REACTORS
330
4A9
102
}
330
4A9
100
AcDbXrecord
  1
{FAEB1C32-E019-11D5-929B-00C0DF256EC4}
  0
ENDSEC
  0
EOF
