ISO-10303-21;
HEADER;
/* Generated by software containing ST-Developer
 * from STEP Tools, Inc. (www.steptools.com) 
 */
/* OPTION: using custom schema-name function */

FILE_DESCRIPTION(
/* description */ (''),
/* implementation_level */ '2;1');

FILE_NAME(
/* name */ 'W8900000_A__specification_W8900000_Aussen_.stp',
/* time_stamp */ '2013-12-04T08:03:24+01:00',
/* author */ (''),
/* organization */ (''),
/* preprocessor_version */ 'ST-DEVELOPER v11',
/* originating_system */ 'SIEMENS PLM Software NX 7.5',
/* authorisation */ '');

FILE_SCHEMA (('AUTOMOTIVE_DESIGN { 1 0 10303 214 1 1 1 1 }'));
ENDSEC;

DATA;
#10=SHAPE_REPRESENTATION_RELATIONSHIP('None',
'relationship between webe311A9rlv-None and webe311A9rlv-None',#22,#11);
#11=ADVANCED_BREP_SHAPE_REPRESENTATION('webe311A9rlv-None',(#32),#519);
#12=SHAPE_DEFINITION_REPRESENTATION(#13,#22);
#13=PRODUCT_DEFINITION_SHAPE('','',#14);
#14=PRODUCT_DEFINITION(' ','',#16,#15);
#15=PRODUCT_DEFINITION_CONTEXT('part definition',#21,'design');
#16=PRODUCT_DEFINITION_FORMATION_WITH_SPECIFIED_SOURCE(' ',' ',#18,.NOT_KNOWN.);
#17=PRODUCT_RELATED_PRODUCT_CATEGORY('part','',(#18));
#18=PRODUCT('webe311A9rlv','webe311A9rlv',' ',(#19));
#19=PRODUCT_CONTEXT(' ',#21,'mechanical');
#20=APPLICATION_PROTOCOL_DEFINITION('international standard',
'automotive_design',2001,#21);
#21=APPLICATION_CONTEXT(
'core data for automotive mechanical design processes');
#22=SHAPE_REPRESENTATION('webe311A9rlv-None',(#334),#519);
#23=PRESENTATION_LAYER_ASSIGNMENT('210','Layer 210',(#32));
#24=STYLED_ITEM('',(#25),#32);
#25=PRESENTATION_STYLE_ASSIGNMENT((#26));
#26=SURFACE_STYLE_USAGE(.BOTH.,#27);
#27=SURFACE_SIDE_STYLE('',(#28));
#28=SURFACE_STYLE_FILL_AREA(#29);
#29=FILL_AREA_STYLE('',(#30));
#30=FILL_AREA_STYLE_COLOUR('',#31);
#31=COLOUR_RGB('Lime',0.8,1.,0.2);
#32=MANIFOLD_SOLID_BREP('',#33);
#33=CLOSED_SHELL('',(#37,#38,#39,#40,#41,#42,#43,#44,#45,#46,#47,#48,#49,
#50,#51,#52));
#34=CYLINDRICAL_SURFACE('',#352,4.);
#35=CIRCLE('',#343,4.);
#36=CIRCLE('',#349,4.);
#37=ADVANCED_FACE('',(#68),#53,.T.);
#38=ADVANCED_FACE('',(#69),#54,.T.);
#39=ADVANCED_FACE('',(#70),#55,.T.);
#40=ADVANCED_FACE('',(#71),#56,.T.);
#41=ADVANCED_FACE('',(#72),#57,.T.);
#42=ADVANCED_FACE('',(#73),#58,.F.);
#43=ADVANCED_FACE('',(#74),#59,.F.);
#44=ADVANCED_FACE('',(#75),#60,.F.);
#45=ADVANCED_FACE('',(#76),#61,.F.);
#46=ADVANCED_FACE('',(#77),#62,.F.);
#47=ADVANCED_FACE('',(#78),#63,.F.);
#48=ADVANCED_FACE('',(#79),#64,.F.);
#49=ADVANCED_FACE('',(#80),#65,.F.);
#50=ADVANCED_FACE('',(#81),#66,.F.);
#51=ADVANCED_FACE('',(#82),#67,.F.);
#52=ADVANCED_FACE('',(#83),#34,.F.);
#53=PLANE('',#335);
#54=PLANE('',#336);
#55=PLANE('',#337);
#56=PLANE('',#338);
#57=PLANE('',#339);
#58=PLANE('',#340);
#59=PLANE('',#341);
#60=PLANE('',#342);
#61=PLANE('',#344);
#62=PLANE('',#345);
#63=PLANE('',#346);
#64=PLANE('',#347);
#65=PLANE('',#348);
#66=PLANE('',#350);
#67=PLANE('',#351);
#68=FACE_OUTER_BOUND('',#84,.T.);
#69=FACE_OUTER_BOUND('',#85,.T.);
#70=FACE_OUTER_BOUND('',#86,.T.);
#71=FACE_OUTER_BOUND('',#87,.T.);
#72=FACE_OUTER_BOUND('',#88,.T.);
#73=FACE_OUTER_BOUND('',#89,.T.);
#74=FACE_OUTER_BOUND('',#90,.T.);
#75=FACE_OUTER_BOUND('',#91,.T.);
#76=FACE_OUTER_BOUND('',#92,.T.);
#77=FACE_OUTER_BOUND('',#93,.T.);
#78=FACE_OUTER_BOUND('',#94,.T.);
#79=FACE_OUTER_BOUND('',#95,.T.);
#80=FACE_OUTER_BOUND('',#96,.T.);
#81=FACE_OUTER_BOUND('',#97,.T.);
#82=FACE_OUTER_BOUND('',#98,.T.);
#83=FACE_OUTER_BOUND('',#99,.T.);
#84=EDGE_LOOP('',(#100,#101,#102,#103));
#85=EDGE_LOOP('',(#104,#105,#106,#107,#108,#109,#110,#111,#112,#113));
#86=EDGE_LOOP('',(#114,#115,#116,#117));
#87=EDGE_LOOP('',(#118,#119,#120,#121));
#88=EDGE_LOOP('',(#122,#123,#124,#125,#126,#127,#128,#129,#130,#131,#132,
#133,#134,#135));
#89=EDGE_LOOP('',(#136,#137,#138,#139));
#90=EDGE_LOOP('',(#140,#141,#142,#143));
#91=EDGE_LOOP('',(#144,#145,#146,#147));
#92=EDGE_LOOP('',(#148,#149,#150,#151,#152,#153,#154,#155));
#93=EDGE_LOOP('',(#156,#157,#158,#159));
#94=EDGE_LOOP('',(#160,#161,#162,#163));
#95=EDGE_LOOP('',(#164,#165,#166,#167));
#96=EDGE_LOOP('',(#168,#169,#170,#171));
#97=EDGE_LOOP('',(#172,#173,#174,#175));
#98=EDGE_LOOP('',(#176,#177,#178,#179));
#99=EDGE_LOOP('',(#180,#181,#182,#183));
#100=ORIENTED_EDGE('',*,*,#212,.T.);
#101=ORIENTED_EDGE('',*,*,#213,.T.);
#102=ORIENTED_EDGE('',*,*,#214,.F.);
#103=ORIENTED_EDGE('',*,*,#215,.T.);
#104=ORIENTED_EDGE('',*,*,#216,.F.);
#105=ORIENTED_EDGE('',*,*,#217,.F.);
#106=ORIENTED_EDGE('',*,*,#218,.T.);
#107=ORIENTED_EDGE('',*,*,#219,.T.);
#108=ORIENTED_EDGE('',*,*,#220,.F.);
#109=ORIENTED_EDGE('',*,*,#213,.F.);
#110=ORIENTED_EDGE('',*,*,#221,.F.);
#111=ORIENTED_EDGE('',*,*,#222,.T.);
#112=ORIENTED_EDGE('',*,*,#223,.F.);
#113=ORIENTED_EDGE('',*,*,#224,.T.);
#114=ORIENTED_EDGE('',*,*,#223,.T.);
#115=ORIENTED_EDGE('',*,*,#225,.T.);
#116=ORIENTED_EDGE('',*,*,#226,.T.);
#117=ORIENTED_EDGE('',*,*,#227,.T.);
#118=ORIENTED_EDGE('',*,*,#228,.F.);
#119=ORIENTED_EDGE('',*,*,#229,.T.);
#120=ORIENTED_EDGE('',*,*,#230,.T.);
#121=ORIENTED_EDGE('',*,*,#217,.T.);
#122=ORIENTED_EDGE('',*,*,#231,.F.);
#123=ORIENTED_EDGE('',*,*,#232,.F.);
#124=ORIENTED_EDGE('',*,*,#233,.F.);
#125=ORIENTED_EDGE('',*,*,#229,.F.);
#126=ORIENTED_EDGE('',*,*,#234,.T.);
#127=ORIENTED_EDGE('',*,*,#235,.T.);
#128=ORIENTED_EDGE('',*,*,#226,.F.);
#129=ORIENTED_EDGE('',*,*,#236,.T.);
#130=ORIENTED_EDGE('',*,*,#237,.T.);
#131=ORIENTED_EDGE('',*,*,#215,.F.);
#132=ORIENTED_EDGE('',*,*,#238,.T.);
#133=ORIENTED_EDGE('',*,*,#239,.F.);
#134=ORIENTED_EDGE('',*,*,#240,.F.);
#135=ORIENTED_EDGE('',*,*,#241,.F.);
#136=ORIENTED_EDGE('',*,*,#242,.F.);
#137=ORIENTED_EDGE('',*,*,#224,.F.);
#138=ORIENTED_EDGE('',*,*,#227,.F.);
#139=ORIENTED_EDGE('',*,*,#235,.F.);
#140=ORIENTED_EDGE('',*,*,#243,.F.);
#141=ORIENTED_EDGE('',*,*,#236,.F.);
#142=ORIENTED_EDGE('',*,*,#225,.F.);
#143=ORIENTED_EDGE('',*,*,#222,.F.);
#144=ORIENTED_EDGE('',*,*,#214,.T.);
#145=ORIENTED_EDGE('',*,*,#220,.T.);
#146=ORIENTED_EDGE('',*,*,#244,.F.);
#147=ORIENTED_EDGE('',*,*,#238,.F.);
#148=ORIENTED_EDGE('',*,*,#232,.T.);
#149=ORIENTED_EDGE('',*,*,#245,.T.);
#150=ORIENTED_EDGE('',*,*,#246,.F.);
#151=ORIENTED_EDGE('',*,*,#247,.F.);
#152=ORIENTED_EDGE('',*,*,#239,.T.);
#153=ORIENTED_EDGE('',*,*,#244,.T.);
#154=ORIENTED_EDGE('',*,*,#219,.F.);
#155=ORIENTED_EDGE('',*,*,#248,.F.);
#156=ORIENTED_EDGE('',*,*,#233,.T.);
#157=ORIENTED_EDGE('',*,*,#248,.T.);
#158=ORIENTED_EDGE('',*,*,#218,.F.);
#159=ORIENTED_EDGE('',*,*,#230,.F.);
#160=ORIENTED_EDGE('',*,*,#243,.T.);
#161=ORIENTED_EDGE('',*,*,#221,.T.);
#162=ORIENTED_EDGE('',*,*,#212,.F.);
#163=ORIENTED_EDGE('',*,*,#237,.F.);
#164=ORIENTED_EDGE('',*,*,#242,.T.);
#165=ORIENTED_EDGE('',*,*,#234,.F.);
#166=ORIENTED_EDGE('',*,*,#228,.T.);
#167=ORIENTED_EDGE('',*,*,#216,.T.);
#168=ORIENTED_EDGE('',*,*,#231,.T.);
#169=ORIENTED_EDGE('',*,*,#249,.T.);
#170=ORIENTED_EDGE('',*,*,#250,.T.);
#171=ORIENTED_EDGE('',*,*,#245,.F.);
#172=ORIENTED_EDGE('',*,*,#241,.T.);
#173=ORIENTED_EDGE('',*,*,#251,.T.);
#174=ORIENTED_EDGE('',*,*,#252,.T.);
#175=ORIENTED_EDGE('',*,*,#249,.F.);
#176=ORIENTED_EDGE('',*,*,#240,.T.);
#177=ORIENTED_EDGE('',*,*,#247,.T.);
#178=ORIENTED_EDGE('',*,*,#253,.F.);
#179=ORIENTED_EDGE('',*,*,#251,.F.);
#180=ORIENTED_EDGE('',*,*,#246,.T.);
#181=ORIENTED_EDGE('',*,*,#250,.F.);
#182=ORIENTED_EDGE('',*,*,#252,.F.);
#183=ORIENTED_EDGE('',*,*,#253,.T.);
#184=VERTEX_POINT('',#433);
#185=VERTEX_POINT('',#434);
#186=VERTEX_POINT('',#436);
#187=VERTEX_POINT('',#438);
#188=VERTEX_POINT('',#442);
#189=VERTEX_POINT('',#443);
#190=VERTEX_POINT('',#445);
#191=VERTEX_POINT('',#447);
#192=VERTEX_POINT('',#449);
#193=VERTEX_POINT('',#452);
#194=VERTEX_POINT('',#454);
#195=VERTEX_POINT('',#456);
#196=VERTEX_POINT('',#460);
#197=VERTEX_POINT('',#462);
#198=VERTEX_POINT('',#466);
#199=VERTEX_POINT('',#468);
#200=VERTEX_POINT('',#472);
#201=VERTEX_POINT('',#473);
#202=VERTEX_POINT('',#475);
#203=VERTEX_POINT('',#478);
#204=VERTEX_POINT('',#481);
#205=VERTEX_POINT('',#484);
#206=VERTEX_POINT('',#486);
#207=VERTEX_POINT('',#488);
#208=VERTEX_POINT('',#498);
#209=VERTEX_POINT('',#500);
#210=VERTEX_POINT('',#508);
#211=VERTEX_POINT('',#512);
#212=EDGE_CURVE('',#184,#185,#254,.T.);
#213=EDGE_CURVE('',#185,#186,#255,.T.);
#214=EDGE_CURVE('',#187,#186,#256,.T.);
#215=EDGE_CURVE('',#187,#184,#257,.T.);
#216=EDGE_CURVE('',#188,#189,#258,.T.);
#217=EDGE_CURVE('',#190,#188,#259,.T.);
#218=EDGE_CURVE('',#190,#191,#260,.T.);
#219=EDGE_CURVE('',#191,#192,#261,.T.);
#220=EDGE_CURVE('',#186,#192,#262,.T.);
#221=EDGE_CURVE('',#193,#185,#263,.T.);
#222=EDGE_CURVE('',#193,#194,#264,.T.);
#223=EDGE_CURVE('',#195,#194,#265,.T.);
#224=EDGE_CURVE('',#195,#189,#266,.T.);
#225=EDGE_CURVE('',#194,#196,#267,.T.);
#226=EDGE_CURVE('',#196,#197,#268,.T.);
#227=EDGE_CURVE('',#197,#195,#269,.T.);
#228=EDGE_CURVE('',#198,#188,#270,.T.);
#229=EDGE_CURVE('',#198,#199,#271,.T.);
#230=EDGE_CURVE('',#199,#190,#272,.T.);
#231=EDGE_CURVE('',#200,#201,#273,.T.);
#232=EDGE_CURVE('',#202,#200,#274,.T.);
#233=EDGE_CURVE('',#199,#202,#275,.T.);
#234=EDGE_CURVE('',#198,#203,#276,.T.);
#235=EDGE_CURVE('',#203,#197,#277,.T.);
#236=EDGE_CURVE('',#196,#204,#278,.T.);
#237=EDGE_CURVE('',#204,#184,#279,.T.);
#238=EDGE_CURVE('',#187,#205,#280,.T.);
#239=EDGE_CURVE('',#206,#205,#281,.T.);
#240=EDGE_CURVE('',#207,#206,#282,.T.);
#241=EDGE_CURVE('',#201,#207,#283,.T.);
#242=EDGE_CURVE('',#189,#203,#284,.T.);
#243=EDGE_CURVE('',#204,#193,#285,.T.);
#244=EDGE_CURVE('',#205,#192,#286,.T.);
#245=EDGE_CURVE('',#200,#208,#287,.T.);
#246=EDGE_CURVE('',#209,#208,#35,.T.);
#247=EDGE_CURVE('',#206,#209,#288,.T.);
#248=EDGE_CURVE('',#202,#191,#289,.T.);
#249=EDGE_CURVE('',#201,#210,#290,.T.);
#250=EDGE_CURVE('',#210,#208,#291,.T.);
#251=EDGE_CURVE('',#207,#211,#292,.T.);
#252=EDGE_CURVE('',#211,#210,#36,.T.);
#253=EDGE_CURVE('',#211,#209,#293,.T.);
#254=LINE('',#432,#294);
#255=LINE('',#435,#295);
#256=LINE('',#437,#296);
#257=LINE('',#439,#297);
#258=LINE('',#441,#298);
#259=LINE('',#444,#299);
#260=LINE('',#446,#300);
#261=LINE('',#448,#301);
#262=LINE('',#450,#302);
#263=LINE('',#451,#303);
#264=LINE('',#453,#304);
#265=LINE('',#455,#305);
#266=LINE('',#457,#306);
#267=LINE('',#459,#307);
#268=LINE('',#461,#308);
#269=LINE('',#463,#309);
#270=LINE('',#465,#310);
#271=LINE('',#467,#311);
#272=LINE('',#469,#312);
#273=LINE('',#471,#313);
#274=LINE('',#474,#314);
#275=LINE('',#476,#315);
#276=LINE('',#477,#316);
#277=LINE('',#479,#317);
#278=LINE('',#480,#318);
#279=LINE('',#482,#319);
#280=LINE('',#483,#320);
#281=LINE('',#485,#321);
#282=LINE('',#487,#322);
#283=LINE('',#489,#323);
#284=LINE('',#491,#324);
#285=LINE('',#493,#325);
#286=LINE('',#495,#326);
#287=LINE('',#497,#327);
#288=LINE('',#501,#328);
#289=LINE('',#502,#329);
#290=LINE('',#507,#330);
#291=LINE('',#509,#331);
#292=LINE('',#511,#332);
#293=LINE('',#515,#333);
#294=VECTOR('',#355,1.);
#295=VECTOR('',#356,1.);
#296=VECTOR('',#357,1.);
#297=VECTOR('',#358,1.);
#298=VECTOR('',#361,1.);
#299=VECTOR('',#362,1.);
#300=VECTOR('',#363,1.);
#301=VECTOR('',#364,1.);
#302=VECTOR('',#365,1.);
#303=VECTOR('',#366,1.);
#304=VECTOR('',#367,1.);
#305=VECTOR('',#368,1.);
#306=VECTOR('',#369,1.);
#307=VECTOR('',#372,1.);
#308=VECTOR('',#373,1.);
#309=VECTOR('',#374,1.);
#310=VECTOR('',#377,1.);
#311=VECTOR('',#378,1.);
#312=VECTOR('',#379,1.);
#313=VECTOR('',#382,1.);
#314=VECTOR('',#383,1.);
#315=VECTOR('',#384,1.);
#316=VECTOR('',#385,1.);
#317=VECTOR('',#386,1.);
#318=VECTOR('',#387,1.);
#319=VECTOR('',#388,1.);
#320=VECTOR('',#389,1.);
#321=VECTOR('',#390,1.);
#322=VECTOR('',#391,1.);
#323=VECTOR('',#392,1.);
#324=VECTOR('',#395,1.);
#325=VECTOR('',#398,1.);
#326=VECTOR('',#401,1.);
#327=VECTOR('',#404,1.);
#328=VECTOR('',#407,1.);
#329=VECTOR('',#408,1.);
#330=VECTOR('',#417,1.);
#331=VECTOR('',#418,1.);
#332=VECTOR('',#421,1.);
#333=VECTOR('',#426,1.);
#334=AXIS2_PLACEMENT_3D('',#431,#353,#354);
#335=AXIS2_PLACEMENT_3D('',#440,#359,#360);
#336=AXIS2_PLACEMENT_3D('',#458,#370,#371);
#337=AXIS2_PLACEMENT_3D('',#464,#375,#376);
#338=AXIS2_PLACEMENT_3D('',#470,#380,#381);
#339=AXIS2_PLACEMENT_3D('',#490,#393,#394);
#340=AXIS2_PLACEMENT_3D('',#492,#396,#397);
#341=AXIS2_PLACEMENT_3D('',#494,#399,#400);
#342=AXIS2_PLACEMENT_3D('',#496,#402,#403);
#343=AXIS2_PLACEMENT_3D('',#499,#405,#406);
#344=AXIS2_PLACEMENT_3D('',#503,#409,#410);
#345=AXIS2_PLACEMENT_3D('',#504,#411,#412);
#346=AXIS2_PLACEMENT_3D('',#505,#413,#414);
#347=AXIS2_PLACEMENT_3D('',#506,#415,#416);
#348=AXIS2_PLACEMENT_3D('',#510,#419,#420);
#349=AXIS2_PLACEMENT_3D('',#513,#422,#423);
#350=AXIS2_PLACEMENT_3D('',#514,#424,#425);
#351=AXIS2_PLACEMENT_3D('',#516,#427,#428);
#352=AXIS2_PLACEMENT_3D('',#517,#429,#430);
#353=DIRECTION('',(0.,0.,1.));
#354=DIRECTION('',(1.,0.,0.));
#355=DIRECTION('',(-1.,0.,0.));
#356=DIRECTION('',(0.,1.,0.));
#357=DIRECTION('',(-1.,0.,0.));
#358=DIRECTION('',(0.,-1.,0.));
#359=DIRECTION('',(0.,0.,-1.));
#360=DIRECTION('',(-1.,0.,0.));
#361=DIRECTION('',(0.,0.,1.));
#362=DIRECTION('',(0.,1.,0.));
#363=DIRECTION('',(0.,0.,1.));
#364=DIRECTION('',(0.,-1.,0.));
#365=DIRECTION('',(0.,0.,1.));
#366=DIRECTION('',(0.,0.,-1.));
#367=DIRECTION('',(0.,0.5,0.866025403784439));
#368=DIRECTION('',(0.,-1.,0.));
#369=DIRECTION('',(0.,0.5,-0.866025403784439));
#370=DIRECTION('',(-1.,0.,0.));
#371=DIRECTION('',(0.,1.,0.));
#372=DIRECTION('',(1.,0.,0.));
#373=DIRECTION('',(0.,1.,0.));
#374=DIRECTION('',(-1.,0.,0.));
#375=DIRECTION('',(0.,0.,1.));
#376=DIRECTION('',(1.,0.,0.));
#377=DIRECTION('',(-1.,0.,0.));
#378=DIRECTION('',(0.,-1.,0.));
#379=DIRECTION('',(-1.,0.,0.));
#380=DIRECTION('',(0.,0.,-1.));
#381=DIRECTION('',(-1.,0.,0.));
#382=DIRECTION('',(0.,0.,1.));
#383=DIRECTION('',(0.,-1.,0.));
#384=DIRECTION('',(0.,0.,1.));
#385=DIRECTION('',(0.,0.,1.));
#386=DIRECTION('',(0.,-0.5,0.866025403784439));
#387=DIRECTION('',(0.,-0.5,-0.866025403784439));
#388=DIRECTION('',(0.,0.,-1.));
#389=DIRECTION('',(0.,0.,1.));
#390=DIRECTION('',(0.,-1.,0.));
#391=DIRECTION('',(0.,0.,-1.));
#392=DIRECTION('',(0.,-1.,0.));
#393=DIRECTION('',(1.,0.,0.));
#394=DIRECTION('',(0.,-1.,0.));
#395=DIRECTION('',(1.,0.,0.));
#396=DIRECTION('',(0.,-0.866025403784439,-0.5));
#397=DIRECTION('',(0.,-0.5,0.866025403784439));
#398=DIRECTION('',(-1.,0.,0.));
#399=DIRECTION('',(0.,0.866025403784439,-0.5));
#400=DIRECTION('',(0.,-0.5,-0.866025403784439));
#401=DIRECTION('',(-1.,0.,0.));
#402=DIRECTION('',(0.,-1.,0.));
#403=DIRECTION('',(-1.,0.,0.));
#404=DIRECTION('',(-1.,0.,0.));
#405=DIRECTION('',(0.,0.,-1.));
#406=DIRECTION('',(-1.,0.,0.));
#407=DIRECTION('',(-1.,0.,0.));
#408=DIRECTION('',(-1.,0.,0.));
#409=DIRECTION('',(0.,0.,1.));
#410=DIRECTION('',(1.,0.,0.));
#411=DIRECTION('',(0.,1.,0.));
#412=DIRECTION('',(1.,0.,0.));
#413=DIRECTION('',(0.,1.,0.));
#414=DIRECTION('',(1.,0.,0.));
#415=DIRECTION('',(0.,-1.,0.));
#416=DIRECTION('',(-1.,0.,0.));
#417=DIRECTION('',(-1.,0.,0.));
#418=DIRECTION('',(0.,0.,-1.));
#419=DIRECTION('',(0.,1.,0.));
#420=DIRECTION('',(1.,0.,0.));
#421=DIRECTION('',(-1.,0.,0.));
#422=DIRECTION('',(0.,0.,-1.));
#423=DIRECTION('',(-1.,0.,0.));
#424=DIRECTION('',(0.,0.,1.));
#425=DIRECTION('',(1.,0.,0.));
#426=DIRECTION('',(0.,0.,-1.));
#427=DIRECTION('',(0.,-1.,0.));
#428=DIRECTION('',(-1.,0.,0.));
#429=DIRECTION('',(0.,0.,-1.));
#430=DIRECTION('',(-1.,0.,0.));
#431=CARTESIAN_POINT('',(0.,0.,0.));
#432=CARTESIAN_POINT('',(14.,-27.,0.));
#433=CARTESIAN_POINT('',(14.,-27.,0.));
#434=CARTESIAN_POINT('',(-96.,-27.,0.));
#435=CARTESIAN_POINT('',(-96.,0.,0.));
#436=CARTESIAN_POINT('',(-96.,-13.,0.));
#437=CARTESIAN_POINT('',(14.,-13.,0.));
#438=CARTESIAN_POINT('',(14.,-13.,0.));
#439=CARTESIAN_POINT('',(14.,0.,0.));
#440=CARTESIAN_POINT('',(14.,0.,0.));
#441=CARTESIAN_POINT('',(-96.,27.,0.));
#442=CARTESIAN_POINT('',(-96.,27.,0.));
#443=CARTESIAN_POINT('',(-96.,27.,1.73205080756888));
#444=CARTESIAN_POINT('',(-96.,0.,0.));
#445=CARTESIAN_POINT('',(-96.,13.,0.));
#446=CARTESIAN_POINT('',(-96.,13.,0.5));
#447=CARTESIAN_POINT('',(-96.,13.,0.5));
#448=CARTESIAN_POINT('',(-96.,13.,0.5));
#449=CARTESIAN_POINT('',(-96.,-13.,0.5));
#450=CARTESIAN_POINT('',(-96.,-13.,0.5));
#451=CARTESIAN_POINT('',(-96.,-27.,10.));
#452=CARTESIAN_POINT('',(-96.,-27.,1.73205080756888));
#453=CARTESIAN_POINT('',(-96.,-18.4019237886467,16.6243556529821));
#454=CARTESIAN_POINT('',(-96.,-21.0717967697245,12.));
#455=CARTESIAN_POINT('',(-96.,0.,12.));
#456=CARTESIAN_POINT('',(-96.,21.0717967697245,12.));
#457=CARTESIAN_POINT('',(-96.,18.4019237886467,16.6243556529821));
#458=CARTESIAN_POINT('',(-96.,0.,6.));
#459=CARTESIAN_POINT('',(14.,-21.0717967697245,12.));
#460=CARTESIAN_POINT('',(14.,-21.0717967697245,12.));
#461=CARTESIAN_POINT('',(14.,0.,12.));
#462=CARTESIAN_POINT('',(14.,21.0717967697245,12.));
#463=CARTESIAN_POINT('',(14.,21.0717967697245,12.));
#464=CARTESIAN_POINT('',(14.,0.,12.));
#465=CARTESIAN_POINT('',(14.,27.,0.));
#466=CARTESIAN_POINT('',(14.,27.,0.));
#467=CARTESIAN_POINT('',(14.,0.,0.));
#468=CARTESIAN_POINT('',(14.,13.,0.));
#469=CARTESIAN_POINT('',(14.,13.,0.));
#470=CARTESIAN_POINT('',(14.,0.,0.));
#471=CARTESIAN_POINT('',(14.,4.,6.));
#472=CARTESIAN_POINT('',(14.,4.,0.5));
#473=CARTESIAN_POINT('',(14.,4.,8.2));
#474=CARTESIAN_POINT('',(14.,13.,0.5));
#475=CARTESIAN_POINT('',(14.,13.,0.5));
#476=CARTESIAN_POINT('',(14.,13.,0.5));
#477=CARTESIAN_POINT('',(14.,27.,0.));
#478=CARTESIAN_POINT('',(14.,27.,1.73205080756888));
#479=CARTESIAN_POINT('',(14.,18.4019237886467,16.6243556529821));
#480=CARTESIAN_POINT('',(14.,-18.4019237886467,16.6243556529821));
#481=CARTESIAN_POINT('',(14.,-27.,1.73205080756888));
#482=CARTESIAN_POINT('',(14.,-27.,10.));
#483=CARTESIAN_POINT('',(14.,-13.,0.5));
#484=CARTESIAN_POINT('',(14.,-13.,0.5));
#485=CARTESIAN_POINT('',(14.,13.,0.5));
#486=CARTESIAN_POINT('',(14.,-4.,0.5));
#487=CARTESIAN_POINT('',(14.,-4.,6.));
#488=CARTESIAN_POINT('',(14.,-4.,8.2));
#489=CARTESIAN_POINT('',(14.,0.,8.2));
#490=CARTESIAN_POINT('',(14.,0.,6.));
#491=CARTESIAN_POINT('',(14.,27.,1.73205080756888));
#492=CARTESIAN_POINT('',(14.,21.0717967697245,12.));
#493=CARTESIAN_POINT('',(14.,-27.,1.73205080756888));
#494=CARTESIAN_POINT('',(14.,-28.,0.));
#495=CARTESIAN_POINT('',(14.,-13.,0.5));
#496=CARTESIAN_POINT('',(14.,-13.,0.));
#497=CARTESIAN_POINT('',(14.,4.,0.5));
#498=CARTESIAN_POINT('',(0.,4.,0.5));
#499=CARTESIAN_POINT('',(0.,0.,0.5));
#500=CARTESIAN_POINT('',(0.,-4.,0.5));
#501=CARTESIAN_POINT('',(14.,-4.,0.5));
#502=CARTESIAN_POINT('',(14.,13.,0.5));
#503=CARTESIAN_POINT('',(14.,13.,0.5));
#504=CARTESIAN_POINT('',(-96.,13.,0.));
#505=CARTESIAN_POINT('',(-96.,-27.,10.));
#506=CARTESIAN_POINT('',(-96.,27.,0.));
#507=CARTESIAN_POINT('',(28.,4.,8.2));
#508=CARTESIAN_POINT('',(0.,4.,8.2));
#509=CARTESIAN_POINT('',(0.,4.,0.5));
#510=CARTESIAN_POINT('',(14.,4.,0.5));
#511=CARTESIAN_POINT('',(28.,-4.,8.2));
#512=CARTESIAN_POINT('',(0.,-4.,8.2));
#513=CARTESIAN_POINT('',(0.,0.,8.2));
#514=CARTESIAN_POINT('',(14.,0.,8.2));
#515=CARTESIAN_POINT('',(0.,-4.,0.5));
#516=CARTESIAN_POINT('',(14.,-4.,0.5));
#517=CARTESIAN_POINT('',(0.,0.,0.5));
#518=MECHANICAL_DESIGN_GEOMETRIC_PRESENTATION_REPRESENTATION('',(#24),#519);
#519=(
GEOMETRIC_REPRESENTATION_CONTEXT(3)
GLOBAL_UNCERTAINTY_ASSIGNED_CONTEXT((#520))
GLOBAL_UNIT_ASSIGNED_CONTEXT((#526,#522,#521))
REPRESENTATION_CONTEXT('W8900000_A__specification_W8900000_Aussen_',
'TOP_LEVEL_ASSEMBLY_PART')
);
#520=UNCERTAINTY_MEASURE_WITH_UNIT(LENGTH_MEASURE(2.E-005),#526,
'DISTANCE_ACCURACY_VALUE','Maximum Tolerance applied to model');
#521=(
NAMED_UNIT(*)
SI_UNIT($,.STERADIAN.)
SOLID_ANGLE_UNIT()
);
#522=(
CONVERSION_BASED_UNIT('DEGREE',#524)
NAMED_UNIT(#523)
PLANE_ANGLE_UNIT()
);
#523=DIMENSIONAL_EXPONENTS(0.,0.,0.,0.,0.,0.,0.);
#524=PLANE_ANGLE_MEASURE_WITH_UNIT(PLANE_ANGLE_MEASURE(0.0174532925),#525);
#525=(
NAMED_UNIT(*)
PLANE_ANGLE_UNIT()
SI_UNIT($,.RADIAN.)
);
#526=(
LENGTH_UNIT()
NAMED_UNIT(*)
SI_UNIT(.MILLI.,.METRE.)
);
ENDSEC;
END-ISO-10303-21;
