ISO-10303-21;
HEADER;
/* Generated by software containing ST-Developer
 * from STEP Tools, Inc. (www.steptools.com) 
 */
/* OPTION: using custom schema-name function */

FILE_DESCRIPTION(
/* description */ (''),
/* implementation_level */ '2;1');

FILE_NAME(
/* name */ 'W9990789_stp.stp',
/* time_stamp */ '2017-05-29T14:40:20+02:00',
/* author */ (''),
/* organization */ (''),
/* preprocessor_version */ 'ST-DEVELOPER v15',
/* originating_system */ 'SIEMENS PLM Software NX 9.0',
/* authorisation */ '');

FILE_SCHEMA (('AUTOMOTIVE_DESIGN { 1 0 10303 214 3 1 1 1 }'));
ENDSEC;

DATA;
#10=PROPERTY_DEFINITION_REPRESENTATION(#14,#12);
#11=PROPERTY_DEFINITION_REPRESENTATION(#15,#13);
#12=REPRESENTATION('',(#16),#253);
#13=REPRESENTATION('',(#17),#253);
#14=PROPERTY_DEFINITION('pmi validation property','',#21);
#15=PROPERTY_DEFINITION('pmi validation property','',#21);
#16=VALUE_REPRESENTATION_ITEM('number of annotations',COUNT_MEASURE(0.));
#17=VALUE_REPRESENTATION_ITEM('number of views',COUNT_MEASURE(0.));
#18=SHAPE_REPRESENTATION_RELATIONSHIP('None',
'relationship between reic1C24C78Ap7o2-None and reic1C24C78Ap7o2-None',
#30,#19);
#19=ADVANCED_BREP_SHAPE_REPRESENTATION('reic1C24C78Ap7o2-None',(#40),#253);
#20=SHAPE_DEFINITION_REPRESENTATION(#21,#30);
#21=PRODUCT_DEFINITION_SHAPE('','',#22);
#22=PRODUCT_DEFINITION(' ','',#24,#23);
#23=PRODUCT_DEFINITION_CONTEXT('part definition',#29,'design');
#24=PRODUCT_DEFINITION_FORMATION_WITH_SPECIFIED_SOURCE(' ',' ',#26,
 .NOT_KNOWN.);
#25=PRODUCT_RELATED_PRODUCT_CATEGORY('part','',(#26));
#26=PRODUCT('reic1C24C78Ap7o2','reic1C24C78Ap7o2',' ',(#27));
#27=PRODUCT_CONTEXT(' ',#29,'mechanical');
#28=APPLICATION_PROTOCOL_DEFINITION('international standard',
'automotive_design',2010,#29);
#29=APPLICATION_CONTEXT(
'core data for automotive mechanical design processes');
#30=SHAPE_REPRESENTATION('reic1C24C78Ap7o2-None',(#154),#253);
#31=PRESENTATION_LAYER_ASSIGNMENT('210','Layer 210',(#40));
#32=STYLED_ITEM('',(#33),#40);
#33=PRESENTATION_STYLE_ASSIGNMENT((#34));
#34=SURFACE_STYLE_USAGE(.BOTH.,#35);
#35=SURFACE_SIDE_STYLE('',(#36));
#36=SURFACE_STYLE_FILL_AREA(#37);
#37=FILL_AREA_STYLE('',(#38));
#38=FILL_AREA_STYLE_COLOUR('',#39);
#39=COLOUR_RGB('RAL 7035',0.8,0.8,0.8);
#40=MANIFOLD_SOLID_BREP('',#41);
#41=CLOSED_SHELL('',(#50,#51,#52,#53,#54,#55,#56,#57,#58,#59,#60));
#42=FACE_OUTER_BOUND('',#100,.T.);
#43=FACE_OUTER_BOUND('',#103,.T.);
#44=CONICAL_SURFACE('',#169,10.0723145172501,8.00000000000004);
#45=TOROIDAL_SURFACE('',#161,23.,2.);
#46=CYLINDRICAL_SURFACE('',#160,25.);
#47=CYLINDRICAL_SURFACE('',#165,16.);
#48=CYLINDRICAL_SURFACE('',#171,8.);
#49=CYLINDRICAL_SURFACE('',#174,9.99999999999999);
#50=ADVANCED_FACE('',(#66,#67),#61,.F.);
#51=ADVANCED_FACE('',(#68,#69),#46,.T.);
#52=ADVANCED_FACE('',(#70,#71),#45,.T.);
#53=ADVANCED_FACE('',(#72,#73),#62,.F.);
#54=ADVANCED_FACE('',(#74,#75),#47,.T.);
#55=ADVANCED_FACE('',(#76,#77),#63,.F.);
#56=ADVANCED_FACE('',(#78,#79),#44,.T.);
#57=ADVANCED_FACE('',(#80,#81),#48,.T.);
#58=ADVANCED_FACE('',(#42),#64,.F.);
#59=ADVANCED_FACE('',(#82,#83),#49,.F.);
#60=ADVANCED_FACE('',(#43),#65,.F.);
#61=PLANE('',#157);
#62=PLANE('',#163);
#63=PLANE('',#167);
#64=PLANE('',#172);
#65=PLANE('',#175);
#66=FACE_BOUND('',#84,.T.);
#67=FACE_BOUND('',#85,.T.);
#68=FACE_BOUND('',#86,.T.);
#69=FACE_BOUND('',#87,.T.);
#70=FACE_BOUND('',#88,.T.);
#71=FACE_BOUND('',#89,.T.);
#72=FACE_BOUND('',#90,.T.);
#73=FACE_BOUND('',#91,.T.);
#74=FACE_BOUND('',#92,.T.);
#75=FACE_BOUND('',#93,.T.);
#76=FACE_BOUND('',#94,.T.);
#77=FACE_BOUND('',#95,.T.);
#78=FACE_BOUND('',#96,.T.);
#79=FACE_BOUND('',#97,.T.);
#80=FACE_BOUND('',#98,.T.);
#81=FACE_BOUND('',#99,.T.);
#82=FACE_BOUND('',#101,.T.);
#83=FACE_BOUND('',#102,.T.);
#84=EDGE_LOOP('',(#104));
#85=EDGE_LOOP('',(#105));
#86=EDGE_LOOP('',(#106));
#87=EDGE_LOOP('',(#107));
#88=EDGE_LOOP('',(#108));
#89=EDGE_LOOP('',(#109));
#90=EDGE_LOOP('',(#110));
#91=EDGE_LOOP('',(#111));
#92=EDGE_LOOP('',(#112));
#93=EDGE_LOOP('',(#113));
#94=EDGE_LOOP('',(#114));
#95=EDGE_LOOP('',(#115));
#96=EDGE_LOOP('',(#116));
#97=EDGE_LOOP('',(#117));
#98=EDGE_LOOP('',(#118));
#99=EDGE_LOOP('',(#119));
#100=EDGE_LOOP('',(#120));
#101=EDGE_LOOP('',(#121));
#102=EDGE_LOOP('',(#122));
#103=EDGE_LOOP('',(#123));
#104=ORIENTED_EDGE('',*,*,#134,.F.);
#105=ORIENTED_EDGE('',*,*,#135,.T.);
#106=ORIENTED_EDGE('',*,*,#136,.T.);
#107=ORIENTED_EDGE('',*,*,#137,.T.);
#108=ORIENTED_EDGE('',*,*,#134,.T.);
#109=ORIENTED_EDGE('',*,*,#136,.F.);
#110=ORIENTED_EDGE('',*,*,#138,.T.);
#111=ORIENTED_EDGE('',*,*,#137,.F.);
#112=ORIENTED_EDGE('',*,*,#139,.T.);
#113=ORIENTED_EDGE('',*,*,#138,.F.);
#114=ORIENTED_EDGE('',*,*,#139,.F.);
#115=ORIENTED_EDGE('',*,*,#140,.T.);
#116=ORIENTED_EDGE('',*,*,#141,.F.);
#117=ORIENTED_EDGE('',*,*,#140,.F.);
#118=ORIENTED_EDGE('',*,*,#141,.T.);
#119=ORIENTED_EDGE('',*,*,#142,.T.);
#120=ORIENTED_EDGE('',*,*,#142,.F.);
#121=ORIENTED_EDGE('',*,*,#135,.F.);
#122=ORIENTED_EDGE('',*,*,#143,.F.);
#123=ORIENTED_EDGE('',*,*,#143,.T.);
#124=VERTEX_POINT('',#222);
#125=VERTEX_POINT('',#224);
#126=VERTEX_POINT('',#227);
#127=VERTEX_POINT('',#229);
#128=VERTEX_POINT('',#233);
#129=VERTEX_POINT('',#236);
#130=VERTEX_POINT('',#239);
#131=VERTEX_POINT('',#242);
#132=VERTEX_POINT('',#245);
#133=VERTEX_POINT('',#249);
#134=EDGE_CURVE('',#124,#124,#144,.T.);
#135=EDGE_CURVE('',#125,#125,#145,.T.);
#136=EDGE_CURVE('',#126,#126,#146,.T.);
#137=EDGE_CURVE('',#127,#127,#147,.T.);
#138=EDGE_CURVE('',#128,#128,#148,.T.);
#139=EDGE_CURVE('',#129,#129,#149,.T.);
#140=EDGE_CURVE('',#130,#130,#150,.T.);
#141=EDGE_CURVE('',#131,#131,#151,.T.);
#142=EDGE_CURVE('',#132,#132,#152,.T.);
#143=EDGE_CURVE('',#133,#133,#153,.T.);
#144=CIRCLE('',#155,23.);
#145=CIRCLE('',#156,9.99999999999999);
#146=CIRCLE('',#158,25.);
#147=CIRCLE('',#159,25.);
#148=CIRCLE('',#162,16.);
#149=CIRCLE('',#164,16.);
#150=CIRCLE('',#166,10.0723145172501);
#151=CIRCLE('',#168,8.);
#152=CIRCLE('',#170,8.);
#153=CIRCLE('',#173,9.99999999999999);
#154=AXIS2_PLACEMENT_3D('',#220,#176,#177);
#155=AXIS2_PLACEMENT_3D('',#221,#178,#179);
#156=AXIS2_PLACEMENT_3D('',#223,#180,#181);
#157=AXIS2_PLACEMENT_3D('',#225,#182,#183);
#158=AXIS2_PLACEMENT_3D('',#226,#184,#185);
#159=AXIS2_PLACEMENT_3D('',#228,#186,#187);
#160=AXIS2_PLACEMENT_3D('',#230,#188,#189);
#161=AXIS2_PLACEMENT_3D('',#231,#190,#191);
#162=AXIS2_PLACEMENT_3D('',#232,#192,#193);
#163=AXIS2_PLACEMENT_3D('',#234,#194,#195);
#164=AXIS2_PLACEMENT_3D('',#235,#196,#197);
#165=AXIS2_PLACEMENT_3D('',#237,#198,#199);
#166=AXIS2_PLACEMENT_3D('',#238,#200,#201);
#167=AXIS2_PLACEMENT_3D('',#240,#202,#203);
#168=AXIS2_PLACEMENT_3D('',#241,#204,#205);
#169=AXIS2_PLACEMENT_3D('',#243,#206,#207);
#170=AXIS2_PLACEMENT_3D('',#244,#208,#209);
#171=AXIS2_PLACEMENT_3D('',#246,#210,#211);
#172=AXIS2_PLACEMENT_3D('',#247,#212,#213);
#173=AXIS2_PLACEMENT_3D('',#248,#214,#215);
#174=AXIS2_PLACEMENT_3D('',#250,#216,#217);
#175=AXIS2_PLACEMENT_3D('',#251,#218,#219);
#176=DIRECTION('',(0.,0.,1.));
#177=DIRECTION('',(1.,0.,0.));
#178=DIRECTION('',(0.,0.,-1.));
#179=DIRECTION('',(-1.,0.,0.));
#180=DIRECTION('',(0.,0.,-1.));
#181=DIRECTION('',(-1.,0.,0.));
#182=DIRECTION('',(0.,0.,-1.));
#183=DIRECTION('',(1.,0.,0.));
#184=DIRECTION('',(0.,0.,-1.));
#185=DIRECTION('',(-1.,0.,0.));
#186=DIRECTION('',(0.,0.,1.));
#187=DIRECTION('',(1.,0.,0.));
#188=DIRECTION('',(0.,0.,-1.));
#189=DIRECTION('',(1.,0.,0.));
#190=DIRECTION('',(0.,0.,-1.));
#191=DIRECTION('',(1.,0.,0.));
#192=DIRECTION('',(0.,0.,1.));
#193=DIRECTION('',(1.,0.,0.));
#194=DIRECTION('',(0.,0.,1.));
#195=DIRECTION('',(-1.,0.,0.));
#196=DIRECTION('',(0.,0.,1.));
#197=DIRECTION('',(1.,0.,0.));
#198=DIRECTION('',(0.,0.,-1.));
#199=DIRECTION('',(1.,0.,0.));
#200=DIRECTION('',(0.,0.,1.));
#201=DIRECTION('',(1.,0.,0.));
#202=DIRECTION('',(0.,0.,1.));
#203=DIRECTION('',(-1.,0.,0.));
#204=DIRECTION('',(0.,0.,-1.));
#205=DIRECTION('',(1.,0.,0.));
#206=DIRECTION('',(0.,0.,1.));
#207=DIRECTION('',(-1.,0.,2.53390335898458E-016));
#208=DIRECTION('',(0.,0.,1.));
#209=DIRECTION('',(1.,0.,0.));
#210=DIRECTION('',(0.,0.,-1.));
#211=DIRECTION('',(1.,0.,0.));
#212=DIRECTION('',(0.,0.,1.));
#213=DIRECTION('',(-1.,0.,0.));
#214=DIRECTION('',(0.,0.,1.));
#215=DIRECTION('',(-1.,0.,0.));
#216=DIRECTION('',(0.,0.,-1.));
#217=DIRECTION('',(1.,0.,0.));
#218=DIRECTION('',(0.,0.,-1.));
#219=DIRECTION('',(-1.,0.,0.));
#220=CARTESIAN_POINT('',(0.,0.,0.));
#221=CARTESIAN_POINT('',(0.,0.,40.));
#222=CARTESIAN_POINT('',(-23.,0.,40.));
#223=CARTESIAN_POINT('',(0.,0.,40.));
#224=CARTESIAN_POINT('',(-9.99999999999999,0.,40.));
#225=CARTESIAN_POINT('',(0.,0.,40.));
#226=CARTESIAN_POINT('',(0.,0.,38.));
#227=CARTESIAN_POINT('',(-25.,0.,38.));
#228=CARTESIAN_POINT('',(0.,0.,0.));
#229=CARTESIAN_POINT('',(25.,0.,0.));
#230=CARTESIAN_POINT('',(0.,0.,-41.));
#231=CARTESIAN_POINT('',(0.,0.,38.));
#232=CARTESIAN_POINT('',(0.,0.,0.));
#233=CARTESIAN_POINT('',(16.,0.,0.));
#234=CARTESIAN_POINT('',(0.,25.,0.));
#235=CARTESIAN_POINT('',(0.,0.,-18.5));
#236=CARTESIAN_POINT('',(16.,0.,-18.5));
#237=CARTESIAN_POINT('',(0.,0.,-41.));
#238=CARTESIAN_POINT('',(0.,0.,-18.5));
#239=CARTESIAN_POINT('',(10.0723145172501,0.,-18.5));
#240=CARTESIAN_POINT('',(0.,16.,-18.5));
#241=CARTESIAN_POINT('',(0.,0.,-33.2452839712988));
#242=CARTESIAN_POINT('',(8.,0.,-33.2452839712988));
#243=CARTESIAN_POINT('',(0.,0.,-18.5));
#244=CARTESIAN_POINT('',(0.,0.,-41.));
#245=CARTESIAN_POINT('',(8.,0.,-41.));
#246=CARTESIAN_POINT('',(0.,0.,-41.));
#247=CARTESIAN_POINT('',(0.,0.,-41.));
#248=CARTESIAN_POINT('',(0.,0.,-1.));
#249=CARTESIAN_POINT('',(-9.99999999999999,0.,-1.));
#250=CARTESIAN_POINT('',(0.,0.,-42.4884705629218));
#251=CARTESIAN_POINT('',(0.,0.,-1.));
#252=MECHANICAL_DESIGN_GEOMETRIC_PRESENTATION_REPRESENTATION('',(#32),#253);
#253=(
GEOMETRIC_REPRESENTATION_CONTEXT(3)
GLOBAL_UNCERTAINTY_ASSIGNED_CONTEXT((#254))
GLOBAL_UNIT_ASSIGNED_CONTEXT((#260,#256,#255))
REPRESENTATION_CONTEXT('W9990789_stp','TOP_LEVEL_ASSEMBLY_PART')
);
#254=UNCERTAINTY_MEASURE_WITH_UNIT(LENGTH_MEASURE(2.E-005),#260,
'DISTANCE_ACCURACY_VALUE','Maximum Tolerance applied to model');
#255=(
NAMED_UNIT(*)
SI_UNIT($,.STERADIAN.)
SOLID_ANGLE_UNIT()
);
#256=(
CONVERSION_BASED_UNIT('DEGREE',#258)
NAMED_UNIT(#257)
PLANE_ANGLE_UNIT()
);
#257=DIMENSIONAL_EXPONENTS(0.,0.,0.,0.,0.,0.,0.);
#258=PLANE_ANGLE_MEASURE_WITH_UNIT(PLANE_ANGLE_MEASURE(0.0174532925),#259);
#259=(
NAMED_UNIT(*)
PLANE_ANGLE_UNIT()
SI_UNIT($,.RADIAN.)
);
#260=(
LENGTH_UNIT()
NAMED_UNIT(*)
SI_UNIT(.MILLI.,.METRE.)
);
ENDSEC;
END-ISO-10303-21;
