  0
SECTION
  2
HEADER
  9
$ACADVER
  1
AC1032
  9
$ACADMAINTVER
 90
      228
  9
$DWGCODEPAGE
  3
ANSI_1252
  9
$REQUIREDVERSIONS
160
                 0
  9
$INSBASE
 10
0.0
 20
0.0
 30
0.0
  9
$EXTMIN
 10
1.000000000000000E+20
 20
1.000000000000000E+20
 30
1.000000000000000E+20
  9
$EXTMAX
 10
-1.000000000000000E+20
 20
-1.000000000000000E+20
 30
-1.000000000000000E+20
  9
$LIMMIN
 10
0.0
 20
0.0
  9
$LIMMAX
 10
12.0
 20
9.0
  9
$ORTHOMODE
 70
     0
  9
$REGENMODE
 70
     1
  9
$FILLMODE
 70
     1
  9
$QTEXTMODE
 70
     0
  9
$MIRRTEXT
 70
     0
  9
$LTSCALE
 40
1.0
  9
$ATTMODE
 70
     1
  9
$TEXTSIZE
 40
0.2
  9
$TRACEWID
 40
0.05
  9
$TEXTSTYLE
  7
Standard
  9
$CLAYER
  8
0
  9
$CELTYPE
  6
ByLayer
  9
$CECOLOR
 62
   256
  9
$CELTSCALE
 40
1.0
  9
$DISPSILH
 70
     0
  9
$DIMSCALE
 40
1.0
  9
$DIMASZ
 40
0.18
  9
$DIMEXO
 40
0.0625
  9
$DIMDLI
 40
0.38
  9
$DIMRND
 40
0.0
  9
$DIMDLE
 40
0.0
  9
$DIMEXE
 40
0.18
  9
$DIMTP
 40
0.0
  9
$DIMTM
 40
0.0
  9
$DIMTXT
 40
0.18
  9
$DIMCEN
 40
0.09
  9
$DIMTSZ
 40
0.0
  9
$DIMTOL
 70
     0
  9
$DIMLIM
 70
     0
  9
$DIMTIH
 70
     1
  9
$DIMTOH
 70
     1
  9
$DIMSE1
 70
     0
  9
$DIMSE2
 70
     0
  9
$DIMTAD
 70
     0
  9
$DIMZIN
 70
     0
  9
$DIMBLK
  1

  9
$DIMASO
 70
     1
  9
$DIMSHO
 70
     1
  9
$DIMPOST
  1

  9
$DIMAPOST
  1

  9
$DIMALT
 70
     0
  9
$DIMALTD
 70
     2
  9
$DIMALTF
 40
25.4
  9
$DIMLFAC
 40
1.0
  9
$DIMTOFL
 70
     0
  9
$DIMTVP
 40
0.0
  9
$DIMTIX
 70
     0
  9
$DIMSOXD
 70
     0
  9
$DIMSAH
 70
     0
  9
$DIMBLK1
  1

  9
$DIMBLK2
  1

  9
$DIMSTYLE
  2
Standard
  9
$DIMCLRD
 70
     0
  9
$DIMCLRE
 70
     0
  9
$DIMCLRT
 70
     0
  9
$DIMTFAC
 40
1.0
  9
$DIMGAP
 40
0.09
  9
$DIMJUST
 70
     0
  9
$DIMSD1
 70
     0
  9
$DIMSD2
 70
     0
  9
$DIMTOLJ
 70
     1
  9
$DIMTZIN
 70
     0
  9
$DIMALTZ
 70
     0
  9
$DIMALTTZ
 70
     0
  9
$DIMUPT
 70
     0
  9
$DIMDEC
 70
     4
  9
$DIMTDEC
 70
     4
  9
$DIMALTU
 70
     2
  9
$DIMALTTD
 70
     2
  9
$DIMTXSTY
  7
Standard
  9
$DIMAUNIT
 70
     0
  9
$DIMADEC
 70
     0
  9
$DIMALTRND
 40
0.0
  9
$DIMAZIN
 70
     0
  9
$DIMDSEP
 70
    46
  9
$DIMATFIT
 70
     3
  9
$DIMFRAC
 70
     0
  9
$DIMLDRBLK
  1

  9
$DIMLUNIT
 70
     2
  9
$DIMLWD
 70
    -2
  9
$DIMLWE
 70
    -2
  9
$DIMTMOVE
 70
     0
  9
$DIMFXL
 40
1.0
  9
$DIMFXLON
 70
     0
  9
$DIMJOGANG
 40
0.7853981633974483
  9
$DIMTFILL
 70
     0
  9
$DIMTFILLCLR
 70
     0
  9
$DIMARCSYM
 70
     0
  9
$DIMLTYPE
  6

  9
$DIMLTEX1
  6

  9
$DIMLTEX2
  6

  9
$DIMTXTDIRECTION
 70
     0
  9
$LUNITS
 70
     2
  9
$LUPREC
 70
     4
  9
$SKETCHINC
 40
0.1
  9
$FILLETRAD
 40
0.0
  9
$AUNITS
 70
     0
  9
$AUPREC
 70
     0
  9
$MENU
  1
.
  9
$ELEVATION
 40
0.0
  9
$PELEVATION
 40
0.0
  9
$THICKNESS
 40
0.0
  9
$LIMCHECK
 70
     0
  9
$CHAMFERA
 40
0.0
  9
$CHAMFERB
 40
0.0
  9
$CHAMFERC
 40
0.0
  9
$CHAMFERD
 40
0.0
  9
$SKPOLY
 70
     0
  9
$TDCREATE
 40
2460101.448530092
  9
$TDUCREATE
 40
2460101.365196759
  9
$TDUPDATE
 40
2460101.448530092
  9
$TDUUPDATE
 40
2460101.365196759
  9
$TDINDWG
 40
0.0000000000
  9
$TDUSRTIMER
 40
0.0000000000
  9
$USRTIMER
 70
     1
  9
$ANGBASE
 50
0.0
  9
$ANGDIR
 70
     0
  9
$PDMODE
 70
     0
  9
$PDSIZE
 40
0.0
  9
$PLINEWID
 40
0.0
  9
$SPLFRAME
 70
     0
  9
$SPLINETYPE
 70
     6
  9
$SPLINESEGS
 70
     8
  9
$HANDSEED
  5
2B3
  9
$SURFTAB1
 70
     6
  9
$SURFTAB2
 70
     6
  9
$SURFTYPE
 70
     6
  9
$SURFU
 70
     6
  9
$SURFV
 70
     6
  9
$UCSBASE
  2

  9
$UCSNAME
  2

  9
$UCSORG
 10
0.0
 20
0.0
 30
0.0
  9
$UCSXDIR
 10
1.0
 20
0.0
 30
0.0
  9
$UCSYDIR
 10
0.0
 20
1.0
 30
0.0
  9
$UCSORTHOREF
  2

  9
$UCSORTHOVIEW
 70
     0
  9
$UCSORGTOP
 10
0.0
 20
0.0
 30
0.0
  9
$UCSORGBOTTOM
 10
0.0
 20
0.0
 30
0.0
  9
$UCSORGLEFT
 10
0.0
 20
0.0
 30
0.0
  9
$UCSORGRIGHT
 10
0.0
 20
0.0
 30
0.0
  9
$UCSORGFRONT
 10
0.0
 20
0.0
 30
0.0
  9
$UCSORGBACK
 10
0.0
 20
0.0
 30
0.0
  9
$PUCSBASE
  2

  9
$PUCSNAME
  2

  9
$PUCSORG
 10
0.0
 20
0.0
 30
0.0
  9
$PUCSXDIR
 10
1.0
 20
0.0
 30
0.0
  9
$PUCSYDIR
 10
0.0
 20
1.0
 30
0.0
  9
$PUCSORTHOREF
  2

  9
$PUCSORTHOVIEW
 70
     0
  9
$PUCSORGTOP
 10
0.0
 20
0.0
 30
0.0
  9
$PUCSORGBOTTOM
 10
0.0
 20
0.0
 30
0.0
  9
$PUCSORGLEFT
 10
0.0
 20
0.0
 30
0.0
  9
$PUCSORGRIGHT
 10
0.0
 20
0.0
 30
0.0
  9
$PUCSORGFRONT
 10
0.0
 20
0.0
 30
0.0
  9
$PUCSORGBACK
 10
0.0
 20
0.0
 30
0.0
  9
$USERI1
 70
     0
  9
$USERI2
 70
     0
  9
$USERI3
 70
     0
  9
$USERI4
 70
     0
  9
$USERI5
 70
     0
  9
$USERR1
 40
0.0
  9
$USERR2
 40
0.0
  9
$USERR3
 40
0.0
  9
$USERR4
 40
0.0
  9
$USERR5
 40
0.0
  9
$WORLDVIEW
 70
     1
  9
$SHADEDGE
 70
     3
  9
$SHADEDIF
 70
    70
  9
$TILEMODE
 70
     1
  9
$MAXACTVP
 70
    64
  9
$PINSBASE
 10
0.0
 20
0.0
 30
0.0
  9
$PLIMCHECK
 70
     0
  9
$PEXTMIN
 10
1.000000000000000E+20
 20
1.000000000000000E+20
 30
1.000000000000000E+20
  9
$PEXTMAX
 10
-1.000000000000000E+20
 20
-1.000000000000000E+20
 30
-1.000000000000000E+20
  9
$PLIMMIN
 10
0.0
 20
0.0
  9
$PLIMMAX
 10
12.0
 20
9.0
  9
$UNITMODE
 70
     0
  9
$VISRETAIN
 70
     1
  9
$PLINEGEN
 70
     0
  9
$PSLTSCALE
 70
     1
  9
$TREEDEPTH
 70
  3020
  9
$CMLSTYLE
  2
Standard
  9
$CMLJUST
 70
     0
  9
$CMLSCALE
 40
1.0
  9
$PROXYGRAPHICS
 70
     1
  9
$MEASUREMENT
 70
     0
  9
$CELWEIGHT
370
    -1
  9
$ENDCAPS
280
     0
  9
$JOINSTYLE
280
     0
  9
$LWDISPLAY
290
     1
  9
$INSUNITS
 70
     4
  9
$HYPERLINKBASE
  1

  9
$STYLESHEET
  1

  9
$XEDIT
290
     1
  9
$CEPSNTYPE
380
     0
  9
$PSTYLEMODE
290
     1
  9
$FINGERPRINTGUID
  2
{68FD6B19-B50D-6047-AD6D-C9C2370CC085}
  9
$VERSIONGUID
  2
{DABCDF8D-DB12-7445-B0F1-B978E701DF08}
  9
$EXTNAMES
290
     1
  9
$PSVPSCALE
 40
0.0
  9
$OLESTARTUP
290
     0
  9
$SORTENTS
280
   127
  9
$INDEXCTL
280
     0
  9
$HIDETEXT
280
     1
  9
$XCLIPFRAME
280
     2
  9
$HALOGAP
280
     0
  9
$OBSCOLOR
 70
   257
  9
$OBSLTYPE
280
     0
  9
$INTERSECTIONDISPLAY
280
     0
  9
$INTERSECTIONCOLOR
 70
   257
  9
$DIMASSOC
280
     2
  9
$PROJECTNAME
  1

  9
$CAMERADISPLAY
290
     0
  9
$LENSLENGTH
 40
50.0
  9
$CAMERAHEIGHT
 40
0.0
  9
$STEPSPERSEC
 40
2.0
  9
$STEPSIZE
 40
6.0
  9
$3DDWFPREC
 40
2.0
  9
$PSOLWIDTH
 40
0.25
  9
$PSOLHEIGHT
 40
4.0
  9
$LOFTANG1
 40
1.570796326794896
  9
$LOFTANG2
 40
1.570796326794896
  9
$LOFTMAG1
 40
0.0
  9
$LOFTMAG2
 40
0.0
  9
$LOFTPARAM
 70
     7
  9
$LOFTNORMALS
280
     1
  9
$LATITUDE
 40
37.795
  9
$LONGITUDE
 40
-122.394
  9
$NORTHDIRECTION
 40
0.0
  9
$TIMEZONE
 70
 -8000
  9
$LIGHTGLYPHDISPLAY
280
     1
  9
$TILEMODELIGHTSYNCH
280
     1
  9
$CMATERIAL
347
11
  9
$SOLIDHIST
280
     0
  9
$SHOWHIST
280
     1
  9
$DWFFRAME
280
     2
  9
$DGNFRAME
280
     0
  9
$REALWORLDSCALE
290
     1
  9
$INTERFERECOLOR
 62
     1
  9
$INTERFEREOBJVS
345
33
  9
$INTERFEREVPVS
346
30
  9
$CSHADOW
280
     0
  9
$SHADOWPLANELOCATION
 40
0.0
  0
ENDSEC
  0
SECTION
  2
CLASSES
  0
CLASS
  1
ACDBDICTIONARYWDFLT
  2
AcDbDictionaryWithDefault
  3
ObjectDBX Classes
 90
        0
 91
        1
280
     0
281
     0
  0
CLASS
  1
MATERIAL
  2
AcDbMaterial
  3
ObjectDBX Classes
 90
     1153
 91
        3
280
     0
281
     0
  0
CLASS
  1
VISUALSTYLE
  2
AcDbVisualStyle
  3
ObjectDBX Classes
 90
     4095
 91
       24
280
     0
281
     0
  0
CLASS
  1
SCALE
  2
AcDbScale
  3
ObjectDBX Classes
 90
     1153
 91
       17
280
     0
281
     0
  0
CLASS
  1
TABLESTYLE
  2
AcDbTableStyle
  3
ObjectDBX Classes
 90
     4095
 91
        1
280
     0
281
     0
  0
CLASS
  1
MLEADERSTYLE
  2
AcDbMLeaderStyle
  3
ACDB_MLEADERSTYLE_CLASS
 90
     4095
 91
        1
280
     0
281
     0
  0
CLASS
  1
ACDBSECTIONVIEWSTYLE
  2
AcDbSectionViewStyle
  3
ObjectDBX Classes
 90
     1025
 91
        1
280
     0
281
     0
  0
CLASS
  1
ACDBDETAILVIEWSTYLE
  2
AcDbDetailViewStyle
  3
ObjectDBX Classes
 90
     1025
 91
        1
280
     0
281
     0
  0
CLASS
  1
DICTIONARYVAR
  2
AcDbDictionaryVar
  3
ObjectDBX Classes
 90
        0
 91
        5
280
     0
281
     0
  0
CLASS
  1
CELLSTYLEMAP
  2
AcDbCellStyleMap
  3
ObjectDBX Classes
 90
     1152
 91
        1
280
     0
281
     0
  0
ENDSEC
  0
SECTION
  2
TABLES
  0
TABLE
  2
VPORT
  5
8
330
0
100
AcDbSymbolTable
 70
     1
  0
VPORT
  5
57
330
8
100
AcDbSymbolTableRecord
100
AcDbViewportTableRecord
  2
*Active
 70
     0
 10
0.0
 20
0.0
 11
1.0
 21
1.0
 12
0.0
 22
0.0
 13
0.0
 23
0.0
 14
1.0
 24
1.0
 15
0.0
 25
0.0
 16
0.0
 26
0.0
 36
1.0
 17
94.04912614974815
 27
138.9864352239165
 37
0.0
 40
183.7142990368069
 41
0.8880288346684878
 42
50.0
 43
0.0
 44
0.0
 50
0.0
 51
0.0
 71
     0
 72
   100
 73
     1
 74
     1
 75
     0
 76
     0
 77
     0
 78
     0
281
     0
 65
     1
110
0.0
120
0.0
130
0.0
111
1.0
121
0.0
131
0.0
112
0.0
122
1.0
132
0.0
 79
     0
146
0.0
 60
     3
 61
     5
292
     1
282
     1
141
0.0
142
0.0
 63
   250
421
  3355443
  0
ENDTAB
  0
TABLE
  2
LTYPE
  5
5
330
0
100
AcDbSymbolTable
 70
     7
  0
LTYPE
  5
5B
330
5
100
AcDbSymbolTableRecord
100
AcDbLinetypeTableRecord
  2
ByBlock
 70
     0
  3

 72
    65
 73
     0
 40
0.0
  0
LTYPE
  5
5C
330
5
100
AcDbSymbolTableRecord
100
AcDbLinetypeTableRecord
  2
ByLayer
 70
     0
  3

 72
    65
 73
     0
 40
0.0
  0
LTYPE
  5
5D
330
5
100
AcDbSymbolTableRecord
100
AcDbLinetypeTableRecord
  2
Continuous
 70
     0
  3
Solid line
 72
    65
 73
     0
 40
0.0
  0
LTYPE
  5
C7
330
5
100
AcDbSymbolTableRecord
100
AcDbLinetypeTableRecord
  2
AI-Linetype-0
 70
     0
  3
Adobe Illustrator Linetype No. 0
 72
    65
 73
     4
 40
8.819444442239584
 49
7.055555553791666
 74
     0
 49
-0.7055555553791667
 74
     0
 49
0.3527777776895833
 74
     0
 49
-0.7055555553791667
 74
     0
  0
LTYPE
  5
C9
330
5
100
AcDbSymbolTableRecord
100
AcDbLinetypeTableRecord
  2
AI-Linetype-1
 70
     0
  3
Adobe Illustrator Linetype No. 1
 72
    65
 73
     4
 40
8.819444442239584
 49
7.055555553791666
 74
     0
 49
-0.7055555553791667
 74
     0
 49
0.3527777776895833
 74
     0
 49
-0.7055555553791667
 74
     0
  0
LTYPE
  5
CB
330
5
100
AcDbSymbolTableRecord
100
AcDbLinetypeTableRecord
  2
AI-Linetype-2
 70
     0
  3
Adobe Illustrator Linetype No. 2
 72
    65
 73
     4
 40
8.819444442239584
 49
7.055555553791666
 74
     0
 49
-0.7055555553791667
 74
     0
 49
0.3527777776895833
 74
     0
 49
-0.7055555553791667
 74
     0
  0
LTYPE
  5
CD
330
5
100
AcDbSymbolTableRecord
100
AcDbLinetypeTableRecord
  2
AI-Linetype-3
 70
     0
  3
Adobe Illustrator Linetype No. 3
 72
    65
 73
     4
 40
8.819444442239584
 49
7.055555553791666
 74
     0
 49
-0.7055555553791667
 74
     0
 49
0.3527777776895833
 74
     0
 49
-0.7055555553791667
 74
     0
  0
LTYPE
  5
CF
330
5
100
AcDbSymbolTableRecord
100
AcDbLinetypeTableRecord
  2
AI-Linetype-4
 70
     0
  3
Adobe Illustrator Linetype No. 4
 72
    65
 73
     4
 40
8.819444442239584
 49
7.055555553791666
 74
     0
 49
-0.7055555553791667
 74
     0
 49
0.3527777776895833
 74
     0
 49
-0.7055555553791667
 74
     0
  0
LTYPE
  5
D1
330
5
100
AcDbSymbolTableRecord
100
AcDbLinetypeTableRecord
  2
AI-Linetype-5
 70
     0
  3
Adobe Illustrator Linetype No. 5
 72
    65
 73
     4
 40
8.819444442239584
 49
7.055555553791666
 74
     0
 49
-0.7055555553791667
 74
     0
 49
0.3527777776895833
 74
     0
 49
-0.7055555553791667
 74
     0
  0
ENDTAB
  0
TABLE
  2
LAYER
  5
2
330
0
100
AcDbSymbolTable
 70
     6
  0
LAYER
  5
54
330
2
100
AcDbSymbolTableRecord
100
AcDbLayerTableRecord
  2
0
 70
     0
 62
     7
  6
Continuous
370
    -3
390
F
347
21
348
0
  0
LAYER
  5
78
330
2
100
AcDbSymbolTableRecord
100
AcDbLayerTableRecord
  2
grau 10%
 70
     1
 62
     7
  6
Continuous
370
     0
390
F
347
21
348
0
  0
LAYER
  5
7D
330
2
100
AcDbSymbolTableRecord
100
AcDbLayerTableRecord
  2
Standardebene
 70
     0
 62
     7
  6
Continuous
370
     0
390
F
347
21
348
0
  0
LAYER
  5
162
330
2
100
AcDbSymbolTableRecord
100
AcDbLayerTableRecord
  2
Text
 70
     1
 62
     7
  6
Continuous
370
     0
390
F
347
21
348
0
  0
LAYER
  5
169
330
2
100
AcDbSymbolTableRecord
100
AcDbLayerTableRecord
  2
Bemaßung
 70
     1
 62
     7
  6
Continuous
370
     0
390
F
347
21
348
0
  0
LAYER
  5
246
330
2
100
AcDbSymbolTableRecord
100
AcDbLayerTableRecord
  2
Ebene 5
 70
     1
 62
     7
  6
Continuous
370
     0
390
F
347
21
348
0
  0
ENDTAB
  0
TABLE
  2
STYLE
  5
3
330
0
100
AcDbSymbolTable
 70
     2
  0
STYLE
  5
55
330
3
100
AcDbSymbolTableRecord
100
AcDbTextStyleTableRecord
  2
Standard
 70
     0
 40
0.0
 41
1.0
 50
0.0
 71
     0
 42
0.2
  3
txt
  4

  0
STYLE
  5
5A
330
3
100
AcDbSymbolTableRecord
100
AcDbTextStyleTableRecord
  2
Annotative
 70
     0
 40
0.0
 41
1.0
 50
0.0
 71
     0
 42
0.2
  3
txt
  4

1001
AcadAnnotative
1000
AnnotativeData
1002
{
1070
     1
1070
     1
1002
}
  0
ENDTAB
  0
TABLE
  2
VIEW
  5
6
330
0
100
AcDbSymbolTable
 70
     0
  0
ENDTAB
  0
TABLE
  2
UCS
  5
7
330
0
100
AcDbSymbolTable
 70
     0
  0
ENDTAB
  0
TABLE
  2
APPID
  5
9
330
0
100
AcDbSymbolTable
 70
     2
  0
APPID
  5
56
330
9
100
AcDbSymbolTableRecord
100
AcDbRegAppTableRecord
  2
ACAD
 70
     0
  0
APPID
  5
5E
330
9
100
AcDbSymbolTableRecord
100
AcDbRegAppTableRecord
  2
AcadAnnotative
 70
     0
  0
ENDTAB
  0
TABLE
  2
DIMSTYLE
  5
A
330
0
100
AcDbSymbolTable
 70
     2
100
AcDbDimStyleTable
 71
     0
  0
DIMSTYLE
105
58
330
A
100
AcDbSymbolTableRecord
100
AcDbDimStyleTableRecord
  2
Standard
 70
     0
340
55
  0
DIMSTYLE
105
59
330
A
100
AcDbSymbolTableRecord
100
AcDbDimStyleTableRecord
  2
Annotative
 70
     0
340
55
1001
AcadAnnotative
1000
AnnotativeData
1002
{
1070
     1
1070
     1
1002
}
  0
ENDTAB
  0
TABLE
  2
BLOCK_RECORD
  5
1
330
0
100
AcDbSymbolTable
 70
     1
  0
BLOCK_RECORD
  5
70
330
1
100
AcDbSymbolTableRecord
100
AcDbBlockTableRecord
  2
*Model_Space
340
73
 70
     0
280
     1
281
     0
  0
BLOCK_RECORD
  5
6C
330
1
100
AcDbSymbolTableRecord
100
AcDbBlockTableRecord
  2
*Paper_Space
340
6F
 70
     0
280
     1
281
     0
  0
BLOCK_RECORD
  5
74
330
1
100
AcDbSymbolTableRecord
100
AcDbBlockTableRecord
  2
*Paper_Space0
340
77
 70
     0
280
     1
281
     0
  0
ENDTAB
  0
ENDSEC
  0
SECTION
  2
BLOCKS
  0
BLOCK
  5
71
330
70
100
AcDbEntity
  8
0
100
AcDbBlockBegin
  2
*Model_Space
 70
     0
 10
0.0
 20
0.0
 30
0.0
  3
*Model_Space
  1

  0
ENDBLK
  5
72
330
70
100
AcDbEntity
  8
0
100
AcDbBlockEnd
  0
BLOCK
  5
6D
330
6C
100
AcDbEntity
 67
     1
  8
0
100
AcDbBlockBegin
  2
*Paper_Space
 70
     0
 10
0.0
 20
0.0
 30
0.0
  3
*Paper_Space
  1

  0
ENDBLK
  5
6E
330
6C
100
AcDbEntity
 67
     1
  8
0
100
AcDbBlockEnd
  0
BLOCK
  5
75
330
74
100
AcDbEntity
 67
     1
  8
0
100
AcDbBlockBegin
  2
*Paper_Space0
 70
     0
 10
0.0
 20
0.0
 30
0.0
  3
*Paper_Space0
  1

  0
ENDBLK
  5
76
330
74
100
AcDbEntity
 67
     1
  8
0
100
AcDbBlockEnd
  0
ENDSEC
  0
SECTION
  2
ENTITIES
  0
SPLINE
  5
79
330
70
100
AcDbEntity
  8
grau 10%
100
AcDbSpline
210
0.0
220
0.0
230
1.0
 70
    11
 71
     3
 72
   182
 73
   178
 74
     0
 42
0.0000000001
 43
0.0000000001
 40
0.0
 40
0.0
 40
0.0
 40
0.0
 40
1.0
 40
1.0
 40
1.0
 40
2.0
 40
2.0
 40
2.0
 40
3.0
 40
3.0
 40
3.0
 40
4.0
 40
4.0
 40
4.0
 40
5.0
 40
5.0
 40
5.0
 40
6.0
 40
6.0
 40
6.0
 40
7.0
 40
7.0
 40
7.0
 40
8.0
 40
8.0
 40
8.0
 40
9.0
 40
9.0
 40
9.0
 40
10.0
 40
10.0
 40
10.0
 40
11.0
 40
11.0
 40
11.0
 40
12.0
 40
12.0
 40
12.0
 40
13.0
 40
13.0
 40
13.0
 40
14.0
 40
14.0
 40
14.0
 40
15.0
 40
15.0
 40
15.0
 40
16.0
 40
16.0
 40
16.0
 40
17.0
 40
17.0
 40
17.0
 40
18.0
 40
18.0
 40
18.0
 40
19.0
 40
19.0
 40
19.0
 40
20.0
 40
20.0
 40
20.0
 40
21.0
 40
21.0
 40
21.0
 40
22.0
 40
22.0
 40
22.0
 40
23.0
 40
23.0
 40
23.0
 40
24.0
 40
24.0
 40
24.0
 40
25.0
 40
25.0
 40
25.0
 40
26.0
 40
26.0
 40
26.0
 40
27.0
 40
27.0
 40
27.0
 40
28.0
 40
28.0
 40
28.0
 40
29.0
 40
29.0
 40
29.0
 40
30.0
 40
30.0
 40
30.0
 40
31.0
 40
31.0
 40
31.0
 40
32.0
 40
32.0
 40
32.0
 40
33.0
 40
33.0
 40
33.0
 40
34.0
 40
34.0
 40
34.0
 40
35.0
 40
35.0
 40
35.0
 40
36.0
 40
36.0
 40
36.0
 40
37.0
 40
37.0
 40
37.0
 40
38.0
 40
38.0
 40
38.0
 40
39.0
 40
39.0
 40
39.0
 40
40.0
 40
40.0
 40
40.0
 40
41.0
 40
41.0
 40
41.0
 40
42.0
 40
42.0
 40
42.0
 40
43.0
 40
43.0
 40
43.0
 40
44.0
 40
44.0
 40
44.0
 40
45.0
 40
45.0
 40
45.0
 40
46.0
 40
46.0
 40
46.0
 40
47.0
 40
47.0
 40
47.0
 40
48.0
 40
48.0
 40
48.0
 40
49.0
 40
49.0
 40
49.0
 40
50.0
 40
50.0
 40
50.0
 40
51.0
 40
51.0
 40
51.0
 40
52.0
 40
52.0
 40
52.0
 40
53.0
 40
53.0
 40
53.0
 40
54.0
 40
54.0
 40
54.0
 40
55.0
 40
55.0
 40
55.0
 40
56.0
 40
56.0
 40
56.0
 40
57.0
 40
57.0
 40
57.0
 40
58.0
 40
58.0
 40
58.0
 40
59.0
 40
59.0
 40
59.0
 40
59.0
 10
87.80599859321567
 20
93.99770704636315
 30
0.0
 10
87.80599859321567
 20
93.99770704636315
 30
0.0
 10
87.78980831138591
 20
133.649892979196
 30
0.0
 10
87.78980831138591
 20
133.649892979196
 30
0.0
 10
87.78980831138591
 20
133.649892979196
 30
0.0
 10
93.62683177804719
 20
133.6981177001879
 30
0.0
 10
93.62683177804719
 20
133.6981177001879
 30
0.0
 10
93.62683177804719
 20
133.6981177001879
 30
0.0
 10
93.67540927680787
 20
140.2789400322972
 30
0.0
 10
93.67540927680787
 20
140.2789400322972
 30
0.0
 10
93.67540927680787
 20
140.2789400322972
 30
0.0
 10
87.757421094455
 20
140.2627475327103
 30
0.0
 10
87.757421094455
 20
140.2627475327103
 30
0.0
 10
87.757421094455
 20
140.2627475327103
 30
0.0
 10
87.77361359404189
 20
172.7746408699294
 30
0.0
 10
87.77361359404189
 20
172.7746408699294
 30
0.0
 10
87.77361359404189
 20
172.7746408699294
 30
0.0
 10
87.15935694304622
 20
173.3565125217513
 30
0.0
 10
87.15935694304622
 20
173.3565125217513
 30
0.0
 10
87.15935694304622
 20
173.3565125217513
 30
0.0
 10
86.75507362002703
 20
173.2917425234037
 30
0.0
 10
86.75507362002703
 20
173.2917425234037
 30
0.0
 10
86.75507362002703
 20
173.2917425234037
 30
0.0
 10
86.7872822303164
 20
186.5181571859698
 30
0.0
 10
86.7872822303164
 20
186.5181571859698
 30
0.0
 10
86.7872822303164
 20
186.5181571859698
 30
0.0
 10
85.70414864683835
 20
186.5343496855567
 30
0.0
 10
85.70414864683835
 20
186.5343496855567
 30
0.0
 10
85.70414864683835
 20
186.5343496855567
 30
0.0
 10
85.65557114807765
 20
186.7930769011783
 30
0.0
 10
85.65557114807765
 20
186.7930769011783
 30
0.0
 10
85.65557114807765
 20
186.7930769011783
 30
0.0
 10
85.41303643204301
 20
187.0032266180391
 30
0.0
 10
85.41303643204301
 20
187.0032266180391
 30
0.0
 10
85.41303643204301
 20
187.0032266180391
 30
0.0
 10
74.41801171254946
 20
187.0032266180391
 30
0.0
 10
74.41801171254946
 20
187.0032266180391
 30
0.0
 10
74.41801171254946
 20
187.0032266180391
 30
0.0
 10
74.17547699651482
 20
186.7444994024175
 30
0.0
 10
74.17547699651482
 20
186.7444994024175
 30
0.0
 10
74.17547699651482
 20
186.7444994024175
 30
0.0
 10
74.15946088581231
 20
186.5019693978191
 30
0.0
 10
74.15946088581231
 20
186.5019693978191
 30
0.0
 10
74.15946088581231
 20
186.5019693978191
 30
0.0
 10
68.37083631127021
 20
186.5343496855567
 30
0.0
 10
68.37083631127021
 20
186.5343496855567
 30
0.0
 10
68.37083631127021
 20
186.5343496855567
 30
0.0
 10
68.33862770098081
 20
184.6102644568664
 30
0.0
 10
68.33862770098081
 20
184.6102644568664
 30
0.0
 10
68.33862770098081
 20
184.6102644568664
 30
0.0
 10
67.95053687754848
 20
185.2892911062097
 30
0.0
 10
67.95053687754848
 20
185.2892911062097
 30
0.0
 10
67.95053687754848
 20
185.2892911062097
 30
0.0
 10
65.34724861063057
 20
185.3054836057966
 30
0.0
 10
65.34724861063057
 20
185.3054836057966
 30
0.0
 10
65.34724861063057
 20
185.3054836057966
 30
0.0
 10
64.95915778719826
 20
184.6102644568664
 30
0.0
 10
64.95915778719826
 20
184.6102644568664
 30
0.0
 10
64.95915778719826
 20
184.6102644568664
 30
0.0
 10
64.92694917690887
 20
183.5267780956196
 30
0.0
 10
64.92694917690887
 20
183.5267780956196
 30
0.0
 10
64.92694917690887
 20
183.5267780956196
 30
0.0
 10
64.8136016798006
 20
183.3004358791718
 30
0.0
 10
64.8136016798006
 20
183.3004358791718
 30
0.0
 10
64.8136016798006
 20
183.3004358791718
 30
0.0
 10
64.58726109496442
 20
183.2036336594192
 30
0.0
 10
64.58726109496442
 20
183.2036336594192
 30
0.0
 10
64.58726109496442
 20
183.2036336594192
 30
0.0
 10
58.28135831876311
 20
183.2032808816505
 30
0.0
 10
58.28135831876311
 20
183.2032808816505
 30
0.0
 10
58.28135831876311
 20
183.2032808816505
 30
0.0
 10
57.60233019710879
 20
182.6537942290024
 30
0.0
 10
57.60233019710879
 20
182.6537942290024
 30
0.0
 10
57.60233019710879
 20
182.6537942290024
 30
0.0
 10
56.01775829309015
 20
182.6537942290024
 30
0.0
 10
56.01775829309015
 20
182.6537942290024
 30
0.0
 10
56.01775829309015
 20
182.6537942290024
 30
0.0
 10
55.43571025238387
 20
183.1550561606585
 30
0.0
 10
55.43571025238387
 20
183.1550561606585
 30
0.0
 10
55.43571025238387
 20
183.1550561606585
 30
0.0
 10
52.75163587641586
 20
183.2032808816505
 30
0.0
 10
52.75163587641586
 20
183.2032808816505
 30
0.0
 10
52.75163587641586
 20
183.2032808816505
 30
0.0
 10
52.37973887579398
 20
183.0740936627241
 30
0.0
 10
52.37973887579398
 20
183.0740936627241
 30
0.0
 10
52.37973887579398
 20
183.0740936627241
 30
0.0
 10
52.1695878357096
 20
182.7505964487549
 30
0.0
 10
52.1695878357096
 20
182.7505964487549
 30
0.0
 10
52.1695878357096
 20
182.7505964487549
 30
0.0
 10
52.1695878357096
 20
177.2856499556787
 30
0.0
 10
52.1695878357096
 20
177.2856499556787
 30
0.0
 10
52.1695878357096
 20
177.2856499556787
 30
0.0
 10
52.26656644434658
 20
176.8973782647496
 30
0.0
 10
52.26656644434658
 20
176.8973782647496
 30
0.0
 10
52.26656644434658
 20
176.8973782647496
 30
0.0
 10
52.50910116038123
 20
176.654843548715
 30
0.0
 10
52.50910116038123
 20
176.654843548715
 30
0.0
 10
52.50910116038123
 20
176.654843548715
 30
0.0
 10
55.45190275197077
 20
176.5742338285493
 30
0.0
 10
55.45190275197077
 20
176.5742338285493
 30
0.0
 10
55.45190275197077
 20
176.5742338285493
 30
0.0
 10
56.01775829309015
 20
177.2046829791319
 30
0.0
 10
56.01775829309015
 20
177.2046829791319
 30
0.0
 10
56.01775829309015
 20
177.2046829791319
 30
0.0
 10
57.61852269669568
 20
177.2046829791319
 30
0.0
 10
57.61852269669568
 20
177.2046829791319
 30
0.0
 10
57.61852269669568
 20
177.2046829791319
 30
0.0
 10
58.18437823781507
 20
176.6390082891735
 30
0.0
 10
58.18437823781507
 20
176.6390082891735
 30
0.0
 10
58.18437823781507
 20
176.6390082891735
 30
0.0
 10
64.36109363578949
 20
176.6390082891735
 30
0.0
 10
64.36109363578949
 20
176.6390082891735
 30
0.0
 10
64.36109363578949
 20
176.6390082891735
 30
0.0
 10
64.68441446087422
 20
176.5904263281362
 30
0.0
 10
64.68441446087422
 20
176.5904263281362
 30
0.0
 10
64.68441446087422
 20
176.5904263281362
 30
0.0
 10
64.97535028678516
 20
176.3478916121016
 30
0.0
 10
64.97535028678516
 20
176.3478916121016
 30
0.0
 10
64.97535028678516
 20
176.3478916121016
 30
0.0
 10
64.97535028678516
 20
175.377752747963
 30
0.0
 10
64.97535028678516
 20
175.377752747963
 30
0.0
 10
64.97535028678516
 20
175.377752747963
 30
0.0
 10
65.36344111021747
 20
174.5368055119213
 30
0.0
 10
65.36344111021747
 20
174.5368055119213
 30
0.0
 10
65.36344111021747
 20
174.5368055119213
 30
0.0
 10
67.95053687754848
 20
174.472383882172
 30
0.0
 10
67.95053687754848
 20
174.472383882172
 30
0.0
 10
67.95053687754848
 20
174.472383882172
 30
0.0
 10
68.33862770098081
 20
175.2644052508547
 30
0.0
 10
68.33862770098081
 20
175.2644052508547
 30
0.0
 10
68.33862770098081
 20
175.2644052508547
 30
0.0
 10
68.40322131044399
 20
173.3565125217513
 30
0.0
 10
68.40322131044399
 20
173.3565125217513
 30
0.0
 10
68.40322131044399
 20
173.3565125217513
 30
0.0
 10
72.59090509249617
 20
173.3079350229907
 30
0.0
 10
72.59090509249617
 20
173.3079350229907
 30
0.0
 10
72.59090509249617
 20
173.3079350229907
 30
0.0
 10
72.10583566042688
 20
172.7422558707557
 30
0.0
 10
72.10583566042688
 20
172.7422558707557
 30
0.0
 10
72.10583566042688
 20
172.7422558707557
 30
0.0
 10
72.08964316083998
 20
140.3357725308472
 30
0.0
 10
72.08964316083998
 20
140.3357725308472
 30
0.0
 10
72.08964316083998
 20
140.3357725308472
 30
0.0
 10
70.87696958066675
 20
140.2544925329209
 30
0.0
 10
70.87696958066675
 20
140.2544925329209
 30
0.0
 10
70.87696958066675
 20
140.2544925329209
 30
0.0
 10
70.89316387116572
 20
133.7466951989486
 30
0.0
 10
70.89316387116572
 20
133.7466951989486
 30
0.0
 10
70.89316387116572
 20
133.7466951989486
 30
0.0
 10
72.08964316083998
 20
133.7060551999854
 30
0.0
 10
72.08964316083998
 20
133.7060551999854
 30
0.0
 10
72.08964316083998
 20
133.7060551999854
 30
0.0
 10
72.11292649357931
 20
102.5666790499727
 30
0.0
 10
72.11292649357931
 20
102.5666790499727
 30
0.0
 10
72.11292649357931
 20
102.5666790499727
 30
0.0
 10
72.69666786757571
 20
100.6129604887051
 30
0.0
 10
72.20849399114118
 20
98.60551387325266
 30
0.0
 10
72.20849399114118
 20
98.60551387325266
 30
0.0
 10
72.20849399114118
 20
95.81154922231041
 30
0.0
 10
72.20849399114118
 20
95.81154922231041
 30
0.0
 10
72.20849399114118
 20
95.81154922231041
 30
0.0
 10
72.42555815227007
 20
93.91261942096654
 30
0.0
 10
72.42555815227007
 20
93.91261942096654
 30
0.0
 10
72.42555815227007
 20
93.91261942096654
 30
0.0
 10
72.42555815227007
 20
92.12255209420233
 30
0.0
 10
72.42555815227007
 20
92.12255209420233
 30
0.0
 10
72.42555815227007
 20
92.12255209420233
 30
0.0
 10
71.72049650359103
 20
91.44384294485098
 30
0.0
 10
72.50701453908084
 20
90.79307379478683
 30
0.0
 10
72.50701453908084
 20
90.79307379478683
 30
0.0
 10
87.31782471678114
 20
90.79307379478683
 30
0.0
 10
87.31782471678114
 20
90.79307379478683
 30
0.0
 10
87.31782471678114
 20
90.79307379478683
 30
0.0
 10
88.2943488585346
 20
90.9829035121661
 30
0.0
 10
87.58914609874805
 20
92.01400237474945
 30
0.0
 10
87.58914609874805
 20
92.01400237474945
 30
0.0
 10
87.80599859321567
 20
93.99770704636315
 30
0.0
 10
87.80599859321567
 20
93.99770704636315
 30
0.0
  0
HATCH
  5
7A
330
70
100
AcDbEntity
  8
grau 10%
 62
   255
440
 33554687
100
AcDbHatch
 10
0.0
 20
0.0
 30
0.0
210
0.0
220
0.0
230
1.0
  2
SOLID
 70
     1
 71
     1
 91
        1
 92
        1
 93
        1
 72
     4
 94
        3
 73
     0
 74
     0
 95
      182
 96
      178
 40
0.0
 40
0.0
 40
0.0
 40
0.0
 40
1.0
 40
1.0
 40
1.0
 40
2.0
 40
2.0
 40
2.0
 40
3.0
 40
3.0
 40
3.0
 40
4.0
 40
4.0
 40
4.0
 40
5.0
 40
5.0
 40
5.0
 40
6.0
 40
6.0
 40
6.0
 40
7.0
 40
7.0
 40
7.0
 40
8.0
 40
8.0
 40
8.0
 40
9.0
 40
9.0
 40
9.0
 40
10.0
 40
10.0
 40
10.0
 40
11.0
 40
11.0
 40
11.0
 40
12.0
 40
12.0
 40
12.0
 40
13.0
 40
13.0
 40
13.0
 40
14.0
 40
14.0
 40
14.0
 40
15.0
 40
15.0
 40
15.0
 40
16.0
 40
16.0
 40
16.0
 40
17.0
 40
17.0
 40
17.0
 40
18.0
 40
18.0
 40
18.0
 40
19.0
 40
19.0
 40
19.0
 40
20.0
 40
20.0
 40
20.0
 40
21.0
 40
21.0
 40
21.0
 40
22.0
 40
22.0
 40
22.0
 40
23.0
 40
23.0
 40
23.0
 40
24.0
 40
24.0
 40
24.0
 40
25.0
 40
25.0
 40
25.0
 40
26.0
 40
26.0
 40
26.0
 40
27.0
 40
27.0
 40
27.0
 40
28.0
 40
28.0
 40
28.0
 40
29.0
 40
29.0
 40
29.0
 40
30.0
 40
30.0
 40
30.0
 40
31.0
 40
31.0
 40
31.0
 40
32.0
 40
32.0
 40
32.0
 40
33.0
 40
33.0
 40
33.0
 40
34.0
 40
34.0
 40
34.0
 40
35.0
 40
35.0
 40
35.0
 40
36.0
 40
36.0
 40
36.0
 40
37.0
 40
37.0
 40
37.0
 40
38.0
 40
38.0
 40
38.0
 40
39.0
 40
39.0
 40
39.0
 40
40.0
 40
40.0
 40
40.0
 40
41.0
 40
41.0
 40
41.0
 40
42.0
 40
42.0
 40
42.0
 40
43.0
 40
43.0
 40
43.0
 40
44.0
 40
44.0
 40
44.0
 40
45.0
 40
45.0
 40
45.0
 40
46.0
 40
46.0
 40
46.0
 40
47.0
 40
47.0
 40
47.0
 40
48.0
 40
48.0
 40
48.0
 40
49.0
 40
49.0
 40
49.0
 40
50.0
 40
50.0
 40
50.0
 40
51.0
 40
51.0
 40
51.0
 40
52.0
 40
52.0
 40
52.0
 40
53.0
 40
53.0
 40
53.0
 40
54.0
 40
54.0
 40
54.0
 40
55.0
 40
55.0
 40
55.0
 40
56.0
 40
56.0
 40
56.0
 40
57.0
 40
57.0
 40
57.0
 40
58.0
 40
58.0
 40
58.0
 40
59.0
 40
59.0
 40
59.0
 40
59.0
 10
87.80599859321567
 20
93.99770704636315
 10
87.80599859321567
 20
93.99770704636315
 10
87.78980831138591
 20
133.649892979196
 10
87.78980831138591
 20
133.649892979196
 10
87.78980831138591
 20
133.649892979196
 10
93.62683177804719
 20
133.6981177001879
 10
93.62683177804719
 20
133.6981177001879
 10
93.62683177804719
 20
133.6981177001879
 10
93.67540927680787
 20
140.2789400322972
 10
93.67540927680787
 20
140.2789400322972
 10
93.67540927680787
 20
140.2789400322972
 10
87.757421094455
 20
140.2627475327103
 10
87.757421094455
 20
140.2627475327103
 10
87.757421094455
 20
140.2627475327103
 10
87.77361359404189
 20
172.7746408699294
 10
87.77361359404189
 20
172.7746408699294
 10
87.77361359404189
 20
172.7746408699294
 10
87.15935694304622
 20
173.3565125217513
 10
87.15935694304622
 20
173.3565125217513
 10
87.15935694304622
 20
173.3565125217513
 10
86.75507362002703
 20
173.2917425234037
 10
86.75507362002703
 20
173.2917425234037
 10
86.75507362002703
 20
173.2917425234037
 10
86.7872822303164
 20
186.5181571859698
 10
86.7872822303164
 20
186.5181571859698
 10
86.7872822303164
 20
186.5181571859698
 10
85.70414864683835
 20
186.5343496855567
 10
85.70414864683835
 20
186.5343496855567
 10
85.70414864683835
 20
186.5343496855567
 10
85.65557114807765
 20
186.7930769011783
 10
85.65557114807765
 20
186.7930769011783
 10
85.65557114807765
 20
186.7930769011783
 10
85.41303643204301
 20
187.0032266180391
 10
85.41303643204301
 20
187.0032266180391
 10
85.41303643204301
 20
187.0032266180391
 10
74.41801171254946
 20
187.0032266180391
 10
74.41801171254946
 20
187.0032266180391
 10
74.41801171254946
 20
187.0032266180391
 10
74.17547699651482
 20
186.7444994024175
 10
74.17547699651482
 20
186.7444994024175
 10
74.17547699651482
 20
186.7444994024175
 10
74.15946088581231
 20
186.5019693978191
 10
74.15946088581231
 20
186.5019693978191
 10
74.15946088581231
 20
186.5019693978191
 10
68.37083631127021
 20
186.5343496855567
 10
68.37083631127021
 20
186.5343496855567
 10
68.37083631127021
 20
186.5343496855567
 10
68.33862770098081
 20
184.6102644568664
 10
68.33862770098081
 20
184.6102644568664
 10
68.33862770098081
 20
184.6102644568664
 10
67.95053687754848
 20
185.2892911062097
 10
67.95053687754848
 20
185.2892911062097
 10
67.95053687754848
 20
185.2892911062097
 10
65.34724861063057
 20
185.3054836057966
 10
65.34724861063057
 20
185.3054836057966
 10
65.34724861063057
 20
185.3054836057966
 10
64.95915778719826
 20
184.6102644568664
 10
64.95915778719826
 20
184.6102644568664
 10
64.95915778719826
 20
184.6102644568664
 10
64.92694917690887
 20
183.5267780956196
 10
64.92694917690887
 20
183.5267780956196
 10
64.92694917690887
 20
183.5267780956196
 10
64.8136016798006
 20
183.3004358791718
 10
64.8136016798006
 20
183.3004358791718
 10
64.8136016798006
 20
183.3004358791718
 10
64.58726109496442
 20
183.2036336594192
 10
64.58726109496442
 20
183.2036336594192
 10
64.58726109496442
 20
183.2036336594192
 10
58.28135831876311
 20
183.2032808816505
 10
58.28135831876311
 20
183.2032808816505
 10
58.28135831876311
 20
183.2032808816505
 10
57.60233019710879
 20
182.6537942290024
 10
57.60233019710879
 20
182.6537942290024
 10
57.60233019710879
 20
182.6537942290024
 10
56.01775829309015
 20
182.6537942290024
 10
56.01775829309015
 20
182.6537942290024
 10
56.01775829309015
 20
182.6537942290024
 10
55.43571025238387
 20
183.1550561606585
 10
55.43571025238387
 20
183.1550561606585
 10
55.43571025238387
 20
183.1550561606585
 10
52.75163587641586
 20
183.2032808816505
 10
52.75163587641586
 20
183.2032808816505
 10
52.75163587641586
 20
183.2032808816505
 10
52.37973887579398
 20
183.0740936627241
 10
52.37973887579398
 20
183.0740936627241
 10
52.37973887579398
 20
183.0740936627241
 10
52.1695878357096
 20
182.7505964487549
 10
52.1695878357096
 20
182.7505964487549
 10
52.1695878357096
 20
182.7505964487549
 10
52.1695878357096
 20
177.2856499556787
 10
52.1695878357096
 20
177.2856499556787
 10
52.1695878357096
 20
177.2856499556787
 10
52.26656644434658
 20
176.8973782647496
 10
52.26656644434658
 20
176.8973782647496
 10
52.26656644434658
 20
176.8973782647496
 10
52.50910116038123
 20
176.654843548715
 10
52.50910116038123
 20
176.654843548715
 10
52.50910116038123
 20
176.654843548715
 10
55.45190275197077
 20
176.5742338285493
 10
55.45190275197077
 20
176.5742338285493
 10
55.45190275197077
 20
176.5742338285493
 10
56.01775829309015
 20
177.2046829791319
 10
56.01775829309015
 20
177.2046829791319
 10
56.01775829309015
 20
177.2046829791319
 10
57.61852269669568
 20
177.2046829791319
 10
57.61852269669568
 20
177.2046829791319
 10
57.61852269669568
 20
177.2046829791319
 10
58.18437823781507
 20
176.6390082891735
 10
58.18437823781507
 20
176.6390082891735
 10
58.18437823781507
 20
176.6390082891735
 10
64.36109363578949
 20
176.6390082891735
 10
64.36109363578949
 20
176.6390082891735
 10
64.36109363578949
 20
176.6390082891735
 10
64.68441446087422
 20
176.5904263281362
 10
64.68441446087422
 20
176.5904263281362
 10
64.68441446087422
 20
176.5904263281362
 10
64.97535028678516
 20
176.3478916121016
 10
64.97535028678516
 20
176.3478916121016
 10
64.97535028678516
 20
176.3478916121016
 10
64.97535028678516
 20
175.377752747963
 10
64.97535028678516
 20
175.377752747963
 10
64.97535028678516
 20
175.377752747963
 10
65.36344111021747
 20
174.5368055119213
 10
65.36344111021747
 20
174.5368055119213
 10
65.36344111021747
 20
174.5368055119213
 10
67.95053687754848
 20
174.472383882172
 10
67.95053687754848
 20
174.472383882172
 10
67.95053687754848
 20
174.472383882172
 10
68.33862770098081
 20
175.2644052508547
 10
68.33862770098081
 20
175.2644052508547
 10
68.33862770098081
 20
175.2644052508547
 10
68.40322131044399
 20
173.3565125217513
 10
68.40322131044399
 20
173.3565125217513
 10
68.40322131044399
 20
173.3565125217513
 10
72.59090509249617
 20
173.3079350229907
 10
72.59090509249617
 20
173.3079350229907
 10
72.59090509249617
 20
173.3079350229907
 10
72.10583566042688
 20
172.7422558707557
 10
72.10583566042688
 20
172.7422558707557
 10
72.10583566042688
 20
172.7422558707557
 10
72.08964316083998
 20
140.3357725308472
 10
72.08964316083998
 20
140.3357725308472
 10
72.08964316083998
 20
140.3357725308472
 10
70.87696958066675
 20
140.2544925329209
 10
70.87696958066675
 20
140.2544925329209
 10
70.87696958066675
 20
140.2544925329209
 10
70.89316387116572
 20
133.7466951989486
 10
70.89316387116572
 20
133.7466951989486
 10
70.89316387116572
 20
133.7466951989486
 10
72.08964316083998
 20
133.7060551999854
 10
72.08964316083998
 20
133.7060551999854
 10
72.08964316083998
 20
133.7060551999854
 10
72.11292649357931
 20
102.5666790499727
 10
72.11292649357931
 20
102.5666790499727
 10
72.11292649357931
 20
102.5666790499727
 10
72.69666786757571
 20
100.6129604887051
 10
72.20849399114118
 20
98.60551387325266
 10
72.20849399114118
 20
98.60551387325266
 10
72.20849399114118
 20
95.81154922231041
 10
72.20849399114118
 20
95.81154922231041
 10
72.20849399114118
 20
95.81154922231041
 10
72.42555815227007
 20
93.91261942096654
 10
72.42555815227007
 20
93.91261942096654
 10
72.42555815227007
 20
93.91261942096654
 10
72.42555815227007
 20
92.12255209420233
 10
72.42555815227007
 20
92.12255209420233
 10
72.42555815227007
 20
92.12255209420233
 10
71.72049650359103
 20
91.44384294485098
 10
72.50701453908084
 20
90.79307379478683
 10
72.50701453908084
 20
90.79307379478683
 10
87.31782471678114
 20
90.79307379478683
 10
87.31782471678114
 20
90.79307379478683
 10
87.31782471678114
 20
90.79307379478683
 10
88.2943488585346
 20
90.9829035121661
 10
87.58914609874805
 20
92.01400237474945
 10
87.58914609874805
 20
92.01400237474945
 10
87.80599859321567
 20
93.99770704636315
 10
87.80599859321567
 20
93.99770704636315
 97
        0
 97
        1
330
79
 75
     0
 76
     1
 98
        1
 10
0.0
 20
0.0
450
        0
451
        0
460
0.0
461
0.0
452
        0
462
0.0
453
        0
470

  0
SPLINE
  5
7B
330
70
100
AcDbEntity
  8
grau 10%
100
AcDbSpline
210
0.0
220
0.0
230
1.0
 70
    11
 71
     3
 72
    95
 73
    91
 74
     0
 42
0.0000000001
 43
0.0000000001
 40
0.0
 40
0.0
 40
0.0
 40
0.0
 40
1.0
 40
1.0
 40
1.0
 40
2.0
 40
2.0
 40
2.0
 40
3.0
 40
3.0
 40
3.0
 40
4.0
 40
4.0
 40
4.0
 40
5.0
 40
5.0
 40
5.0
 40
6.0
 40
6.0
 40
6.0
 40
7.0
 40
7.0
 40
7.0
 40
8.0
 40
8.0
 40
8.0
 40
9.0
 40
9.0
 40
9.0
 40
10.0
 40
10.0
 40
10.0
 40
11.0
 40
11.0
 40
11.0
 40
12.0
 40
12.0
 40
12.0
 40
13.0
 40
13.0
 40
13.0
 40
14.0
 40
14.0
 40
14.0
 40
15.0
 40
15.0
 40
15.0
 40
16.0
 40
16.0
 40
16.0
 40
17.0
 40
17.0
 40
17.0
 40
18.0
 40
18.0
 40
18.0
 40
19.0
 40
19.0
 40
19.0
 40
20.0
 40
20.0
 40
20.0
 40
21.0
 40
21.0
 40
21.0
 40
22.0
 40
22.0
 40
22.0
 40
23.0
 40
23.0
 40
23.0
 40
24.0
 40
24.0
 40
24.0
 40
25.0
 40
25.0
 40
25.0
 40
26.0
 40
26.0
 40
26.0
 40
27.0
 40
27.0
 40
27.0
 40
28.0
 40
28.0
 40
28.0
 40
29.0
 40
29.0
 40
29.0
 40
30.0
 40
30.0
 40
30.0
 40
30.0
 10
131.9164841345301
 20
93.99185093540145
 30
0.0
 10
131.9164841345301
 20
93.99185093540145
 30
0.0
 10
131.9002916349432
 20
133.7208718662741
 30
0.0
 10
131.9002916349432
 20
133.7208718662741
 30
0.0
 10
131.9002916349432
 20
133.7208718662741
 30
0.0
 10
137.8785695379802
 20
133.7690999665577
 30
0.0
 10
137.8785695379802
 20
133.7690999665577
 30
0.0
 10
137.8785695379802
 20
133.7690999665577
 30
0.0
 10
137.9267942589721
 20
140.3499189193752
 30
0.0
 10
137.9267942589721
 20
140.3499189193752
 30
0.0
 10
137.9267942589721
 20
140.3499189193752
 30
0.0
 10
131.8679066357694
 20
140.3337264197884
 30
0.0
 10
131.8679066357694
 20
140.3337264197884
 30
0.0
 10
131.8679066357694
 20
140.3337264197884
 30
0.0
 10
131.8840991353563
 20
172.7746408699294
 30
0.0
 10
131.8840991353563
 20
172.7746408699294
 30
0.0
 10
131.8840991353563
 20
172.7746408699294
 30
0.0
 10
131.2698424843606
 20
173.3565125217513
 30
0.0
 10
131.2698424843606
 20
173.3565125217513
 30
0.0
 10
131.2698424843606
 20
173.3565125217513
 30
0.0
 10
134.0335035249649
 20
173.3093108562889
 30
0.0
 10
134.0335035249649
 20
173.3093108562889
 30
0.0
 10
134.0335035249649
 20
173.3093108562889
 30
0.0
 10
134.0055988034545
 20
186.5081735751134
 30
0.0
 10
134.0055988034545
 20
186.5081735751134
 30
0.0
 10
134.0055988034545
 20
186.5081735751134
 30
0.0
 10
129.9121419634429
 20
186.5081735751134
 30
0.0
 10
129.9121419634429
 20
186.5081735751134
 30
0.0
 10
129.9121419634429
 20
186.5081735751134
 30
0.0
 10
129.9121419634429
 20
186.7031538479168
 30
0.0
 10
129.9121419634429
 20
186.7031538479168
 30
0.0
 10
129.9121419634429
 20
186.7031538479168
 30
0.0
 10
129.6058603045901
 20
187.0373402282799
 30
0.0
 10
129.6058603045901
 20
187.0373402282799
 30
0.0
 10
129.6058603045901
 20
187.0373402282799
 30
0.0
 10
118.6070638592374
 20
187.0094355067696
 30
0.0
 10
118.6070638592374
 20
187.0094355067696
 30
0.0
 10
118.6070638592374
 20
187.0094355067696
 30
0.0
 10
118.3283311478594
 20
186.7589632909374
 30
0.0
 10
118.3283311478594
 20
186.7589632909374
 30
0.0
 10
118.3283311478594
 20
186.7589632909374
 30
0.0
 10
118.2728744826076
 20
186.5360782966237
 30
0.0
 10
118.2728744826076
 20
186.5360782966237
 30
0.0
 10
118.2728744826076
 20
186.5360782966237
 30
0.0
 10
114.2073223641062
 20
186.4802688536031
 30
0.0
 10
114.2073223641062
 20
186.4802688536031
 30
0.0
 10
114.2073223641062
 20
186.4802688536031
 30
0.0
 10
114.2073223641062
 20
173.3565125217513
 30
0.0
 10
114.2073223641062
 20
173.3565125217513
 30
0.0
 10
114.2073223641062
 20
173.3565125217513
 30
0.0
 10
116.7012142449262
 20
173.3079350229907
 30
0.0
 10
116.7012142449262
 20
173.3079350229907
 30
0.0
 10
116.7012142449262
 20
173.3079350229907
 30
0.0
 10
116.2161448128569
 20
172.7422558707557
 30
0.0
 10
116.2161448128569
 20
172.7422558707557
 30
0.0
 10
116.2161448128569
 20
172.7422558707557
 30
0.0
 10
116.19995231327
 20
140.4067514179253
 30
0.0
 10
116.19995231327
 20
140.4067514179253
 30
0.0
 10
116.19995231327
 20
140.4067514179253
 30
0.0
 10
110.4366571825261
 20
140.3254361422221
 30
0.0
 10
110.4366571825261
 20
140.3254361422221
 30
0.0
 10
110.4366571825261
 20
140.3254361422221
 30
0.0
 10
110.452849682113
 20
133.8176740860267
 30
0.0
 10
110.452849682113
 20
133.8176740860267
 30
0.0
 10
110.452849682113
 20
133.8176740860267
 30
0.0
 10
116.19995231327
 20
133.7769988092866
 30
0.0
 10
116.19995231327
 20
133.7769988092866
 30
0.0
 10
116.19995231327
 20
133.7769988092866
 30
0.0
 10
116.2233767571168
 20
101.048782144253
 30
0.0
 10
116.2233767571168
 20
101.048782144253
 30
0.0
 10
116.2233767571168
 20
101.048782144253
 30
0.0
 10
116.3427007980292
 20
99.40160264444408
 30
0.0
 10
116.3825500863893
 20
97.1602916423769
 30
0.0
 10
116.3825500863893
 20
97.1602916423769
 30
0.0
 10
116.3825500863893
 20
93.86887497653248
 30
0.0
 10
116.3825500863893
 20
93.86887497653248
 30
0.0
 10
116.3825500863893
 20
93.86887497653248
 30
0.0
 10
116.658845634896
 20
92.00955737486285
 30
0.0
 10
116.658845634896
 20
92.00955737486285
 30
0.0
 10
116.658845634896
 20
92.00955737486285
 30
0.0
 10
115.7293820474975
 20
91.40666016802182
 30
0.0
 10
116.8097639643791
 20
90.77825712849817
 30
0.0
 10
116.8097639643791
 20
90.77825712849817
 30
0.0
 10
131.482426367826
 20
90.77825712849817
 30
0.0
 10
131.482426367826
 20
90.77825712849817
 30
0.0
 10
131.482426367826
 20
90.77825712849817
 30
0.0
 10
132.4370430101384
 20
91.25574183853874
 30
0.0
 10
131.8592988582112
 20
91.98440431994901
 30
0.0
 10
131.8592988582112
 20
91.98440431994901
 30
0.0
 10
131.9164841345301
 20
93.99185093540145
 30
0.0
 10
131.9164841345301
 20
93.99185093540145
 30
0.0
  0
HATCH
  5
7C
330
70
100
AcDbEntity
  8
grau 10%
 62
   255
440
 33554687
100
AcDbHatch
 10
0.0
 20
0.0
 30
0.0
210
0.0
220
0.0
230
1.0
  2
SOLID
 70
     1
 71
     1
 91
        1
 92
        1
 93
        1
 72
     4
 94
        3
 73
     0
 74
     0
 95
       95
 96
       91
 40
0.0
 40
0.0
 40
0.0
 40
0.0
 40
1.0
 40
1.0
 40
1.0
 40
2.0
 40
2.0
 40
2.0
 40
3.0
 40
3.0
 40
3.0
 40
4.0
 40
4.0
 40
4.0
 40
5.0
 40
5.0
 40
5.0
 40
6.0
 40
6.0
 40
6.0
 40
7.0
 40
7.0
 40
7.0
 40
8.0
 40
8.0
 40
8.0
 40
9.0
 40
9.0
 40
9.0
 40
10.0
 40
10.0
 40
10.0
 40
11.0
 40
11.0
 40
11.0
 40
12.0
 40
12.0
 40
12.0
 40
13.0
 40
13.0
 40
13.0
 40
14.0
 40
14.0
 40
14.0
 40
15.0
 40
15.0
 40
15.0
 40
16.0
 40
16.0
 40
16.0
 40
17.0
 40
17.0
 40
17.0
 40
18.0
 40
18.0
 40
18.0
 40
19.0
 40
19.0
 40
19.0
 40
20.0
 40
20.0
 40
20.0
 40
21.0
 40
21.0
 40
21.0
 40
22.0
 40
22.0
 40
22.0
 40
23.0
 40
23.0
 40
23.0
 40
24.0
 40
24.0
 40
24.0
 40
25.0
 40
25.0
 40
25.0
 40
26.0
 40
26.0
 40
26.0
 40
27.0
 40
27.0
 40
27.0
 40
28.0
 40
28.0
 40
28.0
 40
29.0
 40
29.0
 40
29.0
 40
30.0
 40
30.0
 40
30.0
 40
30.0
 10
131.9164841345301
 20
93.99185093540145
 10
131.9164841345301
 20
93.99185093540145
 10
131.9002916349432
 20
133.7208718662741
 10
131.9002916349432
 20
133.7208718662741
 10
131.9002916349432
 20
133.7208718662741
 10
137.8785695379802
 20
133.7690999665577
 10
137.8785695379802
 20
133.7690999665577
 10
137.8785695379802
 20
133.7690999665577
 10
137.9267942589721
 20
140.3499189193752
 10
137.9267942589721
 20
140.3499189193752
 10
137.9267942589721
 20
140.3499189193752
 10
131.8679066357694
 20
140.3337264197884
 10
131.8679066357694
 20
140.3337264197884
 10
131.8679066357694
 20
140.3337264197884
 10
131.8840991353563
 20
172.7746408699294
 10
131.8840991353563
 20
172.7746408699294
 10
131.8840991353563
 20
172.7746408699294
 10
131.2698424843606
 20
173.3565125217513
 10
131.2698424843606
 20
173.3565125217513
 10
131.2698424843606
 20
173.3565125217513
 10
134.0335035249649
 20
173.3093108562889
 10
134.0335035249649
 20
173.3093108562889
 10
134.0335035249649
 20
173.3093108562889
 10
134.0055988034545
 20
186.5081735751134
 10
134.0055988034545
 20
186.5081735751134
 10
134.0055988034545
 20
186.5081735751134
 10
129.9121419634429
 20
186.5081735751134
 10
129.9121419634429
 20
186.5081735751134
 10
129.9121419634429
 20
186.5081735751134
 10
129.9121419634429
 20
186.7031538479168
 10
129.9121419634429
 20
186.7031538479168
 10
129.9121419634429
 20
186.7031538479168
 10
129.6058603045901
 20
187.0373402282799
 10
129.6058603045901
 20
187.0373402282799
 10
129.6058603045901
 20
187.0373402282799
 10
118.6070638592374
 20
187.0094355067696
 10
118.6070638592374
 20
187.0094355067696
 10
118.6070638592374
 20
187.0094355067696
 10
118.3283311478594
 20
186.7589632909374
 10
118.3283311478594
 20
186.7589632909374
 10
118.3283311478594
 20
186.7589632909374
 10
118.2728744826076
 20
186.5360782966237
 10
118.2728744826076
 20
186.5360782966237
 10
118.2728744826076
 20
186.5360782966237
 10
114.2073223641062
 20
186.4802688536031
 10
114.2073223641062
 20
186.4802688536031
 10
114.2073223641062
 20
186.4802688536031
 10
114.2073223641062
 20
173.3565125217513
 10
114.2073223641062
 20
173.3565125217513
 10
114.2073223641062
 20
173.3565125217513
 10
116.7012142449262
 20
173.3079350229907
 10
116.7012142449262
 20
173.3079350229907
 10
116.7012142449262
 20
173.3079350229907
 10
116.2161448128569
 20
172.7422558707557
 10
116.2161448128569
 20
172.7422558707557
 10
116.2161448128569
 20
172.7422558707557
 10
116.19995231327
 20
140.4067514179253
 10
116.19995231327
 20
140.4067514179253
 10
116.19995231327
 20
140.4067514179253
 10
110.4366571825261
 20
140.3254361422221
 10
110.4366571825261
 20
140.3254361422221
 10
110.4366571825261
 20
140.3254361422221
 10
110.452849682113
 20
133.8176740860267
 10
110.452849682113
 20
133.8176740860267
 10
110.452849682113
 20
133.8176740860267
 10
116.19995231327
 20
133.7769988092866
 10
116.19995231327
 20
133.7769988092866
 10
116.19995231327
 20
133.7769988092866
 10
116.2233767571168
 20
101.048782144253
 10
116.2233767571168
 20
101.048782144253
 10
116.2233767571168
 20
101.048782144253
 10
116.3427007980292
 20
99.40160264444408
 10
116.3825500863893
 20
97.1602916423769
 10
116.3825500863893
 20
97.1602916423769
 10
116.3825500863893
 20
93.86887497653248
 10
116.3825500863893
 20
93.86887497653248
 10
116.3825500863893
 20
93.86887497653248
 10
116.658845634896
 20
92.00955737486285
 10
116.658845634896
 20
92.00955737486285
 10
116.658845634896
 20
92.00955737486285
 10
115.7293820474975
 20
91.40666016802182
 10
116.8097639643791
 20
90.77825712849817
 10
116.8097639643791
 20
90.77825712849817
 10
131.482426367826
 20
90.77825712849817
 10
131.482426367826
 20
90.77825712849817
 10
131.482426367826
 20
90.77825712849817
 10
132.4370430101384
 20
91.25574183853874
 10
131.8592988582112
 20
91.98440431994901
 10
131.8592988582112
 20
91.98440431994901
 10
131.9164841345301
 20
93.99185093540145
 10
131.9164841345301
 20
93.99185093540145
 97
        0
 97
        1
330
7B
 75
     0
 76
     1
 98
        1
 10
0.0
 20
0.0
450
        0
451
        0
460
0.0
461
0.0
452
        0
462
0.0
453
        0
470

  0
LINE
  5
7E
330
70
100
AcDbEntity
  8
Standardebene
 62
     7
370
     9
100
AcDbLine
 10
65.47750360427783
 20
51.40417778253037
 30
0.0
 11
65.47750360427783
 21
51.90467272381139
 31
0.0
  0
LINE
  5
7F
330
70
100
AcDbEntity
  8
Standardebene
 62
     7
370
     9
100
AcDbLine
 10
65.47750360427783
 20
52.90502119289136
 30
0.0
 11
65.47750360427783
 21
53.9047282484867
 31
0.0
  0
LINE
  5
80
330
70
100
AcDbEntity
  8
Standardebene
 62
     7
370
     9
100
AcDbLine
 10
65.47750360427783
 20
54.90501257621705
 30
0.0
 11
65.47750360427783
 21
55.90471963181239
 31
0.0
  0
LINE
  5
81
330
70
100
AcDbEntity
  8
Standardebene
 62
     7
370
     9
100
AcDbLine
 10
65.47750360427783
 20
56.90442668740772
 30
0.0
 11
65.47750360427783
 21
57.90413374300306
 31
0.0
  0
LINE
  5
82
330
70
100
AcDbEntity
  8
Standardebene
 62
     7
370
     9
100
AcDbLine
 10
65.47750360427783
 20
58.90448657283998
 30
0.0
 11
65.47750360427783
 21
59.90483068116043
 31
0.0
  0
LINE
  5
83
330
70
100
AcDbEntity
  8
Standardebene
 62
     7
370
     9
100
AcDbLine
 10
65.47750360427783
 20
60.90453773675577
 30
0.0
 11
65.47750360427783
 21
61.90424479235111
 31
0.0
  0
LINE
  5
84
330
70
100
AcDbEntity
  8
Standardebene
 62
     7
370
     9
100
AcDbLine
 10
65.47750360427783
 20
62.90395184794644
 30
0.0
 11
65.47750360427783
 21
63.90423617567808
 31
0.0
  0
LINE
  5
85
330
70
100
AcDbEntity
  8
Standardebene
 62
     7
370
     9
100
AcDbLine
 10
65.47750360427783
 20
64.90522605824011
 30
0.0
 11
65.47750360427783
 21
65.90429170035211
 31
0.0
  0
LINE
  5
86
330
70
100
AcDbEntity
  8
Standardebene
 62
     7
370
     9
100
AcDbLine
 10
65.47750360427783
 20
66.90464016943079
 30
0.0
 11
65.47750360427783
 21
67.90492449716115
 31
0.0
  0
LINE
  5
87
330
70
100
AcDbEntity
  8
Standardebene
 62
     7
370
     9
100
AcDbLine
 10
65.47750360427783
 20
68.90399013927313
 30
0.0
 11
65.47750360427783
 21
69.90498002183645
 31
0.0
  0
LINE
  5
88
330
70
100
AcDbEntity
  8
Standardebene
 62
     7
370
     9
100
AcDbLine
 10
65.47750360427783
 20
70.90469174134018
 30
0.0
 11
65.47750360427783
 21
71.90503554651048
 31
0.0
  0
LINE
  5
89
330
70
100
AcDbEntity
  8
Standardebene
 62
     7
370
     9
100
AcDbLine
 10
65.47750360427783
 20
72.90467846075748
 30
0.0
 11
65.47750360427783
 21
73.90438551635281
 31
0.0
  0
LINE
  5
8A
330
70
100
AcDbEntity
  8
Standardebene
 62
     7
370
     9
100
AcDbLine
 10
65.47750360427783
 20
74.90409257194816
 30
0.0
 11
65.47750360427783
 21
75.90444104102684
 31
0.0
  0
LINE
  5
8B
330
70
100
AcDbEntity
  8
Standardebene
 62
     7
370
     9
100
AcDbLine
 10
65.47750360427783
 20
76.90478951010553
 30
0.0
 11
65.47750360427783
 21
77.90507867859012
 31
0.0
  0
LINE
  5
8C
330
70
100
AcDbEntity
  8
Standardebene
 62
     7
370
     9
100
AcDbLine
 10
65.47750360427783
 20
78.90478089343121
 30
0.0
 11
65.47750360427783
 21
79.90448794902654
 31
0.0
  0
LINE
  5
8D
330
70
100
AcDbEntity
  8
Standardebene
 62
     7
370
     9
100
AcDbLine
 10
65.47750360427783
 20
80.90419500462187
 30
0.0
 11
65.47750360427783
 21
81.90454347370186
 31
0.0
  0
LWPOLYLINE
  5
8E
330
70
100
AcDbEntity
  8
Standardebene
 62
     7
370
     9
100
AcDbPolyline
 90
        3
 70
     0
 43
0.0
 10
65.47750360427783
 20
82.90489690984042
 10
65.47750360427783
 20
83.40474547057821
 10
65.97767783881717
 20
83.40474547057821
  0
LINE
  5
8F
330
70
100
AcDbEntity
  8
Standardebene
 62
     7
370
     9
100
AcDbLine
 10
66.97802630789586
 20
83.40474547057821
 30
0.0
 11
67.97766922214286
 21
83.40474547057821
 31
0.0
  0
LINE
  5
90
330
70
100
AcDbEntity
  8
Standardebene
 62
     7
370
     9
100
AcDbLine
 10
68.97801769122219
 20
83.40474547057821
 30
0.0
 11
69.97740404007585
 21
83.40474547057821
 31
0.0
  0
LWPOLYLINE
  5
91
330
70
100
AcDbEntity
  8
Standardebene
 62
     7
370
     9
100
AcDbPolyline
 90
        3
 70
     0
 43
0.0
 10
70.97775624473491
 20
83.40474547057821
 10
71.47792674369388
 20
83.40474547057821
 10
71.47792674369388
 20
82.90489690984042
  0
LINE
  5
92
330
70
100
AcDbEntity
  8
Standardebene
 62
     7
370
     9
100
AcDbLine
 10
71.47792674369388
 20
81.90454347370186
 30
0.0
 11
71.47792674369388
 21
80.90419500462187
 31
0.0
  0
LINE
  5
93
330
70
100
AcDbEntity
  8
Standardebene
 62
     7
370
     9
100
AcDbLine
 10
71.47792674369388
 20
79.90448794902654
 30
0.0
 11
71.47792674369388
 21
78.90478089343121
 31
0.0
  0
LINE
  5
94
330
70
100
AcDbEntity
  8
Standardebene
 62
     7
370
     9
100
AcDbLine
 10
71.47792674369388
 20
77.90507867859012
 30
0.0
 11
71.47792674369388
 21
76.90478951010553
 31
0.0
  0
LINE
  5
95
330
70
100
AcDbEntity
  8
Standardebene
 62
     7
370
     9
100
AcDbLine
 10
71.47792674369388
 20
75.90444104102684
 30
0.0
 11
71.47792674369388
 21
74.90409257194816
 31
0.0
  0
LINE
  5
96
330
70
100
AcDbEntity
  8
Standardebene
 62
     7
370
     9
100
AcDbLine
 10
71.47792674369388
 20
73.90438551635281
 30
0.0
 11
71.47792674369388
 21
72.90467846075748
 31
0.0
  0
LINE
  5
97
330
70
100
AcDbEntity
  8
Standardebene
 62
     7
370
     9
100
AcDbLine
 10
71.47792674369388
 20
71.90503554651048
 30
0.0
 11
71.47792674369388
 21
70.90469174134018
 31
0.0
  0
LINE
  5
98
330
70
100
AcDbEntity
  8
Standardebene
 62
     7
370
     9
100
AcDbLine
 10
71.47792674369388
 20
69.90498002183645
 30
0.0
 11
71.47792674369388
 21
68.90399013927313
 31
0.0
  0
LINE
  5
99
330
70
100
AcDbEntity
  8
Standardebene
 62
     7
370
     9
100
AcDbLine
 10
71.47792674369388
 20
67.90492449716115
 30
0.0
 11
71.47792674369388
 21
66.90464016943079
 31
0.0
  0
LINE
  5
9A
330
70
100
AcDbEntity
  8
Standardebene
 62
     7
370
     9
100
AcDbLine
 10
71.47792674369388
 20
65.90429170035211
 30
0.0
 11
71.47792674369388
 21
64.90522605824011
 31
0.0
  0
LINE
  5
9B
330
70
100
AcDbEntity
  8
Standardebene
 62
     7
370
     9
100
AcDbLine
 10
71.47792674369388
 20
63.90423617567808
 30
0.0
 11
71.47792674369388
 21
62.90395184794644
 31
0.0
  0
LINE
  5
9C
330
70
100
AcDbEntity
  8
Standardebene
 62
     7
370
     9
100
AcDbLine
 10
71.47792674369388
 20
61.90424479235111
 30
0.0
 11
71.47792674369388
 21
60.90453773675577
 31
0.0
  0
LINE
  5
9D
330
70
100
AcDbEntity
  8
Standardebene
 62
     7
370
     9
100
AcDbLine
 10
71.47792674369388
 20
59.90483068116043
 30
0.0
 11
71.47792674369388
 21
58.90448657283998
 31
0.0
  0
LINE
  5
9E
330
70
100
AcDbEntity
  8
Standardebene
 62
     7
370
     9
100
AcDbLine
 10
71.47792674369388
 20
57.90413374300306
 30
0.0
 11
71.47792674369388
 21
56.90442668740772
 31
0.0
  0
LINE
  5
9F
330
70
100
AcDbEntity
  8
Standardebene
 62
     7
370
     9
100
AcDbLine
 10
71.47792674369388
 20
55.90471963181239
 30
0.0
 11
71.47792674369388
 21
54.90501257621705
 31
0.0
  0
LINE
  5
A0
330
70
100
AcDbEntity
  8
Standardebene
 62
     7
370
     9
100
AcDbLine
 10
71.47792674369388
 20
53.9047282484867
 30
0.0
 11
71.47792674369388
 21
52.90502119289136
 31
0.0
  0
LINE
  5
A1
330
70
100
AcDbEntity
  8
Standardebene
 62
     7
370
     9
100
AcDbLine
 10
71.47792674369388
 20
51.90467272381139
 30
0.0
 11
71.47792674369388
 21
51.40417778253037
 31
0.0
  0
LINE
  5
A2
330
70
100
AcDbEntity
  8
Standardebene
 62
     7
370
     9
100
AcDbLine
 10
65.47750360427783
 20
83.40474547057821
 30
0.0
 11
65.47750360427783
 21
83.90459899837589
 31
0.0
  0
LINE
  5
A3
330
70
100
AcDbEntity
  8
Standardebene
 62
     7
370
     9
100
AcDbLine
 10
65.47750360427783
 20
84.90488332610622
 30
0.0
 11
65.47750360427783
 21
85.90401310956655
 31
0.0
  0
LWPOLYLINE
  5
A4
330
70
100
AcDbEntity
  8
Standardebene
 62
     7
370
     9
100
AcDbPolyline
 90
        3
 70
     0
 43
0.0
 10
65.47750360427783
 20
86.90429743729691
 10
65.47750360427783
 20
87.40479237857792
 10
65.97767783881717
 20
87.40479237857792
  0
LINE
  5
A5
330
70
100
AcDbEntity
  8
Standardebene
 62
     7
370
     9
100
AcDbLine
 10
66.97802630789586
 20
87.40479237857792
 30
0.0
 11
67.97766922214286
 21
87.40479237857792
 31
0.0
  0
LINE
  5
A6
330
70
100
AcDbEntity
  8
Standardebene
 62
     7
370
     9
100
AcDbLine
 10
68.97801769122219
 20
87.40479237857792
 30
0.0
 11
69.97740404007585
 21
87.40479237857792
 31
0.0
  0
LWPOLYLINE
  5
A7
330
70
100
AcDbEntity
  8
Standardebene
 62
     7
370
     9
100
AcDbPolyline
 90
        3
 70
     0
 43
0.0
 10
70.97775624473491
 20
87.40479237857792
 10
71.47792674369388
 20
87.40479237857792
 10
71.47792674369388
 20
86.90429743729691
  0
LINE
  5
A8
330
70
100
AcDbEntity
  8
Standardebene
 62
     7
370
     9
100
AcDbLine
 10
71.47792674369388
 20
85.90401310956655
 30
0.0
 11
71.47792674369388
 21
84.90488332610622
 31
0.0
  0
LINE
  5
A9
330
70
100
AcDbEntity
  8
Standardebene
 62
     7
370
     9
100
AcDbLine
 10
71.47792674369388
 20
83.90459899837589
 30
0.0
 11
71.47792674369388
 21
83.40474547057821
 31
0.0
  0
SPLINE
  5
AA
330
70
100
AcDbEntity
  8
Standardebene
 62
     7
370
     9
100
AcDbSpline
210
0.0
220
0.0
230
1.0
 70
     8
 71
     3
 72
    17
 73
    13
 74
     0
 42
0.0000000001
 43
0.0000000001
 40
0.0
 40
0.0
 40
0.0
 40
0.0
 40
1.0
 40
1.0
 40
1.0
 40
2.0
 40
2.0
 40
2.0
 40
3.0
 40
3.0
 40
3.0
 40
4.0
 40
4.0
 40
4.0
 40
4.0
 10
66.54545705453191
 20
135.922013835651
 30
0.0
 10
66.49818488078773
 20
135.7447271487738
 30
0.0
 10
66.4762485396475
 20
135.5653237974009
 30
0.0
 10
66.47817278009819
 20
135.4046497197502
 30
0.0
 10
66.47817278009819
 20
134.3000074182317
 30
0.0
 10
67.37326529651274
 20
133.4045941950755
 30
0.0
 10
68.47726618454719
 20
133.4045941950755
 30
0.0
 10
69.58216505145898
 20
133.4045941950755
 30
0.0
 10
70.47725756787352
 20
134.3000074182317
 30
0.0
 10
70.47725756787352
 20
135.4046497197502
 30
0.0
 10
70.47725756787352
 20
136.3247573620263
 30
0.0
 10
69.8562410330169
 20
137.1002262637426
 30
0.0
 10
68.99527171393204
 20
137.3363947084171
 30
0.0
  0
SPLINE
  5
AB
330
70
100
AcDbEntity
  8
Standardebene
 62
     7
370
     9
100
AcDbSpline
210
0.0
220
0.0
230
1.0
 70
     9
 71
     3
 72
    17
 73
    13
 74
     0
 42
0.0000000001
 43
0.0000000001
 40
0.0
 40
0.0
 40
0.0
 40
0.0
 40
1.0
 40
1.0
 40
1.0
 40
2.0
 40
2.0
 40
2.0
 40
3.0
 40
3.0
 40
3.0
 40
4.0
 40
4.0
 40
4.0
 40
4.0
 10
87.47753710356029
 20
137.4140698812856
 30
0.0
 10
86.36789177686978
 20
137.4140698812856
 30
0.0
 10
85.46843764876653
 20
136.513974339699
 30
0.0
 10
85.46843764876653
 20
135.4046497197502
 30
0.0
 10
85.46843764876653
 20
134.2950043930596
 30
0.0
 10
86.36789177686978
 20
133.3952295582147
 30
0.0
 10
87.47753710356029
 20
133.3952295582147
 30
0.0
 10
88.58750313699248
 20
133.3952295582147
 30
0.0
 10
89.48663655835341
 20
134.2950043930596
 30
0.0
 10
89.48663655835341
 20
135.4046497197502
 30
0.0
 10
89.48663655835341
 20
136.513974339699
 30
0.0
 10
88.58750313699248
 20
137.4140698812856
 30
0.0
 10
87.47753710356029
 20
137.4140698812856
 30
0.0
  0
SPLINE
  5
AC
330
70
100
AcDbEntity
  8
Standardebene
 62
     7
370
     9
100
AcDbSpline
210
0.0
220
0.0
230
1.0
 70
     9
 71
     3
 72
    17
 73
    13
 74
     0
 42
0.0000000001
 43
0.0000000001
 40
0.0
 40
0.0
 40
0.0
 40
0.0
 40
1.0
 40
1.0
 40
1.0
 40
2.0
 40
2.0
 40
2.0
 40
3.0
 40
3.0
 40
3.0
 40
4.0
 40
4.0
 40
4.0
 40
4.0
 10
148.8449645744972
 20
71.29049728783826
 30
0.0
 10
147.5264108761855
 20
71.29049728783826
 30
0.0
 10
146.458457425932
 20
70.22254383758355
 30
0.0
 10
146.458457425932
 20
68.90399013927313
 30
0.0
 10
146.458457425932
 20
67.58614199579439
 30
0.0
 10
147.5264108761855
 20
66.51748299070799
 30
0.0
 10
148.8449645744972
 20
66.51748299070799
 30
0.0
 10
150.1628768593243
 20
66.51748299070799
 30
0.0
 10
151.2314717230623
 20
67.58614199579439
 30
0.0
 10
151.2314717230623
 20
68.90399013927313
 30
0.0
 10
151.2314717230623
 20
70.22254383758355
 30
0.0
 10
150.1628768593243
 20
71.29049728783826
 30
0.0
 10
148.8449645744972
 20
71.29049728783826
 30
0.0
  0
SPLINE
  5
AD
330
70
100
AcDbEntity
  8
Standardebene
 62
     7
370
     9
100
AcDbSpline
210
0.0
220
0.0
230
1.0
 70
     8
 71
     3
 72
     8
 73
     4
 74
     0
 42
0.0000000001
 43
0.0000000001
 40
0.0
 40
0.0
 40
0.0
 40
0.0
 40
1.0
 40
1.0
 40
1.0
 40
1.0
 10
147.9480176389915
 20
67.70326409790567
 30
0.0
 10
148.0469820595044
 20
67.62873185110817
 30
0.0
 10
148.1528152843048
 20
67.56792585285952
 30
0.0
 10
148.2530682117976
 20
67.52597741102909
 30
0.0
  0
LWPOLYLINE
  5
AE
330
70
100
AcDbEntity
  8
Standardebene
 62
     7
370
     9
100
AcDbPolyline
 90
        3
 70
     0
 43
0.0
 10
147.9480176389915
 20
67.70326409790567
 10
147.3554100414483
 20
68.04462894555488
 10
147.3554100414483
 20
68.72798627936325
  0
SPLINE
  5
AF
330
70
100
AcDbEntity
  8
Standardebene
 62
     7
370
     9
100
AcDbSpline
210
0.0
220
0.0
230
1.0
 70
     8
 71
     3
 72
     8
 73
     4
 74
     0
 42
0.0000000001
 43
0.0000000001
 40
0.0
 40
0.0
 40
0.0
 40
0.0
 40
1.0
 40
1.0
 40
1.0
 40
1.0
 10
147.3554100414483
 20
69.08063541266635
 30
0.0
 10
147.3410423794148
 20
68.95786887189903
 30
0.0
 10
147.3416837928982
 20
68.83574374461375
 30
0.0
 10
147.3554100414483
 20
68.72798627936325
 30
0.0
  0
LWPOLYLINE
  5
B0
330
70
100
AcDbEntity
  8
Standardebene
 62
     7
370
     9
100
AcDbPolyline
 90
        3
 70
     0
 43
0.0
 10
147.3554100414483
 20
69.08063541266635
 10
147.3554100414483
 20
69.77592762892843
 10
148.8562591547658
 20
70.64286209341101
  0
LINE
  5
B1
330
70
100
AcDbEntity
  8
Standardebene
 62
     7
370
     9
100
AcDbLine
 10
150.355814035201
 20
69.77592762892843
 30
0.0
 11
148.8562591547658
 21
70.64286209341101
 31
0.0
  0
LINE
  5
B2
330
70
100
AcDbEntity
  8
Standardebene
 62
     7
370
     9
100
AcDbLine
 10
150.355814035201
 20
68.04462894555488
 30
0.0
 11
150.355814035201
 21
69.77592762892843
 31
0.0
  0
LINE
  5
B3
330
70
100
AcDbEntity
  8
Standardebene
 62
     7
370
     9
100
AcDbLine
 10
148.8562591547658
 20
67.17897271638205
 30
0.0
 11
150.355814035201
 21
68.04462894555488
 31
0.0
  0
LINE
  5
B4
330
70
100
AcDbEntity
  8
Standardebene
 62
     7
370
     9
100
AcDbLine
 10
148.8562591547658
 20
67.17897271638205
 30
0.0
 11
148.2530682117976
 21
67.52597741102909
 31
0.0
  0
SPLINE
  5
B5
330
70
100
AcDbEntity
  8
Standardebene
 62
     7
370
     9
100
AcDbSpline
210
0.0
220
0.0
230
1.0
 70
     8
 71
     3
 72
     8
 73
     4
 74
     0
 42
0.0000000001
 43
0.0000000001
 40
0.0
 40
0.0
 40
0.0
 40
0.0
 40
1.0
 40
1.0
 40
1.0
 40
1.0
 10
148.8449645744972
 20
70.40483354963412
 30
0.0
 10
148.5687077870946
 20
70.40483354963412
 30
0.0
 10
148.3100257291435
 20
70.33030130283534
 30
0.0
 10
148.0952163534742
 20
70.20310900903031
 30
0.0
  0
SPLINE
  5
B6
330
70
100
AcDbEntity
  8
Standardebene
 62
     7
370
     9
100
AcDbSpline
210
0.0
220
0.0
230
1.0
 70
     8
 71
     3
 72
     8
 73
     4
 74
     0
 42
0.0000000001
 43
0.0000000001
 40
0.0
 40
0.0
 40
0.0
 40
0.0
 40
1.0
 40
1.0
 40
1.0
 40
1.0
 10
148.0952163534742
 20
70.20310900903031
 30
0.0
 10
147.6705364859587
 20
69.95885875446106
 30
0.0
 10
147.4112130145243
 20
69.53725767166689
 30
0.0
 10
147.3554100414483
 20
69.08063541266635
 30
0.0
  0
SPLINE
  5
B7
330
70
100
AcDbEntity
  8
Standardebene
 62
     7
370
     9
100
AcDbSpline
210
0.0
220
0.0
230
1.0
 70
     8
 71
     3
 72
     8
 73
     4
 74
     0
 42
0.0000000001
 43
0.0000000001
 40
0.0
 40
0.0
 40
0.0
 40
0.0
 40
1.0
 40
1.0
 40
1.0
 40
1.0
 10
147.3554100414483
 20
68.72798627936325
 30
0.0
 10
147.4055685758682
 20
68.30266499836437
 30
0.0
 10
147.6285239027799
 20
67.94065122820049
 30
0.0
 10
147.9480176389915
 20
67.70326409790567
 30
0.0
  0
SPLINE
  5
B8
330
70
100
AcDbEntity
  8
Standardebene
 62
     7
370
     9
100
AcDbSpline
210
0.0
220
0.0
230
1.0
 70
     8
 71
     3
 72
    14
 73
    10
 74
     0
 42
0.0000000001
 43
0.0000000001
 40
0.0
 40
0.0
 40
0.0
 40
0.0
 40
1.0
 40
1.0
 40
1.0
 40
2.0
 40
2.0
 40
2.0
 40
3.0
 40
3.0
 40
3.0
 40
3.0
 10
148.2530682117976
 20
67.52597741102909
 30
0.0
 10
148.4497255858803
 20
67.44201638602119
 30
0.0
 10
148.6539516390692
 20
67.40257403221576
 30
0.0
 10
148.8449645744972
 20
67.40449827271587
 30
0.0
 10
149.6730293818707
 20
67.40449827271587
 30
0.0
 10
150.3445251578902
 20
68.07592533189832
 30
0.0
 10
150.3445251578902
 20
68.90399013927313
 30
0.0
 10
150.3445251578902
 20
69.73333777361465
 30
0.0
 10
149.6730293818707
 20
70.40483354963412
 30
0.0
 10
148.8449645744972
 20
70.40483354963412
 30
0.0
  0
SPLINE
  5
B9
330
70
100
AcDbEntity
  8
Standardebene
 62
     7
370
     9
100
AcDbSpline
210
0.0
220
0.0
230
1.0
 70
     9
 71
     3
 72
    17
 73
    13
 74
     0
 42
0.0000000001
 43
0.0000000001
 40
0.0
 40
0.0
 40
0.0
 40
0.0
 40
1.0
 40
1.0
 40
1.0
 40
2.0
 40
2.0
 40
2.0
 40
3.0
 40
3.0
 40
3.0
 40
4.0
 40
4.0
 40
4.0
 40
4.0
 10
148.8449645744972
 20
59.29093383597286
 30
0.0
 10
147.5264108761855
 20
59.29093383597286
 30
0.0
 10
146.458457425932
 20
58.22298038571815
 30
0.0
 10
146.458457425932
 20
56.90442668740772
 30
0.0
 10
146.458457425932
 20
55.58651440258065
 30
0.0
 10
147.5264108761855
 20
54.51791953884259
 30
0.0
 10
148.8449645744972
 20
54.51791953884259
 30
0.0
 10
150.1628768593243
 20
54.51791953884259
 30
0.0
 10
151.2314717230623
 20
55.58651440258065
 30
0.0
 10
151.2314717230623
 20
56.90442668740772
 30
0.0
 10
151.2314717230623
 20
58.22298038571815
 30
0.0
 10
150.1628768593243
 20
59.29093383597286
 30
0.0
 10
148.8449645744972
 20
59.29093383597286
 30
0.0
  0
SPLINE
  5
BA
330
70
100
AcDbEntity
  8
Standardebene
 62
     7
370
     9
100
AcDbSpline
210
0.0
220
0.0
230
1.0
 70
     8
 71
     3
 72
     8
 73
     4
 74
     0
 42
0.0000000001
 43
0.0000000001
 40
0.0
 40
0.0
 40
0.0
 40
0.0
 40
1.0
 40
1.0
 40
1.0
 40
1.0
 10
147.9480176389915
 20
55.70241781907355
 30
0.0
 10
148.0469820595044
 20
55.62852698575813
 30
0.0
 10
148.1528152843048
 20
55.56778512885781
 30
0.0
 10
148.2530682117976
 20
55.52641395916368
 30
0.0
  0
LWPOLYLINE
  5
BB
330
70
100
AcDbEntity
  8
Standardebene
 62
     7
370
     9
100
AcDbPolyline
 90
        3
 70
     0
 43
0.0
 10
147.9480176389915
 20
55.70241781907355
 10
147.3554100414483
 20
56.04442377705466
 10
147.3554100414483
 20
56.7277814140145
  0
SPLINE
  5
BC
330
70
100
AcDbEntity
  8
Standardebene
 62
     7
370
     9
100
AcDbSpline
210
0.0
220
0.0
230
1.0
 70
     8
 71
     3
 72
     8
 73
     4
 74
     0
 42
0.0000000001
 43
0.0000000001
 40
0.0
 40
0.0
 40
0.0
 40
0.0
 40
1.0
 40
1.0
 40
1.0
 40
1.0
 10
147.3554100414483
 20
57.08049468866594
 30
0.0
 10
147.3410423794148
 20
56.95766400654898
 30
0.0
 10
147.3416837928982
 20
56.835538879265
 30
0.0
 10
147.3554100414483
 20
56.7277814140145
 30
0.0
  0
LWPOLYLINE
  5
BD
330
70
100
AcDbEntity
  8
Standardebene
 62
     7
370
     9
100
AcDbPolyline
 90
        3
 70
     0
 43
0.0
 10
147.3554100414483
 20
57.08049468866594
 10
147.3554100414483
 20
57.77700559054637
 10
148.8562591547658
 20
58.64265722806226
  0
LINE
  5
BE
330
70
100
AcDbEntity
  8
Standardebene
 62
     7
370
     9
100
AcDbLine
 10
150.355814035201
 20
57.77700559054637
 30
0.0
 11
148.8562591547658
 21
58.64265722806226
 31
0.0
  0
LINE
  5
BF
330
70
100
AcDbEntity
  8
Standardebene
 62
     7
370
     9
100
AcDbLine
 10
150.355814035201
 20
56.04442377705466
 30
0.0
 11
150.355814035201
 21
57.77700559054637
 31
0.0
  0
LINE
  5
C0
330
70
100
AcDbEntity
  8
Standardebene
 62
     7
370
     9
100
AcDbLine
 10
148.8562591547658
 20
55.17812643754865
 30
0.0
 11
150.355814035201
 21
56.04442377705466
 31
0.0
  0
LINE
  5
C1
330
70
100
AcDbEntity
  8
Standardebene
 62
     7
370
     9
100
AcDbLine
 10
148.8562591547658
 20
55.17812643754865
 30
0.0
 11
148.2530682117976
 21
55.52641395916368
 31
0.0
  0
SPLINE
  5
C2
330
70
100
AcDbEntity
  8
Standardebene
 62
     7
370
     9
100
AcDbSpline
210
0.0
220
0.0
230
1.0
 70
     8
 71
     3
 72
     8
 73
     4
 74
     0
 42
0.0000000001
 43
0.0000000001
 40
0.0
 40
0.0
 40
0.0
 40
0.0
 40
1.0
 40
1.0
 40
1.0
 40
1.0
 10
148.8449645744972
 20
58.40398727080073
 30
0.0
 10
148.5687077870946
 20
58.40398727080073
 30
0.0
 10
148.3100257291435
 20
58.32945502400194
 30
0.0
 10
148.0952163534742
 20
58.2035455571649
 30
0.0
  0
SPLINE
  5
C3
330
70
100
AcDbEntity
  8
Standardebene
 62
     7
370
     9
100
AcDbSpline
210
0.0
220
0.0
230
1.0
 70
     8
 71
     3
 72
     8
 73
     4
 74
     0
 42
0.0000000001
 43
0.0000000001
 40
0.0
 40
0.0
 40
0.0
 40
0.0
 40
1.0
 40
1.0
 40
1.0
 40
1.0
 10
148.0952163534742
 20
58.2035455571649
 30
0.0
 10
147.6705364859587
 20
57.95865388911231
 30
0.0
 10
147.4112130145243
 20
57.53769421980149
 30
0.0
 10
147.3554100414483
 20
57.08049468866594
 30
0.0
  0
SPLINE
  5
C4
330
70
100
AcDbEntity
  8
Standardebene
 62
     7
370
     9
100
AcDbSpline
210
0.0
220
0.0
230
1.0
 70
     8
 71
     3
 72
     8
 73
     4
 74
     0
 42
0.0000000001
 43
0.0000000001
 40
0.0
 40
0.0
 40
0.0
 40
0.0
 40
1.0
 40
1.0
 40
1.0
 40
1.0
 10
147.3554100414483
 20
56.7277814140145
 30
0.0
 10
147.4055685758682
 20
56.30252427436396
 30
0.0
 10
147.6285239027799
 20
55.9410877763338
 30
0.0
 10
147.9480176389915
 20
55.70241781907355
 30
0.0
  0
SPLINE
  5
C5
330
70
100
AcDbEntity
  8
Standardebene
 62
     7
370
     9
100
AcDbSpline
210
0.0
220
0.0
230
1.0
 70
     8
 71
     3
 72
    14
 73
    10
 74
     0
 42
0.0000000001
 43
0.0000000001
 40
0.0
 40
0.0
 40
0.0
 40
0.0
 40
1.0
 40
1.0
 40
1.0
 40
2.0
 40
2.0
 40
2.0
 40
3.0
 40
3.0
 40
3.0
 40
3.0
 10
148.2530682117976
 20
55.52641395916368
 30
0.0
 10
148.4497255858803
 20
55.44187566202077
 30
0.0
 10
148.6539516390692
 20
55.40236886371683
 30
0.0
 10
148.8449645744972
 20
55.40486610401472
 30
0.0
 10
149.6730293818707
 20
55.40486610401472
 30
0.0
 10
150.3445251578902
 20
56.07572046654955
 30
0.0
 10
150.3445251578902
 20
56.90442668740772
 30
0.0
 10
150.3445251578902
 20
57.73255563613087
 30
0.0
 10
149.6730293818707
 20
58.40398727080073
 30
0.0
 10
148.8449645744972
 20
58.40398727080073
 30
0.0
  0
LINE
  5
C6
330
70
100
AcDbEntity
  8
Standardebene
  6
AI-Linetype-0
 62
     7
370
     9
100
AcDbLine
 10
68.47726618454719
 20
167.1029192329598
 30
0.0
 11
68.47726618454719
 21
228.9983669413165
 31
0.0
  0
LINE
  5
C8
330
70
100
AcDbEntity
  8
Standardebene
  6
AI-Linetype-1
 62
     7
370
     9
100
AcDbLine
 10
68.47726618454719
 20
48.97450350651644
 30
0.0
 11
68.47726618454719
 21
157.4817169784171
 31
0.0
  0
LINE
  5
CA
330
70
100
AcDbEntity
  8
Standardebene
  6
AI-Linetype-2
 62
     7
370
     9
100
AcDbLine
 10
148.8449645744972
 20
166.4076270166984
 30
0.0
 11
148.8449645744972
 21
228.9983669413165
 31
0.0
  0
LINE
  5
CC
330
70
100
AcDbEntity
  8
Standardebene
  6
AI-Linetype-3
 62
     7
370
     9
100
AcDbLine
 10
148.8449645744972
 20
49.1886714687024
 30
0.0
 11
148.8449645744972
 21
156.7864247621557
 31
0.0
  0
LINE
  5
CE
330
70
100
AcDbEntity
  8
Standardebene
  6
AI-Linetype-4
 62
     7
370
     9
100
AcDbLine
 10
14.12087293784473
 20
213.404321933215
 30
0.0
 11
84.46276544777346
 21
213.404321933215
 31
0.0
  0
LINE
  5
D0
330
70
100
AcDbEntity
  8
Standardebene
  6
AI-Linetype-5
 62
     7
370
     9
100
AcDbLine
 10
128.0785616282916
 20
213.404321933215
 30
0.0
 11
169.5568473745923
 21
213.404321933215
 31
0.0
  0
LINE
  5
D2
330
70
100
AcDbEntity
  8
Standardebene
 62
     7
370
    35
100
AcDbLine
 10
82.33122015895338
 20
53.67170272988122
 30
0.0
 11
82.72799853993094
 21
56.90442668740772
 31
0.0
  0
LINE
  5
D3
330
70
100
AcDbEntity
  8
Standardebene
 62
     7
370
    35
100
AcDbLine
 10
82.72799853993094
 20
200.404153118465
 30
0.0
 11
81.72739350545827
 21
201.4041167647155
 31
0.0
  0
LINE
  5
D4
330
70
100
AcDbEntity
  8
Standardebene
 62
     7
370
    35
100
AcDbLine
 10
55.22803684251345
 20
201.4041167647155
 30
0.0
 11
54.22736766669244
 21
200.404153118465
 31
0.0
  0
LINE
  5
D5
330
70
100
AcDbEntity
  8
Standardebene
 62
     7
370
    35
100
AcDbLine
 10
54.22736766669244
 20
65.40507958603779
 30
0.0
 11
54.22736766669244
 21
60.40218709496584
 31
0.0
  0
LINE
  5
D6
330
70
100
AcDbEntity
  8
Standardebene
 62
     7
370
    35
100
AcDbLine
 10
54.22736766669244
 20
200.404153118465
 30
0.0
 11
54.22736766669244
 21
141.4034693254572
 31
0.0
  0
LINE
  5
D7
330
70
100
AcDbEntity
  8
Standardebene
 62
     7
370
    35
100
AcDbLine
 10
54.22736766669244
 20
129.4048679938174
 30
0.0
 11
54.22736766669244
 21
72.39424161047939
 31
0.0
  0
LINE
  5
D8
330
70
100
AcDbEntity
  8
Standardebene
 62
     7
370
    35
100
AcDbLine
 10
82.72799853993094
 20
56.90442668740772
 30
0.0
 11
82.72799853993094
 21
129.4035851668501
 31
0.0
  0
LINE
  5
D9
330
70
100
AcDbEntity
  8
Standardebene
 62
     7
370
    35
100
AcDbLine
 10
82.72799853993094
 20
141.4034693254572
 30
0.0
 11
82.72799853993094
 21
200.404153118465
 31
0.0
  0
LINE
  5
DA
330
70
100
AcDbEntity
  8
Standardebene
 62
     7
370
    35
100
AcDbLine
 10
82.59708604792056
 20
53.14927144745933
 30
0.0
 11
82.33122015895338
 21
53.67170272988122
 31
0.0
  0
LINE
  5
DB
330
70
100
AcDbEntity
  8
Standardebene
 62
     7
370
    35
100
AcDbLine
 10
54.48919265071257
 20
53.4060934063074
 30
0.0
 11
54.35828015870283
 21
53.14927144745933
 31
0.0
  0
LINE
  5
DC
330
70
100
AcDbEntity
  8
Standardebene
 62
     7
370
    35
100
AcDbLine
 10
80.97726043634592
 20
201.4041167647155
 30
0.0
 11
80.97726043634592
 21
225.4045271017153
 31
0.0
  0
LINE
  5
DD
330
70
100
AcDbEntity
  8
Standardebene
 62
     7
370
    35
100
AcDbLine
 10
78.97784632515525
 20
225.804439841859
 30
0.0
 11
78.47773623196424
 21
226.3042933696567
 31
0.0
  0
LWPOLYLINE
  5
DE
330
70
100
AcDbEntity
  8
Standardebene
 62
     7
370
    35
100
AcDbPolyline
 90
        3
 70
     0
 43
0.0
 10
58.47769411600747
 20
226.3042933696567
 10
57.97751988146814
 20
225.804439841859
 10
57.97751988146814
 20
225.4045271017153
  0
LINE
  5
DF
330
70
100
AcDbEntity
  8
Standardebene
 62
     7
370
    35
100
AcDbLine
 10
78.97784632515525
 20
225.4045271017153
 30
0.0
 11
78.97784632515525
 21
225.804439841859
 31
0.0
  0
LINE
  5
E0
330
70
100
AcDbEntity
  8
Standardebene
 62
     7
370
    35
100
AcDbLine
 10
23.97728151683628
 20
207.4045400557156
 30
0.0
 11
24.97762998591561
 21
208.4042389991256
 31
0.0
  0
LINE
  5
E1
330
70
100
AcDbEntity
  8
Standardebene
 62
     7
370
    35
100
AcDbLine
 10
24.97762998591561
 20
218.4040676330587
 30
0.0
 11
23.97728151683628
 21
219.4044161021373
 31
0.0
  0
LINE
  5
E2
330
70
100
AcDbEntity
  8
Standardebene
 62
     7
370
    35
100
AcDbLine
 10
19.1773278533937
 20
207.4045400557156
 30
0.0
 11
23.97728151683628
 21
207.4045400557156
 31
0.0
  0
LINE
  5
E3
330
70
100
AcDbEntity
  8
Standardebene
 62
     7
370
    35
100
AcDbLine
 10
23.97728151683628
 20
219.4044161021373
 30
0.0
 11
19.1773278533937
 21
219.4044161021373
 31
0.0
  0
LINE
  5
E4
330
70
100
AcDbEntity
  8
Standardebene
 62
     7
370
    35
100
AcDbLine
 10
28.97800027523421
 20
219.4044161021373
 30
0.0
 11
27.97764913157895
 21
218.4040676330587
 31
0.0
  0
LWPOLYLINE
  5
E5
330
70
100
AcDbEntity
  8
Standardebene
 62
     7
370
    35
100
AcDbPolyline
 90
        3
 70
     0
 43
0.0
 10
27.97764913157895
 20
208.4042389991256
 10
28.97800027523421
 20
207.4045400557156
 10
40.4773868179837
 20
207.4045400557156
  0
LINE
  5
E6
330
70
100
AcDbEntity
  8
Standardebene
 62
     7
370
    35
100
AcDbLine
 10
40.4773868179837
 20
219.4044161021373
 30
0.0
 11
28.97800027523421
 21
219.4044161021373
 31
0.0
  0
LINE
  5
E7
330
70
100
AcDbEntity
  8
Standardebene
 62
     7
370
    35
100
AcDbLine
 10
24.97762998591561
 20
208.4042389991256
 30
0.0
 11
27.97764913157895
 21
208.4042389991256
 31
0.0
  0
LINE
  5
E8
330
70
100
AcDbEntity
  8
Standardebene
 62
     7
370
    35
100
AcDbLine
 10
27.97764913157895
 20
218.4040676330587
 30
0.0
 11
24.97762998591561
 21
218.4040676330587
 31
0.0
  0
LINE
  5
E9
330
70
100
AcDbEntity
  8
Standardebene
 62
     7
370
    35
100
AcDbLine
 10
47.47751701299573
 20
221.9046458613513
 30
0.0
 11
46.71898142724763
 21
223.2194152201087
 31
0.0
  0
LINE
  5
EA
330
70
100
AcDbEntity
  8
Standardebene
 62
     7
370
    35
100
AcDbLine
 10
42.03679127940032
 20
223.2194152201087
 30
0.0
 11
41.27793498690991
 21
221.9046458613513
 31
0.0
  0
LINE
  5
EB
330
70
100
AcDbEntity
  8
Standardebene
 62
     7
370
    35
100
AcDbLine
 10
46.71898142724763
 20
203.5895969669072
 30
0.0
 11
47.47751701299573
 21
204.9046870324063
 31
0.0
  0
LINE
  5
EC
330
70
100
AcDbEntity
  8
Standardebene
 62
     7
370
    35
100
AcDbLine
 10
41.27793498690991
 20
204.9046870324063
 30
0.0
 11
42.03679127940032
 21
203.5895969669072
 31
0.0
  0
SPLINE
  5
ED
330
70
100
AcDbEntity
  8
Standardebene
 62
     7
370
    35
100
AcDbSpline
210
0.0
220
0.0
230
1.0
 70
     8
 71
     3
 72
    11
 73
     7
 74
     0
 42
0.0000000001
 43
0.0000000001
 40
0.0
 40
0.0
 40
0.0
 40
0.0
 40
1.0
 40
1.0
 40
1.0
 40
2.0
 40
2.0
 40
2.0
 40
2.0
 10
54.35828015870283
 20
53.14927144745933
 30
0.0
 10
54.26809742290322
 20
52.97205311282307
 30
0.0
 10
54.22582827433176
 20
52.7834775438704
 30
0.0
 10
54.22736766669244
 20
52.60432655176281
 30
0.0
 10
54.22736766669244
 20
51.94161814046911
 30
0.0
 10
54.76512873137285
 20
51.40417778253037
 30
0.0
 10
55.42783714266592
 20
51.40417778253037
 30
0.0
  0
SPLINE
  5
EE
330
70
100
AcDbEntity
  8
Standardebene
 62
     7
370
    35
100
AcDbSpline
210
0.0
220
0.0
230
1.0
 70
     8
 71
     3
 72
    11
 73
     7
 74
     0
 42
0.0000000001
 43
0.0000000001
 40
0.0
 40
0.0
 40
0.0
 40
0.0
 40
1.0
 40
1.0
 40
1.0
 40
2.0
 40
2.0
 40
2.0
 40
2.0
 10
81.52727249856411
 20
51.40417778253037
 30
0.0
 10
82.19023747525053
 20
51.40417778253037
 30
0.0
 10
82.72799853993094
 20
51.94161814046911
 30
0.0
 10
82.72799853993094
 20
52.60432655176281
 30
0.0
 10
82.72799853993094
 20
52.80354957978027
 30
0.0
 10
82.6791869738261
 20
52.99084231700098
 30
0.0
 10
82.59708604792056
 20
53.14927144745933
 30
0.0
  0
SPLINE
  5
EF
330
70
100
AcDbEntity
  8
Standardebene
 62
     7
370
    35
100
AcDbSpline
210
0.0
220
0.0
230
1.0
 70
     8
 71
     3
 72
     8
 73
     4
 74
     0
 42
0.0000000001
 43
0.0000000001
 40
0.0
 40
0.0
 40
0.0
 40
0.0
 40
1.0
 40
1.0
 40
1.0
 40
1.0
 10
41.27793498690991
 20
206.604368622694
 30
0.0
 10
41.27793498690991
 20
207.0465590783128
 30
0.0
 10
40.91996212169306
 20
207.4045400557156
 30
0.0
 10
40.4773868179837
 20
207.4045400557156
 30
0.0
  0
SPLINE
  5
F0
330
70
100
AcDbEntity
  8
Standardebene
 62
     7
370
    35
100
AcDbSpline
210
0.0
220
0.0
230
1.0
 70
     8
 71
     3
 72
     8
 73
     4
 74
     0
 42
0.0000000001
 43
0.0000000001
 40
0.0
 40
0.0
 40
0.0
 40
0.0
 40
1.0
 40
1.0
 40
1.0
 40
1.0
 10
40.4773868179837
 20
219.4044161021373
 30
0.0
 10
40.91996212169306
 20
219.4044161021373
 30
0.0
 10
41.27793498690991
 20
219.7627096740965
 30
0.0
 10
41.27793498690991
 20
220.2046435643219
 30
0.0
  0
SPLINE
  5
F1
330
70
100
AcDbEntity
  8
Standardebene
 62
     7
370
    35
100
AcDbSpline
210
0.0
220
0.0
230
1.0
 70
     8
 71
     3
 72
     8
 73
     4
 74
     0
 42
0.0000000001
 43
0.0000000001
 40
0.0
 40
0.0
 40
0.0
 40
0.0
 40
1.0
 40
1.0
 40
1.0
 40
1.0
 10
17.97782049764589
 20
208.6040392992781
 30
0.0
 10
17.97782049764589
 20
207.941972301469
 30
0.0
 10
18.51526326585049
 20
207.4045400557156
 30
0.0
 10
19.1773278533937
 20
207.4045400557156
 30
0.0
  0
SPLINE
  5
F2
330
70
100
AcDbEntity
  8
Standardebene
 62
     7
370
    35
100
AcDbSpline
210
0.0
220
0.0
230
1.0
 70
     8
 71
     3
 72
     8
 73
     4
 74
     0
 42
0.0000000001
 43
0.0000000001
 40
0.0
 40
0.0
 40
0.0
 40
0.0
 40
1.0
 40
1.0
 40
1.0
 40
1.0
 10
19.1773278533937
 20
219.4044161021373
 30
0.0
 10
18.51526326585049
 20
219.4044161021373
 30
0.0
 10
17.97782049764589
 20
218.8672964509403
 30
0.0
 10
17.97782049764589
 20
218.2042673329055
 30
0.0
  0
LWPOLYLINE
  5
F3
330
70
100
AcDbEntity
  8
Standardebene
 62
     7
370
    35
100
AcDbPolyline
 90
        6
 70
     0
 43
0.0
 10
79.22184395817367
 20
201.4041167647155
 10
80.10538708803961
 20
201.4041167647155
 10
80.80658030835044
 20
201.4041167647155
 10
81.31522120087387
 20
201.4041167647155
 10
81.62399765189649
 20
201.4041167647155
 10
81.72739350545827
 20
201.4041167647155
  0
LWPOLYLINE
  5
F4
330
70
100
AcDbEntity
  8
Standardebene
 62
     7
370
    35
100
AcDbPolyline
 90
        9
 70
     0
 43
0.0
 10
54.66429853174576
 20
56.90442668740772
 10
54.65993692005704
 20
57.26086016026388
 10
54.65993692005704
 20
57.26086016026388
 10
54.58758547910294
 20
58.3607560020036
 10
54.45635228035087
 20
59.31101007801074
 10
54.38335942591277
 20
59.7031061405579
 10
54.31761454384039
 20
60.01694975810028
 10
54.26655803054253
 20
60.24240659759836
 10
54.22961261388546
 20
60.39653825771697
  0
LWPOLYLINE
  5
F5
330
70
100
AcDbEntity
  8
Standardebene
 62
     7
370
    35
100
AcDbPolyline
 90
       25
 70
     0
 43
0.0
 10
54.66429853174576
 20
56.90442668740772
 10
55.18544698719967
 20
56.90442668740772
 10
55.89985332527395
 20
56.90442668740772
 10
56.79648523404917
 20
56.90442668740772
 10
57.86225787845857
 20
56.90442668740772
 10
59.08338430370782
 20
56.90442668740772
 10
60.44016281054108
 20
56.90442668740772
 10
61.91368200649846
 20
56.90442668740772
 10
63.48245110477588
 20
56.90442668740772
 10
65.12389235074905
 20
56.90442668740772
 10
66.81388859743376
 20
56.90442668740772
 10
68.52800199110274
 20
56.90442668740772
 10
70.24115326454668
 20
56.90442668740772
 10
71.92890456403901
 20
56.90442668740772
 10
73.56688217720019
 20
56.90442668740772
 10
75.1309689570472
 20
56.90442668740772
 10
76.59794573547184
 20
56.90442668740772
 10
77.94715899830058
 20
56.90442668740772
 10
79.15923805832784
 20
56.90442668740772
 10
80.21622333801147
 20
56.90442668740772
 10
81.10252848970025
 20
56.90442668740772
 10
81.80564595046178
 20
56.90442668740772
 10
82.31556966995254
 20
56.90442668740772
 10
82.6240254142335
 20
56.90442668740772
 10
82.72799853993094
 20
56.90442668740772
  0
LWPOLYLINE
  5
F6
330
70
100
AcDbEntity
  8
Standardebene
 62
     7
370
    35
100
AcDbPolyline
 90
       17
 70
     0
 43
0.0
 10
54.22736766669244
 20
65.40507958603779
 10
54.22768837343411
 20
65.40507958603779
 10
54.23929795748791
 20
65.45267699270353
 10
54.23929795748791
 20
65.45267699270353
 10
54.27310044807592
 20
65.59545110798115
 10
54.3908639636712
 20
66.14296165761235
 10
54.53434815996104
 20
67.00233200831558
 10
54.59541404533052
 20
67.52847892361545
 10
54.64082279824419
 20
68.09471874696949
 10
54.66212104931303
 20
68.674748960222
 10
54.65993692005704
 20
69.26106502561392
 10
54.58758547910294
 20
70.36096086735236
 10
54.45635228035087
 20
71.31057352987615
 10
54.38335942591277
 20
71.70266959242332
 10
54.31761454384039
 20
72.01715462345032
 10
54.26655803054253
 20
72.2426114629484
 10
54.22961261388546
 20
72.39674312306573
  0
LWPOLYLINE
  5
F7
330
70
100
AcDbEntity
  8
Standardebene
 62
     7
370
    35
100
AcDbPolyline
 90
       27
 70
     0
 43
0.0
 10
82.72799853993094
 20
200.404153118465
 10
82.62370470749182
 20
200.404153118465
 10
82.31364542950187
 20
200.404153118465
 10
81.80192575225705
 20
200.404153118465
 10
81.09566536542519
 20
200.404153118465
 10
80.20557587418336
 20
200.404153118465
 10
79.14416484146203
 20
200.404153118465
 10
77.92714689761102
 20
200.404153118465
 10
76.57254576151958
 20
200.404153118465
 10
75.10024525118119
 20
200.404153118465
 10
73.53058197409629
 20
200.404153118465
 10
71.88785410108592
 20
200.404153118465
 10
70.19542048316385
 20
200.404153118465
 10
68.47726618454719
 20
200.404153118465
 10
66.75968915806619
 20
200.404153118465
 10
65.06719139879578
 20
200.404153118465
 10
63.42453146720359
 20
200.404153118465
 10
61.85512095544218
 20
200.404153118465
 10
60.38249973836212
 20
200.404153118465
 10
59.02828345036133
 20
200.404153118465
 10
57.81120136516135
 20
200.404153118465
 10
56.75017518053068
 20
200.404153118465
 10
55.85944427580486
 20
200.404153118465
 10
55.15318388897298
 20
200.404153118465
 10
54.64146421172818
 20
200.404153118465
 10
54.33140493373822
 20
200.404153118465
 10
54.22736766669244
 20
200.404153118465
  0
LWPOLYLINE
  5
F8
330
70
100
AcDbEntity
  8
Standardebene
 62
     7
370
    35
100
AcDbPolyline
 90
        8
 70
     0
 43
0.0
 10
54.68995507109072
 20
53.67170272988122
 10
54.71721514414534
 20
53.94289235076278
 10
54.74479592394164
 20
54.29682431103259
 10
54.7664115583402
 20
54.72650720372082
 10
54.77359538935694
 20
55.21764177576181
 10
54.76172923990981
 20
55.75129780762958
 10
54.7260025088711
 20
56.3162505229128
 10
54.66429853174576
 20
56.90442668740772
  0
LWPOLYLINE
  5
F9
330
70
100
AcDbEntity
  8
Standardebene
 62
     7
370
    35
100
AcDbPolyline
 90
       26
 70
     0
 43
0.0
 10
54.68995507109072
 20
53.67170272988122
 10
54.95524701874002
 20
53.67170272988122
 10
55.42001189816582
 20
53.67170272988122
 10
56.07900347045944
 20
53.67170272988122
 10
56.92117939574866
 20
53.67170272988122
 10
57.934930026155
 20
53.67170272988122
 10
59.10499650300415
 20
53.67170272988122
 10
60.41322344422813
 20
53.67170272988122
 10
61.84139470689269
 20
53.67170272988122
 10
63.36783051524967
 20
53.67170272988122
 10
64.97014553872175
 20
53.67170272988122
 10
66.62377364088374
 20
53.67170272988122
 10
68.30594464306834
 20
53.67170272988122
 10
69.99023230974865
 20
53.67170272988122
 10
71.65142909101804
 20
53.67170272988122
 10
73.2659309706783
 20
53.67170272988122
 10
74.81026221522911
 20
53.67170272988122
 10
76.2599849709439
 20
53.67170272988122
 10
77.59418915825516
 20
53.67170272988122
 10
78.79402115378029
 20
53.67170272988122
 10
79.84106059143312
 20
53.67170272988122
 10
80.7195444802989
 20
53.67170272988122
 10
81.41669281398495
 20
53.67170272988122
 10
81.92219479249828
 20
53.67170272988122
 10
82.2278243053916
 20
53.67170272988122
 10
82.33122015895338
 20
53.67170272988122
  0
LWPOLYLINE
  5
FA
330
70
100
AcDbEntity
  8
Standardebene
 62
     7
370
    35
100
AcDbPolyline
 90
        3
 70
     0
 43
0.0
 10
54.68995507109072
 20
53.67170272988122
 10
54.50740879364809
 20
53.42988984655
 10
54.51427191792316
 20
53.4380357977924
  0
LWPOLYLINE
  5
FB
330
70
100
AcDbEntity
  8
Standardebene
 62
     7
370
    35
100
AcDbPolyline
 90
       26
 70
     0
 43
0.0
 10
55.42783714266592
 20
51.40417778253037
 10
55.53059492809598
 20
51.40417778253037
 10
55.83750793466461
 20
51.40417778253037
 10
56.34396802134337
 20
51.40417778253037
 10
57.04201831558513
 20
51.40417778253037
 10
57.91992095063752
 20
51.40417778253037
 10
58.96439866739067
 20
51.40417778253037
 10
60.15986511819208
 20
51.40417778253037
 10
61.48496123403589
 20
51.40417778253037
 10
62.92121430659389
 20
51.40417778253037
 10
64.44489203697182
 20
51.40417778253037
 10
66.03245816097095
 20
51.40417778253037
 10
67.65824530729211
 20
51.40417778253037
 10
69.29686433393792
 20
51.40417778253037
 10
70.92323609724859
 20
51.40417778253037
 10
72.51047416965157
 20
51.40417778253037
 10
74.03383119328781
 20
51.40417778253037
 10
75.47014840719414
 20
51.40417778253037
 10
76.79620664326363
 20
51.40417778253037
 10
77.99071097383937
 20
51.40417778253037
 10
79.0355093973342
 20
51.40417778253037
 10
79.91366859778057
 20
51.40417778253037
 10
80.61146232662833
 20
51.40417778253037
 10
81.11792241330709
 20
51.40417778253037
 10
81.42515947196903
 20
51.40417778253037
 10
81.52727249856411
 20
51.40417778253037
  0
LINE
  5
FC
330
70
100
AcDbEntity
  8
Standardebene
 62
     7
370
    35
100
AcDbLine
 10
47.47751701299573
 20
225.4045271017153
 30
0.0
 11
47.47751701299573
 21
201.4041167647155
 31
0.0
  0
LWPOLYLINE
  5
FD
330
70
100
AcDbEntity
  8
Standardebene
 62
     7
370
    35
100
AcDbPolyline
 90
       25
 70
     0
 43
0.0
 10
80.97726043634592
 20
225.4045271017153
 10
80.87110650480445
 20
225.4045271017153
 10
80.5541841025394
 20
225.4045271017153
 10
80.02957201427348
 20
225.4045271017153
 10
79.30362023349438
 20
225.4045271017153
 10
78.38466713548825
 20
225.4045271017153
 10
77.28477518865765
 20
225.4045271017153
 10
76.0150933028913
 20
225.4045271017153
 10
74.59224577214111
 20
225.4045271017153
 10
73.03290545207346
 20
225.4045271017153
 10
71.3538773759592
 20
225.4045271017153
 10
69.5768413195446
 20
225.4045271017153
 10
67.72091140464377
 20
225.4045271017153
 10
65.80981993014971
 20
225.4045271017153
 10
63.8648618237193
 20
225.4045271017153
 10
61.91028251503478
 20
225.4045271017153
 10
59.96725210648714
 20
225.4045271017153
 10
58.06019807950868
 20
225.4045271017153
 10
56.21113465142632
 20
225.4045271017153
 10
54.44224118371073
 20
225.4045271017153
 10
52.77353986468291
 20
225.4045271017153
 10
51.22548842192674
 20
225.4045271017153
 10
49.81578986759103
 20
225.4045271017153
 10
48.5620830724763
 20
225.4045271017153
 10
47.47751701299573
 20
225.4045271017153
  0
LWPOLYLINE
  5
FE
330
70
100
AcDbEntity
  8
Standardebene
 62
     7
370
    35
100
AcDbPolyline
 90
       21
 70
     0
 43
0.0
 10
47.47751701299573
 20
201.4041167647155
 10
48.55586453083978
 20
201.4041167647155
 10
49.80264089117656
 20
201.4041167647155
 10
51.2035520807865
 20
201.4041167647155
 10
52.7415974731979
 20
201.4041167647155
 10
54.40029274188095
 20
201.4041167647155
 10
56.1582146764827
 20
201.4041167647155
 10
57.99631329653866
 20
201.4041167647155
 10
59.89239569551589
 20
201.4041167647155
 10
61.82446139092451
 20
201.4041167647155
 10
63.76999676948994
 20
201.4041167647155
 10
65.70642407658728
 20
201.4041167647155
 10
67.61097678407626
 20
201.4041167647155
 10
69.46125860979336
 20
201.4041167647155
 10
71.23579315362161
 20
201.4041167647155
 10
72.91385910951021
 20
201.4041167647155
 10
74.47608579025487
 20
201.4041167647155
 10
75.90329493269377
 20
201.4041167647155
 10
77.18015675456839
 20
201.4041167647155
 10
78.29102076687791
 20
201.4041167647155
 10
79.2221607210722
 20
201.4041167647155
  0
LWPOLYLINE
  5
FF
330
70
100
AcDbEntity
  8
Standardebene
 62
     7
370
    35
100
AcDbPolyline
 90
       23
 70
     0
 43
0.0
 10
58.47769411600747
 20
226.3042933696567
 10
58.57948643586087
 20
226.3042933696567
 10
58.88293915496912
 20
226.3042933696567
 10
59.38157399714778
 20
226.3042933696567
 10
60.06525662935541
 20
226.3042933696567
 10
60.91994009630086
 20
226.3042933696567
 10
61.92907593010595
 20
226.3042933696567
 10
63.07124092041649
 20
226.3042933696567
 10
64.32373259739759
 20
226.3042933696567
 10
65.66043833106397
 20
226.3042933696567
 10
67.05473936053933
 20
226.3042933696567
 10
68.47726618454719
 20
226.3042933696567
 10
69.90069098743304
 20
226.3042933696567
 10
71.29467491141958
 20
226.3042933696567
 10
72.63170131805885
 20
226.3042933696567
 10
73.8841252862069
 20
226.3042933696567
 10
75.02603371112408
 20
226.3042933696567
 10
76.03516954492917
 20
226.3042933696567
 10
76.8901737186163
 20
226.3042933696567
 10
77.57385635082393
 20
226.3042933696567
 10
78.07243096646117
 20
226.3042933696567
 10
78.37562320536917
 20
226.3042933696567
 10
78.47773623196424
 20
226.3042933696567
  0
LWPOLYLINE
  5
100
330
70
100
AcDbEntity
  8
Standardebene
 62
     7
370
    35
100
AcDbPolyline
 90
       23
 70
     0
 43
0.0
 10
78.97784632515525
 20
225.804439841859
 10
78.87105098012978
 20
225.804439841859
 10
78.55194777202071
 20
225.804439841859
 10
78.02861851072212
 20
225.804439841859
 10
77.31043172865136
 20
225.804439841859
 10
76.4131545108362
 20
225.804439841859
 10
75.3533470118239
 20
225.804439841859
 10
74.15441692821111
 20
225.804439841859
 10
72.83996827619542
 20
225.804439841859
 10
71.43591416051576
 20
225.804439841859
 10
69.97175960141979
 20
225.804439841859
 10
68.47726618454719
 20
225.804439841859
 10
66.98335003981025
 20
225.804439841859
 10
65.51977275284929
 20
225.804439841859
 10
64.11578277851798
 20
225.804439841859
 10
62.80094927841227
 20
225.804439841859
 10
61.60176262940614
 20
225.804439841859
 10
60.54227583713615
 20
225.804439841859
 10
59.64462111606749
 20
225.804439841859
 10
58.9268118372496
 20
225.804439841859
 10
58.40316186920933
 20
225.804439841859
 10
58.0843152264936
 20
225.804439841859
 10
57.97751988146814
 20
225.804439841859
  0
LWPOLYLINE
  5
101
330
70
100
AcDbEntity
  8
Standardebene
 62
     7
370
    35
100
AcDbPolyline
 90
        9
 70
     0
 43
0.0
 10
28.97800027523421
 20
213.404321933215
 10
28.97800027523421
 20
212.2339264858721
 10
28.97800027523421
 20
211.1086306701808
 10
28.97800027523421
 20
210.0710160777021
 10
28.97800027523421
 20
209.1618766059963
 10
28.97800027523421
 20
208.4155278764371
 10
28.97800027523421
 20
207.8611542025308
 10
28.97800027523421
 20
207.5201146532815
 10
28.97800027523421
 20
207.4045400557156
  0
LWPOLYLINE
  5
102
330
70
100
AcDbEntity
  8
Standardebene
 62
     7
370
    35
100
AcDbPolyline
 90
        9
 70
     0
 43
0.0
 10
28.97800027523421
 20
219.4044161021373
 10
28.97800027523421
 20
219.2891540991278
 10
28.97800027523421
 20
218.9474731363951
 10
28.97800027523421
 20
218.3934201692299
 10
28.97800027523421
 20
217.6474562877612
 10
28.97800027523421
 20
216.7382526747072
 10
28.97800027523421
 20
215.6999966687451
 10
28.97800027523421
 20
214.5750215597955
 10
28.97800027523421
 20
213.404321933215
  0
LINE
  5
103
330
70
100
AcDbEntity
  8
Standardebene
 62
     7
370
    35
100
AcDbLine
 10
46.71898142724763
 20
203.5895969669072
 30
0.0
 11
42.03679127940032
 21
203.5895969669072
 31
0.0
  0
LWPOLYLINE
  5
104
330
70
100
AcDbEntity
  8
Standardebene
 62
     7
370
    35
100
AcDbPolyline
 90
        8
 70
     0
 43
0.0
 10
46.71898142724763
 20
208.4972439542526
 10
42.03679127940032
 20
208.4972439542526
 10
41.48652265178879
 20
207.2945936724351
 10
41.33117230605181
 20
206.6732564308361
 10
41.27793498690991
 20
206.0428191955555
 10
41.28165518511528
 20
205.8686673569629
 10
41.50717616596168
 20
204.7270796387874
 10
42.03679127940032
 20
203.5895969669072
  0
LWPOLYLINE
  5
105
330
70
100
AcDbEntity
  8
Standardebene
 62
     7
370
    35
100
AcDbPolyline
 90
        4
 70
     0
 43
0.0
 10
47.47751701299573
 20
206.0428191955555
 10
47.47373267344203
 20
205.8686673569629
 10
47.24795512720228
 20
204.7270796387874
 10
46.71898142724763
 20
203.5895969669072
  0
LWPOLYLINE
  5
106
330
70
100
AcDbEntity
  8
Standardebene
 62
     7
370
    35
100
AcDbPolyline
 90
        4
 70
     0
 43
0.0
 10
46.71898142724763
 20
208.4972439542526
 10
47.26925005485917
 20
207.2945936724351
 10
47.42427969385383
 20
206.6732564308361
 10
47.47751701299573
 20
206.0428191955555
  0
LWPOLYLINE
  5
107
330
70
100
AcDbEntity
  8
Standardebene
 62
     7
370
    35
100
AcDbPolyline
 90
        8
 70
     0
 43
0.0
 10
46.71898142724763
 20
218.3123455048983
 10
42.03679127940032
 20
218.3123455048983
 10
41.600501827831
 20
216.5403124736571
 10
41.33585462448219
 20
214.7187623214787
 10
41.27793498690991
 20
213.404321933215
 10
41.39191715113087
 20
211.5580690981646
 10
41.7210875627543
 20
209.7102209931572
 10
42.03679127940032
 20
208.4972439542526
  0
LWPOLYLINE
  5
108
330
70
100
AcDbEntity
  8
Standardebene
 62
     7
370
    35
100
AcDbPolyline
 90
        4
 70
     0
 43
0.0
 10
47.47751701299573
 20
213.404321933215
 10
47.36321713021183
 20
211.5580690981646
 10
47.03468514389301
 20
209.7102209931572
 10
46.71898142724763
 20
208.4972439542526
  0
LWPOLYLINE
  5
109
330
70
100
AcDbEntity
  8
Standardebene
 62
     7
370
    35
100
AcDbPolyline
 90
        4
 70
     0
 43
0.0
 10
46.71898142724763
 20
218.3123455048983
 10
47.15462946533295
 20
216.5403124736571
 10
47.41927980912413
 20
214.7187623214787
 10
47.47751701299573
 20
213.404321933215
  0
LWPOLYLINE
  5
10A
330
70
100
AcDbEntity
  8
Standardebene
 62
     7
370
    35
100
AcDbPolyline
 90
        8
 70
     0
 43
0.0
 10
46.71898142724763
 20
223.2194152201087
 10
42.03679127940032
 20
223.2194152201087
 10
41.48652265178879
 20
222.0170856450329
 10
41.33117230605181
 20
221.3956927277175
 10
41.27793498690991
 20
220.7655596557615
 10
41.28165518511528
 20
220.591095188213
 10
41.50717616596168
 20
219.4495074700368
 10
42.03679127940032
 20
218.3123455048983
  0
LWPOLYLINE
  5
10B
330
70
100
AcDbEntity
  8
Standardebene
 62
     7
370
    35
100
AcDbPolyline
 90
        4
 70
     0
 43
0.0
 10
47.47751701299573
 20
220.7655596557615
 10
47.47373267344203
 20
220.591095188213
 10
47.24795512720228
 20
219.4495074700368
 10
46.71898142724763
 20
218.3123455048983
  0
LWPOLYLINE
  5
10C
330
70
100
AcDbEntity
  8
Standardebene
 62
     7
370
    35
100
AcDbPolyline
 90
        4
 70
     0
 43
0.0
 10
46.71898142724763
 20
223.2194152201087
 10
47.26925005485917
 20
222.0170856450329
 10
47.42427969385383
 20
221.3956927277175
 10
47.47751701299573
 20
220.7655596557615
  0
LWPOLYLINE
  5
10D
330
70
100
AcDbEntity
  8
Standardebene
 62
     7
370
    35
100
AcDbPolyline
 90
        4
 70
     0
 43
0.0
 10
41.27793498690991
 20
220.7655596557615
 10
41.27793498690991
 20
221.3918999225325
 10
41.27793498690991
 20
221.7752727617016
 10
41.27793498690991
 20
221.9046458613513
  0
LWPOLYLINE
  5
10E
330
70
100
AcDbEntity
  8
Standardebene
 62
     7
370
    35
100
AcDbPolyline
 90
        7
 70
     0
 43
0.0
 10
41.27793498690991
 20
213.404321933215
 10
41.27793498690991
 20
214.880398519355
 10
41.27793498690991
 20
216.311392001347
 10
41.27793498690991
 20
217.654327783153
 10
41.27793498690991
 20
218.868258571166
 10
41.27793498690991
 20
219.9158792139888
 10
41.27793498690991
 20
220.7655596557615
  0
LWPOLYLINE
  5
10F
330
70
100
AcDbEntity
  8
Standardebene
 62
     7
370
    35
100
AcDbPolyline
 90
        7
 70
     0
 43
0.0
 10
41.27793498690991
 20
206.0428191955555
 10
41.27793498690991
 20
206.8928122662848
 10
41.27793498690991
 20
207.9410101812433
 10
41.27793498690991
 20
209.1540513614962
 10
41.27793498690991
 20
210.496978772185
 10
41.27793498690991
 20
211.9282929609192
 10
41.27793498690991
 20
213.404321933215
  0
LWPOLYLINE
  5
110
330
70
100
AcDbEntity
  8
Standardebene
 62
     7
370
    35
100
AcDbPolyline
 90
        4
 70
     0
 43
0.0
 10
41.27793498690991
 20
204.9046870324063
 10
41.27793498690991
 20
205.0336752839653
 10
41.27793498690991
 20
205.417048123135
 10
41.27793498690991
 20
206.0428191955555
  0
LWPOLYLINE
  5
111
330
70
100
AcDbEntity
  8
Standardebene
 62
     7
370
    35
100
AcDbPolyline
 90
       16
 70
     0
 43
0.0
 10
24.97762998591561
 20
208.4042389991256
 10
24.97762998591561
 20
208.5138565634791
 10
24.97762998591561
 20
208.8367441111412
 10
24.97762998591561
 20
209.3591753935631
 10
24.97762998591561
 20
210.0588292215133
 10
24.97762998591561
 20
210.9041480515973
 10
24.97762998591561
 20
211.8590203046865
 10
24.97762998591561
 20
212.8816258216477
 10
24.97762998591561
 20
213.9267449518842
 10
24.97762998591561
 20
214.9492863274971
 10
24.97762998591561
 20
215.9042227219346
 10
24.97762998591561
 20
216.7497981174127
 10
24.97762998591561
 20
217.4495160867111
 10
24.97762998591561
 20
217.9722039345264
 10
24.97762998591561
 20
218.2954121889308
 10
24.97762998591561
 20
218.4040676330587
  0
LWPOLYLINE
  5
112
330
70
100
AcDbEntity
  8
Standardebene
 62
     7
370
    35
100
AcDbPolyline
 90
       16
 70
     0
 43
0.0
 10
27.97764913157895
 20
208.4042389991256
 10
27.97764913157895
 20
208.5138565634791
 10
27.97764913157895
 20
208.8367441111412
 10
27.97764913157895
 20
209.3591753935631
 10
27.97764913157895
 20
210.0588292215133
 10
27.97764913157895
 20
210.9041480515973
 10
27.97764913157895
 20
211.8590203046865
 10
27.97764913157895
 20
212.8816258216477
 10
27.97764913157895
 20
213.9267449518842
 10
27.97764913157895
 20
214.9492863274971
 10
27.97764913157895
 20
215.9042227219346
 10
27.97764913157895
 20
216.7497981174127
 10
27.97764913157895
 20
217.4495160867111
 10
27.97764913157895
 20
217.9722039345264
 10
27.97764913157895
 20
218.2954121889308
 10
27.97764913157895
 20
218.4040676330587
  0
LWPOLYLINE
  5
113
330
70
100
AcDbEntity
  8
Standardebene
 62
     7
370
    35
100
AcDbPolyline
 90
       16
 70
     0
 43
0.0
 10
17.97782049764589
 20
208.6040392992781
 10
17.97782049764589
 20
208.7092952519428
 10
17.97782049764589
 20
209.0196752366745
 10
17.97782049764589
 20
209.5213888635745
 10
17.97782049764589
 20
210.1928846395934
 10
17.97782049764589
 20
211.0043368377417
 10
17.97782049764589
 20
211.9216864020381
 10
17.97782049764589
 20
212.9026000425629
 10
17.97782049764589
 20
213.9063480031047
 10
17.97782049764589
 20
214.8882237638551
 10
17.97782049764589
 20
215.8046112079259
 10
17.97782049764589
 20
216.6160634060742
 10
17.97782049764589
 20
217.2875591820931
 10
17.97782049764589
 20
217.7895935157348
 10
17.97782049764589
 20
218.0993320869831
 10
17.97782049764589
 20
218.2042673329055
  0
LWPOLYLINE
  5
114
330
70
100
AcDbEntity
  8
Standardebene
 62
     7
370
    35
100
AcDbPolyline
 90
       18
 70
     0
 43
0.0
 10
23.97728151683628
 20
207.4045400557156
 10
23.97728151683628
 20
207.5066449701247
 10
23.97728151683628
 20
207.8098411238396
 10
23.97728151683628
 20
208.3030880927562
 10
23.97728151683628
 20
208.9701581157373
 10
23.97728151683628
 20
209.7882168727673
 10
23.97728151683628
 20
210.7303249975321
 10
23.97728151683628
 20
211.7623033736261
 10
23.97728151683628
 20
212.8509021157817
 10
23.97728151683628
 20
213.9577252231442
 10
23.97728151683628
 20
215.0463963289201
 10
23.97728151683628
 20
216.0789437548772
 10
23.97728151683628
 20
217.0197690526752
 10
23.97728151683628
 20
217.838469223188
 10
23.97728151683628
 20
218.5055392461697
 10
23.97728151683628
 20
218.999491769918
 10
23.97728151683628
 20
219.3023030755429
 10
23.97728151683628
 20
219.4044161021373
  0
LINE
  5
115
330
70
100
AcDbEntity
  8
Standardebene
 62
     7
370
    35
100
AcDbLine
 10
68.72748158451418
 20
141.2045670041821
 30
0.0
 11
68.72748158451418
 21
141.4047521524245
 31
0.0
  0
LWPOLYLINE
  5
116
330
70
100
AcDbEntity
  8
Standardebene
 62
     7
370
    35
100
AcDbPolyline
 90
        3
 70
     0
 43
0.0
 10
68.22826947019986
 20
141.2045670041821
 10
68.47726618454719
 20
141.2045670041821
 10
68.72748158451418
 20
141.2045670041821
  0
LINE
  5
117
330
70
100
AcDbEntity
  8
Standardebene
 62
     7
370
    35
100
AcDbLine
 10
68.22826947019986
 20
141.4047521524245
 30
0.0
 11
68.22826947019986
 21
141.2045670041821
 31
0.0
  0
LWPOLYLINE
  5
118
330
70
100
AcDbEntity
  8
Standardebene
 62
     7
370
    35
100
AcDbPolyline
 90
       16
 70
     0
 43
0.0
 10
68.22826947019986
 20
141.4047521524245
 10
65.69487863388182
 20
141.4047521524245
 10
63.19060796972142
 20
141.4047521524245
 10
60.74079678729373
 20
141.4047521524245
 10
58.37057806424033
 20
141.4047521524245
 10
56.10497735734081
 20
141.4047521524245
 10
53.96618740198761
 20
141.4047521524245
 10
51.9780588622771
 20
141.4047521524245
 10
51.9780588622771
 20
129.4042265803335
 10
53.96618740198761
 20
129.4042265803335
 10
56.10497735734081
 20
129.4042265803335
 10
58.37057806424033
 20
129.4042265803335
 10
60.74079678729373
 20
129.4042265803335
 10
63.19060796972142
 20
129.4042265803335
 10
65.69487863388182
 20
129.4042265803335
 10
68.22826947019986
 20
129.4042265803335
  0
LINE
  5
119
330
70
100
AcDbEntity
  8
Standardebene
 62
     7
370
    35
100
AcDbLine
 10
68.22826947019986
 20
129.6040268804859
 30
0.0
 11
68.22826947019986
 21
129.4042265803335
 31
0.0
  0
LWPOLYLINE
  5
11A
330
70
100
AcDbEntity
  8
Standardebene
 62
     7
370
    35
100
AcDbPolyline
 90
        3
 70
     0
 43
0.0
 10
68.72748158451418
 20
129.6040268804859
 10
68.47726618454719
 20
129.6040268804859
 10
68.22826947019986
 20
129.6040268804859
  0
LINE
  5
11B
330
70
100
AcDbEntity
  8
Standardebene
 62
     7
370
    35
100
AcDbLine
 10
68.72748158451418
 20
129.4042265803335
 30
0.0
 11
68.72748158451418
 21
129.6040268804859
 31
0.0
  0
LWPOLYLINE
  5
11C
330
70
100
AcDbEntity
  8
Standardebene
 62
     7
370
    35
100
AcDbPolyline
 90
       17
 70
     0
 43
0.0
 10
68.72748158451418
 20
129.4042265803335
 10
71.09923622295517
 20
129.4042265803335
 10
73.44693785576024
 20
129.4042265803335
 10
75.74980468605978
 20
129.4042265803335
 10
77.98724734102735
 20
129.4042265803335
 10
80.1382274584013
 20
129.4042265803335
 10
82.18465717794281
 20
129.4042265803335
 10
84.10665268165834
 20
129.4042265803335
 10
85.88811449110934
 20
129.4042265803335
 10
87.51230171437333
 20
129.4042265803335
 10
88.96427360723768
 20
129.4042265803335
 10
90.23202316768703
 20
129.4042265803335
 10
91.30286722765267
 20
129.4042265803335
 10
92.16787320264936
 20
129.4042265803335
 10
92.81871546449529
 20
129.4042265803335
 10
93.25025845628589
 20
129.4042265803335
 10
93.45788400093846
 20
129.4042265803335
  0
LINE
  5
11D
330
70
100
AcDbEntity
  8
Standardebene
 62
     7
370
    35
100
AcDbLine
 10
93.45788400093846
 20
141.4047521524245
 30
0.0
 11
93.45788400093846
 21
129.4042265803335
 31
0.0
  0
LWPOLYLINE
  5
11E
330
70
100
AcDbEntity
  8
Standardebene
 62
     7
370
    35
100
AcDbPolyline
 90
       17
 70
     0
 43
0.0
 10
93.45788400093846
 20
141.4047521524245
 10
93.25025845628589
 20
141.4047521524245
 10
92.81871546449529
 20
141.4047521524245
 10
92.16787320264936
 20
141.4047521524245
 10
91.30286722765267
 20
141.4047521524245
 10
90.23202316768703
 20
141.4047521524245
 10
88.96427360723768
 20
141.4047521524245
 10
87.51230171437333
 20
141.4047521524245
 10
85.88811449110934
 20
141.4047521524245
 10
84.10665268165834
 20
141.4047521524245
 10
82.18465717794281
 20
141.4047521524245
 10
80.1382274584013
 20
141.4047521524245
 10
77.98724734102735
 20
141.4047521524245
 10
75.74980468605978
 20
141.4047521524245
 10
73.44693785576024
 20
141.4047521524245
 10
71.09923622295517
 20
141.4047521524245
 10
68.72748158451418
 20
141.4047521524245
  0
LWPOLYLINE
  5
11F
330
70
100
AcDbEntity
  8
Standardebene
 62
     7
370
    35
100
AcDbPolyline
 90
       26
 70
     0
 43
0.0
 10
89.5777814143787
 20
135.4046497197502
 10
89.53929660536029
 20
135.8027109276944
 10
89.40492468162792
 20
136.2389362379154
 10
89.08421793170774
 20
136.7566915293771
 10
88.75099943397122
 20
137.0748904311386
 10
88.3807755712166
 20
137.3003472706367
 10
87.51044161527032
 20
137.5039382566906
 10
87.05721884773346
 20
137.4616627617714
 10
86.6009172954746
 20
137.3122775614322
 10
86.00273508063555
 20
136.8994638433644
 10
85.6281496061922
 20
136.3992896088244
 10
85.43206950424446
 20
135.8794239803372
 10
85.38043571881159
 20
135.295930134274
 10
85.4719012815779
 20
134.7832483368035
 10
85.67702942055968
 20
134.3238101244851
 10
86.09952437531624
 20
133.8202301324719
 10
86.43588160613516
 20
133.580918761727
 10
86.7894928596633
 20
133.420565390818
 10
87.28620346139127
 20
133.3134493390508
 10
87.77194589254879
 20
133.324738216363
 10
88.24639944639484
 20
133.4500062697173
 10
88.68583182403385
 20
133.6864954211335
 10
89.16939344934736
 20
134.1599868547539
 10
89.43218055359315
 20
134.6357232355673
 10
89.54648043637703
 20
135.0450733208236
 10
89.5777814143787
 20
135.4046497197502
  0
LWPOLYLINE
  5
120
330
70
100
AcDbEntity
  8
Standardebene
 62
     7
370
    35
100
AcDbPolyline
 90
       20
 70
     0
 43
0.0
 10
68.47726618454719
 20
137.6045055445773
 10
67.75157096916143
 20
137.4810975903253
 10
67.10669385271387
 20
137.1246641174685
 10
66.6146655694163
 20
136.5747161965993
 10
66.33218707122264
 20
135.891033564391
 10
66.29209872849585
 20
135.1537991932781
 10
66.49664548842705
 20
134.4468911059846
 10
66.9241475752706
 20
133.8471053574365
 10
67.52733281528238
 20
133.4202446840763
 10
68.23827918691904
 20
133.2176221645958
 10
68.97429749301683
 20
133.2611741401346
 10
69.6529771000524
 20
133.544935465295
 10
70.20106492181991
 20
134.0375410207276
 10
70.55711354658605
 20
134.6855673383947
 10
70.67737857476767
 20
135.4146557700949
 10
70.55089183579497
 20
136.1402931560311
 10
70.1922775570935
 20
136.7829894828708
 10
69.63982812363792
 20
137.2721892187054
 10
68.9555040779463
 20
137.5518454975704
 10
68.47726618454719
 20
137.6045055445773
  0
SPLINE
  5
121
330
70
100
AcDbEntity
  8
Standardebene
 62
     7
370
    35
100
AcDbSpline
210
0.0
220
0.0
230
1.0
 70
     9
 71
     3
 72
    17
 73
    13
 74
     0
 42
0.0000000001
 43
0.0000000001
 40
0.0
 40
0.0
 40
0.0
 40
0.0
 40
1.0
 40
1.0
 40
1.0
 40
2.0
 40
2.0
 40
2.0
 40
3.0
 40
3.0
 40
3.0
 40
4.0
 40
4.0
 40
4.0
 40
4.0
 10
68.47726618454719
 20
137.0544934823591
 30
0.0
 10
67.5667797445258
 20
137.0544934823591
 30
0.0
 10
66.8276789873316
 20
136.3153990414874
 30
0.0
 10
66.8276789873316
 20
135.4046497197502
 30
0.0
 10
66.8276789873316
 20
134.4932653008514
 30
0.0
 10
67.5667797445258
 20
133.7544211090506
 30
0.0
 10
68.47726618454719
 20
133.7544211090506
 30
0.0
 10
69.38865060344591
 20
133.7544211090506
 30
0.0
 10
70.12775136064013
 20
134.4932653008514
 30
0.0
 10
70.12775136064013
 20
135.4046497197502
 30
0.0
 10
70.12775136064013
 20
136.3153990414874
 30
0.0
 10
69.38865060344591
 20
137.0544934823591
 30
0.0
 10
68.47726618454719
 20
137.0544934823591
 30
0.0
  0
LINE
  5
122
330
70
100
AcDbEntity
  8
Standardebene
 62
     7
370
    35
100
AcDbLine
 10
134.5948094912478
 20
62.9101735587388
 30
0.0
 11
134.5948094912478
 21
56.90442668740772
 31
0.0
  0
LINE
  5
123
330
70
100
AcDbEntity
  8
Standardebene
 62
     7
370
    35
100
AcDbLine
 10
134.5948094912478
 20
200.404153118465
 30
0.0
 11
134.5948094912478
 21
141.4031486187155
 31
0.0
  0
LINE
  5
124
330
70
100
AcDbEntity
  8
Standardebene
 62
     7
370
    35
100
AcDbLine
 10
134.5948094912478
 20
129.4054514077149
 30
0.0
 11
134.5948094912478
 21
62.41195804348028
 31
0.0
  0
LINE
  5
125
330
70
100
AcDbEntity
  8
Standardebene
 62
     7
370
    35
100
AcDbLine
 10
163.0951196577453
 20
56.90442668740772
 30
0.0
 11
163.0951196577453
 21
129.4035851668501
 31
0.0
  0
LWPOLYLINE
  5
126
330
70
100
AcDbEntity
  8
Standardebene
 62
     7
370
    35
100
AcDbPolyline
 90
        3
 70
     0
 43
0.0
 10
163.0951196577453
 20
141.4034693254572
 10
163.0951196577453
 20
200.404153118465
 10
162.0954126021499
 20
201.4041167647155
  0
LINE
  5
127
330
70
100
AcDbEntity
  8
Standardebene
 62
     7
370
    35
100
AcDbLine
 10
135.5957993738111
 20
201.4041167647155
 30
0.0
 11
134.5948094912478
 21
200.404153118465
 31
0.0
  0
LINE
  5
128
330
70
100
AcDbEntity
  8
Standardebene
 62
     7
370
    35
100
AcDbLine
 10
162.9648485792189
 20
53.14927144745933
 30
0.0
 11
162.6986038948044
 21
53.67170272988122
 31
0.0
  0
LINE
  5
129
330
70
100
AcDbEntity
  8
Standardebene
 62
     7
370
    35
100
AcDbLine
 10
134.991972720316
 20
53.67170272988122
 30
0.0
 11
134.7263633967422
 21
53.14927144745933
 31
0.0
  0
LINE
  5
12A
330
70
100
AcDbEntity
  8
Standardebene
 62
     7
370
    35
100
AcDbLine
 10
134.5948094912478
 20
56.90442668740772
 30
0.0
 11
134.991972720316
 21
53.67170272988122
 31
0.0
  0
LINE
  5
12B
330
70
100
AcDbEntity
  8
Standardebene
 62
     7
370
    35
100
AcDbLine
 10
162.6986038948044
 20
53.67170272988122
 30
0.0
 11
163.0951196577453
 21
56.90442668740772
 31
0.0
  0
LINE
  5
12C
330
70
100
AcDbEntity
  8
Standardebene
 62
     7
370
    35
100
AcDbLine
 10
130.8446572764721
 20
225.4045271017153
 30
0.0
 11
130.8446572764721
 21
201.4041167647155
 31
0.0
  0
LINE
  5
12D
330
70
100
AcDbEntity
  8
Standardebene
 62
     7
370
    35
100
AcDbLine
 10
166.8446304590363
 20
201.4041167647155
 30
0.0
 11
166.8446304590363
 21
225.4045271017153
 31
0.0
  0
LINE
  5
12E
330
70
100
AcDbEntity
  8
Standardebene
 62
     7
370
    35
100
AcDbLine
 10
138.3456031195081
 20
225.804439841859
 30
0.0
 11
138.3456031195081
 21
225.4045271017153
 31
0.0
  0
LWPOLYLINE
  5
12F
330
70
100
AcDbEntity
  8
Standardebene
 62
     7
370
    35
100
AcDbPolyline
 90
        3
 70
     0
 43
0.0
 10
159.3449674429696
 20
225.4045271017153
 10
159.3449674429696
 20
225.804439841859
 10
158.8445366430356
 20
226.3042933696567
  0
LINE
  5
130
330
70
100
AcDbEntity
  8
Standardebene
 62
     7
370
    35
100
AcDbLine
 10
138.8448152338211
 20
226.3042933696567
 30
0.0
 11
138.3456031195081
 21
225.804439841859
 31
0.0
  0
LINE
  5
131
330
70
100
AcDbEntity
  8
Standardebene
 62
     7
370
    35
100
AcDbLine
 10
173.8450876950179
 20
137.6045055445773
 30
0.0
 11
173.8450876950179
 21
141.2045670041821
 31
0.0
  0
LINE
  5
132
330
70
100
AcDbEntity
  8
Standardebene
 62
     7
370
    35
100
AcDbLine
 10
173.8450876950179
 20
129.6040268804859
 30
0.0
 11
173.8450876950179
 21
133.2113363124564
 31
0.0
  0
SPLINE
  5
133
330
70
100
AcDbEntity
  8
Standardebene
 62
     7
370
    35
100
AcDbSpline
210
0.0
220
0.0
230
1.0
 70
     8
 71
     3
 72
    11
 73
     7
 74
     0
 42
0.0000000001
 43
0.0000000001
 40
0.0
 40
0.0
 40
0.0
 40
0.0
 40
1.0
 40
1.0
 40
1.0
 40
2.0
 40
2.0
 40
2.0
 40
2.0
 10
134.7263633967422
 20
53.14927144745933
 30
0.0
 10
134.6348978339752
 20
52.97205311282307
 30
0.0
 10
134.5935908056294
 20
52.7834775438704
 30
0.0
 10
134.5948094912478
 20
52.60432655176281
 30
0.0
 10
134.5948094912478
 20
51.94161814046911
 30
0.0
 10
135.1322498491865
 20
51.40417778253037
 30
0.0
 10
135.7949582604803
 20
51.40417778253037
 30
0.0
  0
SPLINE
  5
134
330
70
100
AcDbEntity
  8
Standardebene
 62
     7
370
    35
100
AcDbSpline
210
0.0
220
0.0
230
1.0
 70
     8
 71
     3
 72
    11
 73
     7
 74
     0
 42
0.0000000001
 43
0.0000000001
 40
0.0
 40
0.0
 40
0.0
 40
0.0
 40
1.0
 40
1.0
 40
1.0
 40
2.0
 40
2.0
 40
2.0
 40
2.0
 10
161.8943294750295
 20
51.40417778253037
 30
0.0
 10
162.5583207132899
 20
51.40417778253037
 30
0.0
 10
163.0951196577453
 20
51.94161814046911
 30
0.0
 10
163.0951196577453
 20
52.60432655176281
 30
0.0
 10
163.0951196577453
 20
52.80354957978027
 30
0.0
 10
163.046250011717
 20
52.99084231700098
 30
0.0
 10
162.9648485792189
 20
53.14927144745933
 30
0.0
  0
LWPOLYLINE
  5
135
330
70
100
AcDbEntity
  8
Standardebene
 62
     7
370
    35
100
AcDbPolyline
 90
       17
 70
     0
 43
0.0
 10
152.3451579546992
 20
56.90442668740772
 10
152.3270059531127
 20
57.26086016026388
 10
152.0275941389508
 20
58.3607560020036
 10
151.386822068798
 20
59.31101007801074
 10
150.9458502987989
 20
59.7031061405579
 10
150.4459967710013
 20
60.01694975810028
 10
149.8966902636154
 20
60.24240659759836
 10
149.3153772233949
 20
60.37332348747322
 10
148.734128324524
 20
60.40218709496584
 10
148.1565996238579
 20
60.33573225946704
 10
147.0905062727062
 20
59.93298873309239
 10
146.2009940535994
 20
59.19761254226761
 10
145.8521292598506
 20
58.71847665788616
 10
145.5884441767268
 20
58.18667638254506
 10
145.419944854576
 20
57.61851231873968
 10
145.3479141203636
 20
57.02969474076141
 10
145.3454126077772
 20
56.90442668740772
  0
LWPOLYLINE
  5
136
330
70
100
AcDbEntity
  8
Standardebene
 62
     7
370
    35
100
AcDbPolyline
 90
       12
 70
     0
 43
0.0
 10
152.3451579546992
 20
56.90442668740772
 10
153.97691385707
 20
56.90442668740772
 10
155.5347147847769
 20
56.90442668740772
 10
156.9948284389259
 20
56.90442668740772
 10
158.3383972630985
 20
56.90442668740772
 10
159.5447737160927
 20
56.90442668740772
 10
160.5971348457236
 20
56.90442668740772
 10
161.4790783857231
 20
56.90442668740772
 10
162.1780908001898
 20
56.90442668740772
 10
162.6848715936116
 20
56.90442668740772
 10
162.9923712777307
 20
56.90442668740772
 10
163.0951196577453
 20
56.90442668740772
  0
LWPOLYLINE
  5
137
330
70
100
AcDbEntity
  8
Standardebene
 62
     7
370
    35
100
AcDbPolyline
 90
       12
 70
     0
 43
0.0
 10
134.5948094912478
 20
56.90442668740772
 10
134.6981412034619
 20
56.90442668740772
 10
135.0051216967298
 20
56.90442668740772
 10
135.5118383488032
 20
56.90442668740772
 10
136.2114921767534
 20
56.90442668740772
 10
137.0934357167528
 20
56.90442668740772
 10
138.145161405871
 20
56.90442668740772
 10
139.3508904724112
 20
56.90442668740772
 10
140.6951648514155
 20
56.90442668740772
 10
142.1552143642161
 20
56.90442668740772
 10
143.7136567054077
 20
56.90442668740772
 10
145.3454126077772
 20
56.90442668740772
  0
LWPOLYLINE
  5
138
330
70
100
AcDbEntity
  8
Standardebene
 62
     7
370
    35
100
AcDbPolyline
 90
       29
 70
     0
 43
0.0
 10
148.8449645744972
 20
65.40507958603779
 10
149.4231346886467
 20
65.45267699270353
 10
149.984371486828
 20
65.59545110798115
 10
150.9947317632307
 20
66.14296165761235
 10
151.7833438843829
 20
67.00233200831558
 10
152.0633266539638
 20
67.52847892361545
 10
152.2499779824163
 20
68.09471874696949
 10
152.3370120034568
 20
68.674748960222
 10
152.3270059531127
 20
69.26106502561392
 10
152.0275941389508
 20
70.36096086735236
 10
151.386822068798
 20
71.31057352987615
 10
150.9458502987989
 20
71.70266959242332
 10
150.4459967710013
 20
72.01715462345032
 10
149.8966902636154
 20
72.2426114629484
 10
149.3153772233949
 20
72.37288724247341
 10
148.734128324524
 20
72.40232342037346
 10
148.1565996238579
 20
72.33593712481708
 10
147.0905062727062
 20
71.93319359844243
 10
146.2009940535994
 20
71.1971762972678
 10
145.8521292598506
 20
70.71861302582816
 10
145.5884441767268
 20
70.18623983441047
 10
145.419944854576
 20
69.61871718408843
 10
145.3479141203636
 20
69.02989960611146
 10
145.4951185148581
 20
67.89055683512765
 10
145.9980508273772
 20
66.86891800034927
 10
146.822395436546
 20
66.04771175529234
 10
147.3360393542421
 20
65.74708578912995
 10
147.8934974915065
 20
65.53656935018384
 10
148.8449645744972
 20
65.40507958603779
  0
LWPOLYLINE
  5
139
330
70
100
AcDbEntity
  8
Standardebene
 62
     7
370
    35
100
AcDbPolyline
 90
       27
 70
     0
 43
0.0
 10
163.0951196577453
 20
200.404153118465
 10
162.9911465320478
 20
200.404153118465
 10
162.6810872540572
 20
200.404153118465
 10
162.1693034354641
 20
200.404153118465
 10
161.4627864832395
 20
200.404153118465
 10
160.5720555785131
 20
200.404153118465
 10
159.5109652525341
 20
200.404153118465
 10
158.2945245808181
 20
200.404153118465
 10
156.9403082928166
 20
200.404153118465
 10
155.4676870757372
 20
200.404153118465
 10
153.8979558572335
 20
200.404153118465
 10
152.2556166323836
 20
200.404153118465
 10
150.5631188731126
 20
200.404153118465
 10
148.8449645744972
 20
200.404153118465
 10
147.1280289614989
 20
200.404153118465
 10
145.4349595466202
 20
200.404153118465
 10
143.7919732917596
 20
200.404153118465
 10
142.2228834867405
 20
200.404153118465
 10
140.7502622696598
 20
200.404153118465
 10
139.3954100321307
 20
200.404153118465
 10
138.178963896459
 20
200.404153118465
 10
137.1172321569954
 20
200.404153118465
 10
136.2271426657535
 20
200.404153118465
 10
135.521202985664
 20
200.404153118465
 10
135.0094833084192
 20
200.404153118465
 10
134.6987826169453
 20
200.404153118465
 10
134.5948094912478
 20
200.404153118465
  0
LWPOLYLINE
  5
13A
330
70
100
AcDbEntity
  8
Standardebene
 62
     7
370
    35
100
AcDbPolyline
 90
        5
 70
     0
 43
0.0
 10
145.3454126077772
 20
56.90442668740772
 10
145.5314225180325
 20
55.77631293412198
 10
146.0738659011427
 20
54.76601827431323
 10
146.9182226110023
 20
53.98298069349021
 10
147.5038972629096
 20
53.67170272988122
  0
LWPOLYLINE
  5
13B
330
70
100
AcDbEntity
  8
Standardebene
 62
     7
370
    35
100
AcDbPolyline
 90
        8
 70
     0
 43
0.0
 10
150.1860318860835
 20
53.67170272988122
 10
150.7091045819888
 20
53.94289235076278
 10
151.1795172308878
 20
54.29682431103259
 10
151.5834794428808
 20
54.72650720372082
 10
151.9117548638063
 20
55.21764177576181
 10
152.1497834075832
 20
55.75129780762958
 10
152.2950635616277
 20
56.3162505229128
 10
152.3451579546992
 20
56.90442668740772
  0
LWPOLYLINE
  5
13C
330
70
100
AcDbEntity
  8
Standardebene
 62
     7
370
    35
100
AcDbPolyline
 90
       13
 70
     0
 43
0.0
 10
150.1860318860835
 20
53.67170272988122
 10
151.8653806689394
 20
53.67170272988122
 10
153.4989966704119
 20
53.67170272988122
 10
155.0630193089112
 20
53.67170272988122
 10
156.5325617412693
 20
53.67170272988122
 10
157.8861366157874
 20
53.67170272988122
 10
159.1037959731217
 20
53.67170272988122
 10
160.1674519530354
 20
53.67170272988122
 10
161.0600429568636
 20
53.67170272988122
 10
161.7684200081912
 20
53.67170272988122
 10
162.2827053393706
 20
53.67170272988122
 10
162.5940534943307
 20
53.67170272988122
 10
162.6986038948044
 20
53.67170272988122
  0
LWPOLYLINE
  5
13D
330
70
100
AcDbEntity
  8
Standardebene
 62
     7
370
    35
100
AcDbPolyline
 90
       13
 70
     0
 43
0.0
 10
134.991972720316
 20
53.67170272988122
 10
135.0965231181485
 20
53.67170272988122
 10
135.4078652231058
 20
53.67170272988122
 10
135.9215145169988
 20
53.67170272988122
 10
136.6299503334778
 20
53.67170272988122
 10
137.5231240260983
 20
53.67170272988122
 10
138.5861331758714
 20
53.67170272988122
 10
139.8037925332057
 20
53.67170272988122
 10
141.1574315490722
 20
53.67170272988122
 10
142.6274926578223
 20
53.67170272988122
 10
144.1915738920645
 20
53.67170272988122
 10
145.8245484800536
 20
53.67170272988122
 10
147.5038972629096
 20
53.67170272988122
  0
LWPOLYLINE
  5
13E
330
70
100
AcDbEntity
  8
Standardebene
 62
     7
370
    35
100
AcDbPolyline
 90
        4
 70
     0
 43
0.0
 10
150.1860318860835
 20
53.67170272988122
 10
149.2640000033566
 20
53.42988984655
 10
148.2905909005903
 20
53.44868326162117
 10
147.5038972629096
 20
53.67170272988122
  0
LWPOLYLINE
  5
13F
330
70
100
AcDbEntity
  8
Standardebene
 62
     7
370
    35
100
AcDbPolyline
 90
       13
 70
     0
 43
0.0
 10
148.8449645744972
 20
51.40417778253037
 10
150.5487512110791
 20
51.40417778253037
 10
152.2223972019237
 20
51.40417778253037
 10
153.8390740994362
 20
51.40417778253037
 10
155.3699998021792
 20
51.40417778253037
 10
156.789319558769
 20
51.40417778253037
 10
158.0727879395247
 20
51.40417778253037
 10
159.19776901268
 20
51.40417778253037
 10
160.1467342975142
 20
51.40417778253037
 10
160.9021910985415
 20
51.40417778253037
 10
161.4508561924441
 20
51.40417778253037
 10
161.784134638541
 20
51.40417778253037
 10
161.8943294750295
 20
51.40417778253037
  0
LWPOLYLINE
  5
140
330
70
100
AcDbEntity
  8
Standardebene
 62
     7
370
    35
100
AcDbPolyline
 90
       13
 70
     0
 43
0.0
 10
135.7949582604803
 20
51.40417778253037
 10
135.9064359239355
 20
51.40417778253037
 10
136.2402970264189
 20
51.40417778253037
 10
136.7883794639362
 20
51.40417778253037
 10
137.5438362649623
 20
51.40417778253037
 10
138.4921661005181
 20
51.40417778253037
 10
139.6177826229517
 20
51.40417778253037
 10
140.9011868623591
 20
51.40417778253037
 10
142.3199934881623
 20
51.40417778253037
 10
143.8508550495569
 20
51.40417778253037
 10
145.4681791485458
 20
51.40417778253037
 10
147.1418193513974
 20
51.40417778253037
 10
148.8449645744972
 20
51.40417778253037
  0
LINE
  5
141
330
70
100
AcDbEntity
  8
Standardebene
 62
     7
370
    35
100
AcDbLine
 10
157.9970429409794
 20
225.4045271017153
 30
0.0
 11
157.9970429409794
 21
201.4041167647155
 31
0.0
  0
LINE
  5
142
330
70
100
AcDbEntity
  8
Standardebene
 62
     7
370
    35
100
AcDbLine
 10
139.6935335553689
 20
225.4045271017153
 30
0.0
 11
157.9970429409794
 21
225.4045271017153
 31
0.0
  0
LINE
  5
143
330
70
100
AcDbEntity
  8
Standardebene
 62
     7
370
    35
100
AcDbLine
 10
139.6935335553689
 20
201.4041167647155
 30
0.0
 11
139.6935335553689
 21
225.4045271017153
 31
0.0
  0
LINE
  5
144
330
70
100
AcDbEntity
  8
Standardebene
 62
     7
370
    35
100
AcDbLine
 10
157.9970429409794
 20
201.4041167647155
 30
0.0
 11
139.6935335553689
 21
201.4041167647155
 31
0.0
  0
LWPOLYLINE
  5
145
330
70
100
AcDbEntity
  8
Standardebene
 62
     7
370
    35
100
AcDbPolyline
 90
       10
 70
     0
 43
0.0
 10
139.6935335553689
 20
225.4045271017153
 10
137.9716590585475
 20
225.4045271017153
 10
136.3937818888027
 20
225.4045271017153
 10
134.9812611151389
 20
225.4045271017153
 10
133.7523128804924
 20
225.4045271017153
 10
132.7244477729652
 20
225.4045271017153
 10
131.9107559025016
 20
225.4045271017153
 10
131.3213557775106
 20
225.4045271017153
 10
130.9643450325194
 20
225.4045271017153
 10
130.8446572764721
 20
225.4045271017153
  0
LWPOLYLINE
  5
146
330
70
100
AcDbEntity
  8
Standardebene
 62
     7
370
    35
100
AcDbPolyline
 90
       10
 70
     0
 43
0.0
 10
166.8446304590363
 20
225.4045271017153
 10
166.7256482578221
 20
225.4045271017153
 10
166.3692147849659
 20
225.4045271017153
 10
165.7798199348526
 20
225.4045271017153
 10
164.9654813760279
 20
225.4045271017153
 10
163.9376162685006
 20
225.4045271017153
 10
162.7092453059892
 20
225.4045271017153
 10
161.2961472601904
 20
225.4045271017153
 10
159.7189115039289
 20
225.4045271017153
 10
157.9970429409794
 20
225.4045271017153
  0
LWPOLYLINE
  5
147
330
70
100
AcDbEntity
  8
Standardebene
 62
     7
370
    35
100
AcDbPolyline
 90
       10
 70
     0
 43
0.0
 10
157.9970429409794
 20
201.4041167647155
 10
159.7189115039289
 20
201.4041167647155
 10
161.2961472601904
 20
201.4041167647155
 10
162.7092453059892
 20
201.4041167647155
 10
163.9376162685006
 20
201.4041167647155
 10
164.9654813760279
 20
201.4041167647155
 10
165.7798199348526
 20
201.4041167647155
 10
166.3692147849659
 20
201.4041167647155
 10
166.7256482578221
 20
201.4041167647155
 10
166.8446304590363
 20
201.4041167647155
  0
LWPOLYLINE
  5
148
330
70
100
AcDbEntity
  8
Standardebene
 62
     7
370
    35
100
AcDbPolyline
 90
       10
 70
     0
 43
0.0
 10
130.8446572764721
 20
201.4041167647155
 10
130.9643450325194
 20
201.4041167647155
 10
131.3213557775106
 20
201.4041167647155
 10
131.9107559025016
 20
201.4041167647155
 10
132.7244477729652
 20
201.4041167647155
 10
133.7523128804924
 20
201.4041167647155
 10
134.9812611151389
 20
201.4041167647155
 10
136.3937818888027
 20
201.4041167647155
 10
137.9716590585475
 20
201.4041167647155
 10
139.6935335553689
 20
201.4041167647155
  0
LWPOLYLINE
  5
149
330
70
100
AcDbEntity
  8
Standardebene
 62
     7
370
    35
100
AcDbPolyline
 90
       20
 70
     0
 43
0.0
 10
148.8449645744972
 20
214.8042627388472
 10
148.196046553102
 20
214.6962487082027
 10
147.6198006794025
 20
214.3855480167295
 10
147.1694001311943
 20
213.8957005392765
 10
146.9007120228991
 20
213.2715493387488
 10
146.8555565136506
 20
212.6056897409874
 10
147.0234785636664
 20
211.9802474530938
 10
147.3848565861336
 20
211.4381247767247
 10
147.920436858499
 20
211.0312762040539
 10
148.5662062745082
 20
210.8242920728848
 10
149.2270545866989
 20
210.8408405407623
 10
149.8346655797471
 20
211.066040814867
 10
150.3438837444056
 20
211.4807228471959
 10
150.6990401398042
 20
212.0557418201176
 10
150.8430958587199
 20
212.7159487188243
 10
150.7648434137164
 20
213.3661495671862
 10
150.4848080308578
 20
213.9489378584184
 10
150.0206754900011
 20
214.4221727266448
 10
149.4112043978499
 20
214.7231880745157
 10
148.8449645744972
 20
214.8042627388472
  0
LWPOLYLINE
  5
14A
330
70
100
AcDbEntity
  8
Standardebene
 62
     7
370
    35
100
AcDbPolyline
 90
       12
 70
     0
 43
0.0
 10
148.8449645744972
 20
226.3042933696567
 10
150.2681328119884
 20
226.3042933696567
 10
151.6624432165635
 20
226.3042933696567
 10
152.9991489502292
 20
226.3042933696567
 10
154.2518878175046
 20
226.3042933696567
 10
155.3937962424218
 20
226.3042933696567
 10
156.4022265213945
 20
226.3042933696567
 10
157.257872108565
 20
226.3042933696567
 10
157.941881379993
 20
226.3042933696567
 10
158.4398688762096
 20
226.3042933696567
 10
158.7436482547935
 20
226.3042933696567
 10
158.8445366430356
 20
226.3042933696567
  0
LWPOLYLINE
  5
14B
330
70
100
AcDbEntity
  8
Standardebene
 62
     7
370
    35
100
AcDbPolyline
 90
       12
 70
     0
 43
0.0
 10
138.8448152338211
 20
226.3042933696567
 10
138.9469282604169
 20
226.3042933696567
 10
139.2500602727835
 20
226.3042933696567
 10
139.7492723870965
 20
226.3042933696567
 10
140.4326984539114
 20
226.3042933696567
 10
141.2870612141152
 20
226.3042933696567
 10
142.2961329065713
 20
226.3042933696567
 10
143.4386827449719
 20
226.3042933696567
 10
144.6907860063789
 20
226.3042933696567
 10
146.0274917062758
 20
226.3042933696567
 10
147.421860478353
 20
226.3042933696567
 10
148.8449645744972
 20
226.3042933696567
  0
LWPOLYLINE
  5
14C
330
70
100
AcDbEntity
  8
Standardebene
 62
     7
370
    35
100
AcDbPolyline
 90
       23
 70
     0
 43
0.0
 10
159.3449674429696
 20
225.804439841859
 10
159.2378513912025
 20
225.804439841859
 10
158.9196461619694
 20
225.804439841859
 10
158.3960021378808
 20
225.804439841859
 10
157.6781903643925
 20
225.804439841859
 10
156.7812377488749
 20
225.804439841859
 10
155.7207246950309
 20
225.804439841859
 10
154.5212231853488
 20
225.804439841859
 10
153.2070893940091
 20
225.804439841859
 10
151.8033559850711
 20
225.804439841859
 10
150.3395221327175
 20
225.804439841859
 10
148.8449645744972
 20
225.804439841859
 10
147.3504070162756
 20
225.804439841859
 10
145.8872145774053
 20
225.804439841859
 10
144.4834811684673
 20
225.804439841859
 10
143.1680703962266
 20
225.804439841859
 10
141.9685630404788
 20
225.804439841859
 10
140.9099742270849
 20
225.804439841859
 10
140.0117387846006
 20
225.804439841859
 10
139.2945743685473
 20
225.804439841859
 10
138.7702829870236
 20
225.804439841859
 10
138.4520777577906
 20
225.804439841859
 10
138.3456031195081
 20
225.804439841859
  0
SPLINE
  5
14D
330
70
100
AcDbEntity
  8
Standardebene
 62
     7
370
    35
100
AcDbSpline
210
0.0
220
0.0
230
1.0
 70
     9
 71
     3
 72
    17
 73
    13
 74
     0
 42
0.0000000001
 43
0.0000000001
 40
0.0
 40
0.0
 40
0.0
 40
0.0
 40
1.0
 40
1.0
 40
1.0
 40
2.0
 40
2.0
 40
2.0
 40
3.0
 40
3.0
 40
3.0
 40
4.0
 40
4.0
 40
4.0
 40
4.0
 10
148.8449645744972
 20
219.4044161021373
 30
0.0
 10
145.5314225180325
 20
219.4044161021373
 30
0.0
 10
142.8448621418221
 20
216.7178640733868
 30
0.0
 10
142.8448621418221
 20
213.404321933215
 30
0.0
 10
142.8448621418221
 20
210.0910923197399
 30
0.0
 10
145.5314225180325
 20
207.4045400557156
 30
0.0
 10
148.8449645744972
 20
207.4045400557156
 30
0.0
 10
152.1585066309606
 20
207.4045400557156
 30
0.0
 10
154.8457084206543
 20
210.0910923197399
 30
0.0
 10
154.8457084206543
 20
213.404321933215
 30
0.0
 10
154.8457084206543
 20
216.7178640733868
 30
0.0
 10
152.1585066309606
 20
219.4044161021373
 30
0.0
 10
148.8449645744972
 20
219.4044161021373
 30
0.0
  0
LWPOLYLINE
  5
14E
330
70
100
AcDbEntity
  8
Standardebene
 62
     7
370
    35
100
AcDbPolyline
 90
        7
 70
     0
 43
0.0
 10
148.8449645744972
 20
203.5895969669072
 10
146.7628722652653
 20
204.7912851284997
 10
145.6854900368015
 20
205.4135925522133
 10
144.5956002454072
 20
206.0428191955555
 10
144.2924682330406
 20
206.2175321507129
 10
142.3155677351258
 20
207.3591198688884
 10
140.3450172306988
 20
208.4972439542526
  0
LWPOLYLINE
  5
14F
330
70
100
AcDbEntity
  8
Standardebene
 62
     7
370
    35
100
AcDbPolyline
 90
        7
 70
     0
 43
0.0
 10
157.3449760596426
 20
208.4972439542526
 10
155.262883750412
 20
207.2945936724351
 10
154.1861429354316
 20
206.6732564308361
 10
153.0956117305539
 20
206.0428191955555
 10
152.7936984038057
 20
205.8686673569629
 10
150.8155792202725
 20
204.7270796387874
 10
148.8449645744972
 20
203.5895969669072
  0
LWPOLYLINE
  5
150
330
70
100
AcDbEntity
  8
Standardebene
 62
     7
370
    35
100
AcDbPolyline
 90
        7
 70
     0
 43
0.0
 10
157.3449760596426
 20
218.3123455048983
 10
157.3449760596426
 20
216.5403124736571
 10
157.3449760596426
 20
214.7187623214787
 10
157.3449760596426
 20
213.404321933215
 10
157.3449760596426
 20
211.5580690981646
 10
157.3449760596426
 20
209.7102209931572
 10
157.3449760596426
 20
208.4972439542526
  0
LWPOLYLINE
  5
151
330
70
100
AcDbEntity
  8
Standardebene
 62
     7
370
    35
100
AcDbPolyline
 90
        7
 70
     0
 43
0.0
 10
148.8449645744972
 20
223.2194152201087
 10
150.9276982972111
 20
222.0170856450329
 10
152.0037976987082
 20
221.3956927277175
 10
153.0956117305539
 20
220.7655596557615
 10
153.3975250573008
 20
220.591095188213
 10
155.3743614138672
 20
219.4495074700368
 10
157.3449760596426
 20
218.3123455048983
  0
LWPOLYLINE
  5
152
330
70
100
AcDbEntity
  8
Standardebene
 62
     7
370
    35
100
AcDbPolyline
 90
        7
 70
     0
 43
0.0
 10
140.3450172306988
 20
218.3123455048983
 10
142.4276868120644
 20
219.5137129597491
 10
143.5038503549099
 20
220.1360123215732
 10
144.5956002454072
 20
220.7655596557615
 10
144.8975135721541
 20
220.940289142831
 10
146.8743499287205
 20
222.0812911347445
 10
148.8449645744972
 20
223.2194152201087
  0
LWPOLYLINE
  5
153
330
70
100
AcDbEntity
  8
Standardebene
 62
     7
370
    35
100
AcDbPolyline
 90
        7
 70
     0
 43
0.0
 10
140.3450172306988
 20
208.4972439542526
 10
140.3450172306988
 20
209.7102209931572
 10
140.3450172306988
 20
211.533631244438
 10
140.3450172306988
 20
213.404321933215
 10
140.3450172306988
 20
214.7187623214787
 10
140.3450172306988
 20
216.5230584509473
 10
140.3450172306988
 20
218.3123455048983
  0
SPLINE
  5
154
330
70
100
AcDbEntity
  8
Standardebene
 62
     7
370
    35
100
AcDbSpline
210
0.0
220
0.0
230
1.0
 70
     9
 71
     3
 72
    17
 73
    13
 74
     0
 42
0.0000000001
 43
0.0000000001
 40
0.0
 40
0.0
 40
0.0
 40
0.0
 40
1.0
 40
1.0
 40
1.0
 40
2.0
 40
2.0
 40
2.0
 40
3.0
 40
3.0
 40
3.0
 40
4.0
 40
4.0
 40
4.0
 40
4.0
 10
148.8449645744972
 20
221.9046458613513
 30
0.0
 10
144.1508497199406
 20
221.9046458613513
 30
0.0
 10
140.3450172306988
 20
218.0984341081057
 30
0.0
 10
140.3450172306988
 20
213.404321933215
 30
0.0
 10
140.3450172306988
 20
208.7102573721685
 30
0.0
 10
144.1508497199406
 20
204.9046870324063
 30
0.0
 10
148.8449645744972
 20
204.9046870324063
 30
0.0
 10
153.5396622852743
 20
204.9046870324063
 30
0.0
 10
157.3449760596426
 20
208.7102573721685
 30
0.0
 10
157.3449760596426
 20
213.404321933215
 30
0.0
 10
157.3449760596426
 20
218.0984341081057
 30
0.0
 10
153.5396622852743
 20
221.9046458613513
 30
0.0
 10
148.8449645744972
 20
221.9046458613513
 30
0.0
  0
SPLINE
  5
155
330
70
100
AcDbEntity
  8
Standardebene
 62
     7
370
    35
100
AcDbSpline
210
0.0
220
0.0
230
1.0
 70
     9
 71
     3
 72
    17
 73
    13
 74
     0
 42
0.0000000001
 43
0.0000000001
 40
0.0
 40
0.0
 40
0.0
 40
0.0
 40
1.0
 40
1.0
 40
1.0
 40
2.0
 40
2.0
 40
2.0
 40
3.0
 40
3.0
 40
3.0
 40
4.0
 40
4.0
 40
4.0
 40
4.0
 10
148.8449645744972
 20
216.904571191014
 30
0.0
 10
146.9119367588616
 20
216.904571191014
 30
0.0
 10
145.3454126077772
 20
215.3373414850972
 30
0.0
 10
145.3454126077772
 20
213.404321933215
 30
0.0
 10
145.3454126077772
 20
211.471349995177
 30
0.0
 10
146.9119367588616
 20
209.9044409960019
 30
0.0
 10
148.8449645744972
 20
209.9044409960019
 30
0.0
 10
150.7786338036148
 20
209.9044409960019
 30
0.0
 10
152.3451579546992
 20
211.471349995177
 30
0.0
 10
152.3451579546992
 20
213.404321933215
 30
0.0
 10
152.3451579546992
 20
215.3373414850972
 30
0.0
 10
150.7786338036148
 20
216.904571191014
 30
0.0
 10
148.8449645744972
 20
216.904571191014
 30
0.0
  0
SPLINE
  5
156
330
70
100
AcDbEntity
  8
Standardebene
 62
     7
370
    35
100
AcDbSpline
210
0.0
220
0.0
230
1.0
 70
     9
 71
     3
 72
    17
 73
    13
 74
     0
 42
0.0000000001
 43
0.0000000001
 40
0.0
 40
0.0
 40
0.0
 40
0.0
 40
1.0
 40
1.0
 40
1.0
 40
2.0
 40
2.0
 40
2.0
 40
3.0
 40
3.0
 40
3.0
 40
4.0
 40
4.0
 40
4.0
 40
4.0
 10
148.8449645744972
 20
219.4044161021373
 30
0.0
 10
145.5314225180325
 20
219.4044161021373
 30
0.0
 10
142.8448621418221
 20
216.7178640733868
 30
0.0
 10
142.8448621418221
 20
213.404321933215
 30
0.0
 10
142.8448621418221
 20
210.0910923197399
 30
0.0
 10
145.5314225180325
 20
207.4045400557156
 30
0.0
 10
148.8449645744972
 20
207.4045400557156
 30
0.0
 10
152.1585066309606
 20
207.4045400557156
 30
0.0
 10
154.8457084206543
 20
210.0910923197399
 30
0.0
 10
154.8457084206543
 20
213.404321933215
 30
0.0
 10
154.8457084206543
 20
216.7178640733868
 30
0.0
 10
152.1585066309606
 20
219.4044161021373
 30
0.0
 10
148.8449645744972
 20
219.4044161021373
 30
0.0
  0
SPLINE
  5
157
330
70
100
AcDbEntity
  8
Standardebene
 62
     7
370
    35
100
AcDbSpline
210
0.0
220
0.0
230
1.0
 70
     9
 71
     3
 72
    17
 73
    13
 74
     0
 42
0.0000000001
 43
0.0000000001
 40
0.0
 40
0.0
 40
0.0
 40
0.0
 40
1.0
 40
1.0
 40
1.0
 40
2.0
 40
2.0
 40
2.0
 40
3.0
 40
3.0
 40
3.0
 40
4.0
 40
4.0
 40
4.0
 40
4.0
 10
148.8449645744972
 20
216.4047176632163
 30
0.0
 10
147.1875521327809
 20
216.4047176632163
 30
0.0
 10
145.8452019942265
 20
215.061405404437
 30
0.0
 10
145.8452019942265
 20
213.404321933215
 30
0.0
 10
145.8452019942265
 20
211.7475508631298
 30
0.0
 10
147.1875521327809
 20
210.4046152305413
 30
0.0
 10
148.8449645744972
 20
210.4046152305413
 30
0.0
 10
150.5017356027289
 20
210.4046152305413
 30
0.0
 10
151.8453044269016
 20
211.7475508631298
 30
0.0
 10
151.8453044269016
 20
213.404321933215
 30
0.0
 10
151.8453044269016
 20
215.061405404437
 30
0.0
 10
150.5017356027289
 20
216.4047176632163
 30
0.0
 10
148.8449645744972
 20
216.4047176632163
 30
0.0
  0
LWPOLYLINE
  5
158
330
70
100
AcDbEntity
  8
Standardebene
 62
     7
370
    35
100
AcDbPolyline
 90
        3
 70
     0
 43
0.0
 10
173.8438048680179
 20
141.2045670041821
 10
173.8444462815179
 20
141.2045670041821
 10
173.8450876950179
 20
141.2045670041821
  0
LINE
  5
159
330
70
100
AcDbEntity
  8
Standardebene
 62
     7
370
    35
100
AcDbLine
 10
173.8438048680179
 20
141.4047521524245
 30
0.0
 11
173.8438048680179
 21
141.2045670041821
 31
0.0
  0
LWPOLYLINE
  5
15A
330
70
100
AcDbEntity
  8
Standardebene
 62
     7
370
    35
100
AcDbPolyline
 90
       16
 70
     0
 43
0.0
 10
173.8438048680179
 20
141.4047521524245
 10
173.6903724285377
 20
141.4047521524245
 10
173.2794188095723
 20
141.4047521524245
 10
172.6173518117619
 20
141.4047521524245
 10
171.7109704180366
 20
141.4047521524245
 10
170.5690619931181
 20
141.4047521524245
 10
169.2023381421862
 20
141.4047521524245
 10
167.6263852128927
 20
141.4047521524245
 10
167.6263852128927
 20
129.4042265803335
 10
169.2023381421862
 20
129.4042265803335
 10
170.5690619931181
 20
129.4042265803335
 10
171.7109704180366
 20
129.4042265803335
 10
172.6173518117619
 20
129.4042265803335
 10
173.2794188095723
 20
129.4042265803335
 10
173.6903724285377
 20
129.4042265803335
 10
173.8438048680179
 20
129.4042265803335
  0
LINE
  5
15B
330
70
100
AcDbEntity
  8
Standardebene
 62
     7
370
    35
100
AcDbLine
 10
173.8438048680179
 20
129.6040268804859
 30
0.0
 11
173.8438048680179
 21
129.4042265803335
 31
0.0
  0
LWPOLYLINE
  5
15C
330
70
100
AcDbEntity
  8
Standardebene
 62
     7
370
    35
100
AcDbPolyline
 90
        3
 70
     0
 43
0.0
 10
173.8450876950179
 20
129.6040268804859
 10
173.8444462815179
 20
129.6040268804859
 10
173.8438048680179
 20
129.6040268804859
  0
LWPOLYLINE
  5
15D
330
70
100
AcDbEntity
  8
Standardebene
 62
     7
370
    35
100
AcDbPolyline
 90
       12
 70
     0
 43
0.0
 10
173.8450876950179
 20
137.6045055445773
 10
173.8344338969625
 20
137.4810975903253
 10
173.8344338969625
 20
137.4810975903253
 10
173.807494530649
 20
137.1246641174685
 10
173.776129411299
 20
136.5747161965993
 10
173.74983145847
 20
135.4021482071638
 10
173.749254186335
 20
135.1537991932781
 10
173.749254186335
 20
135.1537991932781
 10
173.7661233609548
 20
134.4468911059846
 10
173.7968470668215
 20
133.8471053574365
 10
173.8268652178552
 20
133.4202446840763
 10
173.8431634545191
 20
133.231733261236
  0
LWPOLYLINE
  5
15E
330
70
100
AcDbEntity
  8
Standardebene
 62
     7
370
    35
100
AcDbPolyline
 90
       16
 70
     0
 43
0.0
 10
123.9256658871412
 20
129.4042265803335
 10
124.2137939044262
 20
129.4042265803335
 10
124.7079979131313
 20
129.4042265803335
 10
125.4027128572584
 20
129.4042265803335
 10
126.2953038610865
 20
129.4042265803335
 10
127.3751876021367
 20
129.4042265803335
 10
128.6347954013015
 20
129.4042265803335
 10
130.0636080774488
 20
129.4042265803335
 10
130.0636080774488
 20
141.4047521524245
 10
128.6347954013015
 20
141.4047521524245
 10
127.3751876021367
 20
141.4047521524245
 10
126.2953038610865
 20
141.4047521524245
 10
125.4027128572584
 20
141.4047521524245
 10
124.7079979131313
 20
141.4047521524245
 10
124.2137939044262
 20
141.4047521524245
 10
123.9256658871412
 20
141.4047521524245
  0
LINE
  5
15F
330
70
100
AcDbEntity
  8
Standardebene
 62
     7
370
    35
100
AcDbLine
 10
123.9256658871412
 20
129.4042265803335
 30
0.0
 11
123.9256658871412
 21
141.4047521524245
 31
0.0
  0
LINE
  5
160
330
70
100
AcDbEntity
  8
Standardebene
 62
     7
370
    35
100
AcDbLine
 10
130.0636080774488
 20
141.4047521524245
 30
0.0
 11
167.6263852128927
 21
141.4047521524245
 31
0.0
  0
LINE
  5
161
330
70
100
AcDbEntity
  8
Standardebene
 62
     7
370
    35
100
AcDbLine
 10
167.6263852128927
 20
129.4042265803335
 30
0.0
 11
130.0636080774488
 21
129.4042265803335
 31
0.0
  0
MTEXT
  5
163
330
70
100
AcDbEntity
  8
Text
100
AcDbMText
 10
76.64717337493543
 20
150.1984116920511
 30
0.0
 40
0.2
 41
0.0
 46
0.0
 71
     7
 72
     1
  1
\C7;\FINDEX Univers 45 Light|b0|i0|c1;\H2.497667;\W1.000000;ø28,5
 73
     1
 44
1.0
  0
MTEXT
  5
164
330
70
100
AcDbEntity
  8
Text
100
AcDbMText
 10
121.1560844966207
 20
149.963456179957
 30
0.0
 40
0.2
 41
0.0
 46
0.0
 71
     7
 72
     1
  1
\C7;\FINDEX Univers 45 Light|b0|i0|c1;\H2.497667;\W1.000000;ø50
 73
     1
 44
1.0
  0
MTEXT
  5
165
330
70
100
AcDbEntity
  8
Text
100
AcDbMText
 10
144.8791842628253
 20
127.2554537984813
 30
0.0
 40
0.2
 41
0.0
 46
0.0
 71
     7
 72
     1
  1
\C7;\FINDEX Univers 45 Light|b0|i0|c1;\H2.497667;\W1.000000;150
 11
0.0000000000000001
 21
1.0
 31
0.0
 73
     1
 44
1.0
  0
MTEXT
  5
166
330
70
100
AcDbEntity
  8
Text
100
AcDbMText
 10
144.8791842628253
 20
178.3457030804136
 30
0.0
 40
0.2
 41
0.0
 46
0.0
 71
     7
 72
     1
  1
\C7;\FINDEX Univers 45 Light|b0|i0|c1;\H2.497667;\W1.000000;25
 11
0.0000000000000001
 21
1.0
 31
0.0
 73
     1
 44
1.0
  0
MTEXT
  5
167
330
70
100
AcDbEntity
  8
Text
100
AcDbMText
 10
64.71508516177262
 20
98.81464027477552
 30
0.0
 40
0.2
 41
0.0
 46
0.0
 71
     7
 72
     1
  1
\C7;\FINDEX Univers 45 Light|b0|i0|c1;\H2.497667;\W1.000000;36
 11
0.0000000000000001
 21
1.0
 31
0.0
 73
     1
 44
1.0
  0
MTEXT
  5
168
330
70
100
AcDbEntity
  8
Text
100
AcDbMText
 10
68.36964245252565
 20
84.65581459472145
 30
0.0
 40
0.2
 41
0.0
 46
0.0
 71
     7
 72
     1
  1
\C7;\FINDEX Univers 45 Light|b0|i0|c1;\H2.497667;\W1.000000;ø6H5
 73
     1
 44
1.0
  0
LINE
  5
16A
330
70
100
AcDbEntity
  8
Bemaßung
 62
     7
370
     9
100
AcDbLine
 10
72.11737149346591
 20
144.7165668635283
 30
0.0
 11
72.11737149346591
 21
150.6526525454195
 31
0.0
  0
LINE
  5
16B
330
70
100
AcDbEntity
  8
Bemaßung
 62
     7
370
     9
100
AcDbLine
 10
87.79273414910965
 20
149.5524445179326
 30
0.0
 11
72.11737149346591
 21
149.5524445179326
 31
0.0
  0
LWPOLYLINE
  5
16C
330
70
100
AcDbEntity
  8
Bemaßung
 62
     7
370
     9
100
AcDbPolyline
 90
        4
 70
     0
 43
0.0
 10
87.79273414910965
 20
149.5524445179326
 10
86.41764168419117
 20
149.7334900688693
 10
86.41764168419117
 20
149.3717555182127
 10
87.79273414910965
 20
149.5524445179326
  0
LINE
  5
16D
330
70
100
AcDbEntity
  8
Bemaßung
 62
     7
370
     9
100
AcDbLine
 10
86.41764168419117
 20
149.720578402532
 30
0.0
 11
86.51927695937601
 21
149.720578402532
 31
0.0
  0
LINE
  5
16E
330
70
100
AcDbEntity
  8
Bemaßung
 62
     7
370
     9
100
AcDbLine
 10
86.41764168419117
 20
149.720578402532
 30
0.0
 11
86.51927695937601
 21
149.720578402532
 31
0.0
  0
LINE
  5
16F
330
70
100
AcDbEntity
  8
Bemaßung
 62
     7
370
     9
100
AcDbLine
 10
86.41764168419117
 20
149.6924972921373
 30
0.0
 11
86.73129639841141
 21
149.6924972921373
 31
0.0
  0
LINE
  5
170
330
70
100
AcDbEntity
  8
Bemaßung
 62
     7
370
     9
100
AcDbLine
 10
86.41764168419117
 20
149.6644161817426
 30
0.0
 11
86.94388028187681
 21
149.6644161817426
 31
0.0
  0
LINE
  5
171
330
70
100
AcDbEntity
  8
Bemaßung
 62
     7
370
     9
100
AcDbLine
 10
86.41764168419117
 20
149.6365114602323
 30
0.0
 11
87.15607610979658
 21
149.6365114602323
 31
0.0
  0
LINE
  5
172
330
70
100
AcDbEntity
  8
Bemaßung
 62
     7
370
     9
100
AcDbLine
 10
86.41764168419117
 20
149.608606738722
 30
0.0
 11
87.36813082660885
 21
149.608606738722
 31
0.0
  0
LINE
  5
173
330
70
100
AcDbEntity
  8
Bemaßung
 62
     7
370
     9
100
AcDbLine
 10
86.41764168419117
 20
149.5803492394429
 30
0.0
 11
87.58018554342109
 21
149.5803492394429
 31
0.0
  0
LINE
  5
174
330
70
100
AcDbEntity
  8
Bemaßung
 62
     7
370
     9
100
AcDbLine
 10
86.41764168419117
 20
149.5524445179326
 30
0.0
 11
87.79273414910965
 21
149.5524445179326
 31
0.0
  0
LINE
  5
175
330
70
100
AcDbEntity
  8
Bemaßung
 62
     7
370
     9
100
AcDbLine
 10
86.41764168419117
 20
149.3848397999863
 30
0.0
 11
86.51927695937601
 21
149.3848397999863
 31
0.0
  0
LINE
  5
176
330
70
100
AcDbEntity
  8
Bemaßung
 62
     7
370
     9
100
AcDbLine
 10
86.41764168419117
 20
149.3848397999863
 30
0.0
 11
86.51927695937601
 21
149.3848397999863
 31
0.0
  0
LINE
  5
177
330
70
100
AcDbEntity
  8
Bemaßung
 62
     7
370
     9
100
AcDbLine
 10
86.41764168419117
 20
149.4127445214966
 30
0.0
 11
86.73129639841141
 21
149.4127445214966
 31
0.0
  0
LINE
  5
178
330
70
100
AcDbEntity
  8
Bemaßung
 62
     7
370
     9
100
AcDbLine
 10
86.41764168419117
 20
149.4408256318913
 30
0.0
 11
86.94388028187681
 21
149.4408256318913
 31
0.0
  0
LINE
  5
179
330
70
100
AcDbEntity
  8
Bemaßung
 62
     7
370
     9
100
AcDbLine
 10
86.41764168419117
 20
149.4687303534016
 30
0.0
 11
87.15607610979658
 21
149.4687303534016
 31
0.0
  0
LINE
  5
17A
330
70
100
AcDbEntity
  8
Bemaßung
 62
     7
370
     9
100
AcDbLine
 10
86.41764168419117
 20
149.4966388515149
 30
0.0
 11
87.36813082660885
 21
149.4966388515149
 31
0.0
  0
LINE
  5
17B
330
70
100
AcDbEntity
  8
Bemaßung
 62
     7
370
     9
100
AcDbLine
 10
86.41764168419117
 20
149.5245397964223
 30
0.0
 11
87.58018554342109
 21
149.5245397964223
 31
0.0
  0
LINE
  5
17C
330
70
100
AcDbEntity
  8
Bemaßung
 62
     7
370
     9
100
AcDbLine
 10
86.41764168419117
 20
149.5524445179326
 30
0.0
 11
87.79273414910965
 21
149.5524445179326
 31
0.0
  0
LWPOLYLINE
  5
17D
330
70
100
AcDbEntity
  8
Bemaßung
 62
     7
370
     9
100
AcDbPolyline
 90
        4
 70
     0
 43
0.0
 10
72.11737149346591
 20
149.5524445179326
 10
73.49249923616125
 20
149.3717555182127
 10
73.49249923616125
 20
149.7334900688693
 10
72.11737149346591
 20
149.5524445179326
  0
LINE
  5
17E
330
70
100
AcDbEntity
  8
Bemaßung
 62
     7
370
     9
100
AcDbLine
 10
73.49249923616125
 20
149.3848397999863
 30
0.0
 11
73.3908639609764
 21
149.3848397999863
 31
0.0
  0
LINE
  5
17F
330
70
100
AcDbEntity
  8
Bemaßung
 62
     7
370
     9
100
AcDbLine
 10
73.49249923616125
 20
149.3848397999863
 30
0.0
 11
73.3908639609764
 21
149.3848397999863
 31
0.0
  0
LINE
  5
180
330
70
100
AcDbEntity
  8
Bemaßung
 62
     7
370
     9
100
AcDbLine
 10
73.49249923616125
 20
149.4127445214966
 30
0.0
 11
73.17863285527976
 21
149.4127445214966
 31
0.0
  0
LINE
  5
181
330
70
100
AcDbEntity
  8
Bemaßung
 62
     7
370
     9
100
AcDbLine
 10
73.49249923616125
 20
149.4408256318913
 30
0.0
 11
72.96643887064722
 21
149.4408256318913
 31
0.0
  0
LINE
  5
182
330
70
100
AcDbEntity
  8
Bemaßung
 62
     7
370
     9
100
AcDbLine
 10
73.49249923616125
 20
149.4687303534016
 30
0.0
 11
72.75438231054774
 21
149.4687303534016
 31
0.0
  0
LINE
  5
183
330
70
100
AcDbEntity
  8
Bemaßung
 62
     7
370
     9
100
AcDbLine
 10
73.49249923616125
 20
149.4966388515149
 30
0.0
 11
72.54201009374359
 21
149.4966388515149
 31
0.0
  0
LINE
  5
184
330
70
100
AcDbEntity
  8
Bemaßung
 62
     7
370
     9
100
AcDbLine
 10
73.49249923616125
 20
149.5245397964223
 30
0.0
 11
72.32977898804694
 21
149.5245397964223
 31
0.0
  0
LINE
  5
185
330
70
100
AcDbEntity
  8
Bemaßung
 62
     7
370
     9
100
AcDbLine
 10
73.49249923616125
 20
149.5524445179326
 30
0.0
 11
72.11737149346591
 21
149.5524445179326
 31
0.0
  0
LINE
  5
186
330
70
100
AcDbEntity
  8
Bemaßung
 62
     7
370
     9
100
AcDbLine
 10
73.49249923616125
 20
149.720578402532
 30
0.0
 11
73.3908639609764
 21
149.720578402532
 31
0.0
  0
LINE
  5
187
330
70
100
AcDbEntity
  8
Bemaßung
 62
     7
370
     9
100
AcDbLine
 10
73.49249923616125
 20
149.720578402532
 30
0.0
 11
73.3908639609764
 21
149.720578402532
 31
0.0
  0
LINE
  5
188
330
70
100
AcDbEntity
  8
Bemaßung
 62
     7
370
     9
100
AcDbLine
 10
73.49249923616125
 20
149.6924972921373
 30
0.0
 11
73.17863285527976
 21
149.6924972921373
 31
0.0
  0
LINE
  5
189
330
70
100
AcDbEntity
  8
Bemaßung
 62
     7
370
     9
100
AcDbLine
 10
73.49249923616125
 20
149.6644161817426
 30
0.0
 11
72.96643887064722
 21
149.6644161817426
 31
0.0
  0
LINE
  5
18A
330
70
100
AcDbEntity
  8
Bemaßung
 62
     7
370
     9
100
AcDbLine
 10
73.49249923616125
 20
149.6365114602323
 30
0.0
 11
72.75438231054774
 21
149.6365114602323
 31
0.0
  0
LINE
  5
18B
330
70
100
AcDbEntity
  8
Bemaßung
 62
     7
370
     9
100
AcDbLine
 10
73.49249923616125
 20
149.608606738722
 30
0.0
 11
72.54201009374359
 21
149.608606738722
 31
0.0
  0
LINE
  5
18C
330
70
100
AcDbEntity
  8
Bemaßung
 62
     7
370
     9
100
AcDbLine
 10
73.49249923616125
 20
149.5803492394429
 30
0.0
 11
72.32977898804694
 21
149.5803492394429
 31
0.0
  0
LINE
  5
18D
330
70
100
AcDbEntity
  8
Bemaßung
 62
     7
370
     9
100
AcDbLine
 10
73.49249923616125
 20
149.5524445179326
 30
0.0
 11
72.11737149346591
 21
149.5524445179326
 31
0.0
  0
LINE
  5
18E
330
70
100
AcDbEntity
  8
Bemaßung
 62
     7
370
     9
100
AcDbLine
 10
110.4514738488148
 20
140.316510864672
 30
0.0
 11
110.4514738488148
 21
150.6526525454195
 31
0.0
  0
LINE
  5
18F
330
70
100
AcDbEntity
  8
Bemaßung
 62
     7
370
     9
100
AcDbLine
 10
137.9064777433009
 20
140.316510864672
 30
0.0
 11
137.9064777433009
 21
150.6526525454195
 31
0.0
  0
LINE
  5
190
330
70
100
AcDbEntity
  8
Bemaßung
 62
     7
370
     9
100
AcDbLine
 10
110.4514738488148
 20
149.5524445179326
 30
0.0
 11
137.9064777433009
 21
149.5524445179326
 31
0.0
  0
LWPOLYLINE
  5
191
330
70
100
AcDbEntity
  8
Bemaßung
 62
     7
370
     9
100
AcDbPolyline
 90
        4
 70
     0
 43
0.0
 10
110.4514738488148
 20
149.5524445179326
 10
111.8267779803945
 20
149.3717555182127
 10
111.8267779803945
 20
149.7334900688693
 10
110.4514738488148
 20
149.5524445179326
  0
LINE
  5
192
330
70
100
AcDbEntity
  8
Bemaßung
 62
     7
370
     9
100
AcDbLine
 10
111.8267779803945
 20
149.3848397999863
 30
0.0
 11
111.7251427052097
 21
149.3848397999863
 31
0.0
  0
LINE
  5
193
330
70
100
AcDbEntity
  8
Bemaßung
 62
     7
370
     9
100
AcDbLine
 10
111.8267779803945
 20
149.3848397999863
 30
0.0
 11
111.7251427052097
 21
149.3848397999863
 31
0.0
  0
LINE
  5
194
330
70
100
AcDbEntity
  8
Bemaßung
 62
     7
370
     9
100
AcDbLine
 10
111.8267779803945
 20
149.4127445214966
 30
0.0
 11
111.512911599513
 21
149.4127445214966
 31
0.0
  0
LINE
  5
195
330
70
100
AcDbEntity
  8
Bemaßung
 62
     7
370
     9
100
AcDbLine
 10
111.8267779803945
 20
149.4408256318913
 30
0.0
 11
111.3003629938245
 21
149.4408256318913
 31
0.0
  0
LINE
  5
196
330
70
100
AcDbEntity
  8
Bemaßung
 62
     7
370
     9
100
AcDbLine
 10
111.8267779803945
 20
149.4687303534016
 30
0.0
 11
111.0884846658966
 21
149.4687303534016
 31
0.0
  0
LINE
  5
197
330
70
100
AcDbEntity
  8
Bemaßung
 62
     7
370
     9
100
AcDbLine
 10
111.8267779803945
 20
149.4966388515149
 30
0.0
 11
110.8762535602
 21
149.4966388515149
 31
0.0
  0
LINE
  5
198
330
70
100
AcDbEntity
  8
Bemaßung
 62
     7
370
     9
100
AcDbLine
 10
111.8267779803945
 20
149.5245397964223
 30
0.0
 11
110.6640577322802
 21
149.5245397964223
 31
0.0
  0
LINE
  5
199
330
70
100
AcDbEntity
  8
Bemaßung
 62
     7
370
     9
100
AcDbLine
 10
111.8267779803945
 20
149.5524445179326
 30
0.0
 11
110.4514738488148
 21
149.5524445179326
 31
0.0
  0
LINE
  5
19A
330
70
100
AcDbEntity
  8
Bemaßung
 62
     7
370
     9
100
AcDbLine
 10
111.8267779803945
 20
149.720578402532
 30
0.0
 11
111.7251427052097
 21
149.720578402532
 31
0.0
  0
LINE
  5
19B
330
70
100
AcDbEntity
  8
Bemaßung
 62
     7
370
     9
100
AcDbLine
 10
111.8267779803945
 20
149.720578402532
 30
0.0
 11
111.7251427052097
 21
149.720578402532
 31
0.0
  0
LINE
  5
19C
330
70
100
AcDbEntity
  8
Bemaßung
 62
     7
370
     9
100
AcDbLine
 10
111.8267779803945
 20
149.6924972921373
 30
0.0
 11
111.512911599513
 21
149.6924972921373
 31
0.0
  0
LINE
  5
19D
330
70
100
AcDbEntity
  8
Bemaßung
 62
     7
370
     9
100
AcDbLine
 10
111.8267779803945
 20
149.6644161817426
 30
0.0
 11
111.3003629938245
 21
149.6644161817426
 31
0.0
  0
LINE
  5
19E
330
70
100
AcDbEntity
  8
Bemaßung
 62
     7
370
     9
100
AcDbLine
 10
111.8267779803945
 20
149.6365114602323
 30
0.0
 11
111.0884846658966
 21
149.6365114602323
 31
0.0
  0
LINE
  5
19F
330
70
100
AcDbEntity
  8
Bemaßung
 62
     7
370
     9
100
AcDbLine
 10
111.8267779803945
 20
149.608606738722
 30
0.0
 11
110.8762535602
 21
149.608606738722
 31
0.0
  0
LINE
  5
1A0
330
70
100
AcDbEntity
  8
Bemaßung
 62
     7
370
     9
100
AcDbLine
 10
111.8267779803945
 20
149.5803492394429
 30
0.0
 11
110.6640577322802
 21
149.5803492394429
 31
0.0
  0
LINE
  5
1A1
330
70
100
AcDbEntity
  8
Bemaßung
 62
     7
370
     9
100
AcDbLine
 10
111.8267779803945
 20
149.5524445179326
 30
0.0
 11
110.4514738488148
 21
149.5524445179326
 31
0.0
  0
LWPOLYLINE
  5
1A2
330
70
100
AcDbEntity
  8
Bemaßung
 62
     7
370
     9
100
AcDbPolyline
 90
        4
 70
     0
 43
0.0
 10
137.9064777433009
 20
149.5524445179326
 10
136.5315581834564
 20
149.7334900688693
 10
136.5315581834564
 20
149.3717555182127
 10
137.9064777433009
 20
149.5524445179326
  0
LINE
  5
1A3
330
70
100
AcDbEntity
  8
Bemaßung
 62
     7
370
     9
100
AcDbLine
 10
136.5315581834564
 20
149.720578402532
 30
0.0
 11
136.6331581808644
 21
149.720578402532
 31
0.0
  0
LINE
  5
1A4
330
70
100
AcDbEntity
  8
Bemaßung
 62
     7
370
     9
100
AcDbLine
 10
136.5315581834564
 20
149.720578402532
 30
0.0
 11
136.6331581808644
 21
149.720578402532
 31
0.0
  0
LINE
  5
1A5
330
70
100
AcDbEntity
  8
Bemaßung
 62
     7
370
     9
100
AcDbLine
 10
136.5315581834564
 20
149.6924972921373
 30
0.0
 11
136.845389286561
 21
149.6924972921373
 31
0.0
  0
LINE
  5
1A6
330
70
100
AcDbEntity
  8
Bemaßung
 62
     7
370
     9
100
AcDbLine
 10
136.5315581834564
 20
149.6644161817426
 30
0.0
 11
137.0576203922577
 21
149.6644161817426
 31
0.0
  0
LINE
  5
1A7
330
70
100
AcDbEntity
  8
Bemaßung
 62
     7
370
     9
100
AcDbLine
 10
136.5315581834564
 20
149.6365114602323
 30
0.0
 11
137.2694987201855
 21
149.6365114602323
 31
0.0
  0
LINE
  5
1A8
330
70
100
AcDbEntity
  8
Bemaßung
 62
     7
370
     9
100
AcDbLine
 10
136.5315581834564
 20
149.608606738722
 30
0.0
 11
137.4820473258741
 21
149.608606738722
 31
0.0
  0
LINE
  5
1A9
330
70
100
AcDbEntity
  8
Bemaßung
 62
     7
370
     9
100
AcDbLine
 10
136.5315581834564
 20
149.5803492394429
 30
0.0
 11
137.6942784315707
 21
149.5803492394429
 31
0.0
  0
LINE
  5
1AA
330
70
100
AcDbEntity
  8
Bemaßung
 62
     7
370
     9
100
AcDbLine
 10
136.5315581834564
 20
149.5524445179326
 30
0.0
 11
137.9064777433009
 21
149.5524445179326
 31
0.0
  0
LINE
  5
1AB
330
70
100
AcDbEntity
  8
Bemaßung
 62
     7
370
     9
100
AcDbLine
 10
136.5315581834564
 20
149.3848397999863
 30
0.0
 11
136.6331581808644
 21
149.3848397999863
 31
0.0
  0
LINE
  5
1AC
330
70
100
AcDbEntity
  8
Bemaßung
 62
     7
370
     9
100
AcDbLine
 10
136.5315581834564
 20
149.3848397999863
 30
0.0
 11
136.6331581808644
 21
149.3848397999863
 31
0.0
  0
LINE
  5
1AD
330
70
100
AcDbEntity
  8
Bemaßung
 62
     7
370
     9
100
AcDbLine
 10
136.5315581834564
 20
149.4127445214966
 30
0.0
 11
136.845389286561
 21
149.4127445214966
 31
0.0
  0
LINE
  5
1AE
330
70
100
AcDbEntity
  8
Bemaßung
 62
     7
370
     9
100
AcDbLine
 10
136.5315581834564
 20
149.4408256318913
 30
0.0
 11
137.0576203922577
 21
149.4408256318913
 31
0.0
  0
LINE
  5
1AF
330
70
100
AcDbEntity
  8
Bemaßung
 62
     7
370
     9
100
AcDbLine
 10
136.5315581834564
 20
149.4687303534016
 30
0.0
 11
137.2694987201855
 21
149.4687303534016
 31
0.0
  0
LINE
  5
1B0
330
70
100
AcDbEntity
  8
Bemaßung
 62
     7
370
     9
100
AcDbLine
 10
136.5315581834564
 20
149.4966388515149
 30
0.0
 11
137.4820473258741
 21
149.4966388515149
 31
0.0
  0
LINE
  5
1B1
330
70
100
AcDbEntity
  8
Bemaßung
 62
     7
370
     9
100
AcDbLine
 10
136.5315581834564
 20
149.5245397964223
 30
0.0
 11
137.6942784315707
 21
149.5245397964223
 31
0.0
  0
LINE
  5
1B2
330
70
100
AcDbEntity
  8
Bemaßung
 62
     7
370
     9
100
AcDbLine
 10
136.5315581834564
 20
149.5524445179326
 30
0.0
 11
137.9064777433009
 21
149.5524445179326
 31
0.0
  0
LINE
  5
1B3
330
70
100
AcDbEntity
  8
Bemaßung
 62
     7
370
     9
100
AcDbLine
 10
131.3342597049394
 20
90.81614546086489
 30
0.0
 11
146.7340595774321
 21
90.81614546086489
 31
0.0
  0
LINE
  5
1B4
330
70
100
AcDbEntity
  8
Bemaßung
 62
     7
370
     9
100
AcDbLine
 10
134.0569279688117
 20
173.3161944011154
 30
0.0
 11
146.7340595774321
 21
173.3161944011154
 31
0.0
  0
LINE
  5
1B5
330
70
100
AcDbEntity
  8
Bemaßung
 62
     7
370
     9
100
AcDbLine
 10
145.6337104388377
 20
90.81614546086489
 30
0.0
 11
145.6337104388377
 21
173.3161944011154
 31
0.0
  0
LWPOLYLINE
  5
1B6
330
70
100
AcDbEntity
  8
Bemaßung
 62
     7
370
     9
100
AcDbPolyline
 90
        4
 70
     0
 43
0.0
 10
145.6337104388377
 20
90.81614546086489
 10
145.8145832971073
 20
92.19144959244461
 10
145.4528412767854
 20
92.19144959244461
 10
145.6337104388377
 20
90.81614546086489
  0
LINE
  5
1B7
330
70
100
AcDbEntity
  8
Bemaßung
 62
     7
370
     9
100
AcDbLine
 10
145.8014915456683
 20
92.19144959244461
 30
0.0
 11
145.8014915456683
 21
92.08946386586626
 31
0.0
  0
LINE
  5
1B8
330
70
100
AcDbEntity
  8
Bemaßung
 62
     7
370
     9
100
AcDbLine
 10
145.8014915456683
 20
92.19144959244461
 30
0.0
 11
145.8014915456683
 21
92.08946386586626
 31
0.0
  0
LINE
  5
1B9
330
70
100
AcDbEntity
  8
Bemaßung
 62
     7
370
     9
100
AcDbLine
 10
145.7732340463893
 20
92.19144959244461
 30
0.0
 11
145.7732340463893
 21
91.87758321156314
 31
0.0
  0
LINE
  5
1BA
330
70
100
AcDbEntity
  8
Bemaßung
 62
     7
370
     9
100
AcDbLine
 10
145.7456821026477
 20
92.19144959244461
 30
0.0
 11
145.7456821026477
 21
91.66503460587458
 31
0.0
  0
LINE
  5
1BB
330
70
100
AcDbEntity
  8
Bemaßung
 62
     7
370
     9
100
AcDbLine
 10
145.7177773811374
 20
92.19144959244461
 30
0.0
 11
145.7177773811374
 21
91.45280350017793
 31
0.0
  0
LINE
  5
1BC
330
70
100
AcDbEntity
  8
Bemaßung
 62
     7
370
     9
100
AcDbLine
 10
145.6898726596271
 20
92.19144959244461
 30
0.0
 11
145.6898726596271
 21
91.24092517225006
 31
0.0
  0
LINE
  5
1BD
330
70
100
AcDbEntity
  8
Bemaßung
 62
     7
370
     9
100
AcDbLine
 10
145.661615160348
 20
92.19144959244461
 30
0.0
 11
145.661615160348
 21
91.0287293443303
 31
0.0
  0
LINE
  5
1BE
330
70
100
AcDbEntity
  8
Bemaßung
 62
     7
370
     9
100
AcDbLine
 10
145.6337104388377
 20
92.19144959244461
 30
0.0
 11
145.6337104388377
 21
90.81614546086489
 31
0.0
  0
LINE
  5
1BF
330
70
100
AcDbEntity
  8
Bemaßung
 62
     7
370
     9
100
AcDbLine
 10
145.465929332007
 20
92.19144959244461
 30
0.0
 11
145.465929332007
 21
92.08946386586626
 31
0.0
  0
LINE
  5
1C0
330
70
100
AcDbEntity
  8
Bemaßung
 62
     7
370
     9
100
AcDbLine
 10
145.465929332007
 20
92.19144959244461
 30
0.0
 11
145.465929332007
 21
92.08946386586626
 31
0.0
  0
LINE
  5
1C1
330
70
100
AcDbEntity
  8
Bemaßung
 62
     7
370
     9
100
AcDbLine
 10
145.4938340535173
 20
92.19144959244461
 30
0.0
 11
145.4938340535173
 21
91.87758321156314
 31
0.0
  0
LINE
  5
1C2
330
70
100
AcDbEntity
  8
Bemaßung
 62
     7
370
     9
100
AcDbLine
 10
145.5220915527964
 20
92.19144959244461
 30
0.0
 11
145.5220915527964
 21
91.66503460587458
 31
0.0
  0
LINE
  5
1C3
330
70
100
AcDbEntity
  8
Bemaßung
 62
     7
370
     9
100
AcDbLine
 10
145.5499999638401
 20
92.19144959244461
 30
0.0
 11
145.5499999638401
 21
91.45280350017793
 31
0.0
  0
LINE
  5
1C4
330
70
100
AcDbEntity
  8
Bemaßung
 62
     7
370
     9
100
AcDbLine
 10
145.5779009958171
 20
92.19144959244461
 30
0.0
 11
145.5779009958171
 21
91.24092517225006
 31
0.0
  0
LINE
  5
1C5
330
70
100
AcDbEntity
  8
Bemaßung
 62
     7
370
     9
100
AcDbLine
 10
145.6058057173274
 20
92.19144959244461
 30
0.0
 11
145.6058057173274
 21
91.0287293443303
 31
0.0
  0
LINE
  5
1C6
330
70
100
AcDbEntity
  8
Bemaßung
 62
     7
370
     9
100
AcDbLine
 10
145.6337104388377
 20
92.19144959244461
 30
0.0
 11
145.6337104388377
 21
90.81614546086489
 31
0.0
  0
LWPOLYLINE
  5
1C7
330
70
100
AcDbEntity
  8
Bemaßung
 62
     7
370
     9
100
AcDbPolyline
 90
        4
 70
     0
 43
0.0
 10
145.6337104388377
 20
173.3161944011154
 10
145.4528412767854
 20
171.9414503356303
 10
145.8145832971073
 20
171.9414503356303
 10
145.6337104388377
 20
173.3161944011154
  0
LINE
  5
1C8
330
70
100
AcDbEntity
  8
Bemaßung
 62
     7
370
     9
100
AcDbLine
 10
145.465929332007
 20
171.9414503356303
 30
0.0
 11
145.465929332007
 21
172.0430856108152
 31
0.0
  0
LINE
  5
1C9
330
70
100
AcDbEntity
  8
Bemaßung
 62
     7
370
     9
100
AcDbLine
 10
145.465929332007
 20
171.9414503356303
 30
0.0
 11
145.465929332007
 21
172.0430856108152
 31
0.0
  0
LINE
  5
1CA
330
70
100
AcDbEntity
  8
Bemaßung
 62
     7
370
     9
100
AcDbLine
 10
145.4938340535173
 20
171.9414503356303
 30
0.0
 11
145.4938340535173
 21
172.255281438735
 31
0.0
  0
LINE
  5
1CB
330
70
100
AcDbEntity
  8
Bemaßung
 62
     7
370
     9
100
AcDbLine
 10
145.5220915527964
 20
171.9414503356303
 30
0.0
 11
145.5220915527964
 21
172.4673361555472
 31
0.0
  0
LINE
  5
1CC
330
70
100
AcDbEntity
  8
Bemaßung
 62
     7
370
     9
100
AcDbLine
 10
145.5499999638401
 20
171.9414503356303
 30
0.0
 11
145.5499999638401
 21
172.6798847612358
 31
0.0
  0
LINE
  5
1CD
330
70
100
AcDbEntity
  8
Bemaßung
 62
     7
370
     9
100
AcDbLine
 10
145.5779009958171
 20
171.9414503356303
 30
0.0
 11
145.5779009958171
 21
172.891939478048
 31
0.0
  0
LINE
  5
1CE
330
70
100
AcDbEntity
  8
Bemaßung
 62
     7
370
     9
100
AcDbLine
 10
145.6058057173274
 20
171.9414503356303
 30
0.0
 11
145.6058057173274
 21
173.104174956724
 31
0.0
  0
LINE
  5
1CF
330
70
100
AcDbEntity
  8
Bemaßung
 62
     7
370
     9
100
AcDbLine
 10
145.6337104388377
 20
171.9414503356303
 30
0.0
 11
145.6337104388377
 21
173.3161944011154
 31
0.0
  0
LINE
  5
1D0
330
70
100
AcDbEntity
  8
Bemaßung
 62
     7
370
     9
100
AcDbLine
 10
145.8014915456683
 20
171.9414503356303
 30
0.0
 11
145.8014915456683
 21
172.0430856108152
 31
0.0
  0
LINE
  5
1D1
330
70
100
AcDbEntity
  8
Bemaßung
 62
     7
370
     9
100
AcDbLine
 10
145.8014915456683
 20
171.9414503356303
 30
0.0
 11
145.8014915456683
 21
172.0430856108152
 31
0.0
  0
LINE
  5
1D2
330
70
100
AcDbEntity
  8
Bemaßung
 62
     7
370
     9
100
AcDbLine
 10
145.7732340463893
 20
171.9414503356303
 30
0.0
 11
145.7732340463893
 21
172.255281438735
 31
0.0
  0
LINE
  5
1D3
330
70
100
AcDbEntity
  8
Bemaßung
 62
     7
370
     9
100
AcDbLine
 10
145.7456821026477
 20
171.9414503356303
 30
0.0
 11
145.7456821026477
 21
172.4673361555472
 31
0.0
  0
LINE
  5
1D4
330
70
100
AcDbEntity
  8
Bemaßung
 62
     7
370
     9
100
AcDbLine
 10
145.7177773811374
 20
171.9414503356303
 30
0.0
 11
145.7177773811374
 21
172.6798847612358
 31
0.0
  0
LINE
  5
1D5
330
70
100
AcDbEntity
  8
Bemaßung
 62
     7
370
     9
100
AcDbLine
 10
145.6898726596271
 20
171.9414503356303
 30
0.0
 11
145.6898726596271
 21
172.891939478048
 31
0.0
  0
LINE
  5
1D6
330
70
100
AcDbEntity
  8
Bemaßung
 62
     7
370
     9
100
AcDbLine
 10
145.661615160348
 20
171.9414503356303
 30
0.0
 11
145.661615160348
 21
173.104174956724
 31
0.0
  0
LINE
  5
1D7
330
70
100
AcDbEntity
  8
Bemaßung
 62
     7
370
     9
100
AcDbLine
 10
145.6337104388377
 20
171.9414503356303
 30
0.0
 11
145.6337104388377
 21
173.3161944011154
 31
0.0
  0
LINE
  5
1D8
330
70
100
AcDbEntity
  8
Bemaßung
 62
     7
370
     9
100
AcDbLine
 10
129.6568719699554
 20
187.0113052289441
 30
0.0
 11
146.7340595774321
 21
187.0113052289441
 31
0.0
  0
LINE
  5
1D9
330
70
100
AcDbEntity
  8
Bemaßung
 62
     7
370
     9
100
AcDbLine
 10
145.6337104388377
 20
173.3161944011154
 30
0.0
 11
145.6337104388377
 21
187.0113052289441
 31
0.0
  0
LWPOLYLINE
  5
1DA
330
70
100
AcDbEntity
  8
Bemaßung
 62
     7
370
     9
100
AcDbPolyline
 90
        4
 70
     0
 43
0.0
 10
145.6337104388377
 20
173.3161944011154
 10
145.8145832971073
 20
174.6913221785494
 10
145.4528412767854
 20
174.6913221785494
 10
145.6337104388377
 20
173.3161944011154
  0
LINE
  5
1DB
330
70
100
AcDbEntity
  8
Bemaßung
 62
     7
370
     9
100
AcDbLine
 10
145.8014915456683
 20
174.6913221785494
 30
0.0
 11
145.8014915456683
 21
174.5896824902905
 31
0.0
  0
LINE
  5
1DC
330
70
100
AcDbEntity
  8
Bemaßung
 62
     7
370
     9
100
AcDbLine
 10
145.8014915456683
 20
174.6913221785494
 30
0.0
 11
145.8014915456683
 21
174.5896824902905
 31
0.0
  0
LINE
  5
1DD
330
70
100
AcDbEntity
  8
Bemaßung
 62
     7
370
     9
100
AcDbLine
 10
145.7732340463893
 20
174.6913221785494
 30
0.0
 11
145.7732340463893
 21
174.3776277734783
 31
0.0
  0
LINE
  5
1DE
330
70
100
AcDbEntity
  8
Bemaßung
 62
     7
370
     9
100
AcDbLine
 10
145.7456821026477
 20
174.6913221785494
 30
0.0
 11
145.7456821026477
 21
174.1650791677898
 31
0.0
  0
LINE
  5
1DF
330
70
100
AcDbEntity
  8
Bemaßung
 62
     7
370
     9
100
AcDbLine
 10
145.7177773811374
 20
174.6913221785494
 30
0.0
 11
145.7177773811374
 21
173.9530244509775
 31
0.0
  0
LINE
  5
1E0
330
70
100
AcDbEntity
  8
Bemaßung
 62
     7
370
     9
100
AcDbLine
 10
145.6898726596271
 20
174.6913221785494
 30
0.0
 11
145.6898726596271
 21
173.7408286230577
 31
0.0
  0
LINE
  5
1E1
330
70
100
AcDbEntity
  8
Bemaßung
 62
     7
370
     9
100
AcDbLine
 10
145.661615160348
 20
174.6913221785494
 30
0.0
 11
145.661615160348
 21
173.5287739062455
 31
0.0
  0
LINE
  5
1E2
330
70
100
AcDbEntity
  8
Bemaßung
 62
     7
370
     9
100
AcDbLine
 10
145.6337104388377
 20
174.6913221785494
 30
0.0
 11
145.6337104388377
 21
173.3161944011154
 31
0.0
  0
LINE
  5
1E3
330
70
100
AcDbEntity
  8
Bemaßung
 62
     7
370
     9
100
AcDbLine
 10
145.465929332007
 20
174.6913221785494
 30
0.0
 11
145.465929332007
 21
174.5896824902905
 31
0.0
  0
LINE
  5
1E4
330
70
100
AcDbEntity
  8
Bemaßung
 62
     7
370
     9
100
AcDbLine
 10
145.465929332007
 20
174.6913221785494
 30
0.0
 11
145.465929332007
 21
174.5896824902905
 31
0.0
  0
LINE
  5
1E5
330
70
100
AcDbEntity
  8
Bemaßung
 62
     7
370
     9
100
AcDbLine
 10
145.4938340535173
 20
174.6913221785494
 30
0.0
 11
145.4938340535173
 21
174.3776277734783
 31
0.0
  0
LINE
  5
1E6
330
70
100
AcDbEntity
  8
Bemaßung
 62
     7
370
     9
100
AcDbLine
 10
145.5220915527964
 20
174.6913221785494
 30
0.0
 11
145.5220915527964
 21
174.1650791677898
 31
0.0
  0
LINE
  5
1E7
330
70
100
AcDbEntity
  8
Bemaßung
 62
     7
370
     9
100
AcDbLine
 10
145.5499999638401
 20
174.6913221785494
 30
0.0
 11
145.5499999638401
 21
173.9530244509775
 31
0.0
  0
LINE
  5
1E8
330
70
100
AcDbEntity
  8
Bemaßung
 62
     7
370
     9
100
AcDbLine
 10
145.5779009958171
 20
174.6913221785494
 30
0.0
 11
145.5779009958171
 21
173.7408286230577
 31
0.0
  0
LINE
  5
1E9
330
70
100
AcDbEntity
  8
Bemaßung
 62
     7
370
     9
100
AcDbLine
 10
145.6058057173274
 20
174.6913221785494
 30
0.0
 11
145.6058057173274
 21
173.5287739062455
 31
0.0
  0
LINE
  5
1EA
330
70
100
AcDbEntity
  8
Bemaßung
 62
     7
370
     9
100
AcDbLine
 10
145.6337104388377
 20
174.6913221785494
 30
0.0
 11
145.6337104388377
 21
173.3161944011154
 31
0.0
  0
LWPOLYLINE
  5
1EB
330
70
100
AcDbEntity
  8
Bemaßung
 62
     7
370
     9
100
AcDbPolyline
 90
        4
 70
     0
 43
0.0
 10
145.6337104388377
 20
187.0113052289441
 10
145.4528412767854
 20
185.6362127640256
 10
145.8145832971073
 20
185.6362127640256
 10
145.6337104388377
 20
187.0113052289441
  0
LINE
  5
1EC
330
70
100
AcDbEntity
  8
Bemaßung
 62
     7
370
     9
100
AcDbLine
 10
145.465929332007
 20
185.6362127640256
 30
0.0
 11
145.465929332007
 21
185.7380244280949
 31
0.0
  0
LINE
  5
1ED
330
70
100
AcDbEntity
  8
Bemaßung
 62
     7
370
     9
100
AcDbLine
 10
145.465929332007
 20
185.6362127640256
 30
0.0
 11
145.465929332007
 21
185.7380244280949
 31
0.0
  0
LINE
  5
1EE
330
70
100
AcDbEntity
  8
Bemaßung
 62
     7
370
     9
100
AcDbLine
 10
145.4938340535173
 20
185.6362127640256
 30
0.0
 11
145.4938340535173
 21
185.9502249535124
 31
0.0
  0
LINE
  5
1EF
330
70
100
AcDbEntity
  8
Bemaßung
 62
     7
370
     9
100
AcDbLine
 10
145.5220915527964
 20
185.6362127640256
 30
0.0
 11
145.5220915527964
 21
186.1622749728269
 31
0.0
  0
LINE
  5
1F0
330
70
100
AcDbEntity
  8
Bemaßung
 62
     7
370
     9
100
AcDbLine
 10
145.5499999638401
 20
185.6362127640256
 30
0.0
 11
145.5499999638401
 21
186.3746824674079
 31
0.0
  0
LINE
  5
1F1
330
70
100
AcDbEntity
  8
Bemaßung
 62
     7
370
     9
100
AcDbLine
 10
145.5779009958171
 20
185.6362127640256
 30
0.0
 11
145.5779009958171
 21
186.5868782953277
 31
0.0
  0
LINE
  5
1F2
330
70
100
AcDbEntity
  8
Bemaßung
 62
     7
370
     9
100
AcDbLine
 10
145.6058057173274
 20
185.6362127640256
 30
0.0
 11
145.6058057173274
 21
186.7991094010243
 31
0.0
  0
LINE
  5
1F3
330
70
100
AcDbEntity
  8
Bemaßung
 62
     7
370
     9
100
AcDbLine
 10
145.6337104388377
 20
185.6362127640256
 30
0.0
 11
145.6337104388377
 21
187.0113052289441
 31
0.0
  0
LINE
  5
1F4
330
70
100
AcDbEntity
  8
Bemaßung
 62
     7
370
     9
100
AcDbLine
 10
145.8014915456683
 20
185.6362127640256
 30
0.0
 11
145.8014915456683
 21
185.7380244280949
 31
0.0
  0
LINE
  5
1F5
330
70
100
AcDbEntity
  8
Bemaßung
 62
     7
370
     9
100
AcDbLine
 10
145.8014915456683
 20
185.6362127640256
 30
0.0
 11
145.8014915456683
 21
185.7380244280949
 31
0.0
  0
LINE
  5
1F6
330
70
100
AcDbEntity
  8
Bemaßung
 62
     7
370
     9
100
AcDbLine
 10
145.7732340463893
 20
185.6362127640256
 30
0.0
 11
145.7732340463893
 21
185.9502249535124
 31
0.0
  0
LINE
  5
1F7
330
70
100
AcDbEntity
  8
Bemaßung
 62
     7
370
     9
100
AcDbLine
 10
145.7456821026477
 20
185.6362127640256
 30
0.0
 11
145.7456821026477
 21
186.1622749728269
 31
0.0
  0
LINE
  5
1F8
330
70
100
AcDbEntity
  8
Bemaßung
 62
     7
370
     9
100
AcDbLine
 10
145.7177773811374
 20
185.6362127640256
 30
0.0
 11
145.7177773811374
 21
186.3746824674079
 31
0.0
  0
LINE
  5
1F9
330
70
100
AcDbEntity
  8
Bemaßung
 62
     7
370
     9
100
AcDbLine
 10
145.6898726596271
 20
185.6362127640256
 30
0.0
 11
145.6898726596271
 21
186.5868782953277
 31
0.0
  0
LINE
  5
1FA
330
70
100
AcDbEntity
  8
Bemaßung
 62
     7
370
     9
100
AcDbLine
 10
145.661615160348
 20
185.6362127640256
 30
0.0
 11
145.661615160348
 21
186.7991094010243
 31
0.0
  0
LINE
  5
1FB
330
70
100
AcDbEntity
  8
Bemaßung
 62
     7
370
     9
100
AcDbLine
 10
145.6337104388377
 20
185.6362127640256
 30
0.0
 11
145.6337104388377
 21
187.0113052289441
 31
0.0
  0
LINE
  5
1FC
330
70
100
AcDbEntity
  8
Bemaßung
 62
     7
370
     9
100
AcDbLine
 10
72.77763036551019
 20
90.81614546086489
 30
0.0
 11
64.36938391335576
 21
90.81614546086489
 31
0.0
  0
LINE
  5
1FD
330
70
100
AcDbEntity
  8
Bemaßung
 62
     7
370
     9
100
AcDbLine
 10
78.30495244671867
 20
110.616503289049
 30
0.0
 11
64.36938391335576
 21
110.616503289049
 31
0.0
  0
LINE
  5
1FE
330
70
100
AcDbEntity
  8
Bemaßung
 62
     7
370
     9
100
AcDbLine
 10
65.46973305195018
 20
90.81614546086489
 30
0.0
 11
65.46973305195018
 21
110.616503289049
 31
0.0
  0
LWPOLYLINE
  5
1FF
330
70
100
AcDbEntity
  8
Bemaßung
 62
     7
370
     9
100
AcDbPolyline
 90
        4
 70
     0
 43
0.0
 10
65.46973305195018
 20
90.81614546086489
 10
65.65077860288687
 20
92.19144959244461
 10
65.28868750101349
 20
92.19144959244461
 10
65.46973305195018
 20
90.81614546086489
  0
LINE
  5
200
330
70
100
AcDbEntity
  8
Bemaßung
 62
     7
370
     9
100
AcDbLine
 10
65.63733776989645
 20
92.19144959244461
 30
0.0
 11
65.63733776989645
 21
92.08946386586626
 31
0.0
  0
LINE
  5
201
330
70
100
AcDbEntity
  8
Bemaßung
 62
     7
370
     9
100
AcDbLine
 10
65.63733776989645
 20
92.19144959244461
 30
0.0
 11
65.63733776989645
 21
92.08946386586626
 31
0.0
  0
LINE
  5
202
330
70
100
AcDbEntity
  8
Bemaßung
 62
     7
370
     9
100
AcDbLine
 10
65.60943304838613
 20
92.19144959244461
 30
0.0
 11
65.60943304838613
 21
91.87758321156314
 31
0.0
  0
LINE
  5
203
330
70
100
AcDbEntity
  8
Bemaßung
 62
     7
370
     9
100
AcDbLine
 10
65.58135193799143
 20
92.19144959244461
 30
0.0
 11
65.58135193799143
 21
91.66503460587458
 31
0.0
  0
LINE
  5
204
330
70
100
AcDbEntity
  8
Bemaßung
 62
     7
370
     9
100
AcDbLine
 10
65.55362360536552
 20
92.19144959244461
 30
0.0
 11
65.55362360536552
 21
91.45280350017793
 31
0.0
  0
LINE
  5
205
330
70
100
AcDbEntity
  8
Bemaßung
 62
     7
370
     9
100
AcDbLine
 10
65.52571888385519
 20
92.19144959244461
 30
0.0
 11
65.52571888385519
 21
91.24092517225006
 31
0.0
  0
LINE
  5
206
330
70
100
AcDbEntity
  8
Bemaßung
 62
     7
370
     9
100
AcDbLine
 10
65.4976377734605
 20
92.19144959244461
 30
0.0
 11
65.4976377734605
 21
91.0287293443303
 31
0.0
  0
LINE
  5
207
330
70
100
AcDbEntity
  8
Bemaßung
 62
     7
370
     9
100
AcDbLine
 10
65.46973305195018
 20
92.19144959244461
 30
0.0
 11
65.46973305195018
 21
90.81614546086489
 31
0.0
  0
LINE
  5
208
330
70
100
AcDbEntity
  8
Bemaßung
 62
     7
370
     9
100
AcDbLine
 10
65.30195194511953
 20
92.19144959244461
 30
0.0
 11
65.30195194511953
 21
92.08946386586626
 31
0.0
  0
LINE
  5
209
330
70
100
AcDbEntity
  8
Bemaßung
 62
     7
370
     9
100
AcDbLine
 10
65.30195194511953
 20
92.19144959244461
 30
0.0
 11
65.30195194511953
 21
92.08946386586626
 31
0.0
  0
LINE
  5
20A
330
70
100
AcDbEntity
  8
Bemaßung
 62
     7
370
     9
100
AcDbLine
 10
65.32985831700084
 20
92.19144959244461
 30
0.0
 11
65.32985831700084
 21
91.87758321156314
 31
0.0
  0
LINE
  5
20B
330
70
100
AcDbEntity
  8
Bemaßung
 62
     7
370
     9
100
AcDbLine
 10
65.35793777702453
 20
92.19144959244461
 30
0.0
 11
65.35793777702453
 21
91.66503460587458
 31
0.0
  0
LINE
  5
20C
330
70
100
AcDbEntity
  8
Bemaßung
 62
     7
370
     9
100
AcDbLine
 10
65.38584249853485
 20
92.19144959244461
 30
0.0
 11
65.38584249853485
 21
91.45280350017793
 31
0.0
  0
LINE
  5
20D
330
70
100
AcDbEntity
  8
Bemaßung
 62
     7
370
     9
100
AcDbLine
 10
65.41392360892955
 20
92.19144959244461
 30
0.0
 11
65.41392360892955
 21
91.24092517225006
 31
0.0
  0
LINE
  5
20E
330
70
100
AcDbEntity
  8
Bemaßung
 62
     7
370
     9
100
AcDbLine
 10
65.44182833043986
 20
92.19144959244461
 30
0.0
 11
65.44182833043986
 21
91.0287293443303
 31
0.0
  0
LINE
  5
20F
330
70
100
AcDbEntity
  8
Bemaßung
 62
     7
370
     9
100
AcDbLine
 10
65.46973305195018
 20
92.19144959244461
 30
0.0
 11
65.46973305195018
 21
90.81614546086489
 31
0.0
  0
LWPOLYLINE
  5
210
330
70
100
AcDbEntity
  8
Bemaßung
 62
     7
370
     9
100
AcDbPolyline
 90
        4
 70
     0
 43
0.0
 10
65.46973305195018
 20
110.616503289049
 10
65.28868750101349
 20
109.241551935238
 10
65.65077860288687
 20
109.241551935238
 10
65.46973305195018
 20
110.616503289049
  0
LINE
  5
211
330
70
100
AcDbEntity
  8
Bemaßung
 62
     7
370
     9
100
AcDbLine
 10
65.30195194511953
 20
109.241551935238
 30
0.0
 11
65.30195194511953
 21
109.3431872104229
 31
0.0
  0
LINE
  5
212
330
70
100
AcDbEntity
  8
Bemaßung
 62
     7
370
     9
100
AcDbLine
 10
65.30195194511953
 20
109.241551935238
 30
0.0
 11
65.30195194511953
 21
109.3431872104229
 31
0.0
  0
LINE
  5
213
330
70
100
AcDbEntity
  8
Bemaßung
 62
     7
370
     9
100
AcDbLine
 10
65.32985831700084
 20
109.241551935238
 30
0.0
 11
65.32985831700084
 21
109.5550655383507
 31
0.0
  0
LINE
  5
214
330
70
100
AcDbEntity
  8
Bemaßung
 62
     7
370
     9
100
AcDbLine
 10
65.35793777702453
 20
109.241551935238
 30
0.0
 11
65.35793777702453
 21
109.7676141440393
 31
0.0
  0
LINE
  5
215
330
70
100
AcDbEntity
  8
Bemaßung
 62
     7
370
     9
100
AcDbLine
 10
65.38584249853485
 20
109.241551935238
 30
0.0
 11
65.38584249853485
 21
109.9794924719672
 31
0.0
  0
LINE
  5
216
330
70
100
AcDbEntity
  8
Bemaßung
 62
     7
370
     9
100
AcDbLine
 10
65.41392360892955
 20
109.241551935238
 30
0.0
 11
65.41392360892955
 21
110.1920763554326
 31
0.0
  0
LINE
  5
217
330
70
100
AcDbEntity
  8
Bemaßung
 62
     7
370
     9
100
AcDbLine
 10
65.44182833043986
 20
109.241551935238
 30
0.0
 11
65.44182833043986
 21
110.4039546833604
 31
0.0
  0
LINE
  5
218
330
70
100
AcDbEntity
  8
Bemaßung
 62
     7
370
     9
100
AcDbLine
 10
65.46973305195018
 20
109.241551935238
 30
0.0
 11
65.46973305195018
 21
110.616503289049
 31
0.0
  0
LINE
  5
219
330
70
100
AcDbEntity
  8
Bemaßung
 62
     7
370
     9
100
AcDbLine
 10
65.63733776989645
 20
109.241551935238
 30
0.0
 11
65.63733776989645
 21
109.3431872104229
 31
0.0
  0
LINE
  5
21A
330
70
100
AcDbEntity
  8
Bemaßung
 62
     7
370
     9
100
AcDbLine
 10
65.63733776989645
 20
109.241551935238
 30
0.0
 11
65.63733776989645
 21
109.3431872104229
 31
0.0
  0
LINE
  5
21B
330
70
100
AcDbEntity
  8
Bemaßung
 62
     7
370
     9
100
AcDbLine
 10
65.60943304838613
 20
109.241551935238
 30
0.0
 11
65.60943304838613
 21
109.5550655383507
 31
0.0
  0
LINE
  5
21C
330
70
100
AcDbEntity
  8
Bemaßung
 62
     7
370
     9
100
AcDbLine
 10
65.58135193799143
 20
109.241551935238
 30
0.0
 11
65.58135193799143
 21
109.7676141440393
 31
0.0
  0
LINE
  5
21D
330
70
100
AcDbEntity
  8
Bemaßung
 62
     7
370
     9
100
AcDbLine
 10
65.55362360536552
 20
109.241551935238
 30
0.0
 11
65.55362360536552
 21
109.9794924719672
 31
0.0
  0
LINE
  5
21E
330
70
100
AcDbEntity
  8
Bemaßung
 62
     7
370
     9
100
AcDbLine
 10
65.52571888385519
 20
109.241551935238
 30
0.0
 11
65.52571888385519
 21
110.1920763554326
 31
0.0
  0
LINE
  5
21F
330
70
100
AcDbEntity
  8
Bemaßung
 62
     7
370
     9
100
AcDbLine
 10
65.4976377734605
 20
109.241551935238
 30
0.0
 11
65.4976377734605
 21
110.4039546833604
 31
0.0
  0
LINE
  5
220
330
70
100
AcDbEntity
  8
Bemaßung
 62
     7
370
     9
100
AcDbLine
 10
65.46973305195018
 20
109.241551935238
 30
0.0
 11
65.46973305195018
 21
110.616503289049
 31
0.0
  0
LINE
  5
221
330
70
100
AcDbEntity
  8
Bemaßung
 62
     7
370
     9
100
AcDbLine
 10
78.30495244671867
 20
90.81614546086489
 30
0.0
 11
78.30495244671867
 21
82.86693344144396
 31
0.0
  0
LINE
  5
222
330
70
100
AcDbEntity
  8
Bemaßung
 62
     7
370
     9
100
AcDbLine
 10
81.60518847363375
 20
90.81614546086489
 30
0.0
 11
81.60518847363375
 21
82.86693344144396
 31
0.0
  0
LINE
  5
223
330
70
100
AcDbEntity
  8
Bemaßung
 62
     7
370
     9
100
AcDbLine
 10
86.41764168419117
 20
83.96798813557593
 30
0.0
 11
67.93296854466337
 21
83.96798813557593
 31
0.0
  0
LWPOLYLINE
  5
224
330
70
100
AcDbEntity
  8
Bemaßung
 62
     7
370
     9
100
AcDbPolyline
 90
        4
 70
     0
 43
0.0
 10
78.30495244671867
 20
83.96798813557593
 10
76.92880164849388
 20
84.14885729762824
 10
76.92880164849388
 20
83.78680147353172
 10
78.30495244671867
 20
83.96798813557593
  0
LINE
  5
225
330
70
100
AcDbEntity
  8
Bemaßung
 62
     7
370
     9
100
AcDbLine
 10
76.92880164849388
 20
84.13541646463782
 30
0.0
 11
77.03163636809256
 21
84.13541646463782
 31
0.0
  0
LINE
  5
226
330
70
100
AcDbEntity
  8
Bemaßung
 62
     7
370
     9
100
AcDbLine
 10
76.92880164849388
 20
84.13541646463782
 30
0.0
 11
77.03163636809256
 21
84.13541646463782
 31
0.0
  0
LINE
  5
227
330
70
100
AcDbEntity
  8
Bemaßung
 62
     7
370
     9
100
AcDbLine
 10
76.92880164849388
 20
84.10751386786232
 30
0.0
 11
77.24404386267359
 21
84.10751386786232
 31
0.0
  0
LINE
  5
228
330
70
100
AcDbEntity
  8
Bemaßung
 62
     7
370
     9
100
AcDbLine
 10
76.92880164849388
 20
84.07960702161719
 30
0.0
 11
77.45606330170898
 21
84.07960702161719
 31
0.0
  0
LINE
  5
229
330
70
100
AcDbEntity
  8
Bemaßung
 62
     7
370
     9
100
AcDbLine
 10
76.92880164849388
 20
84.05170230010687
 30
0.0
 11
77.66847079629001
 21
84.05170230010687
 31
0.0
  0
LINE
  5
22A
330
70
100
AcDbEntity
  8
Bemaßung
 62
     7
370
     9
100
AcDbLine
 10
76.92880164849388
 20
84.02379757859655
 30
0.0
 11
77.88052551310227
 21
84.02379757859655
 31
0.0
  0
LINE
  5
22B
330
70
100
AcDbEntity
  8
Bemaßung
 62
     7
370
     9
100
AcDbLine
 10
76.92880164849388
 20
83.99589285708625
 30
0.0
 11
78.09307411879081
 21
83.99589285708625
 31
0.0
  0
LINE
  5
22C
330
70
100
AcDbEntity
  8
Bemaßung
 62
     7
370
     9
100
AcDbLine
 10
76.92880164849388
 20
83.96798813557593
 30
0.0
 11
78.30495244671867
 21
83.96798813557593
 31
0.0
  0
LINE
  5
22D
330
70
100
AcDbEntity
  8
Bemaßung
 62
     7
370
     9
100
AcDbLine
 10
76.92880164849388
 20
83.80020702874528
 30
0.0
 11
77.03163636809256
 21
83.80020702874528
 31
0.0
  0
LINE
  5
22E
330
70
100
AcDbEntity
  8
Bemaßung
 62
     7
370
     9
100
AcDbLine
 10
76.92880164849388
 20
83.80020702874528
 30
0.0
 11
77.03163636809256
 21
83.80020702874528
 31
0.0
  0
LINE
  5
22F
330
70
100
AcDbEntity
  8
Bemaßung
 62
     7
370
     9
100
AcDbLine
 10
76.92880164849388
 20
83.82811386793171
 30
0.0
 11
77.24404386267359
 21
83.82811386793171
 31
0.0
  0
LINE
  5
230
330
70
100
AcDbEntity
  8
Bemaßung
 62
     7
370
     9
100
AcDbLine
 10
76.92880164849388
 20
83.8560164717659
 30
0.0
 11
77.45606330170898
 21
83.8560164717659
 31
0.0
  0
LINE
  5
231
330
70
100
AcDbEntity
  8
Bemaßung
 62
     7
370
     9
100
AcDbLine
 10
76.92880164849388
 20
83.8839564710531
 30
0.0
 11
77.66847079629001
 21
83.8839564710531
 31
0.0
  0
LINE
  5
232
330
70
100
AcDbEntity
  8
Bemaßung
 62
     7
370
     9
100
AcDbLine
 10
76.92880164849388
 20
83.91186119256341
 30
0.0
 11
77.88052551310227
 21
83.91186119256341
 31
0.0
  0
LINE
  5
233
330
70
100
AcDbEntity
  8
Bemaßung
 62
     7
370
     9
100
AcDbLine
 10
76.92880164849388
 20
83.93976591407371
 30
0.0
 11
78.09307411879081
 21
83.93976591407371
 31
0.0
  0
LINE
  5
234
330
70
100
AcDbEntity
  8
Bemaßung
 62
     7
370
     9
100
AcDbLine
 10
76.92880164849388
 20
83.96798813557593
 30
0.0
 11
78.30495244671867
 21
83.96798813557593
 31
0.0
  0
LWPOLYLINE
  5
235
330
70
100
AcDbEntity
  8
Bemaßung
 62
     7
370
     9
100
AcDbPolyline
 90
        4
 70
     0
 43
0.0
 10
81.60518847363375
 20
83.96798813557593
 10
82.98116288297416
 20
83.78680147353172
 10
82.98116288297416
 20
84.14885729762824
 10
81.60518847363375
 20
83.96798813557593
  0
LINE
  5
236
330
70
100
AcDbEntity
  8
Bemaßung
 62
     7
370
     9
100
AcDbLine
 10
82.98116288297416
 20
83.80020702874528
 30
0.0
 11
82.87850455225987
 21
83.80020702874528
 31
0.0
  0
LINE
  5
237
330
70
100
AcDbEntity
  8
Bemaßung
 62
     7
370
     9
100
AcDbLine
 10
82.98116288297416
 20
83.80020702874528
 30
0.0
 11
82.87850455225987
 21
83.80020702874528
 31
0.0
  0
LINE
  5
238
330
70
100
AcDbEntity
  8
Bemaßung
 62
     7
370
     9
100
AcDbLine
 10
82.98116288297416
 20
83.82811386793171
 30
0.0
 11
82.66609705767882
 21
83.82811386793171
 31
0.0
  0
LINE
  5
239
330
70
100
AcDbEntity
  8
Bemaßung
 62
     7
370
     9
100
AcDbLine
 10
82.98116288297416
 20
83.8560164717659
 30
0.0
 11
82.45404442383096
 21
83.8560164717659
 31
0.0
  0
LINE
  5
23A
330
70
100
AcDbEntity
  8
Bemaßung
 62
     7
370
     9
100
AcDbLine
 10
82.98116288297416
 20
83.8839564710531
 30
0.0
 11
82.24184651294681
 21
83.8839564710531
 31
0.0
  0
LINE
  5
23B
330
70
100
AcDbEntity
  8
Bemaßung
 62
     7
370
     9
100
AcDbLine
 10
82.98116288297416
 20
83.91186119256341
 30
0.0
 11
82.02961540725016
 21
83.91186119256341
 31
0.0
  0
LINE
  5
23C
330
70
100
AcDbEntity
  8
Bemaßung
 62
     7
370
     9
100
AcDbLine
 10
82.98116288297416
 20
83.93976591407371
 30
0.0
 11
81.81724319044601
 21
83.93976591407371
 31
0.0
  0
LINE
  5
23D
330
70
100
AcDbEntity
  8
Bemaßung
 62
     7
370
     9
100
AcDbLine
 10
82.98116288297416
 20
83.96798813557593
 30
0.0
 11
81.60518847363375
 21
83.96798813557593
 31
0.0
  0
LINE
  5
23E
330
70
100
AcDbEntity
  8
Bemaßung
 62
     7
370
     9
100
AcDbLine
 10
82.98116288297416
 20
84.13541646463782
 30
0.0
 11
82.87850455225987
 21
84.13541646463782
 31
0.0
  0
LINE
  5
23F
330
70
100
AcDbEntity
  8
Bemaßung
 62
     7
370
     9
100
AcDbLine
 10
82.98116288297416
 20
84.13541646463782
 30
0.0
 11
82.87850455225987
 21
84.13541646463782
 31
0.0
  0
LINE
  5
240
330
70
100
AcDbEntity
  8
Bemaßung
 62
     7
370
     9
100
AcDbLine
 10
82.98116288297416
 20
84.10751386786232
 30
0.0
 11
82.66609705767882
 21
84.10751386786232
 31
0.0
  0
LINE
  5
241
330
70
100
AcDbEntity
  8
Bemaßung
 62
     7
370
     9
100
AcDbLine
 10
82.98116288297416
 20
84.07960702161719
 30
0.0
 11
82.45404442383096
 21
84.07960702161719
 31
0.0
  0
LINE
  5
242
330
70
100
AcDbEntity
  8
Bemaßung
 62
     7
370
     9
100
AcDbLine
 10
82.98116288297416
 20
84.05170230010687
 30
0.0
 11
82.24184651294681
 21
84.05170230010687
 31
0.0
  0
LINE
  5
243
330
70
100
AcDbEntity
  8
Bemaßung
 62
     7
370
     9
100
AcDbLine
 10
82.98116288297416
 20
84.02379757859655
 30
0.0
 11
82.02961540725016
 21
84.02379757859655
 31
0.0
  0
LINE
  5
244
330
70
100
AcDbEntity
  8
Bemaßung
 62
     7
370
     9
100
AcDbLine
 10
82.98116288297416
 20
83.99589285708625
 30
0.0
 11
81.81724319044601
 21
83.99589285708625
 31
0.0
  0
LINE
  5
245
330
70
100
AcDbEntity
  8
Bemaßung
 62
     7
370
     9
100
AcDbLine
 10
82.98116288297416
 20
83.96798813557593
 30
0.0
 11
81.60518847363375
 21
83.96798813557593
 31
0.0
  0
LINE
  5
247
330
70
100
AcDbEntity
  8
Ebene 5
 62
     7
370
     9
100
AcDbLine
 10
103.5287391912086
 20
90.82517581640038
 30
0.0
 11
122.3468729355931
 21
90.82517581640038
 31
0.0
  0
LINE
  5
248
330
70
100
AcDbEntity
  8
Ebene 5
 62
     7
370
     9
100
AcDbLine
 10
103.5856945876103
 20
100.4501177584383
 30
0.0
 11
125.3386254130023
 21
100.4501177584383
 31
0.0
  0
LINE
  5
249
330
70
100
AcDbEntity
  8
Ebene 5
 62
     7
370
     9
100
AcDbLine
 10
104.8344174089666
 20
90.82517581640038
 30
0.0
 11
104.8344174089666
 21
100.4501177584383
 31
0.0
  0
MTEXT
  5
24A
330
70
100
AcDbEntity
  8
Ebene 5
100
AcDbMText
 10
103.5514958440665
 20
92.70358994603526
 30
0.0
 40
0.2
 41
0.0
 46
0.0
 71
     7
 72
     1
  1
\C7;\FINDEX Univers 45 Light|b0|i0|c1;\H2.497667;\W1.000000;17,5
 11
0.0000000000000001
 21
1.0
 31
0.0
 73
     1
 44
1.0
  0
LWPOLYLINE
  5
24B
330
70
100
AcDbEntity
  8
Ebene 5
 62
     7
370
     9
100
AcDbPolyline
 90
        4
 70
     0
 43
0.0
 10
104.8344174089666
 20
90.82517581640038
 10
105.0878176866812
 20
92.7501253992521
 10
104.58121115903
 20
92.7501253992521
 10
104.8344174089666
 20
90.82517581640038
  0
LINE
  5
24C
330
70
100
AcDbEntity
  8
Ebene 5
 62
     7
370
     9
100
AcDbLine
 10
105.0858774089041
 20
92.7501253992521
 30
0.0
 11
105.0858774089041
 21
92.73518526036705
 31
0.0
  0
LINE
  5
24D
330
70
100
AcDbEntity
  8
Ebene 5
 62
     7
370
     9
100
AcDbLine
 10
105.0858774089041
 20
92.7501253992521
 30
0.0
 11
105.0858774089041
 21
92.73518526036705
 31
0.0
  0
LINE
  5
24E
330
70
100
AcDbEntity
  8
Ebene 5
 62
     7
370
     9
100
AcDbLine
 10
105.0579374089111
 20
92.7501253992521
 30
0.0
 11
105.0579374089111
 21
92.52291887153148
 31
0.0
  0
LINE
  5
24F
330
70
100
AcDbEntity
  8
Ebene 5
 62
     7
370
     9
100
AcDbLine
 10
105.029997408918
 20
92.7501253992521
 30
0.0
 11
105.029997408918
 21
92.31084651047325
 31
0.0
  0
LINE
  5
250
330
70
100
AcDbEntity
  8
Ebene 5
 62
     7
370
     9
100
AcDbLine
 10
105.002057408925
 20
92.7501253992521
 30
0.0
 11
105.002057408925
 21
92.09858012163705
 31
0.0
  0
LINE
  5
251
330
70
100
AcDbEntity
  8
Ebene 5
 62
     7
370
     9
100
AcDbLine
 10
104.9741174089319
 20
92.7501253992521
 30
0.0
 11
104.9741174089319
 21
91.88631373280149
 31
0.0
  0
LINE
  5
252
330
70
100
AcDbEntity
  8
Ebene 5
 62
     7
370
     9
100
AcDbLine
 10
104.9461774089389
 20
92.7501253992521
 30
0.0
 11
104.9461774089389
 21
91.67404734396592
 31
0.0
  0
LINE
  5
253
330
70
100
AcDbEntity
  8
Ebene 5
 62
     7
370
     9
100
AcDbLine
 10
104.9182374089458
 20
92.7501253992521
 30
0.0
 11
104.9182374089458
 21
91.46178095512972
 31
0.0
  0
LINE
  5
254
330
70
100
AcDbEntity
  8
Ebene 5
 62
     7
370
     9
100
AcDbLine
 10
104.8902974089527
 20
92.7501253992521
 30
0.0
 11
104.8902974089527
 21
91.24970859407149
 31
0.0
  0
LINE
  5
255
330
70
100
AcDbEntity
  8
Ebene 5
 62
     7
370
     9
100
AcDbLine
 10
104.8623574089597
 20
92.7501253992521
 30
0.0
 11
104.8623574089597
 21
91.03744220523593
 31
0.0
  0
LINE
  5
256
330
70
100
AcDbEntity
  8
Ebene 5
 62
     7
370
     9
100
AcDbLine
 10
104.8344174089666
 20
92.7501253992521
 30
0.0
 11
104.8344174089666
 21
90.82517581640038
 31
0.0
  0
LINE
  5
257
330
70
100
AcDbEntity
  8
Ebene 5
 62
     7
370
     9
100
AcDbLine
 10
104.5831514368077
 20
92.7501253992521
 30
0.0
 11
104.5831514368077
 21
92.73518526036705
 31
0.0
  0
LINE
  5
258
330
70
100
AcDbEntity
  8
Ebene 5
 62
     7
370
     9
100
AcDbLine
 10
104.5831514368077
 20
92.7501253992521
 30
0.0
 11
104.5831514368077
 21
92.73518526036705
 31
0.0
  0
LINE
  5
259
330
70
100
AcDbEntity
  8
Ebene 5
 62
     7
370
     9
100
AcDbLine
 10
104.6110914368001
 20
92.7501253992521
 30
0.0
 11
104.6110914368001
 21
92.52291887153148
 31
0.0
  0
LINE
  5
25A
330
70
100
AcDbEntity
  8
Ebene 5
 62
     7
370
     9
100
AcDbLine
 10
104.6390314367932
 20
92.7501253992521
 30
0.0
 11
104.6390314367932
 21
92.31084651047325
 31
0.0
  0
LINE
  5
25B
330
70
100
AcDbEntity
  8
Ebene 5
 62
     7
370
     9
100
AcDbLine
 10
104.6669714367862
 20
92.7501253992521
 30
0.0
 11
104.6669714367862
 21
92.09858012163705
 31
0.0
  0
LINE
  5
25C
330
70
100
AcDbEntity
  8
Ebene 5
 62
     7
370
     9
100
AcDbLine
 10
104.6949114367793
 20
92.7501253992521
 30
0.0
 11
104.6949114367793
 21
91.88631373280149
 31
0.0
  0
LINE
  5
25D
330
70
100
AcDbEntity
  8
Ebene 5
 62
     7
370
     9
100
AcDbLine
 10
104.7228514367723
 20
92.7501253992521
 30
0.0
 11
104.7228514367723
 21
91.67404734396592
 31
0.0
  0
LINE
  5
25E
330
70
100
AcDbEntity
  8
Ebene 5
 62
     7
370
     9
100
AcDbLine
 10
104.7507914367654
 20
92.7501253992521
 30
0.0
 11
104.7507914367654
 21
91.46178095512972
 31
0.0
  0
LINE
  5
25F
330
70
100
AcDbEntity
  8
Ebene 5
 62
     7
370
     9
100
AcDbLine
 10
104.7787314367585
 20
92.7501253992521
 30
0.0
 11
104.7787314367585
 21
91.24970859407149
 31
0.0
  0
LINE
  5
260
330
70
100
AcDbEntity
  8
Ebene 5
 62
     7
370
     9
100
AcDbLine
 10
104.8066714367515
 20
92.7501253992521
 30
0.0
 11
104.8066714367515
 21
91.03744220523593
 31
0.0
  0
LINE
  5
261
330
70
100
AcDbEntity
  8
Ebene 5
 62
     7
370
     9
100
AcDbLine
 10
104.8344174089666
 20
92.7501253992521
 30
0.0
 11
104.8344174089666
 21
90.82517581640038
 31
0.0
  0
LWPOLYLINE
  5
262
330
70
100
AcDbEntity
  8
Ebene 5
 62
     7
370
     9
100
AcDbPolyline
 90
        4
 70
     0
 43
0.0
 10
104.8344174089666
 20
100.4501177584383
 10
104.58121115903
 20
98.52516817558655
 10
105.0878176866812
 20
98.52516817558655
 10
104.8344174089666
 20
100.4501177584383
  0
LINE
  5
263
330
70
100
AcDbEntity
  8
Ebene 5
 62
     7
370
     9
100
AcDbLine
 10
104.5831514368077
 20
98.52516817558655
 30
0.0
 11
104.5831514368077
 21
98.5401083144716
 31
0.0
  0
LINE
  5
264
330
70
100
AcDbEntity
  8
Ebene 5
 62
     7
370
     9
100
AcDbLine
 10
104.5831514368077
 20
98.52516817558655
 30
0.0
 11
104.5831514368077
 21
98.5401083144716
 31
0.0
  0
LINE
  5
265
330
70
100
AcDbEntity
  8
Ebene 5
 62
     7
370
     9
100
AcDbLine
 10
104.6110914368001
 20
98.52516817558655
 30
0.0
 11
104.6110914368001
 21
98.75237470330716
 31
0.0
  0
LINE
  5
266
330
70
100
AcDbEntity
  8
Ebene 5
 62
     7
370
     9
100
AcDbLine
 10
104.6390314367932
 20
98.52516817558655
 30
0.0
 11
104.6390314367932
 21
98.96464109214271
 31
0.0
  0
LINE
  5
267
330
70
100
AcDbEntity
  8
Ebene 5
 62
     7
370
     9
100
AcDbLine
 10
104.6669714367862
 20
98.52516817558655
 30
0.0
 11
104.6669714367862
 21
99.17690748097891
 31
0.0
  0
LINE
  5
268
330
70
100
AcDbEntity
  8
Ebene 5
 62
     7
370
     9
100
AcDbLine
 10
104.6949114367793
 20
98.52516817558655
 30
0.0
 11
104.6949114367793
 21
99.38897984203716
 31
0.0
  0
LINE
  5
269
330
70
100
AcDbEntity
  8
Ebene 5
 62
     7
370
     9
100
AcDbLine
 10
104.7228514367723
 20
98.52516817558655
 30
0.0
 11
104.7228514367723
 21
99.60124623087272
 31
0.0
  0
LINE
  5
26A
330
70
100
AcDbEntity
  8
Ebene 5
 62
     7
370
     9
100
AcDbLine
 10
104.7507914367654
 20
98.52516817558655
 30
0.0
 11
104.7507914367654
 21
99.81351261970829
 31
0.0
  0
LINE
  5
26B
330
70
100
AcDbEntity
  8
Ebene 5
 62
     7
370
     9
100
AcDbLine
 10
104.7787314367585
 20
98.52516817558655
 30
0.0
 11
104.7787314367585
 21
100.0257790085445
 31
0.0
  0
LINE
  5
26C
330
70
100
AcDbEntity
  8
Ebene 5
 62
     7
370
     9
100
AcDbLine
 10
104.8066714367515
 20
98.52516817558655
 30
0.0
 11
104.8066714367515
 21
100.238239425158
 31
0.0
  0
LINE
  5
26D
330
70
100
AcDbEntity
  8
Ebene 5
 62
     7
370
     9
100
AcDbLine
 10
104.8344174089666
 20
98.52516817558655
 30
0.0
 11
104.8344174089666
 21
100.4501177584383
 31
0.0
  0
LINE
  5
26E
330
70
100
AcDbEntity
  8
Ebene 5
 62
     7
370
     9
100
AcDbLine
 10
105.0858774089041
 20
98.52516817558655
 30
0.0
 11
105.0858774089041
 21
98.5401083144716
 31
0.0
  0
LINE
  5
26F
330
70
100
AcDbEntity
  8
Ebene 5
 62
     7
370
     9
100
AcDbLine
 10
105.0858774089041
 20
98.52516817558655
 30
0.0
 11
105.0858774089041
 21
98.5401083144716
 31
0.0
  0
LINE
  5
270
330
70
100
AcDbEntity
  8
Ebene 5
 62
     7
370
     9
100
AcDbLine
 10
105.0579374089111
 20
98.52516817558655
 30
0.0
 11
105.0579374089111
 21
98.75237470330716
 31
0.0
  0
LINE
  5
271
330
70
100
AcDbEntity
  8
Ebene 5
 62
     7
370
     9
100
AcDbLine
 10
105.029997408918
 20
98.52516817558655
 30
0.0
 11
105.029997408918
 21
98.96464109214271
 31
0.0
  0
LINE
  5
272
330
70
100
AcDbEntity
  8
Ebene 5
 62
     7
370
     9
100
AcDbLine
 10
105.002057408925
 20
98.52516817558655
 30
0.0
 11
105.002057408925
 21
99.17690748097891
 31
0.0
  0
LINE
  5
273
330
70
100
AcDbEntity
  8
Ebene 5
 62
     7
370
     9
100
AcDbLine
 10
104.9741174089319
 20
98.52516817558655
 30
0.0
 11
104.9741174089319
 21
99.38897984203716
 31
0.0
  0
LINE
  5
274
330
70
100
AcDbEntity
  8
Ebene 5
 62
     7
370
     9
100
AcDbLine
 10
104.9461774089389
 20
98.52516817558655
 30
0.0
 11
104.9461774089389
 21
99.60124623087272
 31
0.0
  0
LINE
  5
275
330
70
100
AcDbEntity
  8
Ebene 5
 62
     7
370
     9
100
AcDbLine
 10
104.9182374089458
 20
98.52516817558655
 30
0.0
 11
104.9182374089458
 21
99.81351261970829
 31
0.0
  0
LINE
  5
276
330
70
100
AcDbEntity
  8
Ebene 5
 62
     7
370
     9
100
AcDbLine
 10
104.8902974089527
 20
98.52516817558655
 30
0.0
 11
104.8902974089527
 21
100.0257790085445
 31
0.0
  0
LINE
  5
277
330
70
100
AcDbEntity
  8
Ebene 5
 62
     7
370
     9
100
AcDbLine
 10
104.8623574089597
 20
98.52516817558655
 30
0.0
 11
104.8623574089597
 21
100.238239425158
 31
0.0
  0
LINE
  5
278
330
70
100
AcDbEntity
  8
Ebene 5
 62
     7
370
     9
100
AcDbLine
 10
104.8344174089666
 20
98.52516817558655
 30
0.0
 11
104.8344174089666
 21
100.4501177584383
 31
0.0
  0
LINE
  5
279
330
70
100
AcDbEntity
  8
Ebene 5
 62
     7
370
     9
100
AcDbLine
 10
109.7379161979547
 20
93.8504569267552
 30
0.0
 11
125.3480364855593
 21
93.8504569267552
 31
0.0
  0
LINE
  5
27A
330
70
100
AcDbEntity
  8
Ebene 5
 62
     7
370
     9
100
AcDbLine
 10
110.7138366214456
 20
100.4501177584383
 30
0.0
 11
110.7138366214456
 21
93.8504569267552
 31
0.0
  0
MTEXT
  5
27B
330
70
100
AcDbEntity
  8
Ebene 5
100
AcDbMText
 10
109.4311003517383
 20
95.02867412310697
 30
0.0
 40
0.2
 41
0.0
 46
0.0
 71
     7
 72
     1
  1
\C7;\FINDEX Univers 45 Light|b0|i0|c1;\H2.497667;\W1.000000;12
 11
0.0000000000000001
 21
1.0
 31
0.0
 73
     1
 44
1.0
  0
LWPOLYLINE
  5
27C
330
70
100
AcDbEntity
  8
Ebene 5
 62
     7
370
     9
100
AcDbPolyline
 90
        4
 70
     0
 43
0.0
 10
110.7138366214456
 20
100.4501177584383
 10
110.4606303715083
 20
98.52516817558655
 10
110.9672368991595
 20
98.52516817558655
 10
110.7138366214456
 20
100.4501177584383
  0
LINE
  5
27D
330
70
100
AcDbEntity
  8
Ebene 5
 62
     7
370
     9
100
AcDbLine
 10
110.4625706492853
 20
98.52516817558655
 30
0.0
 11
110.4625706492853
 21
98.5401083144716
 31
0.0
  0
LINE
  5
27E
330
70
100
AcDbEntity
  8
Ebene 5
 62
     7
370
     9
100
AcDbLine
 10
110.4625706492853
 20
98.52516817558655
 30
0.0
 11
110.4625706492853
 21
98.5401083144716
 31
0.0
  0
LINE
  5
27F
330
70
100
AcDbEntity
  8
Ebene 5
 62
     7
370
     9
100
AcDbLine
 10
110.4905106492784
 20
98.52516817558655
 30
0.0
 11
110.4905106492784
 21
98.75237470330716
 31
0.0
  0
LINE
  5
280
330
70
100
AcDbEntity
  8
Ebene 5
 62
     7
370
     9
100
AcDbLine
 10
110.5184506492715
 20
98.52516817558655
 30
0.0
 11
110.5184506492715
 21
98.96464109214271
 31
0.0
  0
LINE
  5
281
330
70
100
AcDbEntity
  8
Ebene 5
 62
     7
370
     9
100
AcDbLine
 10
110.5463906492645
 20
98.52516817558655
 30
0.0
 11
110.5463906492645
 21
99.17690748097891
 31
0.0
  0
LINE
  5
282
330
70
100
AcDbEntity
  8
Ebene 5
 62
     7
370
     9
100
AcDbLine
 10
110.5743306492576
 20
98.52516817558655
 30
0.0
 11
110.5743306492576
 21
99.38897984203716
 31
0.0
  0
LINE
  5
283
330
70
100
AcDbEntity
  8
Ebene 5
 62
     7
370
     9
100
AcDbLine
 10
110.6022706492507
 20
98.52516817558655
 30
0.0
 11
110.6022706492507
 21
99.60124623087272
 31
0.0
  0
LINE
  5
284
330
70
100
AcDbEntity
  8
Ebene 5
 62
     7
370
     9
100
AcDbLine
 10
110.6302106492437
 20
98.52516817558655
 30
0.0
 11
110.6302106492437
 21
99.81351261970829
 31
0.0
  0
LINE
  5
285
330
70
100
AcDbEntity
  8
Ebene 5
 62
     7
370
     9
100
AcDbLine
 10
110.6579566214588
 20
98.52516817558655
 30
0.0
 11
110.6579566214588
 21
100.0257790085445
 31
0.0
  0
LINE
  5
286
330
70
100
AcDbEntity
  8
Ebene 5
 62
     7
370
     9
100
AcDbLine
 10
110.6858966214525
 20
98.52516817558655
 30
0.0
 11
110.6858966214525
 21
100.238239425158
 31
0.0
  0
LINE
  5
287
330
70
100
AcDbEntity
  8
Ebene 5
 62
     7
370
     9
100
AcDbLine
 10
110.7138366214456
 20
98.52516817558655
 30
0.0
 11
110.7138366214456
 21
100.4501177584383
 31
0.0
  0
LINE
  5
288
330
70
100
AcDbEntity
  8
Ebene 5
 62
     7
370
     9
100
AcDbLine
 10
110.9654906491598
 20
98.52516817558655
 30
0.0
 11
110.9654906491598
 21
98.5401083144716
 31
0.0
  0
LINE
  5
289
330
70
100
AcDbEntity
  8
Ebene 5
 62
     7
370
     9
100
AcDbLine
 10
110.9654906491598
 20
98.52516817558655
 30
0.0
 11
110.9654906491598
 21
98.5401083144716
 31
0.0
  0
LINE
  5
28A
330
70
100
AcDbEntity
  8
Ebene 5
 62
     7
370
     9
100
AcDbLine
 10
110.9373566213888
 20
98.52516817558655
 30
0.0
 11
110.9373566213888
 21
98.75237470330716
 31
0.0
  0
LINE
  5
28B
330
70
100
AcDbEntity
  8
Ebene 5
 62
     7
370
     9
100
AcDbLine
 10
110.9094166213957
 20
98.52516817558655
 30
0.0
 11
110.9094166213957
 21
98.96464109214271
 31
0.0
  0
LINE
  5
28C
330
70
100
AcDbEntity
  8
Ebene 5
 62
     7
370
     9
100
AcDbLine
 10
110.8814766214033
 20
98.52516817558655
 30
0.0
 11
110.8814766214033
 21
99.17690748097891
 31
0.0
  0
LINE
  5
28D
330
70
100
AcDbEntity
  8
Ebene 5
 62
     7
370
     9
100
AcDbLine
 10
110.8535366214102
 20
98.52516817558655
 30
0.0
 11
110.8535366214102
 21
99.38897984203716
 31
0.0
  0
LINE
  5
28E
330
70
100
AcDbEntity
  8
Ebene 5
 62
     7
370
     9
100
AcDbLine
 10
110.8255966214172
 20
98.52516817558655
 30
0.0
 11
110.8255966214172
 21
99.60124623087272
 31
0.0
  0
LINE
  5
28F
330
70
100
AcDbEntity
  8
Ebene 5
 62
     7
370
     9
100
AcDbLine
 10
110.7976566214241
 20
98.52516817558655
 30
0.0
 11
110.7976566214241
 21
99.81351261970829
 31
0.0
  0
LINE
  5
290
330
70
100
AcDbEntity
  8
Ebene 5
 62
     7
370
     9
100
AcDbLine
 10
110.7697166214311
 20
98.52516817558655
 30
0.0
 11
110.7697166214311
 21
100.0257790085445
 31
0.0
  0
LINE
  5
291
330
70
100
AcDbEntity
  8
Ebene 5
 62
     7
370
     9
100
AcDbLine
 10
110.7417766214386
 20
98.52516817558655
 30
0.0
 11
110.7417766214386
 21
100.238239425158
 31
0.0
  0
LINE
  5
292
330
70
100
AcDbEntity
  8
Ebene 5
 62
     7
370
     9
100
AcDbLine
 10
110.7138366214456
 20
98.52516817558655
 30
0.0
 11
110.7138366214456
 21
100.4501177584383
 31
0.0
  0
LWPOLYLINE
  5
293
330
70
100
AcDbEntity
  8
Ebene 5
 62
     7
370
     9
100
AcDbPolyline
 90
        4
 70
     0
 43
0.0
 10
110.7138366214456
 20
93.8504569267552
 10
110.9672368991595
 20
95.77521248182897
 10
110.4606303715083
 20
95.77521248182897
 10
110.7138366214456
 20
93.8504569267552
  0
LINE
  5
294
330
70
100
AcDbEntity
  8
Ebene 5
 62
     7
370
     9
100
AcDbLine
 10
110.9654906491598
 20
95.77521248182897
 30
0.0
 11
110.9654906491598
 21
95.76027234294391
 31
0.0
  0
LINE
  5
295
330
70
100
AcDbEntity
  8
Ebene 5
 62
     7
370
     9
100
AcDbLine
 10
110.9654906491598
 20
95.77521248182897
 30
0.0
 11
110.9654906491598
 21
95.76027234294391
 31
0.0
  0
LINE
  5
296
330
70
100
AcDbEntity
  8
Ebene 5
 62
     7
370
     9
100
AcDbLine
 10
110.9373566213888
 20
95.77521248182897
 30
0.0
 11
110.9373566213888
 21
95.54819998188632
 31
0.0
  0
LINE
  5
297
330
70
100
AcDbEntity
  8
Ebene 5
 62
     7
370
     9
100
AcDbLine
 10
110.9094166213957
 20
95.77521248182897
 30
0.0
 11
110.9094166213957
 21
95.33593359305012
 31
0.0
  0
LINE
  5
298
330
70
100
AcDbEntity
  8
Ebene 5
 62
     7
370
     9
100
AcDbLine
 10
110.8814766214033
 20
95.77521248182897
 30
0.0
 11
110.8814766214033
 21
95.12366720421391
 31
0.0
  0
LINE
  5
299
330
70
100
AcDbEntity
  8
Ebene 5
 62
     7
370
     9
100
AcDbLine
 10
110.8535366214102
 20
95.77521248182897
 30
0.0
 11
110.8535366214102
 21
94.91140081537835
 31
0.0
  0
LINE
  5
29A
330
70
100
AcDbEntity
  8
Ebene 5
 62
     7
370
     9
100
AcDbLine
 10
110.8255966214172
 20
95.77521248182897
 30
0.0
 11
110.8255966214172
 21
94.69932845432076
 31
0.0
  0
LINE
  5
29B
330
70
100
AcDbEntity
  8
Ebene 5
 62
     7
370
     9
100
AcDbLine
 10
110.7976566214241
 20
95.77521248182897
 30
0.0
 11
110.7976566214241
 21
94.48706206548456
 31
0.0
  0
LINE
  5
29C
330
70
100
AcDbEntity
  8
Ebene 5
 62
     7
370
     9
100
AcDbLine
 10
110.7697166214311
 20
95.77521248182897
 30
0.0
 11
110.7697166214311
 21
94.27479567664837
 31
0.0
  0
LINE
  5
29D
330
70
100
AcDbEntity
  8
Ebene 5
 62
     7
370
     9
100
AcDbLine
 10
110.7417766214386
 20
95.77521248182897
 30
0.0
 11
110.7417766214386
 21
94.06252928781281
 31
0.0
  0
LINE
  5
29E
330
70
100
AcDbEntity
  8
Ebene 5
 62
     7
370
     9
100
AcDbLine
 10
110.7138366214456
 20
95.77521248182897
 30
0.0
 11
110.7138366214456
 21
93.8504569267552
 31
0.0
  0
LINE
  5
29F
330
70
100
AcDbEntity
  8
Ebene 5
 62
     7
370
     9
100
AcDbLine
 10
110.4625706492853
 20
95.77521248182897
 30
0.0
 11
110.4625706492853
 21
95.76027234294391
 31
0.0
  0
LINE
  5
2A0
330
70
100
AcDbEntity
  8
Ebene 5
 62
     7
370
     9
100
AcDbLine
 10
110.4625706492853
 20
95.77521248182897
 30
0.0
 11
110.4625706492853
 21
95.76027234294391
 31
0.0
  0
LINE
  5
2A1
330
70
100
AcDbEntity
  8
Ebene 5
 62
     7
370
     9
100
AcDbLine
 10
110.4905106492784
 20
95.77521248182897
 30
0.0
 11
110.4905106492784
 21
95.54819998188632
 31
0.0
  0
LINE
  5
2A2
330
70
100
AcDbEntity
  8
Ebene 5
 62
     7
370
     9
100
AcDbLine
 10
110.5184506492715
 20
95.77521248182897
 30
0.0
 11
110.5184506492715
 21
95.33593359305012
 31
0.0
  0
LINE
  5
2A3
330
70
100
AcDbEntity
  8
Ebene 5
 62
     7
370
     9
100
AcDbLine
 10
110.5463906492645
 20
95.77521248182897
 30
0.0
 11
110.5463906492645
 21
95.12366720421391
 31
0.0
  0
LINE
  5
2A4
330
70
100
AcDbEntity
  8
Ebene 5
 62
     7
370
     9
100
AcDbLine
 10
110.5743306492576
 20
95.77521248182897
 30
0.0
 11
110.5743306492576
 21
94.91140081537835
 31
0.0
  0
LINE
  5
2A5
330
70
100
AcDbEntity
  8
Ebene 5
 62
     7
370
     9
100
AcDbLine
 10
110.6022706492507
 20
95.77521248182897
 30
0.0
 11
110.6022706492507
 21
94.69932845432076
 31
0.0
  0
LINE
  5
2A6
330
70
100
AcDbEntity
  8
Ebene 5
 62
     7
370
     9
100
AcDbLine
 10
110.6302106492437
 20
95.77521248182897
 30
0.0
 11
110.6302106492437
 21
94.48706206548456
 31
0.0
  0
LINE
  5
2A7
330
70
100
AcDbEntity
  8
Ebene 5
 62
     7
370
     9
100
AcDbLine
 10
110.6579566214588
 20
95.77521248182897
 30
0.0
 11
110.6579566214588
 21
94.27479567664837
 31
0.0
  0
LINE
  5
2A8
330
70
100
AcDbEntity
  8
Ebene 5
 62
     7
370
     9
100
AcDbLine
 10
110.6858966214525
 20
95.77521248182897
 30
0.0
 11
110.6858966214525
 21
94.06252928781281
 31
0.0
  0
LINE
  5
2A9
330
70
100
AcDbEntity
  8
Ebene 5
 62
     7
370
     9
100
AcDbLine
 10
110.7138366214456
 20
95.77521248182897
 30
0.0
 11
110.7138366214456
 21
93.8504569267552
 31
0.0
  0
ENDSEC
  0
SECTION
  2
OBJECTS
  0
DICTIONARY
  5
C
330
0
100
AcDbDictionary
281
     1
  3
ACAD_COLOR
350
63
  3
ACAD_DETAILVIEWSTYLE
350
6A
  3
ACAD_GROUP
350
D
  3
ACAD_LAYOUT
350
62
  3
ACAD_MATERIAL
350
10
  3
ACAD_MLEADERSTYLE
350
66
  3
ACAD_MLINESTYLE
350
5F
  3
ACAD_PLOTSETTINGS
350
61
  3
ACAD_PLOTSTYLENAME
350
E
  3
ACAD_SCALELIST
350
42
  3
ACAD_SECTIONVIEWSTYLE
350
68
  3
ACAD_TABLESTYLE
350
64
  3
ACAD_VISUALSTYLE
350
29
  3
ACDB_RECOMPOSE_DATA
350
2B2
  3
AcDbVariableDictionary
350
2AA
  0
DICTIONARY
  5
63
102
{ACAD_REACTORS
330
C
102
}
330
C
100
AcDbDictionary
281
     1
  0
DICTIONARY
  5
6A
102
{ACAD_REACTORS
330
C
102
}
330
C
100
AcDbDictionary
281
     1
  3
Imperial24
350
6B
  0
DICTIONARY
  5
D
102
{ACAD_REACTORS
330
C
102
}
330
C
100
AcDbDictionary
281
     1
  0
DICTIONARY
  5
62
102
{ACAD_REACTORS
330
C
102
}
330
C
100
AcDbDictionary
281
     1
  3
Layout1
350
6F
  3
Layout2
350
77
  3
Model
350
73
  0
DICTIONARY
  5
10
102
{ACAD_REACTORS
330
C
102
}
330
C
100
AcDbDictionary
281
     1
  3
ByBlock
350
19
  3
ByLayer
350
11
  3
Global
350
21
  0
DICTIONARY
  5
66
102
{ACAD_REACTORS
330
C
102
}
330
C
100
AcDbDictionary
281
     1
  3
Standard
350
67
  0
DICTIONARY
  5
5F
102
{ACAD_REACTORS
330
C
102
}
330
C
100
AcDbDictionary
281
     1
  3
Standard
350
60
  0
DICTIONARY
  5
61
102
{ACAD_REACTORS
330
C
102
}
330
C
100
AcDbDictionary
281
     1
  0
ACDBDICTIONARYWDFLT
  5
E
102
{ACAD_REACTORS
330
C
102
}
330
C
100
AcDbDictionary
281
     1
  3
Normal
350
F
100
AcDbDictionaryWithDefault
340
F
  0
DICTIONARY
  5
42
102
{ACAD_REACTORS
330
C
102
}
330
C
100
AcDbDictionary
281
     1
  3
A0
350
43
  3
A1
350
44
  3
A2
350
45
  3
A3
350
46
  3
A4
350
47
  3
A5
350
48
  3
A6
350
49
  3
A7
350
4A
  3
A8
350
4B
  3
A9
350
4C
  3
B0
350
4D
  3
B1
350
4E
  3
B2
350
4F
  3
B3
350
50
  3
B4
350
51
  3
B5
350
52
  3
B6
350
53
  0
DICTIONARY
  5
68
102
{ACAD_REACTORS
330
C
102
}
330
C
100
AcDbDictionary
281
     1
  3
Imperial24
350
69
  0
DICTIONARY
  5
64
102
{ACAD_REACTORS
330
C
102
}
330
C
100
AcDbDictionary
281
     1
  3
Standard
350
65
  0
DICTIONARY
  5
29
102
{ACAD_REACTORS
330
C
102
}
330
C
100
AcDbDictionary
281
     1
  3
2dWireframe
350
2F
  3
Basic
350
2E
  3
Brighten
350
35
  3
ColorChange
350
39
  3
Conceptual
350
32
  3
Dim
350
34
  3
EdgeColorOff
350
41
  3
Facepattern
350
38
  3
Flat
350
2A
  3
FlatWithEdges
350
2B
  3
Gouraud
350
2C
  3
GouraudWithEdges
350
2D
  3
Hidden
350
31
  3
JitterOff
350
3F
  3
Linepattern
350
37
  3
OverhangOff
350
40
  3
Realistic
350
33
  3
Shaded
350
3E
  3
Shaded with edges
350
3D
  3
Shades of Gray
350
3A
  3
Sketchy
350
3B
  3
Thicken
350
36
  3
Wireframe
350
30
  3
X-Ray
350
3C
  0
XRECORD
  5
2B2
102
{ACAD_REACTORS
330
C
102
}
330
C
100
AcDbXrecord
280
     1
 90
        1
330
65
  0
DICTIONARY
  5
2AA
102
{ACAD_REACTORS
330
C
102
}
330
C
100
AcDbDictionary
281
     1
  3
CANNOSCALE
350
2AF
  3
CMLEADERSTYLE
350
2AC
  3
CTABLESTYLE
350
2AB
  3
CVIEWDETAILSTYLE
350
2AD
  3
CVIEWSECTIONSTYLE
350
2AE
  0
ACDBDETAILVIEWSTYLE
  5
6B
102
{ACAD_REACTORS
330
6A
102
}
330
6A
100
AcDbModelDocViewStyle
 70
     0
  3
Imperial24
290
     1
300
Imperial24
 90
        0
100
AcDbDetailViewStyle
 70
     0
 71
     0
 90
        3
 71
     1
340
55
 62
   256
 40
0.24
340
0
 62
   256
 40
0.24
300

 40
0.36
280
     3
 71
     2
340
5D
 90
       25
 62
   256
 71
     3
340
55
 62
   256
 40
0.24
 90
        1
 40
0.75
 90
        1
300
%<\AcVar ViewType \f "%tc1">% %<\AcVar ViewDetailId>%\PSCALE %<\AcVar ViewScale \f "%sn">%
 71
     4
340
5D
 90
       25
 62
   256
340
5D
 90
       25
 62
   256
280
     0
  0
LAYOUT
  5
6F
102
{ACAD_REACTORS
330
62
102
}
330
62
100
AcDbPlotSettings
  1

  2

  4

  6

 40
0.0
 41
0.0
 42
0.0
 43
0.0
 44
0.0
 45
0.0
 46
0.0
 47
0.0
 48
0.0
 49
0.0
140
0.0
141
0.0
142
1.0
143
1.0
 70
   688
 72
     0
 73
     0
 74
     5
  7

 75
    16
147
1.0
 76
     0
 77
     2
 78
   300
148
0.0
149
0.0
100
AcDbLayout
  1
Layout1
 70
     1
 71
     1
 10
0.0
 20
0.0
 11
12.0
 21
9.0
 12
0.0
 22
0.0
 32
0.0
 14
0.0
 24
0.0
 34
0.0
 15
0.0
 25
0.0
 35
0.0
146
0.0
 13
0.0
 23
0.0
 33
0.0
 16
1.0
 26
0.0
 36
0.0
 17
0.0
 27
1.0
 37
0.0
 76
     0
330
6C
  0
LAYOUT
  5
77
102
{ACAD_REACTORS
330
62
102
}
330
62
100
AcDbPlotSettings
  1

  2

  4

  6

 40
0.0
 41
0.0
 42
0.0
 43
0.0
 44
0.0
 45
0.0
 46
0.0
 47
0.0
 48
0.0
 49
0.0
140
0.0
141
0.0
142
1.0
143
1.0
 70
   688
 72
     0
 73
     0
 74
     5
  7

 75
    16
147
1.0
 76
     0
 77
     2
 78
   300
148
0.0
149
0.0
100
AcDbLayout
  1
Layout2
 70
     1
 71
     2
 10
0.0
 20
0.0
 11
12.0
 21
9.0
 12
0.0
 22
0.0
 32
0.0
 14
0.0
 24
0.0
 34
0.0
 15
0.0
 25
0.0
 35
0.0
146
0.0
 13
0.0
 23
0.0
 33
0.0
 16
1.0
 26
0.0
 36
0.0
 17
0.0
 27
1.0
 37
0.0
 76
     0
330
74
  0
LAYOUT
  5
73
102
{ACAD_REACTORS
330
62
102
}
330
62
100
AcDbPlotSettings
  1

  2

  4

  6

 40
0.0
 41
0.0
 42
0.0
 43
0.0
 44
0.0
 45
0.0
 46
0.0
 47
0.0
 48
0.0
 49
0.0
140
0.0
141
0.0
142
1.0
143
1.0
 70
  1712
 72
     0
 73
     0
 74
     0
  7

 75
     0
147
1.0
 76
     0
 77
     2
 78
   300
148
0.0
149
0.0
100
AcDbLayout
  1
Model
 70
     1
 71
     0
 10
0.0
 20
0.0
 11
12.0
 21
9.0
 12
0.0
 22
0.0
 32
0.0
 14
0.0
 24
0.0
 34
0.0
 15
0.0
 25
0.0
 35
0.0
146
0.0
 13
0.0
 23
0.0
 33
0.0
 16
1.0
 26
0.0
 36
0.0
 17
0.0
 27
1.0
 37
0.0
 76
     0
330
70
  0
MATERIAL
  5
19
102
{ACAD_XDICTIONARY
360
1A
102
}
102
{ACAD_REACTORS
330
10
102
}
330
10
100
AcDbMaterial
  1
ByBlock
 72
     0
 43
0.0208333333333333
 43
0.0
 43
0.0
 43
0.0
 43
0.0
 43
0.0208333333333333
 43
0.0
 43
0.0
 43
0.0
 43
0.0
 43
1.0
 43
0.0
 43
0.0
 43
0.0
 43
0.0
 43
1.0
 77
     0
 47
0.0208333333333333
 47
0.0
 47
0.0
 47
0.0
 47
0.0
 47
0.0208333333333333
 47
0.0
 47
0.0
 47
0.0
 47
0.0
 47
1.0
 47
0.0
 47
0.0
 47
0.0
 47
0.0
 47
1.0
171
     0
 49
0.0208333333333333
 49
0.0
 49
0.0
 49
0.0
 49
0.0
 49
0.0208333333333333
 49
0.0
 49
0.0
 49
0.0
 49
0.0
 49
1.0
 49
0.0
 49
0.0
 49
0.0
 49
0.0
 49
1.0
175
     0
142
0.0208333333333333
142
0.0
142
0.0
142
0.0
142
0.0
142
0.0208333333333333
142
0.0
142
0.0
142
0.0
142
0.0
142
1.0
142
0.0
142
0.0
142
0.0
142
0.0
142
1.0
179
     0
144
0.0208333333333333
144
0.0
144
0.0
144
0.0
144
0.0
144
0.0208333333333333
144
0.0
144
0.0
144
0.0
144
0.0
144
1.0
144
0.0
144
0.0
144
0.0
144
0.0
144
1.0
147
0.0208333333333333
147
0.0
147
0.0
147
0.0
147
0.0
147
0.0208333333333333
147
0.0
147
0.0
147
0.0
147
0.0
147
1.0
147
0.0
147
0.0
147
0.0
147
0.0
147
1.0
  0
MATERIAL
  5
11
102
{ACAD_XDICTIONARY
360
12
102
}
102
{ACAD_REACTORS
330
10
102
}
330
10
100
AcDbMaterial
  1
ByLayer
 72
     0
 43
0.0208333333333333
 43
0.0
 43
0.0
 43
0.0
 43
0.0
 43
0.0208333333333333
 43
0.0
 43
0.0
 43
0.0
 43
0.0
 43
1.0
 43
0.0
 43
0.0
 43
0.0
 43
0.0
 43
1.0
 77
     0
 47
0.0208333333333333
 47
0.0
 47
0.0
 47
0.0
 47
0.0
 47
0.0208333333333333
 47
0.0
 47
0.0
 47
0.0
 47
0.0
 47
1.0
 47
0.0
 47
0.0
 47
0.0
 47
0.0
 47
1.0
171
     0
 49
0.0208333333333333
 49
0.0
 49
0.0
 49
0.0
 49
0.0
 49
0.0208333333333333
 49
0.0
 49
0.0
 49
0.0
 49
0.0
 49
1.0
 49
0.0
 49
0.0
 49
0.0
 49
0.0
 49
1.0
175
     0
142
0.0208333333333333
142
0.0
142
0.0
142
0.0
142
0.0
142
0.0208333333333333
142
0.0
142
0.0
142
0.0
142
0.0
142
1.0
142
0.0
142
0.0
142
0.0
142
0.0
142
1.0
179
     0
144
0.0208333333333333
144
0.0
144
0.0
144
0.0
144
0.0
144
0.0208333333333333
144
0.0
144
0.0
144
0.0
144
0.0
144
1.0
144
0.0
144
0.0
144
0.0
144
0.0
144
1.0
147
0.0208333333333333
147
0.0
147
0.0
147
0.0
147
0.0
147
0.0208333333333333
147
0.0
147
0.0
147
0.0
147
0.0
147
1.0
147
0.0
147
0.0
147
0.0
147
0.0
147
1.0
  0
MATERIAL
  5
21
102
{ACAD_XDICTIONARY
360
22
102
}
102
{ACAD_REACTORS
330
10
102
}
330
10
100
AcDbMaterial
  1
Global
 72
     0
 43
0.0208333333333333
 43
0.0
 43
0.0
 43
0.0
 43
0.0
 43
0.0208333333333333
 43
0.0
 43
0.0
 43
0.0
 43
0.0
 43
1.0
 43
0.0
 43
0.0
 43
0.0
 43
0.0
 43
1.0
 77
     0
 47
0.0208333333333333
 47
0.0
 47
0.0
 47
0.0
 47
0.0
 47
0.0208333333333333
 47
0.0
 47
0.0
 47
0.0
 47
0.0
 47
1.0
 47
0.0
 47
0.0
 47
0.0
 47
0.0
 47
1.0
171
     0
 49
0.0208333333333333
 49
0.0
 49
0.0
 49
0.0
 49
0.0
 49
0.0208333333333333
 49
0.0
 49
0.0
 49
0.0
 49
0.0
 49
1.0
 49
0.0
 49
0.0
 49
0.0
 49
0.0
 49
1.0
175
     0
142
0.0208333333333333
142
0.0
142
0.0
142
0.0
142
0.0
142
0.0208333333333333
142
0.0
142
0.0
142
0.0
142
0.0
142
1.0
142
0.0
142
0.0
142
0.0
142
0.0
142
1.0
179
     0
144
0.0208333333333333
144
0.0
144
0.0
144
0.0
144
0.0
144
0.0208333333333333
144
0.0
144
0.0
144
0.0
144
0.0
144
1.0
144
0.0
144
0.0
144
0.0
144
0.0
144
1.0
147
0.0208333333333333
147
0.0
147
0.0
147
0.0
147
0.0
147
0.0208333333333333
147
0.0
147
0.0
147
0.0
147
0.0
147
1.0
147
0.0
147
0.0
147
0.0
147
0.0
147
1.0
  0
MLEADERSTYLE
  5
67
102
{ACAD_REACTORS
330
66
102
}
330
66
100
AcDbMLeaderStyle
179
     2
170
     2
171
     1
172
     0
 90
        2
 40
0.0
 41
0.0
173
     1
 91
-1056964608
340
5B
 92
       -2
290
     1
 42
0.09
291
     1
 43
0.36
  3
Standard
 44
0.18
300

342
55
174
     1
178
     6
175
     1
176
     0
 93
-1056964608
 45
0.18
292
     0
297
     0
 46
0.18
 94
-1056964608
 47
1.0
 49
1.0
140
1.0
293
     1
141
0.0
294
     1
177
     0
142
1.0
295
     1
296
     0
143
0.125
271
     0
272
     9
273
     9
298
     1
  0
MLINESTYLE
  5
60
102
{ACAD_REACTORS
330
5F
102
}
330
5F
100
AcDbMlineStyle
  2
STANDARD
 70
     0
  3

 62
   256
 51
90.0
 52
90.0
 71
     2
 49
0.5
 62
   256
  6
BYLAYER
 49
-0.5
 62
   256
  6
BYLAYER
  0
ACDBPLACEHOLDER
  5
F
102
{ACAD_REACTORS
330
E
102
}
330
E
  0
SCALE
  5
43
102
{ACAD_REACTORS
330
42
102
}
330
42
100
AcDbScale
 70
     0
300
1:1
140
1.0
141
1.0
290
     1
  0
SCALE
  5
44
102
{ACAD_REACTORS
330
42
102
}
330
42
100
AcDbScale
 70
     0
300
1/128" = 1'-0"
140
0.0078125
141
12.0
290
     0
  0
SCALE
  5
45
102
{ACAD_REACTORS
330
42
102
}
330
42
100
AcDbScale
 70
     0
300
1/64" = 1'-0"
140
0.015625
141
12.0
290
     0
  0
SCALE
  5
46
102
{ACAD_REACTORS
330
42
102
}
330
42
100
AcDbScale
 70
     0
300
1/32" = 1'-0"
140
0.03125
141
12.0
290
     0
  0
SCALE
  5
47
102
{ACAD_REACTORS
330
42
102
}
330
42
100
AcDbScale
 70
     0
300
1/16" = 1'-0"
140
0.0625
141
12.0
290
     0
  0
SCALE
  5
48
102
{ACAD_REACTORS
330
42
102
}
330
42
100
AcDbScale
 70
     0
300
3/32" = 1'-0"
140
0.09375
141
12.0
290
     0
  0
SCALE
  5
49
102
{ACAD_REACTORS
330
42
102
}
330
42
100
AcDbScale
 70
     0
300
1/8" = 1'-0"
140
0.125
141
12.0
290
     0
  0
SCALE
  5
4A
102
{ACAD_REACTORS
330
42
102
}
330
42
100
AcDbScale
 70
     0
300
3/16" = 1'-0"
140
0.1875
141
12.0
290
     0
  0
SCALE
  5
4B
102
{ACAD_REACTORS
330
42
102
}
330
42
100
AcDbScale
 70
     0
300
1/4" = 1'-0"
140
0.25
141
12.0
290
     0
  0
SCALE
  5
4C
102
{ACAD_REACTORS
330
42
102
}
330
42
100
AcDbScale
 70
     0
300
3/8" = 1'-0"
140
0.375
141
12.0
290
     0
  0
SCALE
  5
4D
102
{ACAD_REACTORS
330
42
102
}
330
42
100
AcDbScale
 70
     0
300
1/2" = 1'-0"
140
0.5
141
12.0
290
     0
  0
SCALE
  5
4E
102
{ACAD_REACTORS
330
42
102
}
330
42
100
AcDbScale
 70
     0
300
3/4" = 1'-0"
140
0.75
141
12.0
290
     0
  0
SCALE
  5
4F
102
{ACAD_REACTORS
330
42
102
}
330
42
100
AcDbScale
 70
     0
300
1" = 1'-0"
140
1.0
141
12.0
290
     0
  0
SCALE
  5
50
102
{ACAD_REACTORS
330
42
102
}
330
42
100
AcDbScale
 70
     0
300
1-1/2" = 1'-0"
140
1.5
141
12.0
290
     0
  0
SCALE
  5
51
102
{ACAD_REACTORS
330
42
102
}
330
42
100
AcDbScale
 70
     0
300
3" = 1'-0"
140
3.0
141
12.0
290
     0
  0
SCALE
  5
52
102
{ACAD_REACTORS
330
42
102
}
330
42
100
AcDbScale
 70
     0
300
6" = 1'-0"
140
6.0
141
12.0
290
     0
  0
SCALE
  5
53
102
{ACAD_REACTORS
330
42
102
}
330
42
100
AcDbScale
 70
     0
300
1'-0" = 1'-0"
140
12.0
141
12.0
290
     0
  0
ACDBSECTIONVIEWSTYLE
  5
69
102
{ACAD_REACTORS
330
68
102
}
330
68
100
AcDbModelDocViewStyle
 70
     0
  3
Imperial24
290
     1
300
Imperial24
 90
        0
100
AcDbSectionViewStyle
 70
     0
 71
     0
 90
       78
 71
     1
340
55
 62
   256
 40
0.24
340
0
340
0
 62
   256
 40
0.24
300
I, O, Q, S, X, Z
 40
0.48
 90
        3
 40
0.18
 90
        1
 71
     2
340
5D
 90
       25
 62
   256
340
5D
 90
       50
 62
   256
 40
0.24
 40
0.0
 40
0.24
 71
     3
340
55
 62
   256
 40
0.24
 90
        1
 40
0.75
 90
        1
300
%<\AcVar ViewType \f "%tc1">% %<\AcVar ViewSectionStartId>%-%<\AcVar ViewSectionEndId>%\PSCALE %<\AcVar ViewScale \f "%sn">%
 71
     4
 62
   256
 62
   257
300
ANSI31
 40
1.0
 90
        0
290
     0
290
     0
 90
        6
 40
0.0
 40
1.570796326794896
 40
0.2617993877991494
 40
1.308996938995747
 40
-0.2617993877991494
 40
1.832595714594046
  0
TABLESTYLE
  5
65
102
{ACAD_XDICTIONARY
360
2B0
102
}
102
{ACAD_REACTORS
330
64
102
}
330
64
100
AcDbTableStyle
280
     0
  3
Standard
 70
     0
 71
     0
 40
0.06
 41
0.06
280
     0
281
     0
  7
Standard
140
0.18
170
     2
 62
     0
 63
     7
283
     0
 90
      512
 91
        0
  1

274
    -2
284
     1
 64
     0
275
    -2
285
     1
 65
     0
276
    -2
286
     1
 66
     0
277
    -2
287
     1
 67
     0
278
    -2
288
     1
 68
     0
279
    -2
289
     1
 69
     0
  7
Standard
140
0.25
170
     5
 62
     0
 63
     7
283
     0
 90
      512
 91
        0
  1

274
    -2
284
     1
 64
     0
275
    -2
285
     1
 65
     0
276
    -2
286
     1
 66
     0
277
    -2
287
     1
 67
     0
278
    -2
288
     1
 68
     0
279
    -2
289
     1
 69
     0
  7
Standard
140
0.18
170
     5
 62
     0
 63
     7
283
     0
 90
      512
 91
        0
  1

274
    -2
284
     1
 64
     0
275
    -2
285
     1
 65
     0
276
    -2
286
     1
 66
     0
277
    -2
287
     1
 67
     0
278
    -2
288
     1
 68
     0
279
    -2
289
     1
 69
     0
  0
VISUALSTYLE
  5
2F
102
{ACAD_REACTORS
330
29
102
}
330
29
100
AcDbVisualStyle
  2
2dWireframe
 70
     4
177
     3
291
     0
 70
    58
 90
        0
176
     1
 90
        2
176
     1
 90
        0
176
     1
 90
        0
176
     1
 40
0.6
176
     1
 40
30.0
176
     1
 62
     7
420
 16777215
176
     1
 90
        1
176
     1
 90
        4
176
     1
 62
     7
176
     1
 62
   257
176
     1
 90
        1
176
     1
 90
        1
176
     1
 40
1.0
176
     1
 90
        0
176
     1
 62
   257
176
     1
 40
1.0
176
     1
 90
        1
176
     1
 90
        6
176
     1
 90
        2
176
     1
 62
     7
176
     1
 90
        5
176
     1
 90
        0
176
     1
 90
        0
176
     1
290
     0
176
     1
 90
        1
176
     1
 40
0.0
176
     1
 90
        0
176
     1
290
     1
176
     1
290
     1
176
     1
290
     0
176
     1
290
     0
176
     1
290
     0
176
     1
290
     0
176
     1
290
     0
176
     1
290
     0
176
     1
290
     0
176
     1
 90
       50
176
     1
 40
0.0
176
     1
 40
1.0
176
     1
 90
        0
176
     1
 62
    18
420
        0
176
     1
 90
       50
176
     1
 90
        3
176
     1
 62
     5
420
      255
176
     1
290
     0
176
     1
 90
       50
176
     1
 90
       50
176
     1
 90
       50
176
     1
290
     0
176
     1
 90
       50
176
     1
 62
   256
176
     0
 40
1.0
176
     0
 90
        2
176
     1
  1
strokes_ogs.tif
176
     1
290
     0
176
     1
 40
1.0
176
     1
 40
1.0
176
     1
  0
VISUALSTYLE
  5
2E
102
{ACAD_REACTORS
330
29
102
}
330
29
100
AcDbVisualStyle
  2
Basic
 70
     7
177
     3
291
     1
 70
    58
 90
        1
176
     1
 90
        0
176
     1
 90
        1
176
     1
 90
        0
176
     1
 40
0.6
176
     1
 40
30.0
176
     1
 62
     7
420
 16777215
176
     1
 90
        0
176
     1
 90
        4
176
     1
 62
     7
176
     1
 62
   257
176
     1
 90
        1
176
     1
 90
        1
176
     1
 40
1.0
176
     1
 90
        8
176
     1
 62
     7
176
     1
 40
1.0
176
     1
 90
        1
176
     1
 90
        6
176
     1
 90
        2
176
     1
 62
     7
176
     1
 90
        5
176
     1
 90
        0
176
     1
 90
        0
176
     1
290
     0
176
     1
 90
        1
176
     1
 40
0.0
176
     1
 90
        0
176
     1
290
     0
176
     1
290
     1
176
     1
290
     1
176
     1
290
     0
176
     1
290
     0
176
     1
290
     0
176
     1
290
     0
176
     1
290
     0
176
     1
290
     0
176
     1
 90
       50
176
     1
 40
0.0
176
     1
 40
1.0
176
     1
 90
        0
176
     1
 62
    18
420
        0
176
     1
 90
       50
176
     1
 90
        3
176
     1
 62
     5
420
      255
176
     1
290
     0
176
     1
 90
       50
176
     1
 90
       50
176
     1
 90
       50
176
     1
290
     0
176
     1
 90
       50
176
     1
 62
   256
176
     0
 40
1.0
176
     0
 90
        2
176
     1
  1
strokes_ogs.tif
176
     1
290
     0
176
     1
 40
1.0
176
     1
 40
1.0
176
     1
  0
VISUALSTYLE
  5
35
102
{ACAD_REACTORS
330
29
102
}
330
29
100
AcDbVisualStyle
  2
Brighten
 70
    12
177
     3
291
     1
 70
    58
 90
        2
176
     1
 90
        2
176
     1
 90
        0
176
     1
 90
        0
176
     1
 40
0.6
176
     1
 40
30.0
176
     1
 62
     7
420
 16777215
176
     1
 90
        1
176
     1
 90
        4
176
     1
 62
     7
176
     1
 62
   257
176
     1
 90
        1
176
     1
 90
        1
176
     1
 40
1.0
176
     1
 90
        8
176
     1
 62
     7
176
     1
 40
1.0
176
     1
 90
        1
176
     1
 90
        6
176
     1
 90
        2
176
     1
 62
     7
176
     1
 90
        5
176
     1
 90
        0
176
     1
 90
        0
176
     1
290
     0
176
     1
 90
        1
176
     1
 40
50.0
176
     1
 90
        0
176
     1
290
     0
176
     1
290
     1
176
     1
290
     1
176
     1
290
     0
176
     1
290
     0
176
     1
290
     0
176
     1
290
     0
176
     1
290
     0
176
     1
290
     0
176
     1
 90
       50
176
     1
 40
0.0
176
     1
 40
1.0
176
     1
 90
        0
176
     1
 62
    18
420
        0
176
     1
 90
       50
176
     1
 90
        3
176
     1
 62
     5
420
      255
176
     1
290
     0
176
     1
 90
       50
176
     1
 90
       50
176
     1
 90
       50
176
     1
290
     0
176
     1
 90
       50
176
     1
 62
   256
176
     0
 40
1.0
176
     0
 90
        2
176
     1
  1
strokes_ogs.tif
176
     1
290
     0
176
     1
 40
1.0
176
     1
 40
1.0
176
     1
  0
VISUALSTYLE
  5
39
102
{ACAD_REACTORS
330
29
102
}
330
29
100
AcDbVisualStyle
  2
ColorChange
 70
    16
177
     3
291
     1
 70
    58
 90
        2
176
     1
 90
        2
176
     1
 90
        3
176
     1
 90
        0
176
     1
 40
0.6
176
     1
 40
30.0
176
     1
 62
     8
420
  8421504
176
     1
 90
        1
176
     1
 90
        4
176
     1
 62
     7
176
     1
 62
   257
176
     1
 90
        1
176
     1
 90
        1
176
     1
 40
1.0
176
     1
 90
        8
176
     1
 62
     8
420
  8421504
176
     1
 40
1.0
176
     1
 90
        1
176
     1
 90
        6
176
     1
 90
        2
176
     1
 62
     7
176
     1
 90
        5
176
     1
 90
        0
176
     1
 90
        0
176
     1
290
     0
176
     1
 90
        1
176
     1
 40
0.0
176
     1
 90
        0
176
     1
290
     0
176
     1
290
     1
176
     1
290
     1
176
     1
290
     0
176
     1
290
     0
176
     1
290
     0
176
     1
290
     0
176
     1
290
     0
176
     1
290
     0
176
     1
 90
       50
176
     1
 40
0.0
176
     1
 40
1.0
176
     1
 90
        0
176
     1
 62
    18
420
        0
176
     1
 90
       50
176
     1
 90
        3
176
     1
 62
     5
420
      255
176
     1
290
     0
176
     1
 90
       50
176
     1
 90
       50
176
     1
 90
       50
176
     1
290
     0
176
     1
 90
       50
176
     1
 62
   256
176
     0
 40
1.0
176
     0
 90
        2
176
     1
  1
strokes_ogs.tif
176
     1
290
     0
176
     1
 40
1.0
176
     1
 40
1.0
176
     1
  0
VISUALSTYLE
  5
32
102
{ACAD_REACTORS
330
29
102
}
330
29
100
AcDbVisualStyle
  2
Conceptual
 70
     9
177
     3
291
     0
 70
    58
 90
        3
176
     1
 90
        2
176
     1
 90
        0
176
     1
 90
        0
176
     1
 40
0.6
176
     1
 40
30.0
176
     1
 62
     7
420
 16777215
176
     1
 90
        2
176
     1
 90
        2
176
     1
 62
     7
176
     1
 62
   257
176
     1
 90
        1
176
     1
 90
        1
176
     1
 40
179.0
176
     1
 90
        8
176
     1
 62
     7
176
     1
 40
1.0
176
     1
 90
        1
176
     1
 90
        6
176
     1
 90
        2
176
     1
 62
     7
176
     1
 90
        3
176
     1
 90
        0
176
     1
 90
        0
176
     1
290
     0
176
     1
 90
        1
176
     1
 40
0.0
176
     1
 90
        0
176
     1
290
     0
176
     1
290
     1
176
     1
290
     1
176
     1
290
     0
176
     1
290
     0
176
     1
290
     0
176
     1
290
     0
176
     1
290
     0
176
     1
290
     0
176
     1
 90
       50
176
     1
 40
0.0
176
     1
 40
1.0
176
     1
 90
        0
176
     1
 62
    18
420
        0
176
     1
 90
       50
176
     1
 90
        3
176
     1
 62
     5
420
      255
176
     1
290
     0
176
     1
 90
       50
176
     1
 90
       50
176
     1
 90
       50
176
     1
290
     0
176
     1
 90
       50
176
     1
 62
   256
176
     0
 40
1.0
176
     0
 90
        2
176
     1
  1
strokes_ogs.tif
176
     1
290
     0
176
     1
 40
1.0
176
     1
 40
1.0
176
     1
  0
VISUALSTYLE
  5
34
102
{ACAD_REACTORS
330
29
102
}
330
29
100
AcDbVisualStyle
  2
Dim
 70
    11
177
     3
291
     1
 70
    58
 90
        2
176
     1
 90
        2
176
     1
 90
        0
176
     1
 90
        0
176
     1
 40
0.6
176
     1
 40
30.0
176
     1
 62
     7
420
 16777215
176
     1
 90
        1
176
     1
 90
        4
176
     1
 62
     7
176
     1
 62
   257
176
     1
 90
        1
176
     1
 90
        1
176
     1
 40
1.0
176
     1
 90
        8
176
     1
 62
     7
176
     1
 40
1.0
176
     1
 90
        1
176
     1
 90
        6
176
     1
 90
        2
176
     1
 62
     7
176
     1
 90
        5
176
     1
 90
        0
176
     1
 90
        0
176
     1
290
     0
176
     1
 90
        1
176
     1
 40
-50.0
176
     1
 90
        0
176
     1
290
     0
176
     1
290
     1
176
     1
290
     1
176
     1
290
     0
176
     1
290
     0
176
     1
290
     0
176
     1
290
     0
176
     1
290
     0
176
     1
290
     0
176
     1
 90
       50
176
     1
 40
0.0
176
     1
 40
1.0
176
     1
 90
        0
176
     1
 62
    18
420
        0
176
     1
 90
       50
176
     1
 90
        3
176
     1
 62
     5
420
      255
176
     1
290
     0
176
     1
 90
       50
176
     1
 90
       50
176
     1
 90
       50
176
     1
290
     0
176
     1
 90
       50
176
     1
 62
   256
176
     0
 40
1.0
176
     0
 90
        2
176
     1
  1
strokes_ogs.tif
176
     1
290
     0
176
     1
 40
1.0
176
     1
 40
1.0
176
     1
  0
VISUALSTYLE
  5
41
102
{ACAD_REACTORS
330
29
102
}
330
29
100
AcDbVisualStyle
  2
EdgeColorOff
 70
    22
177
     3
291
     1
 70
    58
 90
        2
176
     0
 90
        2
176
     0
 90
        0
176
     0
 90
        0
176
     0
 40
0.6
176
     0
 40
30.0
176
     0
 62
     7
420
 16777215
176
     0
 90
        1
176
     0
 90
        4
176
     0
 62
     7
176
     0
 62
   257
176
     0
 90
        1
176
     0
 90
        1
176
     0
 40
1.0
176
     0
 90
        8
176
     2
 62
     7
176
     0
 40
1.0
176
     0
 90
        1
176
     0
 90
        6
176
     0
 90
        2
176
     0
 62
     7
176
     0
 90
        5
176
     0
 90
        0
176
     0
 90
        0
176
     0
290
     0
176
     0
 90
        1
176
     0
 40
0.0
176
     0
 90
        0
176
     0
290
     0
176
     0
290
     1
176
     0
290
     1
176
     0
290
     0
176
     0
290
     0
176
     0
290
     0
176
     0
290
     0
176
     0
290
     0
176
     0
290
     0
176
     0
 90
       50
176
     0
 40
0.0
176
     0
 40
1.0
176
     0
 90
        0
176
     0
 62
    18
420
        0
176
     0
 90
       50
176
     0
 90
        3
176
     0
 62
     5
420
      255
176
     0
290
     0
176
     0
 90
       50
176
     0
 90
       50
176
     0
 90
       50
176
     0
290
     0
176
     0
 90
       50
176
     0
 62
   256
176
     0
 40
1.0
176
     0
 90
        2
176
     0
  1
strokes_ogs.tif
176
     0
290
     0
176
     0
 40
1.0
176
     0
 40
1.0
176
     0
  0
VISUALSTYLE
  5
38
102
{ACAD_REACTORS
330
29
102
}
330
29
100
AcDbVisualStyle
  2
Facepattern
 70
    15
177
     3
291
     1
 70
    58
 90
        2
176
     1
 90
        2
176
     1
 90
        0
176
     1
 90
        0
176
     1
 40
0.6
176
     1
 40
30.0
176
     1
 62
     7
420
 16777215
176
     1
 90
        1
176
     1
 90
        4
176
     1
 62
     7
176
     1
 62
   257
176
     1
 90
        1
176
     1
 90
        1
176
     1
 40
1.0
176
     1
 90
        8
176
     1
 62
     7
176
     1
 40
1.0
176
     1
 90
        1
176
     1
 90
        6
176
     1
 90
        2
176
     1
 62
     7
176
     1
 90
        5
176
     1
 90
        0
176
     1
 90
        0
176
     1
290
     0
176
     1
 90
        1
176
     1
 40
0.0
176
     1
 90
        0
176
     1
290
     0
176
     1
290
     1
176
     1
290
     1
176
     1
290
     0
176
     1
290
     0
176
     1
290
     0
176
     1
290
     0
176
     1
290
     0
176
     1
290
     0
176
     1
 90
       50
176
     1
 40
0.0
176
     1
 40
1.0
176
     1
 90
        0
176
     1
 62
    18
420
        0
176
     1
 90
       50
176
     1
 90
        3
176
     1
 62
     5
420
      255
176
     1
290
     0
176
     1
 90
       50
176
     1
 90
       50
176
     1
 90
       50
176
     1
290
     0
176
     1
 90
       50
176
     1
 62
   256
176
     0
 40
1.0
176
     0
 90
        2
176
     1
  1
strokes_ogs.tif
176
     1
290
     0
176
     1
 40
1.0
176
     1
 40
1.0
176
     1
  0
VISUALSTYLE
  5
2A
102
{ACAD_REACTORS
330
29
102
}
330
29
100
AcDbVisualStyle
  2
Flat
 70
     0
177
     3
291
     1
 70
    58
 90
        2
176
     1
 90
        1
176
     1
 90
        1
176
     1
 90
        2
176
     1
 40
0.6
176
     1
 40
30.0
176
     1
 62
     7
420
 16777215
176
     1
 90
        0
176
     1
 90
        0
176
     1
 62
     7
176
     1
 62
   257
176
     1
 90
        1
176
     1
 90
        1
176
     1
 40
1.0
176
     1
 90
        8
176
     1
 62
     7
176
     1
 40
1.0
176
     1
 90
        1
176
     1
 90
        6
176
     1
 90
        2
176
     1
 62
     7
176
     1
 90
        5
176
     1
 90
        0
176
     1
 90
        0
176
     1
290
     0
176
     1
 90
       13
176
     1
 40
0.0
176
     1
 90
        0
176
     1
290
     0
176
     1
290
     1
176
     1
290
     1
176
     1
290
     0
176
     1
290
     0
176
     1
290
     0
176
     1
290
     0
176
     1
290
     0
176
     1
290
     0
176
     1
 90
       50
176
     1
 40
0.0
176
     1
 40
1.0
176
     1
 90
        0
176
     1
 62
    18
420
        0
176
     1
 90
       50
176
     1
 90
        3
176
     1
 62
     5
420
      255
176
     1
290
     0
176
     1
 90
       50
176
     1
 90
       50
176
     1
 90
       50
176
     1
290
     0
176
     1
 90
       50
176
     1
 62
   256
176
     0
 40
1.0
176
     0
 90
        2
176
     1
  1
strokes_ogs.tif
176
     1
290
     0
176
     1
 40
1.0
176
     1
 40
1.0
176
     1
  0
VISUALSTYLE
  5
2B
102
{ACAD_REACTORS
330
29
102
}
330
29
100
AcDbVisualStyle
  2
FlatWithEdges
 70
     1
177
     3
291
     1
 70
    58
 90
        2
176
     1
 90
        1
176
     1
 90
        1
176
     1
 90
        2
176
     1
 40
0.6
176
     1
 40
30.0
176
     1
 62
     7
420
 16777215
176
     1
 90
        1
176
     1
 90
        0
176
     1
 62
     7
176
     1
 62
   257
176
     1
 90
        1
176
     1
 90
        1
176
     1
 40
1.0
176
     1
 90
        0
176
     1
 62
   257
176
     1
 40
1.0
176
     1
 90
        1
176
     1
 90
        6
176
     1
 90
        2
176
     1
 62
     7
176
     1
 90
        5
176
     1
 90
        0
176
     1
 90
        0
176
     1
290
     0
176
     1
 90
       13
176
     1
 40
0.0
176
     1
 90
        0
176
     1
290
     0
176
     1
290
     1
176
     1
290
     1
176
     1
290
     0
176
     1
290
     0
176
     1
290
     0
176
     1
290
     0
176
     1
290
     0
176
     1
290
     0
176
     1
 90
       50
176
     1
 40
0.0
176
     1
 40
1.0
176
     1
 90
        0
176
     1
 62
    18
420
        0
176
     1
 90
       50
176
     1
 90
        3
176
     1
 62
     5
420
      255
176
     1
290
     0
176
     1
 90
       50
176
     1
 90
       50
176
     1
 90
       50
176
     1
290
     0
176
     1
 90
       50
176
     1
 62
   256
176
     0
 40
1.0
176
     0
 90
        2
176
     1
  1
strokes_ogs.tif
176
     1
290
     0
176
     1
 40
1.0
176
     1
 40
1.0
176
     1
  0
VISUALSTYLE
  5
2C
102
{ACAD_REACTORS
330
29
102
}
330
29
100
AcDbVisualStyle
  2
Gouraud
 70
     2
177
     3
291
     1
 70
    58
 90
        2
176
     1
 90
        2
176
     1
 90
        1
176
     1
 90
        2
176
     1
 40
0.6
176
     1
 40
30.0
176
     1
 62
     7
420
 16777215
176
     1
 90
        0
176
     1
 90
        0
176
     1
 62
     7
176
     1
 62
   257
176
     1
 90
        1
176
     1
 90
        1
176
     1
 40
1.0
176
     1
 90
        0
176
     1
 62
     7
176
     1
 40
1.0
176
     1
 90
        1
176
     1
 90
        6
176
     1
 90
        2
176
     1
 62
     7
176
     1
 90
        5
176
     1
 90
        0
176
     1
 90
        0
176
     1
290
     0
176
     1
 90
       13
176
     1
 40
0.0
176
     1
 90
        0
176
     1
290
     0
176
     1
290
     1
176
     1
290
     1
176
     1
290
     0
176
     1
290
     0
176
     1
290
     0
176
     1
290
     0
176
     1
290
     0
176
     1
290
     0
176
     1
 90
       50
176
     1
 40
0.0
176
     1
 40
1.0
176
     1
 90
        0
176
     1
 62
    18
420
        0
176
     1
 90
       50
176
     1
 90
        3
176
     1
 62
     5
420
      255
176
     1
290
     0
176
     1
 90
       50
176
     1
 90
       50
176
     1
 90
       50
176
     1
290
     0
176
     1
 90
       50
176
     1
 62
   256
176
     0
 40
1.0
176
     0
 90
        2
176
     1
  1
strokes_ogs.tif
176
     1
290
     0
176
     1
 40
1.0
176
     1
 40
1.0
176
     1
  0
VISUALSTYLE
  5
2D
102
{ACAD_REACTORS
330
29
102
}
330
29
100
AcDbVisualStyle
  2
GouraudWithEdges
 70
     3
177
     3
291
     1
 70
    58
 90
        2
176
     1
 90
        2
176
     1
 90
        1
176
     1
 90
        2
176
     1
 40
0.6
176
     1
 40
30.0
176
     1
 62
     7
420
 16777215
176
     1
 90
        1
176
     1
 90
        0
176
     1
 62
     7
176
     1
 62
   257
176
     1
 90
        1
176
     1
 90
        1
176
     1
 40
1.0
176
     1
 90
        0
176
     1
 62
   257
176
     1
 40
1.0
176
     1
 90
        1
176
     1
 90
        6
176
     1
 90
        2
176
     1
 62
     7
176
     1
 90
        5
176
     1
 90
        0
176
     1
 90
        0
176
     1
290
     0
176
     1
 90
       13
176
     1
 40
0.0
176
     1
 90
        0
176
     1
290
     0
176
     1
290
     1
176
     1
290
     1
176
     1
290
     0
176
     1
290
     0
176
     1
290
     0
176
     1
290
     0
176
     1
290
     0
176
     1
290
     0
176
     1
 90
       50
176
     1
 40
0.0
176
     1
 40
1.0
176
     1
 90
        0
176
     1
 62
    18
420
        0
176
     1
 90
       50
176
     1
 90
        3
176
     1
 62
     5
420
      255
176
     1
290
     0
176
     1
 90
       50
176
     1
 90
       50
176
     1
 90
       50
176
     1
290
     0
176
     1
 90
       50
176
     1
 62
   256
176
     0
 40
1.0
176
     0
 90
        2
176
     1
  1
strokes_ogs.tif
176
     1
290
     0
176
     1
 40
1.0
176
     1
 40
1.0
176
     1
  0
VISUALSTYLE
  5
31
102
{ACAD_REACTORS
330
29
102
}
330
29
100
AcDbVisualStyle
  2
Hidden
 70
     6
177
     3
291
     0
 70
    58
 90
        1
176
     1
 90
        2
176
     1
 90
        2
176
     1
 90
        0
176
     1
 40
0.6
176
     1
 40
30.0
176
     1
 62
     7
420
 16777215
176
     1
 90
        2
176
     1
 90
        2
176
     1
 62
     7
176
     1
 62
   257
176
     1
 90
        2
176
     1
 90
        1
176
     1
 40
40.0
176
     1
 90
        0
176
     1
 62
   257
176
     1
 40
1.0
176
     1
 90
        1
176
     1
 90
        6
176
     1
 90
        2
176
     1
 62
     7
176
     1
 90
        3
176
     1
 90
        0
176
     1
 90
        0
176
     1
290
     0
176
     1
 90
        1
176
     1
 40
0.0
176
     1
 90
        0
176
     1
290
     0
176
     1
290
     1
176
     1
290
     1
176
     1
290
     0
176
     1
290
     0
176
     1
290
     0
176
     1
290
     0
176
     1
290
     0
176
     1
290
     0
176
     1
 90
       50
176
     1
 40
0.0
176
     1
 40
1.0
176
     1
 90
        0
176
     1
 62
    18
420
        0
176
     1
 90
       50
176
     1
 90
        3
176
     1
 62
     5
420
      255
176
     1
290
     0
176
     1
 90
       50
176
     1
 90
       50
176
     1
 90
       50
176
     1
290
     0
176
     1
 90
       50
176
     1
 62
   256
176
     0
 40
1.0
176
     0
 90
        2
176
     1
  1
strokes_ogs.tif
176
     1
290
     0
176
     1
 40
1.0
176
     1
 40
1.0
176
     1
  0
VISUALSTYLE
  5
3F
102
{ACAD_REACTORS
330
29
102
}
330
29
100
AcDbVisualStyle
  2
JitterOff
 70
    20
177
     3
291
     1
 70
    58
 90
        2
176
     0
 90
        2
176
     0
 90
        0
176
     0
 90
        0
176
     0
 40
0.6
176
     0
 40
30.0
176
     0
 62
     7
420
 16777215
176
     0
 90
        1
176
     0
 90
        4
176
     0
 62
     7
176
     0
 62
   257
176
     0
 90
        1
176
     0
 90
        1
176
     0
 40
1.0
176
     0
 90
       10
176
     2
 62
     7
176
     0
 40
1.0
176
     0
 90
        1
176
     0
 90
        6
176
     0
 90
        2
176
     0
 62
     7
176
     0
 90
        5
176
     0
 90
        0
176
     0
 90
        0
176
     0
290
     0
176
     0
 90
        1
176
     0
 40
0.0
176
     0
 90
        0
176
     0
290
     0
176
     0
290
     1
176
     0
290
     1
176
     0
290
     0
176
     0
290
     0
176
     0
290
     0
176
     0
290
     0
176
     0
290
     0
176
     0
290
     0
176
     0
 90
       50
176
     0
 40
0.0
176
     0
 40
1.0
176
     0
 90
        0
176
     0
 62
    18
420
        0
176
     0
 90
       50
176
     0
 90
        3
176
     0
 62
     5
420
      255
176
     0
290
     0
176
     0
 90
       50
176
     0
 90
       50
176
     0
 90
       50
176
     0
290
     0
176
     0
 90
       50
176
     0
 62
   256
176
     0
 40
1.0
176
     0
 90
        2
176
     0
  1
strokes_ogs.tif
176
     0
290
     0
176
     0
 40
1.0
176
     0
 40
1.0
176
     0
  0
VISUALSTYLE
  5
37
102
{ACAD_REACTORS
330
29
102
}
330
29
100
AcDbVisualStyle
  2
Linepattern
 70
    14
177
     3
291
     1
 70
    58
 90
        2
176
     1
 90
        2
176
     1
 90
        0
176
     1
 90
        0
176
     1
 40
0.6
176
     1
 40
30.0
176
     1
 62
     7
420
 16777215
176
     1
 90
        1
176
     1
 90
        4
176
     1
 62
     7
176
     1
 62
   257
176
     1
 90
        7
176
     1
 90
        7
176
     1
 40
1.0
176
     1
 90
        8
176
     1
 62
     7
176
     1
 40
1.0
176
     1
 90
        1
176
     1
 90
        6
176
     1
 90
        2
176
     1
 62
     7
176
     1
 90
        5
176
     1
 90
        0
176
     1
 90
        0
176
     1
290
     0
176
     1
 90
        1
176
     1
 40
0.0
176
     1
 90
        0
176
     1
290
     0
176
     1
290
     1
176
     1
290
     1
176
     1
290
     0
176
     1
290
     0
176
     1
290
     0
176
     1
290
     0
176
     1
290
     0
176
     1
290
     0
176
     1
 90
       50
176
     1
 40
0.0
176
     1
 40
1.0
176
     1
 90
        0
176
     1
 62
    18
420
        0
176
     1
 90
       50
176
     1
 90
        3
176
     1
 62
     5
420
      255
176
     1
290
     0
176
     1
 90
       50
176
     1
 90
       50
176
     1
 90
       50
176
     1
290
     0
176
     1
 90
       50
176
     1
 62
   256
176
     0
 40
1.0
176
     0
 90
        2
176
     1
  1
strokes_ogs.tif
176
     1
290
     0
176
     1
 40
1.0
176
     1
 40
1.0
176
     1
  0
VISUALSTYLE
  5
40
102
{ACAD_REACTORS
330
29
102
}
330
29
100
AcDbVisualStyle
  2
OverhangOff
 70
    21
177
     3
291
     1
 70
    58
 90
        2
176
     0
 90
        2
176
     0
 90
        0
176
     0
 90
        0
176
     0
 40
0.6
176
     0
 40
30.0
176
     0
 62
     7
420
 16777215
176
     0
 90
        1
176
     0
 90
        4
176
     0
 62
     7
176
     0
 62
   257
176
     0
 90
        1
176
     0
 90
        1
176
     0
 40
1.0
176
     0
 90
        9
176
     2
 62
     7
176
     0
 40
1.0
176
     0
 90
        1
176
     0
 90
        6
176
     0
 90
        2
176
     0
 62
     7
176
     0
 90
        5
176
     0
 90
        0
176
     0
 90
        0
176
     0
290
     0
176
     0
 90
        1
176
     0
 40
0.0
176
     0
 90
        0
176
     0
290
     0
176
     0
290
     1
176
     0
290
     1
176
     0
290
     0
176
     0
290
     0
176
     0
290
     0
176
     0
290
     0
176
     0
290
     0
176
     0
290
     0
176
     0
 90
       50
176
     0
 40
0.0
176
     0
 40
1.0
176
     0
 90
        0
176
     0
 62
    18
420
        0
176
     0
 90
       50
176
     0
 90
        3
176
     0
 62
     5
420
      255
176
     0
290
     0
176
     0
 90
       50
176
     0
 90
       50
176
     0
 90
       50
176
     0
290
     0
176
     0
 90
       50
176
     0
 62
   256
176
     0
 40
1.0
176
     0
 90
        2
176
     0
  1
strokes_ogs.tif
176
     0
290
     0
176
     0
 40
1.0
176
     0
 40
1.0
176
     0
  0
VISUALSTYLE
  5
33
102
{ACAD_REACTORS
330
29
102
}
330
29
100
AcDbVisualStyle
  2
Realistic
 70
     8
177
     3
291
     0
 70
    58
 90
        2
176
     1
 90
        3
176
     1
 90
        0
176
     1
 90
        2
176
     1
 40
0.6
176
     1
 40
30.0
176
     1
 62
     7
420
 16777215
176
     1
 90
        0
176
     1
 90
        0
176
     1
 62
     7
176
     1
 62
   257
176
     1
 90
        1
176
     1
 90
        1
176
     1
 40
1.0
176
     1
 90
        8
176
     1
 62
   257
176
     1
 40
1.0
176
     1
 90
        1
176
     1
 90
        6
176
     1
 90
        2
176
     1
 62
     7
176
     1
 90
        3
176
     1
 90
        0
176
     1
 90
        0
176
     1
290
     0
176
     1
 90
       13
176
     1
 40
0.0
176
     1
 90
        0
176
     1
290
     0
176
     1
290
     1
176
     1
290
     1
176
     1
290
     0
176
     1
290
     0
176
     1
290
     0
176
     1
290
     0
176
     1
290
     0
176
     1
290
     0
176
     1
 90
       50
176
     1
 40
0.0
176
     1
 40
1.0
176
     1
 90
        0
176
     1
 62
    18
420
        0
176
     1
 90
       50
176
     1
 90
        3
176
     1
 62
     5
420
      255
176
     1
290
     0
176
     1
 90
       50
176
     1
 90
       50
176
     1
 90
       50
176
     1
290
     0
176
     1
 90
       50
176
     1
 62
   256
176
     0
 40
1.0
176
     0
 90
        2
176
     1
  1
strokes_ogs.tif
176
     1
290
     0
176
     1
 40
1.0
176
     1
 40
1.0
176
     1
  0
VISUALSTYLE
  5
3E
102
{ACAD_REACTORS
330
29
102
}
330
29
100
AcDbVisualStyle
  2
Shaded
 70
    27
177
     3
291
     0
 70
    58
 90
        2
176
     1
 90
        2
176
     1
 90
        1
176
     1
 90
        2
176
     1
 40
0.6
176
     1
 40
30.0
176
     1
 62
     7
420
 16777215
176
     1
 90
        0
176
     1
 90
        4
176
     1
 62
     7
176
     1
 62
   257
176
     1
 90
        1
176
     1
 90
        1
176
     1
 40
1.0
176
     1
 90
        8
176
     1
 62
   257
176
     1
 40
1.0
176
     1
 90
        1
176
     1
 90
        6
176
     1
 90
        2
176
     1
 62
     8
420
  7895160
176
     1
 90
        3
176
     1
 90
        0
176
     1
 90
        0
176
     1
290
     0
176
     1
 90
        5
176
     1
 40
0.0
176
     1
 90
        0
176
     1
290
     0
176
     1
290
     1
176
     1
290
     1
176
     1
290
     0
176
     1
290
     0
176
     1
290
     0
176
     1
290
     0
176
     1
290
     0
176
     1
290
     0
176
     1
 90
       50
176
     1
 40
0.0
176
     1
 40
1.0
176
     1
 90
        0
176
     1
 62
    18
420
        0
176
     1
 90
       50
176
     1
 90
        3
176
     1
 62
     5
420
      255
176
     1
290
     0
176
     1
 90
       50
176
     1
 90
       50
176
     1
 90
       50
176
     1
290
     0
176
     1
 90
       50
176
     1
 62
   256
176
     0
 40
1.0
176
     0
 90
        2
176
     1
  1
strokes_ogs.tif
176
     1
290
     0
176
     1
 40
1.0
176
     1
 40
1.0
176
     1
  0
VISUALSTYLE
  5
3D
102
{ACAD_REACTORS
330
29
102
}
330
29
100
AcDbVisualStyle
  2
Shaded with edges
 70
    26
177
     3
291
     0
 70
    58
 90
        2
176
     1
 90
        2
176
     1
 90
        1
176
     1
 90
        2
176
     1
 40
0.6
176
     1
 40
30.0
176
     1
 62
     7
420
 16777215
176
     1
 90
        1
176
     1
 90
        2
176
     1
 62
     7
176
     1
 62
   257
176
     1
 90
        2
176
     1
 90
        1
176
     1
 40
1.0
176
     1
 90
        8
176
     1
 62
   257
176
     1
 40
1.0
176
     1
 90
        1
176
     1
 90
        6
176
     1
 90
        2
176
     1
 62
     7
176
     1
 90
        3
176
     1
 90
        0
176
     1
 90
        0
176
     1
290
     0
176
     1
 90
        5
176
     1
 40
0.0
176
     1
 90
        0
176
     1
290
     0
176
     1
290
     1
176
     1
290
     1
176
     1
290
     0
176
     1
290
     0
176
     1
290
     0
176
     1
290
     0
176
     1
290
     0
176
     1
290
     0
176
     1
 90
       50
176
     1
 40
0.0
176
     1
 40
1.0
176
     1
 90
        0
176
     1
 62
    18
420
        0
176
     1
 90
       50
176
     1
 90
        3
176
     1
 62
     5
420
      255
176
     1
290
     0
176
     1
 90
       50
176
     1
 90
       50
176
     1
 90
       50
176
     1
290
     0
176
     1
 90
       50
176
     1
 62
   256
176
     0
 40
1.0
176
     0
 90
        2
176
     1
  1
strokes_ogs.tif
176
     1
290
     0
176
     1
 40
1.0
176
     1
 40
1.0
176
     1
  0
VISUALSTYLE
  5
3A
102
{ACAD_REACTORS
330
29
102
}
330
29
100
AcDbVisualStyle
  2
Shades of Gray
 70
    23
177
     3
291
     0
 70
    58
 90
        2
176
     1
 90
        2
176
     1
 90
        3
176
     1
 90
        0
176
     1
 40
0.6
176
     1
 40
30.0
176
     1
 62
     7
420
 16777215
176
     1
 90
        2
176
     1
 90
        2
176
     1
 62
     7
176
     1
 62
     7
176
     1
 90
        1
176
     1
 90
        1
176
     1
 40
40.0
176
     1
 90
        8
176
     1
 62
     7
176
     1
 40
1.0
176
     1
 90
        1
176
     1
 90
        6
176
     1
 90
        2
176
     1
 62
     7
176
     1
 90
        3
176
     1
 90
        0
176
     1
 90
        0
176
     1
290
     0
176
     1
 90
        1
176
     1
 40
0.0
176
     1
 90
        0
176
     1
290
     0
176
     1
290
     1
176
     1
290
     1
176
     1
290
     0
176
     1
290
     0
176
     1
290
     0
176
     1
290
     0
176
     1
290
     0
176
     1
290
     0
176
     1
 90
       50
176
     1
 40
0.0
176
     1
 40
1.0
176
     1
 90
        0
176
     1
 62
    18
420
        0
176
     1
 90
       50
176
     1
 90
        3
176
     1
 62
     5
420
      255
176
     1
290
     0
176
     1
 90
       50
176
     1
 90
       50
176
     1
 90
       50
176
     1
290
     0
176
     1
 90
       50
176
     1
 62
   256
176
     0
 40
1.0
176
     0
 90
        2
176
     1
  1
strokes_ogs.tif
176
     1
290
     0
176
     1
 40
1.0
176
     1
 40
1.0
176
     1
  0
VISUALSTYLE
  5
3B
102
{ACAD_REACTORS
330
29
102
}
330
29
100
AcDbVisualStyle
  2
Sketchy
 70
    24
177
     3
291
     0
 70
    58
 90
        1
176
     1
 90
        2
176
     1
 90
        2
176
     1
 90
        0
176
     1
 40
0.6
176
     1
 40
30.0
176
     1
 62
     7
420
 16777215
176
     1
 90
        2
176
     1
 90
        2
176
     1
 62
     7
176
     1
 62
     7
176
     1
 90
        1
176
     1
 90
        1
176
     1
 40
40.0
176
     1
 90
       11
176
     1
 62
     7
176
     1
 40
1.0
176
     1
 90
        1
176
     1
 90
        6
176
     1
 90
        2
176
     1
 62
     7
176
     1
 90
        6
176
     1
 90
        0
176
     1
 90
        0
176
     1
290
     0
176
     1
 90
        1
176
     1
 40
0.0
176
     1
 90
        0
176
     1
290
     0
176
     1
290
     1
176
     1
290
     1
176
     1
290
     0
176
     1
290
     0
176
     1
290
     0
176
     1
290
     0
176
     1
290
     0
176
     1
290
     0
176
     1
 90
       50
176
     1
 40
0.0
176
     1
 40
1.0
176
     1
 90
        0
176
     1
 62
    18
420
        0
176
     1
 90
       50
176
     1
 90
        3
176
     1
 62
     5
420
      255
176
     1
290
     0
176
     1
 90
       50
176
     1
 90
       50
176
     1
 90
       50
176
     1
290
     0
176
     1
 90
       50
176
     1
 62
   256
176
     0
 40
1.0
176
     0
 90
        2
176
     1
  1
strokes_ogs.tif
176
     1
290
     0
176
     1
 40
1.0
176
     1
 40
1.0
176
     1
  0
VISUALSTYLE
  5
36
102
{ACAD_REACTORS
330
29
102
}
330
29
100
AcDbVisualStyle
  2
Thicken
 70
    13
177
     3
291
     1
 70
    58
 90
        2
176
     1
 90
        2
176
     1
 90
        0
176
     1
 90
        0
176
     1
 40
0.6
176
     1
 40
30.0
176
     1
 62
     7
420
 16777215
176
     1
 90
        1
176
     1
 90
        4
176
     1
 62
     7
176
     1
 62
   257
176
     1
 90
        1
176
     1
 90
        1
176
     1
 40
1.0
176
     1
 90
       12
176
     1
 62
     7
176
     1
 40
1.0
176
     1
 90
        1
176
     1
 90
        6
176
     1
 90
        2
176
     1
 62
     7
176
     1
 90
        5
176
     1
 90
        0
176
     1
 90
        0
176
     1
290
     0
176
     1
 90
        1
176
     1
 40
0.0
176
     1
 90
        0
176
     1
290
     0
176
     1
290
     1
176
     1
290
     1
176
     1
290
     0
176
     1
290
     0
176
     1
290
     0
176
     1
290
     0
176
     1
290
     0
176
     1
290
     0
176
     1
 90
       50
176
     1
 40
0.0
176
     1
 40
1.0
176
     1
 90
        0
176
     1
 62
    18
420
        0
176
     1
 90
       50
176
     1
 90
        3
176
     1
 62
     5
420
      255
176
     1
290
     0
176
     1
 90
       50
176
     1
 90
       50
176
     1
 90
       50
176
     1
290
     0
176
     1
 90
       50
176
     1
 62
   256
176
     0
 40
1.0
176
     0
 90
        2
176
     1
  1
strokes_ogs.tif
176
     1
290
     0
176
     1
 40
1.0
176
     1
 40
1.0
176
     1
  0
VISUALSTYLE
  5
30
102
{ACAD_REACTORS
330
29
102
}
330
29
100
AcDbVisualStyle
  2
Wireframe
 70
     5
177
     3
291
     0
 70
    58
 90
        0
176
     1
 90
        2
176
     1
 90
        0
176
     1
 90
        0
176
     1
 40
0.6
176
     1
 40
30.0
176
     1
 62
     7
420
 16777215
176
     1
 90
        1
176
     1
 90
        4
176
     1
 62
     7
176
     1
 62
   257
176
     1
 90
        1
176
     1
 90
        1
176
     1
 40
1.0
176
     1
 90
        0
176
     1
 62
   257
176
     1
 40
1.0
176
     1
 90
        1
176
     1
 90
        6
176
     1
 90
        2
176
     1
 62
     7
176
     1
 90
        3
176
     1
 90
        0
176
     1
 90
        0
176
     1
290
     0
176
     1
 90
        1
176
     1
 40
0.0
176
     1
 90
        0
176
     1
290
     0
176
     1
290
     1
176
     1
290
     1
176
     1
290
     0
176
     1
290
     0
176
     1
290
     0
176
     1
290
     0
176
     1
290
     0
176
     1
290
     0
176
     1
 90
       50
176
     1
 40
0.0
176
     1
 40
1.0
176
     1
 90
        0
176
     1
 62
    18
420
        0
176
     1
 90
       50
176
     1
 90
        3
176
     1
 62
     5
420
      255
176
     1
290
     0
176
     1
 90
       50
176
     1
 90
       50
176
     1
 90
       50
176
     1
290
     0
176
     1
 90
       50
176
     1
 62
   256
176
     0
 40
1.0
176
     0
 90
        2
176
     1
  1
strokes_ogs.tif
176
     1
290
     0
176
     1
 40
1.0
176
     1
 40
1.0
176
     1
  0
VISUALSTYLE
  5
3C
102
{ACAD_REACTORS
330
29
102
}
330
29
100
AcDbVisualStyle
  2
X-Ray
 70
    25
177
     3
291
     0
 70
    58
 90
        2
176
     1
 90
        2
176
     1
 90
        1
176
     1
 90
        1
176
     1
 40
0.5
176
     1
 40
30.0
176
     1
 62
     7
420
 16777215
176
     1
 90
        1
176
     1
 90
        0
176
     1
 62
     7
176
     1
 62
   257
176
     1
 90
        1
176
     1
 90
        1
176
     1
 40
1.0
176
     1
 90
        8
176
     1
 62
     7
176
     1
 40
1.0
176
     1
 90
        1
176
     1
 90
        6
176
     1
 90
        2
176
     1
 62
     7
176
     1
 90
        3
176
     1
 90
        0
176
     1
 90
        0
176
     1
290
     0
176
     1
 90
       13
176
     1
 40
0.0
176
     1
 90
        0
176
     1
290
     0
176
     1
290
     1
176
     1
290
     1
176
     1
290
     0
176
     1
290
     0
176
     1
290
     0
176
     1
290
     0
176
     1
290
     0
176
     1
290
     0
176
     1
 90
       50
176
     1
 40
0.0
176
     1
 40
1.0
176
     1
 90
        0
176
     1
 62
    18
420
        0
176
     1
 90
       50
176
     1
 90
        3
176
     1
 62
     5
420
      255
176
     1
290
     0
176
     1
 90
       50
176
     1
 90
       50
176
     1
 90
       50
176
     1
290
     0
176
     1
 90
       50
176
     1
 62
   256
176
     0
 40
1.0
176
     0
 90
        2
176
     1
  1
strokes_ogs.tif
176
     1
290
     0
176
     1
 40
1.0
176
     1
 40
1.0
176
     1
  0
DICTIONARYVAR
  5
2AF
102
{ACAD_REACTORS
330
2AA
102
}
330
2AA
100
DictionaryVariables
280
     0
  1
1:1
  0
DICTIONARYVAR
  5
2AC
102
{ACAD_REACTORS
330
2AA
102
}
330
2AA
100
DictionaryVariables
280
     0
  1
STANDARD
  0
DICTIONARYVAR
  5
2AB
102
{ACAD_REACTORS
330
2AA
102
}
330
2AA
100
DictionaryVariables
280
     0
  1
STANDARD
  0
DICTIONARYVAR
  5
2AD
102
{ACAD_REACTORS
330
2AA
102
}
330
2AA
100
DictionaryVariables
280
     0
  1
Imperial24
  0
DICTIONARYVAR
  5
2AE
102
{ACAD_REACTORS
330
2AA
102
}
330
2AA
100
DictionaryVariables
280
     0
  1
Imperial24
  0
DICTIONARY
  5
1A
330
19
100
AcDbDictionary
280
     1
281
     1
  3
BUMPTILE
360
1C
  3
DIFFUSETILE
360
1B
  3
OPACITYTILE
360
1F
  3
REFLECTIONTILE
360
1E
  3
REFRACTIONTILE
360
20
  3
SPECULARTILE
360
1D
  0
DICTIONARY
  5
12
330
11
100
AcDbDictionary
280
     1
281
     1
  3
BUMPTILE
360
14
  3
DIFFUSETILE
360
13
  3
OPACITYTILE
360
17
  3
REFLECTIONTILE
360
16
  3
REFRACTIONTILE
360
18
  3
SPECULARTILE
360
15
  0
DICTIONARY
  5
22
330
21
100
AcDbDictionary
280
     1
281
     1
  3
BUMPTILE
360
24
  3
DIFFUSETILE
360
23
  3
OPACITYTILE
360
27
  3
REFLECTIONTILE
360
26
  3
REFRACTIONTILE
360
28
  3
SPECULARTILE
360
25
  0
DICTIONARY
  5
2B0
330
65
100
AcDbDictionary
280
     1
281
     1
  3
ACAD_ROUNDTRIP_2008_TABLESTYLE_CELLSTYLEMAP
360
2B1
  0
XRECORD
  5
1C
102
{ACAD_REACTORS
330
1A
102
}
330
1A
100
AcDbXrecord
280
     1
270
     1
271
     1
  0
XRECORD
  5
1B
102
{ACAD_REACTORS
330
1A
102
}
330
1A
100
AcDbXrecord
280
     1
270
     1
271
     1
  0
XRECORD
  5
1F
102
{ACAD_REACTORS
330
1A
102
}
330
1A
100
AcDbXrecord
280
     1
270
     1
271
     1
  0
XRECORD
  5
1E
102
{ACAD_REACTORS
330
1A
102
}
330
1A
100
AcDbXrecord
280
     1
270
     1
271
     1
  0
XRECORD
  5
20
102
{ACAD_REACTORS
330
1A
102
}
330
1A
100
AcDbXrecord
280
     1
270
     1
271
     1
  0
XRECORD
  5
1D
102
{ACAD_REACTORS
330
1A
102
}
330
1A
100
AcDbXrecord
280
     1
270
     1
271
     1
  0
XRECORD
  5
14
102
{ACAD_REACTORS
330
12
102
}
330
12
100
AcDbXrecord
280
     1
270
     1
271
     1
  0
XRECORD
  5
13
102
{ACAD_REACTORS
330
12
102
}
330
12
100
AcDbXrecord
280
     1
270
     1
271
     1
  0
XRECORD
  5
17
102
{ACAD_REACTORS
330
12
102
}
330
12
100
AcDbXrecord
280
     1
270
     1
271
     1
  0
XRECORD
  5
16
102
{ACAD_REACTORS
330
12
102
}
330
12
100
AcDbXrecord
280
     1
270
     1
271
     1
  0
XRECORD
  5
18
102
{ACAD_REACTORS
330
12
102
}
330
12
100
AcDbXrecord
280
     1
270
     1
271
     1
  0
XRECORD
  5
15
102
{ACAD_REACTORS
330
12
102
}
330
12
100
AcDbXrecord
280
     1
270
     1
271
     1
  0
XRECORD
  5
24
102
{ACAD_REACTORS
330
22
102
}
330
22
100
AcDbXrecord
280
     1
270
     1
271
     1
  0
XRECORD
  5
23
102
{ACAD_REACTORS
330
22
102
}
330
22
100
AcDbXrecord
280
     1
270
     1
271
     1
  0
XRECORD
  5
27
102
{ACAD_REACTORS
330
22
102
}
330
22
100
AcDbXrecord
280
     1
270
     1
271
     1
  0
XRECORD
  5
26
102
{ACAD_REACTORS
330
22
102
}
330
22
100
AcDbXrecord
280
     1
270
     1
271
     1
  0
XRECORD
  5
28
102
{ACAD_REACTORS
330
22
102
}
330
22
100
AcDbXrecord
280
     1
270
     1
271
     1
  0
XRECORD
  5
25
102
{ACAD_REACTORS
330
22
102
}
330
22
100
AcDbXrecord
280
     1
270
     1
271
     1
  0
CELLSTYLEMAP
  5
2B1
102
{ACAD_REACTORS
330
2B0
102
}
330
2B0
100
AcDbCellStyleMap
 90
        3
300
CELLSTYLE
  1
TABLEFORMAT_BEGIN
 90
        5
170
     1
 91
        0
 92
    32768
 62
   257
 93
        1
300
CONTENTFORMAT
  1
CONTENTFORMAT_BEGIN
 90
        0
 91
        0
 92
      512
 93
        0
300

 40
0.0
140
1.0
 94
        5
 62
     0
340
55
144
0.25
309
CONTENTFORMAT_END
171
     0
 94
        0
309
TABLEFORMAT_END
  1
CELLSTYLE_BEGIN
 90
        1
 91
        1
300
_TITLE
309
CELLSTYLE_END
300
CELLSTYLE
  1
TABLEFORMAT_BEGIN
 90
        5
170
     1
 91
        0
 92
        0
 62
   257
 93
        1
300
CONTENTFORMAT
  1
CONTENTFORMAT_BEGIN
 90
        0
 91
        0
 92
      512
 93
        0
300

 40
0.0
140
1.0
 94
        5
 62
     0
340
55
144
0.18
309
CONTENTFORMAT_END
171
     0
 94
        0
309
TABLEFORMAT_END
  1
CELLSTYLE_BEGIN
 90
        2
 91
        1
300
_HEADER
309
CELLSTYLE_END
300
CELLSTYLE
  1
TABLEFORMAT_BEGIN
 90
        5
170
     1
 91
        0
 92
        0
 62
   257
 93
        1
300
CONTENTFORMAT
  1
CONTENTFORMAT_BEGIN
 90
        0
 91
        0
 92
      512
 93
        0
300

 40
0.0
140
1.0
 94
        2
 62
     0
340
55
144
0.18
309
CONTENTFORMAT_END
171
     0
 94
        0
309
TABLEFORMAT_END
  1
CELLSTYLE_BEGIN
 90
        3
 91
        2
300
_DATA
309
CELLSTYLE_END
  0
ENDSEC
  0
EOF
