ISO-10303-21;
HEADER;
/* Generated by software containing ST-Developer
 * from STEP Tools, Inc. (www.steptools.com) 
 */
/* OPTION: using custom schema-name function */

FILE_DESCRIPTION(
/* description */ (''),
/* implementation_level */ '2;1');

FILE_NAME(
/* name */ '10174888.stp',
/* time_stamp */ '2018-06-26T11:08:00+02:00',
/* author */ (''),
/* organization */ (''),
/* preprocessor_version */ 'ST-DEVELOPER v15',
/* originating_system */ 'SIEMENS PLM Software NX 9.0',
/* authorisation */ '');

FILE_SCHEMA (('AUTOMOTIVE_DESIGN { 1 0 10303 214 3 1 1 1 }'));
ENDSEC;

DATA;
#10=PROPERTY_DEFINITION_REPRESENTATION(#14,#12);
#11=PROPERTY_DEFINITION_REPRESENTATION(#15,#13);
#12=REPRESENTATION('',(#16),#467);
#13=REPRESENTATION('',(#17),#467);
#14=PROPERTY_DEFINITION('pmi validation property','',#21);
#15=PROPERTY_DEFINITION('pmi validation property','',#21);
#16=VALUE_REPRESENTATION_ITEM('number of annotations',COUNT_MEASURE(0.));
#17=VALUE_REPRESENTATION_ITEM('number of views',COUNT_MEASURE(0.));
#18=SHAPE_REPRESENTATION_RELATIONSHIP('None',
'relationship between reic0F9C90C9wz4v-None and reic0F9C90C9wz4v-None',
#30,#19);
#19=ADVANCED_BREP_SHAPE_REPRESENTATION('reic0F9C90C9wz4v-None',(#40),#467);
#20=SHAPE_DEFINITION_REPRESENTATION(#21,#30);
#21=PRODUCT_DEFINITION_SHAPE('','',#22);
#22=PRODUCT_DEFINITION(' ','',#24,#23);
#23=PRODUCT_DEFINITION_CONTEXT('part definition',#29,'design');
#24=PRODUCT_DEFINITION_FORMATION_WITH_SPECIFIED_SOURCE(' ',' ',#26,
 .NOT_KNOWN.);
#25=PRODUCT_RELATED_PRODUCT_CATEGORY('part','',(#26));
#26=PRODUCT('reic0F9C90C9wz4v','reic0F9C90C9wz4v',' ',(#27));
#27=PRODUCT_CONTEXT(' ',#29,'mechanical');
#28=APPLICATION_PROTOCOL_DEFINITION('international standard',
'automotive_design',2010,#29);
#29=APPLICATION_CONTEXT(
'core data for automotive mechanical design processes');
#30=SHAPE_REPRESENTATION('reic0F9C90C9wz4v-None',(#273),#467);
#31=PRESENTATION_LAYER_ASSIGNMENT('10','Layer 10',(#40));
#32=STYLED_ITEM('',(#33),#40);
#33=PRESENTATION_STYLE_ASSIGNMENT((#34));
#34=SURFACE_STYLE_USAGE(.BOTH.,#35);
#35=SURFACE_SIDE_STYLE('',(#36));
#36=SURFACE_STYLE_FILL_AREA(#37);
#37=FILL_AREA_STYLE('',(#38));
#38=FILL_AREA_STYLE_COLOUR('',#39);
#39=COLOUR_RGB('Orange',1.,0.499992370489052,0.);
#40=MANIFOLD_SOLID_BREP('',#41);
#41=CLOSED_SHELL('',(#55,#56,#57,#58,#59,#60,#61,#62,#63,#64,#65,#66,#67,
#68,#69,#70,#71,#72,#73,#74,#75));
#42=TOROIDAL_SURFACE('',#298,13.,3.);
#43=PLANE('',#282);
#44=PLANE('',#288);
#45=PLANE('',#311);
#46=CONICAL_SURFACE('',#279,10.,75.);
#47=CONICAL_SURFACE('',#289,9.00000000000001,45.);
#48=CONICAL_SURFACE('',#292,6.,59.);
#49=CONICAL_SURFACE('',#297,7.,45.);
#50=CONICAL_SURFACE('',#303,39.,45.);
#51=CONICAL_SURFACE('',#304,38.,45.0000000000004);
#52=CONICAL_SURFACE('',#306,5.5,59.);
#53=CONICAL_SURFACE('',#314,30.,45.);
#54=CONICAL_SURFACE('',#315,5.5,45.);
#55=ADVANCED_FACE('',(#84,#85),#76,.T.);
#56=ADVANCED_FACE('',(#86,#87),#46,.T.);
#57=ADVANCED_FACE('',(#88,#89),#43,.T.);
#58=ADVANCED_FACE('',(#90,#91),#77,.T.);
#59=ADVANCED_FACE('',(#92,#93),#44,.T.);
#60=ADVANCED_FACE('',(#94,#95),#47,.T.);
#61=ADVANCED_FACE('',(#96,#97),#48,.F.);
#62=ADVANCED_FACE('',(#98,#99),#78,.F.);
#63=ADVANCED_FACE('',(#100,#101),#79,.F.);
#64=ADVANCED_FACE('',(#102,#103),#49,.F.);
#65=ADVANCED_FACE('',(#104,#105),#42,.F.);
#66=ADVANCED_FACE('',(#106,#107),#80,.T.);
#67=ADVANCED_FACE('',(#108,#109),#81,.T.);
#68=ADVANCED_FACE('',(#110,#111),#50,.T.);
#69=ADVANCED_FACE('',(#112,#113),#51,.T.);
#70=ADVANCED_FACE('',(#114,#115),#52,.F.);
#71=ADVANCED_FACE('',(#116,#117),#82,.F.);
#72=ADVANCED_FACE('',(#118,#119),#45,.F.);
#73=ADVANCED_FACE('',(#120,#121),#83,.F.);
#74=ADVANCED_FACE('',(#122,#123),#53,.F.);
#75=ADVANCED_FACE('',(#124,#125),#54,.F.);
#76=CYLINDRICAL_SURFACE('',#276,39.);
#77=CYLINDRICAL_SURFACE('',#285,10.);
#78=CYLINDRICAL_SURFACE('',#294,6.);
#79=CYLINDRICAL_SURFACE('',#296,4.05);
#80=CYLINDRICAL_SURFACE('',#300,38.);
#81=CYLINDRICAL_SURFACE('',#302,38.);
#82=CYLINDRICAL_SURFACE('',#308,5.5);
#83=CYLINDRICAL_SURFACE('',#313,30.);
#84=FACE_BOUND('',#126,.T.);
#85=FACE_BOUND('',#127,.T.);
#86=FACE_BOUND('',#128,.T.);
#87=FACE_BOUND('',#129,.T.);
#88=FACE_BOUND('',#130,.T.);
#89=FACE_BOUND('',#131,.T.);
#90=FACE_BOUND('',#132,.T.);
#91=FACE_BOUND('',#133,.T.);
#92=FACE_BOUND('',#134,.T.);
#93=FACE_BOUND('',#135,.T.);
#94=FACE_BOUND('',#136,.T.);
#95=FACE_BOUND('',#137,.T.);
#96=FACE_BOUND('',#138,.T.);
#97=FACE_BOUND('',#139,.T.);
#98=FACE_BOUND('',#140,.T.);
#99=FACE_BOUND('',#141,.T.);
#100=FACE_BOUND('',#142,.T.);
#101=FACE_BOUND('',#143,.T.);
#102=FACE_BOUND('',#144,.T.);
#103=FACE_BOUND('',#145,.T.);
#104=FACE_BOUND('',#146,.T.);
#105=FACE_BOUND('',#147,.T.);
#106=FACE_BOUND('',#148,.T.);
#107=FACE_BOUND('',#149,.T.);
#108=FACE_BOUND('',#150,.T.);
#109=FACE_BOUND('',#151,.T.);
#110=FACE_BOUND('',#152,.T.);
#111=FACE_BOUND('',#153,.T.);
#112=FACE_BOUND('',#154,.T.);
#113=FACE_BOUND('',#155,.T.);
#114=FACE_BOUND('',#156,.T.);
#115=FACE_BOUND('',#157,.T.);
#116=FACE_BOUND('',#158,.T.);
#117=FACE_BOUND('',#159,.T.);
#118=FACE_BOUND('',#160,.T.);
#119=FACE_BOUND('',#161,.T.);
#120=FACE_BOUND('',#162,.T.);
#121=FACE_BOUND('',#163,.T.);
#122=FACE_BOUND('',#164,.T.);
#123=FACE_BOUND('',#165,.T.);
#124=FACE_BOUND('',#166,.T.);
#125=FACE_BOUND('',#167,.T.);
#126=EDGE_LOOP('',(#168));
#127=EDGE_LOOP('',(#169));
#128=EDGE_LOOP('',(#170));
#129=EDGE_LOOP('',(#171));
#130=EDGE_LOOP('',(#172));
#131=EDGE_LOOP('',(#173));
#132=EDGE_LOOP('',(#174));
#133=EDGE_LOOP('',(#175));
#134=EDGE_LOOP('',(#176));
#135=EDGE_LOOP('',(#177));
#136=EDGE_LOOP('',(#178));
#137=EDGE_LOOP('',(#179));
#138=EDGE_LOOP('',(#180));
#139=EDGE_LOOP('',(#181));
#140=EDGE_LOOP('',(#182));
#141=EDGE_LOOP('',(#183));
#142=EDGE_LOOP('',(#184));
#143=EDGE_LOOP('',(#185));
#144=EDGE_LOOP('',(#186));
#145=EDGE_LOOP('',(#187));
#146=EDGE_LOOP('',(#188));
#147=EDGE_LOOP('',(#189));
#148=EDGE_LOOP('',(#190));
#149=EDGE_LOOP('',(#191));
#150=EDGE_LOOP('',(#192));
#151=EDGE_LOOP('',(#193));
#152=EDGE_LOOP('',(#194));
#153=EDGE_LOOP('',(#195));
#154=EDGE_LOOP('',(#196));
#155=EDGE_LOOP('',(#197));
#156=EDGE_LOOP('',(#198));
#157=EDGE_LOOP('',(#199));
#158=EDGE_LOOP('',(#200));
#159=EDGE_LOOP('',(#201));
#160=EDGE_LOOP('',(#202));
#161=EDGE_LOOP('',(#203));
#162=EDGE_LOOP('',(#204));
#163=EDGE_LOOP('',(#205));
#164=EDGE_LOOP('',(#206));
#165=EDGE_LOOP('',(#207));
#166=EDGE_LOOP('',(#208));
#167=EDGE_LOOP('',(#209));
#168=ORIENTED_EDGE('',*,*,#231,.T.);
#169=ORIENTED_EDGE('',*,*,#232,.T.);
#170=ORIENTED_EDGE('',*,*,#233,.T.);
#171=ORIENTED_EDGE('',*,*,#234,.T.);
#172=ORIENTED_EDGE('',*,*,#235,.T.);
#173=ORIENTED_EDGE('',*,*,#236,.T.);
#174=ORIENTED_EDGE('',*,*,#237,.T.);
#175=ORIENTED_EDGE('',*,*,#238,.T.);
#176=ORIENTED_EDGE('',*,*,#239,.T.);
#177=ORIENTED_EDGE('',*,*,#240,.T.);
#178=ORIENTED_EDGE('',*,*,#238,.F.);
#179=ORIENTED_EDGE('',*,*,#240,.F.);
#180=ORIENTED_EDGE('',*,*,#241,.T.);
#181=ORIENTED_EDGE('',*,*,#242,.T.);
#182=ORIENTED_EDGE('',*,*,#243,.T.);
#183=ORIENTED_EDGE('',*,*,#242,.F.);
#184=ORIENTED_EDGE('',*,*,#244,.T.);
#185=ORIENTED_EDGE('',*,*,#241,.F.);
#186=ORIENTED_EDGE('',*,*,#243,.F.);
#187=ORIENTED_EDGE('',*,*,#239,.F.);
#188=ORIENTED_EDGE('',*,*,#233,.F.);
#189=ORIENTED_EDGE('',*,*,#237,.F.);
#190=ORIENTED_EDGE('',*,*,#236,.F.);
#191=ORIENTED_EDGE('',*,*,#245,.T.);
#192=ORIENTED_EDGE('',*,*,#234,.F.);
#193=ORIENTED_EDGE('',*,*,#246,.F.);
#194=ORIENTED_EDGE('',*,*,#245,.F.);
#195=ORIENTED_EDGE('',*,*,#231,.F.);
#196=ORIENTED_EDGE('',*,*,#232,.F.);
#197=ORIENTED_EDGE('',*,*,#246,.T.);
#198=ORIENTED_EDGE('',*,*,#247,.T.);
#199=ORIENTED_EDGE('',*,*,#244,.F.);
#200=ORIENTED_EDGE('',*,*,#248,.T.);
#201=ORIENTED_EDGE('',*,*,#247,.F.);
#202=ORIENTED_EDGE('',*,*,#249,.T.);
#203=ORIENTED_EDGE('',*,*,#250,.T.);
#204=ORIENTED_EDGE('',*,*,#251,.T.);
#205=ORIENTED_EDGE('',*,*,#250,.F.);
#206=ORIENTED_EDGE('',*,*,#235,.F.);
#207=ORIENTED_EDGE('',*,*,#251,.F.);
#208=ORIENTED_EDGE('',*,*,#249,.F.);
#209=ORIENTED_EDGE('',*,*,#248,.F.);
#210=VERTEX_POINT('',#404);
#211=VERTEX_POINT('',#406);
#212=VERTEX_POINT('',#409);
#213=VERTEX_POINT('',#411);
#214=VERTEX_POINT('',#414);
#215=VERTEX_POINT('',#416);
#216=VERTEX_POINT('',#419);
#217=VERTEX_POINT('',#421);
#218=VERTEX_POINT('',#424);
#219=VERTEX_POINT('',#426);
#220=VERTEX_POINT('',#430);
#221=VERTEX_POINT('',#432);
#222=VERTEX_POINT('',#435);
#223=VERTEX_POINT('',#438);
#224=VERTEX_POINT('',#443);
#225=VERTEX_POINT('',#446);
#226=VERTEX_POINT('',#451);
#227=VERTEX_POINT('',#454);
#228=VERTEX_POINT('',#457);
#229=VERTEX_POINT('',#459);
#230=VERTEX_POINT('',#462);
#231=EDGE_CURVE('',#210,#210,#252,.T.);
#232=EDGE_CURVE('',#211,#211,#253,.T.);
#233=EDGE_CURVE('',#212,#212,#254,.T.);
#234=EDGE_CURVE('',#213,#213,#255,.T.);
#235=EDGE_CURVE('',#214,#214,#256,.T.);
#236=EDGE_CURVE('',#215,#215,#257,.T.);
#237=EDGE_CURVE('',#216,#216,#258,.T.);
#238=EDGE_CURVE('',#217,#217,#259,.T.);
#239=EDGE_CURVE('',#218,#218,#260,.T.);
#240=EDGE_CURVE('',#219,#219,#261,.T.);
#241=EDGE_CURVE('',#220,#220,#262,.T.);
#242=EDGE_CURVE('',#221,#221,#263,.T.);
#243=EDGE_CURVE('',#222,#222,#264,.T.);
#244=EDGE_CURVE('',#223,#223,#265,.T.);
#245=EDGE_CURVE('',#224,#224,#266,.T.);
#246=EDGE_CURVE('',#225,#225,#267,.T.);
#247=EDGE_CURVE('',#226,#226,#268,.T.);
#248=EDGE_CURVE('',#227,#227,#269,.T.);
#249=EDGE_CURVE('',#228,#228,#270,.T.);
#250=EDGE_CURVE('',#229,#229,#271,.T.);
#251=EDGE_CURVE('',#230,#230,#272,.T.);
#252=CIRCLE('',#274,39.);
#253=CIRCLE('',#275,39.);
#254=CIRCLE('',#277,12.2235428646924);
#255=CIRCLE('',#278,38.);
#256=CIRCLE('',#280,30.5);
#257=CIRCLE('',#281,38.);
#258=CIRCLE('',#283,10.);
#259=CIRCLE('',#284,10.);
#260=CIRCLE('',#286,7.);
#261=CIRCLE('',#287,9.00000000000001);
#262=CIRCLE('',#290,4.05);
#263=CIRCLE('',#291,6.);
#264=CIRCLE('',#293,6.);
#265=CIRCLE('',#295,4.05);
#266=CIRCLE('',#299,38.);
#267=CIRCLE('',#301,38.);
#268=CIRCLE('',#305,5.5);
#269=CIRCLE('',#307,5.5);
#270=CIRCLE('',#309,6.5);
#271=CIRCLE('',#310,30.);
#272=CIRCLE('',#312,30.);
#273=AXIS2_PLACEMENT_3D('',#402,#316,#317);
#274=AXIS2_PLACEMENT_3D('',#403,#318,#319);
#275=AXIS2_PLACEMENT_3D('',#405,#320,#321);
#276=AXIS2_PLACEMENT_3D('',#407,#322,#323);
#277=AXIS2_PLACEMENT_3D('',#408,#324,#325);
#278=AXIS2_PLACEMENT_3D('',#410,#326,#327);
#279=AXIS2_PLACEMENT_3D('',#412,#328,#329);
#280=AXIS2_PLACEMENT_3D('',#413,#330,#331);
#281=AXIS2_PLACEMENT_3D('',#415,#332,#333);
#282=AXIS2_PLACEMENT_3D('',#417,#334,#335);
#283=AXIS2_PLACEMENT_3D('',#418,#336,#337);
#284=AXIS2_PLACEMENT_3D('',#420,#338,#339);
#285=AXIS2_PLACEMENT_3D('',#422,#340,#341);
#286=AXIS2_PLACEMENT_3D('',#423,#342,#343);
#287=AXIS2_PLACEMENT_3D('',#425,#344,#345);
#288=AXIS2_PLACEMENT_3D('',#427,#346,#347);
#289=AXIS2_PLACEMENT_3D('',#428,#348,#349);
#290=AXIS2_PLACEMENT_3D('',#429,#350,#351);
#291=AXIS2_PLACEMENT_3D('',#431,#352,#353);
#292=AXIS2_PLACEMENT_3D('',#433,#354,#355);
#293=AXIS2_PLACEMENT_3D('',#434,#356,#357);
#294=AXIS2_PLACEMENT_3D('',#436,#358,#359);
#295=AXIS2_PLACEMENT_3D('',#437,#360,#361);
#296=AXIS2_PLACEMENT_3D('',#439,#362,#363);
#297=AXIS2_PLACEMENT_3D('',#440,#364,#365);
#298=AXIS2_PLACEMENT_3D('',#441,#366,#367);
#299=AXIS2_PLACEMENT_3D('',#442,#368,#369);
#300=AXIS2_PLACEMENT_3D('',#444,#370,#371);
#301=AXIS2_PLACEMENT_3D('',#445,#372,#373);
#302=AXIS2_PLACEMENT_3D('',#447,#374,#375);
#303=AXIS2_PLACEMENT_3D('',#448,#376,#377);
#304=AXIS2_PLACEMENT_3D('',#449,#378,#379);
#305=AXIS2_PLACEMENT_3D('',#450,#380,#381);
#306=AXIS2_PLACEMENT_3D('',#452,#382,#383);
#307=AXIS2_PLACEMENT_3D('',#453,#384,#385);
#308=AXIS2_PLACEMENT_3D('',#455,#386,#387);
#309=AXIS2_PLACEMENT_3D('',#456,#388,#389);
#310=AXIS2_PLACEMENT_3D('',#458,#390,#391);
#311=AXIS2_PLACEMENT_3D('',#460,#392,#393);
#312=AXIS2_PLACEMENT_3D('',#461,#394,#395);
#313=AXIS2_PLACEMENT_3D('',#463,#396,#397);
#314=AXIS2_PLACEMENT_3D('',#464,#398,#399);
#315=AXIS2_PLACEMENT_3D('',#465,#400,#401);
#316=DIRECTION('',(0.,0.,1.));
#317=DIRECTION('',(1.,0.,0.));
#318=DIRECTION('',(0.,1.,0.));
#319=DIRECTION('',(0.,0.,1.));
#320=DIRECTION('',(0.,-1.,0.));
#321=DIRECTION('',(0.,0.,1.));
#322=DIRECTION('',(0.,1.,0.));
#323=DIRECTION('',(0.,0.,1.));
#324=DIRECTION('',(0.,-1.,0.));
#325=DIRECTION('',(0.,0.,-1.));
#326=DIRECTION('',(0.,1.,0.));
#327=DIRECTION('',(0.,0.,-1.));
#328=DIRECTION('',(0.,-1.,0.));
#329=DIRECTION('',(0.,-1.11258145771921E-017,-1.));
#330=DIRECTION('',(0.,1.,0.));
#331=DIRECTION('',(0.,0.,-1.));
#332=DIRECTION('',(0.,-1.,0.));
#333=DIRECTION('',(0.,0.,-1.));
#334=DIRECTION('',(0.,-1.,0.));
#335=DIRECTION('',(0.,0.,-1.));
#336=DIRECTION('',(0.,1.,0.));
#337=DIRECTION('',(0.,0.,1.));
#338=DIRECTION('',(0.,-1.,0.));
#339=DIRECTION('',(0.,0.,1.));
#340=DIRECTION('',(0.,1.,0.));
#341=DIRECTION('',(0.,0.,1.));
#342=DIRECTION('',(0.,-1.,0.));
#343=DIRECTION('',(0.,0.,1.));
#344=DIRECTION('',(0.,1.,0.));
#345=DIRECTION('',(0.,0.,1.));
#346=DIRECTION('',(0.,1.,0.));
#347=DIRECTION('',(0.,0.,1.));
#348=DIRECTION('',(0.,-1.,0.));
#349=DIRECTION('',(0.,-2.75080035833785E-017,-1.));
#350=DIRECTION('',(0.,-1.,0.));
#351=DIRECTION('',(0.,0.,1.));
#352=DIRECTION('',(0.,1.,0.));
#353=DIRECTION('',(0.,0.,-1.));
#354=DIRECTION('',(0.,1.,0.));
#355=DIRECTION('',(0.,-2.49259862576138E-017,1.));
#356=DIRECTION('',(0.,1.,0.));
#357=DIRECTION('',(0.,0.,1.));
#358=DIRECTION('',(0.,-1.,0.));
#359=DIRECTION('',(0.,0.,-1.));
#360=DIRECTION('',(0.,-1.,0.));
#361=DIRECTION('',(0.,0.,-1.));
#362=DIRECTION('',(0.,-1.,0.));
#363=DIRECTION('',(0.,0.,-1.));
#364=DIRECTION('',(0.,1.,0.));
#365=DIRECTION('',(0.,8.26879114666205E-017,1.));
#366=DIRECTION('',(0.,1.,0.));
#367=DIRECTION('',(0.,0.,1.));
#368=DIRECTION('',(0.,-1.,0.));
#369=DIRECTION('',(0.,0.,1.));
#370=DIRECTION('',(0.,1.,0.));
#371=DIRECTION('',(0.,0.,1.));
#372=DIRECTION('',(0.,-1.,0.));
#373=DIRECTION('',(0.,0.,1.));
#374=DIRECTION('',(0.,1.,0.));
#375=DIRECTION('',(0.,0.,1.));
#376=DIRECTION('',(0.,1.,0.));
#377=DIRECTION('',(0.,5.34274795296033E-017,1.));
#378=DIRECTION('',(0.,-1.,0.));
#379=DIRECTION('',(0.,-2.67394755449215E-017,-1.));
#380=DIRECTION('',(0.,-1.,0.));
#381=DIRECTION('',(0.,0.,1.));
#382=DIRECTION('',(0.,-1.,0.));
#383=DIRECTION('',(0.,-2.49334501133268E-017,-1.));
#384=DIRECTION('',(0.,-1.,0.));
#385=DIRECTION('',(0.,0.,1.));
#386=DIRECTION('',(0.,1.,0.));
#387=DIRECTION('',(0.,0.,1.));
#388=DIRECTION('',(0.,1.,0.));
#389=DIRECTION('',(0.,0.,1.));
#390=DIRECTION('',(0.,-1.,0.));
#391=DIRECTION('',(0.,0.,1.));
#392=DIRECTION('',(0.,1.,0.));
#393=DIRECTION('',(0.,0.,1.));
#394=DIRECTION('',(0.,-1.,0.));
#395=DIRECTION('',(0.,0.,-1.));
#396=DIRECTION('',(0.,1.,0.));
#397=DIRECTION('',(0.,0.,1.));
#398=DIRECTION('',(0.,-1.,0.));
#399=DIRECTION('',(0.,-4.48417597552257E-017,-1.));
#400=DIRECTION('',(0.,-1.,0.));
#401=DIRECTION('',(0.,1.38018774816653E-017,-1.));
#402=CARTESIAN_POINT('',(0.,0.,0.));
#403=CARTESIAN_POINT('',(0.,1.5,0.));
#404=CARTESIAN_POINT('',(0.,1.5,39.));
#405=CARTESIAN_POINT('',(0.,18.5,0.));
#406=CARTESIAN_POINT('',(0.,18.5,39.));
#407=CARTESIAN_POINT('',(0.,90.,0.));
#408=CARTESIAN_POINT('',(0.,27.1747300655722,0.));
#409=CARTESIAN_POINT('',(0.,27.1747300655722,-12.2235428646924));
#410=CARTESIAN_POINT('',(0.,20.2679491924311,0.));
#411=CARTESIAN_POINT('',(0.,20.2679491924311,-38.));
#412=CARTESIAN_POINT('',(0.,27.7705265805025,0.));
#413=CARTESIAN_POINT('',(0.,-8.84015083357781E-015,0.));
#414=CARTESIAN_POINT('',(0.,-8.84015083357781E-015,-30.5));
#415=CARTESIAN_POINT('',(0.,-8.67361737988404E-015,0.));
#416=CARTESIAN_POINT('',(0.,-8.67361737988404E-015,-38.));
#417=CARTESIAN_POINT('',(0.,-8.84015083357781E-015,-39.));
#418=CARTESIAN_POINT('',(0.,30.0725075444394,0.));
#419=CARTESIAN_POINT('',(0.,30.0725075444394,10.));
#420=CARTESIAN_POINT('',(0.,89.,0.));
#421=CARTESIAN_POINT('',(0.,89.,10.));
#422=CARTESIAN_POINT('',(0.,90.,0.));
#423=CARTESIAN_POINT('',(0.,90.,0.));
#424=CARTESIAN_POINT('',(0.,90.,7.));
#425=CARTESIAN_POINT('',(0.,90.,0.));
#426=CARTESIAN_POINT('',(0.,90.,9.00000000000001));
#427=CARTESIAN_POINT('',(0.,90.,0.));
#428=CARTESIAN_POINT('',(0.,90.,0.));
#429=CARTESIAN_POINT('',(0.,75.8283217928962,0.));
#430=CARTESIAN_POINT('',(0.,75.8283217928962,4.05));
#431=CARTESIAN_POINT('',(0.,77.,0.));
#432=CARTESIAN_POINT('',(0.,77.,-6.));
#433=CARTESIAN_POINT('',(0.,77.,0.));
#434=CARTESIAN_POINT('',(0.,89.,0.));
#435=CARTESIAN_POINT('',(0.,89.,6.));
#436=CARTESIAN_POINT('',(0.,90.,0.));
#437=CARTESIAN_POINT('',(0.,72.87124789759,0.));
#438=CARTESIAN_POINT('',(0.,72.87124789759,-4.05));
#439=CARTESIAN_POINT('',(0.,90.,0.));
#440=CARTESIAN_POINT('',(0.,90.,0.));
#441=CARTESIAN_POINT('',(0.,30.0725075444394,0.));
#442=CARTESIAN_POINT('',(0.,0.5,0.));
#443=CARTESIAN_POINT('',(0.,0.5,38.));
#444=CARTESIAN_POINT('',(0.,-2.,0.));
#445=CARTESIAN_POINT('',(0.,19.5,0.));
#446=CARTESIAN_POINT('',(0.,19.5,38.));
#447=CARTESIAN_POINT('',(0.,22.,0.));
#448=CARTESIAN_POINT('',(0.,1.5,0.));
#449=CARTESIAN_POINT('',(0.,19.5,0.));
#450=CARTESIAN_POINT('',(0.,72.,0.));
#451=CARTESIAN_POINT('',(0.,72.,5.5));
#452=CARTESIAN_POINT('',(0.,72.,0.));
#453=CARTESIAN_POINT('',(0.,3.99999999999999,0.));
#454=CARTESIAN_POINT('',(0.,3.99999999999999,5.5));
#455=CARTESIAN_POINT('',(0.,72.,0.));
#456=CARTESIAN_POINT('',(0.,2.99999999999999,0.));
#457=CARTESIAN_POINT('',(0.,2.99999999999999,6.5));
#458=CARTESIAN_POINT('',(0.,2.99999999999999,0.));
#459=CARTESIAN_POINT('',(0.,2.99999999999999,30.));
#460=CARTESIAN_POINT('',(0.,2.99999999999999,0.));
#461=CARTESIAN_POINT('',(0.,0.499999999999991,0.));
#462=CARTESIAN_POINT('',(0.,0.499999999999991,-30.));
#463=CARTESIAN_POINT('',(0.,-8.67361737988404E-015,0.));
#464=CARTESIAN_POINT('',(0.,0.499999999999991,0.));
#465=CARTESIAN_POINT('',(0.,3.99999999999999,0.));
#466=MECHANICAL_DESIGN_GEOMETRIC_PRESENTATION_REPRESENTATION('',(#32),#467);
#467=(
GEOMETRIC_REPRESENTATION_CONTEXT(3)
GLOBAL_UNCERTAINTY_ASSIGNED_CONTEXT((#468))
GLOBAL_UNIT_ASSIGNED_CONTEXT((#474,#470,#469))
REPRESENTATION_CONTEXT('10174888','TOP_LEVEL_ASSEMBLY_PART')
);
#468=UNCERTAINTY_MEASURE_WITH_UNIT(LENGTH_MEASURE(2.E-005),#474,
'DISTANCE_ACCURACY_VALUE','Maximum Tolerance applied to model');
#469=(
NAMED_UNIT(*)
SI_UNIT($,.STERADIAN.)
SOLID_ANGLE_UNIT()
);
#470=(
CONVERSION_BASED_UNIT('DEGREE',#472)
NAMED_UNIT(#471)
PLANE_ANGLE_UNIT()
);
#471=DIMENSIONAL_EXPONENTS(0.,0.,0.,0.,0.,0.,0.);
#472=PLANE_ANGLE_MEASURE_WITH_UNIT(PLANE_ANGLE_MEASURE(0.0174532925),#473);
#473=(
NAMED_UNIT(*)
PLANE_ANGLE_UNIT()
SI_UNIT($,.RADIAN.)
);
#474=(
LENGTH_UNIT()
NAMED_UNIT(*)
SI_UNIT(.MILLI.,.METRE.)
);
ENDSEC;
END-ISO-10303-21;
