  0
SECTION
  2
HEADER
  9
$ACADVER
  1
AC1014
  9
$ACADMAINTVER
 70
     9
  9
$DWGCODEPAGE
  3
ANSI_1252
  9
$INSBASE
 10
0.0
 20
0.0
 30
0.0
  9
$EXTMIN
 10
1.000000000000000E+20
 20
1.000000000000000E+20
 30
1.000000000000000E+20
  9
$EXTMAX
 10
-1.000000000000000E+20
 20
-1.000000000000000E+20
 30
-1.000000000000000E+20
  9
$LIMMIN
 10
0.0
 20
0.0
  9
$LIMMAX
 10
12.0
 20
9.0
  9
$ORTHOMODE
 70
     0
  9
$REGENMODE
 70
     1
  9
$FILLMODE
 70
     1
  9
$QTEXTMODE
 70
     0
  9
$MIRRTEXT
 70
     1
  9
$DRAGMODE
 70
     2
  9
$LTSCALE
 40
1.0
  9
$OSMODE
 70
    37
  9
$ATTMODE
 70
     1
  9
$TEXTSIZE
 40
0.2
  9
$TRACEWID
 40
0.05
  9
$TEXTSTYLE
  7
STANDARD
  9
$CLAYER
  8
0
  9
$CELTYPE
  6
BYLAYER
  9
$CECOLOR
 62
   256
  9
$CELTSCALE
 40
1.0
  9
$DELOBJ
 70
     1
  9
$DISPSILH
 70
     0
  9
$DIMSCALE
 40
1.0
  9
$DIMASZ
 40
0.18
  9
$DIMEXO
 40
0.0625
  9
$DIMDLI
 40
0.38
  9
$DIMRND
 40
0.0
  9
$DIMDLE
 40
0.0
  9
$DIMEXE
 40
0.18
  9
$DIMTP
 40
0.0
  9
$DIMTM
 40
0.0
  9
$DIMTXT
 40
0.18
  9
$DIMCEN
 40
0.09
  9
$DIMTSZ
 40
0.0
  9
$DIMTOL
 70
     0
  9
$DIMLIM
 70
     0
  9
$DIMTIH
 70
     1
  9
$DIMTOH
 70
     1
  9
$DIMSE1
 70
     0
  9
$DIMSE2
 70
     0
  9
$DIMTAD
 70
     0
  9
$DIMZIN
 70
     0
  9
$DIMBLK
  1

  9
$DIMASO
 70
     1
  9
$DIMSHO
 70
     1
  9
$DIMPOST
  1

  9
$DIMAPOST
  1

  9
$DIMALT
 70
     0
  9
$DIMALTD
 70
     2
  9
$DIMALTF
 40
25.4
  9
$DIMLFAC
 40
1.0
  9
$DIMTOFL
 70
     0
  9
$DIMTVP
 40
0.0
  9
$DIMTIX
 70
     0
  9
$DIMSOXD
 70
     0
  9
$DIMSAH
 70
     0
  9
$DIMBLK1
  1

  9
$DIMBLK2
  1

  9
$DIMSTYLE
  2
STANDARD
  9
$DIMCLRD
 70
     0
  9
$DIMCLRE
 70
     0
  9
$DIMCLRT
 70
     0
  9
$DIMTFAC
 40
1.0
  9
$DIMGAP
 40
0.09
  9
$DIMJUST
 70
     0
  9
$DIMSD1
 70
     0
  9
$DIMSD2
 70
     0
  9
$DIMTOLJ
 70
     1
  9
$DIMTZIN
 70
     0
  9
$DIMALTZ
 70
     0
  9
$DIMALTTZ
 70
     0
  9
$DIMFIT
 70
     3
  9
$DIMUPT
 70
     0
  9
$DIMUNIT
 70
     2
  9
$DIMDEC
 70
     4
  9
$DIMTDEC
 70
     4
  9
$DIMALTU
 70
     2
  9
$DIMALTTD
 70
     2
  9
$DIMTXSTY
  7
STANDARD
  9
$DIMAUNIT
 70
     0
  9
$LUNITS
 70
     2
  9
$LUPREC
 70
     4
  9
$SKETCHINC
 40
0.1
  9
$FILLETRAD
 40
0.5
  9
$AUNITS
 70
     0
  9
$AUPREC
 70
     0
  9
$MENU
  1
.
  9
$ELEVATION
 40
0.0
  9
$PELEVATION
 40
0.0
  9
$THICKNESS
 40
0.0
  9
$LIMCHECK
 70
     0
  9
$CHAMFERA
 40
0.5
  9
$CHAMFERB
 40
0.5
  9
$CHAMFERC
 40
1.0
  9
$CHAMFERD
 40
0.0
  9
$SKPOLY
 70
     0
  9
$TDCREATE
 40
2458303.490426273
  9
$TDUPDATE
 40
2458303.490426285
  9
$TDINDWG
 40
0.0000000116
  9
$TDUSRTIMER
 40
0.0000000116
  9
$USRTIMER
 70
     1
  9
$ANGBASE
 50
0.0
  9
$ANGDIR
 70
     0
  9
$PDMODE
 70
     0
  9
$PDSIZE
 40
0.0
  9
$PLINEWID
 40
0.0
  9
$COORDS
 70
     1
  9
$SPLFRAME
 70
     0
  9
$SPLINETYPE
 70
     6
  9
$SPLINESEGS
 70
     8
  9
$ATTDIA
 70
     0
  9
$ATTREQ
 70
     1
  9
$HANDLING
 70
     1
  9
$HANDSEED
  5
75D
  9
$SURFTAB1
 70
     6
  9
$SURFTAB2
 70
     6
  9
$SURFTYPE
 70
     6
  9
$SURFU
 70
     6
  9
$SURFV
 70
     6
  9
$UCSNAME
  2

  9
$UCSORG
 10
0.0
 20
0.0
 30
0.0
  9
$UCSXDIR
 10
1.0
 20
0.0
 30
0.0
  9
$UCSYDIR
 10
0.0
 20
1.0
 30
0.0
  9
$PUCSNAME
  2

  9
$PUCSORG
 10
0.0
 20
0.0
 30
0.0
  9
$PUCSXDIR
 10
1.0
 20
0.0
 30
0.0
  9
$PUCSYDIR
 10
0.0
 20
1.0
 30
0.0
  9
$USERI1
 70
     0
  9
$USERI2
 70
     0
  9
$USERI3
 70
     0
  9
$USERI4
 70
     0
  9
$USERI5
 70
     0
  9
$USERR1
 40
0.0
  9
$USERR2
 40
0.0
  9
$USERR3
 40
0.0
  9
$USERR4
 40
0.0
  9
$USERR5
 40
0.0
  9
$WORLDVIEW
 70
     1
  9
$SHADEDGE
 70
     3
  9
$SHADEDIF
 70
    70
  9
$TILEMODE
 70
     1
  9
$MAXACTVP
 70
    64
  9
$PINSBASE
 10
0.0
 20
0.0
 30
0.0
  9
$PLIMCHECK
 70
     0
  9
$PEXTMIN
 10
1.000000000000000E+20
 20
1.000000000000000E+20
 30
1.000000000000000E+20
  9
$PEXTMAX
 10
-1.000000000000000E+20
 20
-1.000000000000000E+20
 30
-1.000000000000000E+20
  9
$PLIMMIN
 10
0.0
 20
0.0
  9
$PLIMMAX
 10
12.0
 20
9.0
  9
$UNITMODE
 70
     0
  9
$VISRETAIN
 70
     1
  9
$PLINEGEN
 70
     0
  9
$PSLTSCALE
 70
     1
  9
$TREEDEPTH
 70
  3020
  9
$PICKSTYLE
 70
     1
  9
$CMLSTYLE
  2
STANDARD
  9
$CMLJUST
 70
     0
  9
$CMLSCALE
 40
1.0
  9
$PROXYGRAPHICS
 70
     1
  9
$MEASUREMENT
 70
     0
  0
ENDSEC
  0
SECTION
  2
CLASSES
  0
CLASS
  1
ACDBDICTIONARYWDFLT
  2
AcDbDictionaryWithDefault
  3
ObjectDBX Classes
 90
        0
280
     0
281
     0
  0
CLASS
  1
VISUALSTYLE
  2
AcDbVisualStyle
  3
ObjectDBX Classes
 90
     4095
280
     0
281
     0
  0
CLASS
  1
XRECORD
  2
AcDbXrecord
  3
AutoCAD 2000
 90
        0
280
     0
281
     0
  0
CLASS
  1
LWPOLYLINE
  2
AcDbPolyline
  3
AutoCAD 2000
 90
        0
280
     0
281
     1
  0
CLASS
  1
HATCH
  2
AcDbHatch
  3
AutoCAD 2000
 90
        0
280
     0
281
     1
  0
CLASS
  1
ACDBPLACEHOLDER
  2
AcDbPlaceHolder
  3
ObjectDBX Classes
 90
        0
280
     0
281
     0
  0
CLASS
  1
LAYOUT
  2
AcDbLayout
  3
ObjectDBX Classes
 90
        0
280
     0
281
     0
  0
ENDSEC
  0
SECTION
  2
TABLES
  0
TABLE
  2
VPORT
  5
8
330
0
100
AcDbSymbolTable
 70
     1
  0
VPORT
  5
29
330
8
100
AcDbSymbolTableRecord
100
AcDbViewportTableRecord
  2
*ACTIVE
 70
     0
 10
0.0
 20
0.0
 11
1.0
 21
1.0
 12
0.0
 22
0.0
 13
0.0
 23
0.0
 14
0.5
 24
0.5
 15
0.5
 25
0.5
 16
0.0
 26
0.0
 36
1.0
 17
80.3534070979672
 27
174.810173838676
 37
0.0
 40
65.51951495757848
 41
0.8864981964644391
 42
50.0
 43
0.0
 44
0.0
 50
0.0
 51
0.0
 71
     0
 72
   100
 73
     1
 74
     3
 75
     0
 76
     0
 77
     0
 78
     0
  0
ENDTAB
  0
TABLE
  2
LTYPE
  5
5
330
0
100
AcDbSymbolTable
 70
     2
  0
LTYPE
  5
14
330
5
100
AcDbSymbolTableRecord
100
AcDbLinetypeTableRecord
  2
BYBLOCK
 70
     0
  3

 72
    65
 73
     0
 40
0.0
  0
LTYPE
  5
15
330
5
100
AcDbSymbolTableRecord
100
AcDbLinetypeTableRecord
  2
BYLAYER
 70
     0
  3

 72
    65
 73
     0
 40
0.0
  0
LTYPE
  5
16
330
5
100
AcDbSymbolTableRecord
100
AcDbLinetypeTableRecord
  2
CONTINUOUS
 70
     0
  3
Solid line
 72
    65
 73
     0
 40
0.0
  0
LTYPE
  5
4D
330
5
100
AcDbSymbolTableRecord
100
AcDbLinetypeTableRecord
  2
AI-LINETYPE-1
 70
     0
  3
Adobe Illustrator Linetype No. 1
 72
    65
 73
     4
 40
8.819444442239584
 49
7.055555553791667
 74
     0
 49
-0.7055555553791667
 74
     0
 49
0.3527777776895833
 74
     0
 49
-0.7055555553791667
 74
     0
  0
ENDTAB
  0
TABLE
  2
LAYER
  5
2
330
0
100
AcDbSymbolTable
 70
     5
  0
LAYER
  5
10
330
2
100
AcDbSymbolTableRecord
100
AcDbLayerTableRecord
  2
0
 70
     0
 62
     7
  6
CONTINUOUS
  0
LAYER
  5
3B
330
2
100
AcDbSymbolTableRecord
100
AcDbLayerTableRecord
  2
STANDARDEBENE
 70
     0
 62
     7
  6
CONTINUOUS
  0
LAYER
  5
40
330
2
100
AcDbSymbolTableRecord
100
AcDbLayerTableRecord
  2
EBENE_1
 70
     0
 62
     7
  6
CONTINUOUS
  0
LAYER
  5
416
330
2
100
AcDbSymbolTableRecord
100
AcDbLayerTableRecord
  2
BEMAßUNG
 70
     1
 62
     7
  6
CONTINUOUS
  0
LAYER
  5
737
330
2
100
AcDbSymbolTableRecord
100
AcDbLayerTableRecord
  2
TEXT
 70
     1
 62
     7
  6
CONTINUOUS
  0
ENDTAB
  0
TABLE
  2
STYLE
  5
3
330
0
100
AcDbSymbolTable
 70
     1
  0
STYLE
  5
11
330
3
100
AcDbSymbolTableRecord
100
AcDbTextStyleTableRecord
  2
STANDARD
 70
     0
 40
0.0
 41
1.0
 50
0.0
 71
     0
 42
0.2
  3
txt
  4

  0
ENDTAB
  0
TABLE
  2
VIEW
  5
6
330
0
100
AcDbSymbolTable
 70
     0
  0
ENDTAB
  0
TABLE
  2
UCS
  5
7
330
0
100
AcDbSymbolTable
 70
     0
  0
ENDTAB
  0
TABLE
  2
APPID
  5
9
330
0
100
AcDbSymbolTable
 70
     1
  0
APPID
  5
12
330
9
100
AcDbSymbolTableRecord
100
AcDbRegAppTableRecord
  2
ACAD
 70
     0
  0
ENDTAB
  0
TABLE
  2
DIMSTYLE
  5
A
330
0
100
AcDbSymbolTable
 70
     1
  0
DIMSTYLE
105
27
330
A
100
AcDbSymbolTableRecord
100
AcDbDimStyleTableRecord
  2
STANDARD
 70
     0
  3

  4

  5

  6

  7

 40
1.0
 41
0.18
 42
0.0625
 43
0.38
 44
0.18
 45
0.0
 46
0.0
 47
0.0
 48
0.0
140
0.18
141
0.09
142
0.0
143
25.4
144
1.0
145
0.0
146
1.0
147
0.09
 71
     0
 72
     0
 73
     1
 74
     1
 75
     0
 76
     0
 77
     0
 78
     0
170
     0
171
     2
172
     0
173
     0
174
     0
175
     0
176
     0
177
     0
178
     0
270
     2
271
     4
272
     4
273
     2
274
     2
340
11
275
     0
280
     0
281
     0
282
     0
283
     1
284
     0
285
     0
286
     0
287
     3
288
     0
  0
ENDTAB
  0
TABLE
  2
BLOCK_RECORD
  5
1
330
0
100
AcDbSymbolTable
 70
    74
  0
BLOCK_RECORD
  5
1F
330
1
100
AcDbSymbolTableRecord
100
AcDbBlockTableRecord
  2
*MODEL_SPACE
  0
BLOCK_RECORD
  5
1B
330
1
100
AcDbSymbolTableRecord
100
AcDbBlockTableRecord
  2
*PAPER_SPACE
  0
BLOCK_RECORD
  5
41
330
1
100
AcDbSymbolTableRecord
100
AcDbBlockTableRecord
  2
BLOCK_2
  0
BLOCK_RECORD
  5
1D6
330
1
100
AcDbSymbolTableRecord
100
AcDbBlockTableRecord
  2
BLOCK_3
  0
BLOCK_RECORD
  5
1DE
330
1
100
AcDbSymbolTableRecord
100
AcDbBlockTableRecord
  2
BLOCK_4
  0
BLOCK_RECORD
  5
1E6
330
1
100
AcDbSymbolTableRecord
100
AcDbBlockTableRecord
  2
BLOCK_5
  0
BLOCK_RECORD
  5
1EE
330
1
100
AcDbSymbolTableRecord
100
AcDbBlockTableRecord
  2
BLOCK_6
  0
BLOCK_RECORD
  5
1F6
330
1
100
AcDbSymbolTableRecord
100
AcDbBlockTableRecord
  2
BLOCK_7
  0
BLOCK_RECORD
  5
1FE
330
1
100
AcDbSymbolTableRecord
100
AcDbBlockTableRecord
  2
BLOCK_8
  0
BLOCK_RECORD
  5
206
330
1
100
AcDbSymbolTableRecord
100
AcDbBlockTableRecord
  2
BLOCK_9
  0
BLOCK_RECORD
  5
20E
330
1
100
AcDbSymbolTableRecord
100
AcDbBlockTableRecord
  2
BLOCK_10
  0
BLOCK_RECORD
  5
216
330
1
100
AcDbSymbolTableRecord
100
AcDbBlockTableRecord
  2
BLOCK_11
  0
BLOCK_RECORD
  5
21E
330
1
100
AcDbSymbolTableRecord
100
AcDbBlockTableRecord
  2
BLOCK_12
  0
BLOCK_RECORD
  5
226
330
1
100
AcDbSymbolTableRecord
100
AcDbBlockTableRecord
  2
BLOCK_13
  0
BLOCK_RECORD
  5
22E
330
1
100
AcDbSymbolTableRecord
100
AcDbBlockTableRecord
  2
BLOCK_14
  0
BLOCK_RECORD
  5
236
330
1
100
AcDbSymbolTableRecord
100
AcDbBlockTableRecord
  2
BLOCK_15
  0
BLOCK_RECORD
  5
23E
330
1
100
AcDbSymbolTableRecord
100
AcDbBlockTableRecord
  2
BLOCK_16
  0
BLOCK_RECORD
  5
246
330
1
100
AcDbSymbolTableRecord
100
AcDbBlockTableRecord
  2
BLOCK_17
  0
BLOCK_RECORD
  5
24E
330
1
100
AcDbSymbolTableRecord
100
AcDbBlockTableRecord
  2
BLOCK_18
  0
BLOCK_RECORD
  5
256
330
1
100
AcDbSymbolTableRecord
100
AcDbBlockTableRecord
  2
BLOCK_19
  0
BLOCK_RECORD
  5
25E
330
1
100
AcDbSymbolTableRecord
100
AcDbBlockTableRecord
  2
BLOCK_20
  0
BLOCK_RECORD
  5
266
330
1
100
AcDbSymbolTableRecord
100
AcDbBlockTableRecord
  2
BLOCK_21
  0
BLOCK_RECORD
  5
26E
330
1
100
AcDbSymbolTableRecord
100
AcDbBlockTableRecord
  2
BLOCK_22
  0
BLOCK_RECORD
  5
276
330
1
100
AcDbSymbolTableRecord
100
AcDbBlockTableRecord
  2
BLOCK_23
  0
BLOCK_RECORD
  5
27E
330
1
100
AcDbSymbolTableRecord
100
AcDbBlockTableRecord
  2
BLOCK_24
  0
BLOCK_RECORD
  5
286
330
1
100
AcDbSymbolTableRecord
100
AcDbBlockTableRecord
  2
BLOCK_25
  0
BLOCK_RECORD
  5
28E
330
1
100
AcDbSymbolTableRecord
100
AcDbBlockTableRecord
  2
BLOCK_26
  0
BLOCK_RECORD
  5
296
330
1
100
AcDbSymbolTableRecord
100
AcDbBlockTableRecord
  2
BLOCK_27
  0
BLOCK_RECORD
  5
29E
330
1
100
AcDbSymbolTableRecord
100
AcDbBlockTableRecord
  2
BLOCK_28
  0
BLOCK_RECORD
  5
2A6
330
1
100
AcDbSymbolTableRecord
100
AcDbBlockTableRecord
  2
BLOCK_29
  0
BLOCK_RECORD
  5
2AE
330
1
100
AcDbSymbolTableRecord
100
AcDbBlockTableRecord
  2
BLOCK_30
  0
BLOCK_RECORD
  5
2B6
330
1
100
AcDbSymbolTableRecord
100
AcDbBlockTableRecord
  2
BLOCK_31
  0
BLOCK_RECORD
  5
2BE
330
1
100
AcDbSymbolTableRecord
100
AcDbBlockTableRecord
  2
BLOCK_32
  0
BLOCK_RECORD
  5
2C6
330
1
100
AcDbSymbolTableRecord
100
AcDbBlockTableRecord
  2
BLOCK_33
  0
BLOCK_RECORD
  5
2CE
330
1
100
AcDbSymbolTableRecord
100
AcDbBlockTableRecord
  2
BLOCK_34
  0
BLOCK_RECORD
  5
2D6
330
1
100
AcDbSymbolTableRecord
100
AcDbBlockTableRecord
  2
BLOCK_35
  0
BLOCK_RECORD
  5
2DE
330
1
100
AcDbSymbolTableRecord
100
AcDbBlockTableRecord
  2
BLOCK_36
  0
BLOCK_RECORD
  5
2E6
330
1
100
AcDbSymbolTableRecord
100
AcDbBlockTableRecord
  2
BLOCK_37
  0
BLOCK_RECORD
  5
2EE
330
1
100
AcDbSymbolTableRecord
100
AcDbBlockTableRecord
  2
BLOCK_38
  0
BLOCK_RECORD
  5
2F6
330
1
100
AcDbSymbolTableRecord
100
AcDbBlockTableRecord
  2
BLOCK_39
  0
BLOCK_RECORD
  5
2FE
330
1
100
AcDbSymbolTableRecord
100
AcDbBlockTableRecord
  2
BLOCK_40
  0
BLOCK_RECORD
  5
306
330
1
100
AcDbSymbolTableRecord
100
AcDbBlockTableRecord
  2
BLOCK_41
  0
BLOCK_RECORD
  5
30E
330
1
100
AcDbSymbolTableRecord
100
AcDbBlockTableRecord
  2
BLOCK_42
  0
BLOCK_RECORD
  5
316
330
1
100
AcDbSymbolTableRecord
100
AcDbBlockTableRecord
  2
BLOCK_43
  0
BLOCK_RECORD
  5
31E
330
1
100
AcDbSymbolTableRecord
100
AcDbBlockTableRecord
  2
BLOCK_44
  0
BLOCK_RECORD
  5
326
330
1
100
AcDbSymbolTableRecord
100
AcDbBlockTableRecord
  2
BLOCK_45
  0
BLOCK_RECORD
  5
32E
330
1
100
AcDbSymbolTableRecord
100
AcDbBlockTableRecord
  2
BLOCK_46
  0
BLOCK_RECORD
  5
336
330
1
100
AcDbSymbolTableRecord
100
AcDbBlockTableRecord
  2
BLOCK_47
  0
BLOCK_RECORD
  5
33E
330
1
100
AcDbSymbolTableRecord
100
AcDbBlockTableRecord
  2
BLOCK_48
  0
BLOCK_RECORD
  5
346
330
1
100
AcDbSymbolTableRecord
100
AcDbBlockTableRecord
  2
BLOCK_49
  0
BLOCK_RECORD
  5
34E
330
1
100
AcDbSymbolTableRecord
100
AcDbBlockTableRecord
  2
BLOCK_50
  0
BLOCK_RECORD
  5
356
330
1
100
AcDbSymbolTableRecord
100
AcDbBlockTableRecord
  2
BLOCK_51
  0
BLOCK_RECORD
  5
35E
330
1
100
AcDbSymbolTableRecord
100
AcDbBlockTableRecord
  2
BLOCK_52
  0
BLOCK_RECORD
  5
366
330
1
100
AcDbSymbolTableRecord
100
AcDbBlockTableRecord
  2
BLOCK_53
  0
BLOCK_RECORD
  5
36E
330
1
100
AcDbSymbolTableRecord
100
AcDbBlockTableRecord
  2
BLOCK_54
  0
BLOCK_RECORD
  5
376
330
1
100
AcDbSymbolTableRecord
100
AcDbBlockTableRecord
  2
BLOCK_55
  0
BLOCK_RECORD
  5
37E
330
1
100
AcDbSymbolTableRecord
100
AcDbBlockTableRecord
  2
BLOCK_56
  0
BLOCK_RECORD
  5
386
330
1
100
AcDbSymbolTableRecord
100
AcDbBlockTableRecord
  2
BLOCK_57
  0
BLOCK_RECORD
  5
38E
330
1
100
AcDbSymbolTableRecord
100
AcDbBlockTableRecord
  2
BLOCK_58
  0
BLOCK_RECORD
  5
396
330
1
100
AcDbSymbolTableRecord
100
AcDbBlockTableRecord
  2
BLOCK_59
  0
BLOCK_RECORD
  5
39E
330
1
100
AcDbSymbolTableRecord
100
AcDbBlockTableRecord
  2
BLOCK_60
  0
BLOCK_RECORD
  5
3A6
330
1
100
AcDbSymbolTableRecord
100
AcDbBlockTableRecord
  2
BLOCK_61
  0
BLOCK_RECORD
  5
3AE
330
1
100
AcDbSymbolTableRecord
100
AcDbBlockTableRecord
  2
BLOCK_62
  0
BLOCK_RECORD
  5
3B6
330
1
100
AcDbSymbolTableRecord
100
AcDbBlockTableRecord
  2
BLOCK_63
  0
BLOCK_RECORD
  5
3BE
330
1
100
AcDbSymbolTableRecord
100
AcDbBlockTableRecord
  2
BLOCK_64
  0
BLOCK_RECORD
  5
3C6
330
1
100
AcDbSymbolTableRecord
100
AcDbBlockTableRecord
  2
BLOCK_65
  0
BLOCK_RECORD
  5
3CE
330
1
100
AcDbSymbolTableRecord
100
AcDbBlockTableRecord
  2
BLOCK_66
  0
BLOCK_RECORD
  5
3D6
330
1
100
AcDbSymbolTableRecord
100
AcDbBlockTableRecord
  2
BLOCK_67
  0
BLOCK_RECORD
  5
3DE
330
1
100
AcDbSymbolTableRecord
100
AcDbBlockTableRecord
  2
BLOCK_68
  0
BLOCK_RECORD
  5
3E6
330
1
100
AcDbSymbolTableRecord
100
AcDbBlockTableRecord
  2
BLOCK_69
  0
BLOCK_RECORD
  5
3EE
330
1
100
AcDbSymbolTableRecord
100
AcDbBlockTableRecord
  2
BLOCK_70
  0
BLOCK_RECORD
  5
3F6
330
1
100
AcDbSymbolTableRecord
100
AcDbBlockTableRecord
  2
BLOCK_71
  0
BLOCK_RECORD
  5
3FE
330
1
100
AcDbSymbolTableRecord
100
AcDbBlockTableRecord
  2
BLOCK_72
  0
BLOCK_RECORD
  5
406
330
1
100
AcDbSymbolTableRecord
100
AcDbBlockTableRecord
  2
BLOCK_73
  0
BLOCK_RECORD
  5
40E
330
1
100
AcDbSymbolTableRecord
100
AcDbBlockTableRecord
  2
BLOCK_74
  0
ENDTAB
  0
ENDSEC
  0
SECTION
  2
BLOCKS
  0
BLOCK
  5
20
330
1F
100
AcDbEntity
  8
0
100
AcDbBlockBegin
  2
*MODEL_SPACE
 70
     0
 71
     0
 10
0.0
 20
0.0
 30
0.0
  3
*MODEL_SPACE
  1

  0
ENDBLK
  5
21
330
1F
100
AcDbEntity
  8
0
100
AcDbBlockEnd
  0
BLOCK
  5
1C
330
1B
100
AcDbEntity
 67
     1
  8
0
100
AcDbBlockBegin
  2
*PAPER_SPACE
 70
     0
 71
     0
 10
0.0
 20
0.0
 30
0.0
  3
*PAPER_SPACE
  1

  0
ENDBLK
  5
1D
330
1B
100
AcDbEntity
 67
     1
  8
0
100
AcDbBlockEnd
  0
BLOCK
  5
43
330
41
100
AcDbEntity
  8
0
100
AcDbBlockBegin
  2
BLOCK_2
 70
     0
 71
     0
 10
0.0
 20
0.0
 30
0.0
  3
BLOCK_2
  1

  0
POLYLINE
  5
45
330
41
100
AcDbEntity
  8
EBENE_1
 62
     7
100
AcDb2dPolyline
 66
     1
 10
0.0
 20
0.0
 30
0.0
  0
VERTEX
  5
46
330
45
100
AcDbEntity
  8
EBENE_1
 62
     7
100
AcDbVertex
100
AcDb2dVertex
 10
27.82569172481441
 20
147.1813693208435
 30
0.0
  0
VERTEX
  5
47
330
45
100
AcDbEntity
  8
EBENE_1
 62
     7
100
AcDbVertex
100
AcDb2dVertex
 10
27.82569172481441
 20
130.1822346679753
 30
0.0
  0
SEQEND
  5
48
330
45
100
AcDbEntity
  8
EBENE_1
  0
POLYLINE
  5
49
330
41
100
AcDbEntity
  8
EBENE_1
  6
AI-LINETYPE-1
 62
   250
100
AcDb2dPolyline
 66
     1
 10
0.0
 20
0.0
 30
0.0
  0
VERTEX
  5
4A
330
49
100
AcDbEntity
  8
EBENE_1
  6
AI-LINETYPE-1
 62
   250
100
AcDbVertex
100
AcDb2dVertex
 10
66.84897730533638
 20
221.3732231434414
 30
0.0
  0
VERTEX
  5
4B
330
49
100
AcDbEntity
  8
EBENE_1
  6
AI-LINETYPE-1
 62
   250
100
AcDbVertex
100
AcDb2dVertex
 10
66.84897730533638
 20
126.8184434361773
 30
0.0
  0
SEQEND
  5
4C
330
49
100
AcDbEntity
  8
EBENE_1
  6
AI-LINETYPE-1
  0
POLYLINE
  5
4E
330
41
100
AcDbEntity
  8
EBENE_1
 62
     7
100
AcDb2dPolyline
 66
     1
 10
0.0
 20
0.0
 30
0.0
  0
VERTEX
  5
4F
330
4E
100
AcDbEntity
  8
EBENE_1
 62
     7
100
AcDbVertex
100
AcDb2dVertex
 10
105.8257540968075
 20
130.1822346679753
 30
0.0
  0
VERTEX
  5
50
330
4E
100
AcDbEntity
  8
EBENE_1
 62
     7
100
AcDbVertex
100
AcDb2dVertex
 10
105.8257540968075
 20
147.1813693208435
 30
0.0
  0
SEQEND
  5
51
330
4E
100
AcDbEntity
  8
EBENE_1
  0
POLYLINE
  5
52
330
41
100
AcDbEntity
  8
EBENE_1
 62
     7
100
AcDb2dPolyline
 66
     1
 10
0.0
 20
0.0
 30
0.0
  0
VERTEX
  5
53
330
52
100
AcDbEntity
  8
EBENE_1
 62
     7
100
AcDbVertex
100
AcDb2dVertex
 10
27.82569172481441
 20
130.1822346679753
 30
0.0
  0
VERTEX
  5
54
330
52
100
AcDbEntity
  8
EBENE_1
 62
     7
100
AcDbVertex
100
AcDb2dVertex
 10
28.82545843463392
 20
129.1821234486073
 30
0.0
  0
SEQEND
  5
55
330
52
100
AcDbEntity
  8
EBENE_1
  0
POLYLINE
  5
56
330
41
100
AcDbEntity
  8
EBENE_1
 62
     7
100
AcDb2dPolyline
 66
     1
 10
0.0
 20
0.0
 30
0.0
  0
VERTEX
  5
57
330
56
100
AcDbEntity
  8
EBENE_1
 62
     7
100
AcDbVertex
100
AcDb2dVertex
 10
104.8252983678909
 20
129.1821234486073
 30
0.0
  0
VERTEX
  5
58
330
56
100
AcDbEntity
  8
EBENE_1
 62
     7
100
AcDbVertex
100
AcDb2dVertex
 10
105.8257540968075
 20
130.1822346679753
 30
0.0
  0
SEQEND
  5
59
330
56
100
AcDbEntity
  8
EBENE_1
  0
POLYLINE
  5
5A
330
41
100
AcDbEntity
  8
EBENE_1
 62
     7
100
AcDb2dPolyline
 66
     1
 10
0.0
 20
0.0
 30
0.0
  0
VERTEX
  5
5B
330
5A
100
AcDbEntity
  8
EBENE_1
 62
     7
100
AcDbVertex
100
AcDb2dVertex
 10
105.8257540968075
 20
147.1813693208435
 30
0.0
  0
VERTEX
  5
5C
330
5A
100
AcDbEntity
  8
EBENE_1
 62
     7
100
AcDbVertex
100
AcDb2dVertex
 10
104.8252983678909
 20
148.1818250497601
 30
0.0
  0
SEQEND
  5
5D
330
5A
100
AcDbEntity
  8
EBENE_1
  0
POLYLINE
  5
5E
330
41
100
AcDbEntity
  8
EBENE_1
 62
     7
100
AcDb2dPolyline
 66
     1
 10
0.0
 20
0.0
 30
0.0
  0
VERTEX
  5
5F
330
5E
100
AcDbEntity
  8
EBENE_1
 62
     7
100
AcDbVertex
100
AcDb2dVertex
 10
28.82545843463392
 20
148.1818250497601
 30
0.0
  0
VERTEX
  5
60
330
5E
100
AcDbEntity
  8
EBENE_1
 62
     7
100
AcDbVertex
100
AcDb2dVertex
 10
27.82569172481441
 20
147.1813693208435
 30
0.0
  0
SEQEND
  5
61
330
5E
100
AcDbEntity
  8
EBENE_1
  0
POLYLINE
  5
62
330
41
100
AcDbEntity
  8
EBENE_1
 62
     7
100
AcDb2dPolyline
 66
     1
 10
0.0
 20
0.0
 30
0.0
  0
VERTEX
  5
63
330
62
100
AcDbEntity
  8
EBENE_1
 62
     7
100
AcDbVertex
100
AcDb2dVertex
 10
104.8252983678909
 20
148.9497368334223
 30
0.0
  0
VERTEX
  5
64
330
62
100
AcDbEntity
  8
EBENE_1
 62
     7
100
AcDbVertex
100
AcDb2dVertex
 10
79.04909394725162
 20
155.8564642622512
 30
0.0
  0
SEQEND
  5
65
330
62
100
AcDbEntity
  8
EBENE_1
  0
POLYLINE
  5
66
330
41
100
AcDbEntity
  8
EBENE_1
 62
     7
100
AcDb2dPolyline
 66
     1
 10
0.0
 20
0.0
 30
0.0
  0
VERTEX
  5
67
330
66
100
AcDbEntity
  8
EBENE_1
 62
     7
100
AcDbVertex
100
AcDb2dVertex
 10
54.60200736482172
 20
155.8564642622512
 30
0.0
  0
VERTEX
  5
68
330
66
100
AcDbEntity
  8
EBENE_1
 62
     7
100
AcDbVertex
100
AcDb2dVertex
 10
28.82545843463392
 20
148.9497368334223
 30
0.0
  0
VERTEX
  5
69
330
66
100
AcDbEntity
  8
EBENE_1
 62
     7
100
AcDbVertex
100
AcDb2dVertex
 10
28.82545843463392
 20
148.1818250497601
 30
0.0
  0
SEQEND
  5
6A
330
66
100
AcDbEntity
  8
EBENE_1
  0
POLYLINE
  5
6B
330
41
100
AcDbEntity
  8
EBENE_1
 62
     7
100
AcDb2dPolyline
 66
     1
 10
0.0
 20
0.0
 30
0.0
  0
VERTEX
  5
6C
330
6B
100
AcDbEntity
  8
EBENE_1
 62
     7
100
AcDbVertex
100
AcDb2dVertex
 10
104.8252983678909
 20
148.1818250497601
 30
0.0
  0
VERTEX
  5
6D
330
6B
100
AcDbEntity
  8
EBENE_1
 62
     7
100
AcDbVertex
100
AcDb2dVertex
 10
104.8252983678909
 20
148.9497368334223
 30
0.0
  0
SEQEND
  5
6E
330
6B
100
AcDbEntity
  8
EBENE_1
  0
POLYLINE
  5
6F
330
41
100
AcDbEntity
  8
EBENE_1
 62
     7
100
AcDb2dPolyline
 66
     1
 10
0.0
 20
0.0
 30
0.0
  0
VERTEX
  5
70
330
6F
100
AcDbEntity
  8
EBENE_1
 62
     7
100
AcDbVertex
100
AcDb2dVertex
 10
28.82545843463392
 20
129.1821234486073
 30
0.0
  0
VERTEX
  5
71
330
6F
100
AcDbEntity
  8
EBENE_1
 62
     7
100
AcDbVertex
100
AcDb2dVertex
 10
28.82545843463392
 20
128.681895584149
 30
0.0
  0
SEQEND
  5
72
330
6F
100
AcDbEntity
  8
EBENE_1
  0
POLYLINE
  5
73
330
41
100
AcDbEntity
  8
EBENE_1
 62
     7
100
AcDb2dPolyline
 66
     1
 10
0.0
 20
0.0
 30
0.0
  0
VERTEX
  5
74
330
73
100
AcDbEntity
  8
EBENE_1
 62
     7
100
AcDbVertex
100
AcDb2dVertex
 10
104.8252983678909
 20
128.681895584149
 30
0.0
  0
VERTEX
  5
75
330
73
100
AcDbEntity
  8
EBENE_1
 62
     7
100
AcDbVertex
100
AcDb2dVertex
 10
104.8252983678909
 20
129.1821234486073
 30
0.0
  0
SEQEND
  5
76
330
73
100
AcDbEntity
  8
EBENE_1
  0
POLYLINE
  5
77
330
41
100
AcDbEntity
  8
EBENE_1
 62
     7
100
AcDb2dPolyline
 66
     1
 10
0.0
 20
0.0
 30
0.0
  0
VERTEX
  5
78
330
77
100
AcDbEntity
  8
EBENE_1
 62
     7
100
AcDbVertex
100
AcDb2dVertex
 10
56.82581650055049
 20
217.6821478405448
 30
0.0
  0
VERTEX
  5
79
330
77
100
AcDbEntity
  8
EBENE_1
 62
     7
100
AcDbVertex
100
AcDb2dVertex
 10
56.82581650055049
 20
158.7544785844433
 30
0.0
  0
SEQEND
  5
7A
330
77
100
AcDbEntity
  8
EBENE_1
  0
POLYLINE
  5
7B
330
41
100
AcDbEntity
  8
EBENE_1
 62
     7
100
AcDb2dPolyline
 66
     1
 10
0.0
 20
0.0
 30
0.0
  0
VERTEX
  5
7C
330
7B
100
AcDbEntity
  8
EBENE_1
 62
     7
100
AcDbVertex
100
AcDb2dVertex
 10
76.82528481152285
 20
158.7544785844433
 30
0.0
  0
VERTEX
  5
7D
330
7B
100
AcDbEntity
  8
EBENE_1
 62
     7
100
AcDbVertex
100
AcDb2dVertex
 10
76.82528481152285
 20
217.6821478405448
 30
0.0
  0
VERTEX
  5
7E
330
7B
100
AcDbEntity
  8
EBENE_1
 62
     7
100
AcDbVertex
100
AcDb2dVertex
 10
75.82551810170335
 20
218.6815700408157
 30
0.0
  0
SEQEND
  5
7F
330
7B
100
AcDbEntity
  8
EBENE_1
  0
POLYLINE
  5
80
330
41
100
AcDbEntity
  8
EBENE_1
 62
     7
100
AcDb2dPolyline
 66
     1
 10
0.0
 20
0.0
 30
0.0
  0
VERTEX
  5
81
330
80
100
AcDbEntity
  8
EBENE_1
 62
     7
100
AcDbVertex
100
AcDb2dVertex
 10
57.82523870082147
 20
218.6815700408157
 30
0.0
  0
VERTEX
  5
82
330
80
100
AcDbEntity
  8
EBENE_1
 62
     7
100
AcDbVertex
100
AcDb2dVertex
 10
56.82581650055049
 20
217.6821478405448
 30
0.0
  0
SEQEND
  5
83
330
80
100
AcDbEntity
  8
EBENE_1
  0
POLYLINE
  5
84
330
41
100
AcDbEntity
  8
EBENE_1
 62
     7
100
AcDb2dPolyline
 66
     1
 10
0.0
 20
0.0
 30
0.0
  0
VERTEX
  5
85
330
84
100
AcDbEntity
  8
EBENE_1
 62
     7
100
AcDbVertex
100
AcDb2dVertex
 10
66.82555065603667
 20
147.1813693208435
 30
0.0
  0
VERTEX
  5
86
330
84
100
AcDbEntity
  8
EBENE_1
 62
     7
100
AcDbVertex
100
AcDb2dVertex
 10
63.91099987551531
 20
147.1813693208435
 30
0.0
  0
VERTEX
  5
87
330
84
100
AcDbEntity
  8
EBENE_1
 62
     7
100
AcDbVertex
100
AcDb2dVertex
 10
61.01333006287167
 20
147.1813693208435
 30
0.0
  0
VERTEX
  5
88
330
84
100
AcDbEntity
  8
EBENE_1
 62
     7
100
AcDbVertex
100
AcDb2dVertex
 10
58.14769963824086
 20
147.1813693208435
 30
0.0
  0
VERTEX
  5
89
330
84
100
AcDbEntity
  8
EBENE_1
 62
     7
100
AcDbVertex
100
AcDb2dVertex
 10
55.33064505995206
 20
147.1813693208435
 30
0.0
  0
VERTEX
  5
8A
330
84
100
AcDbEntity
  8
EBENE_1
 62
     7
100
AcDbVertex
100
AcDb2dVertex
 10
52.57766925768892
 20
147.1813693208435
 30
0.0
  0
VERTEX
  5
8B
330
84
100
AcDbEntity
  8
EBENE_1
 62
     7
100
AcDbVertex
100
AcDb2dVertex
 10
49.90393065158652
 20
147.1813693208435
 30
0.0
  0
VERTEX
  5
8C
330
84
100
AcDbEntity
  8
EBENE_1
 62
     7
100
AcDbVertex
100
AcDb2dVertex
 10
47.32596569997406
 20
147.1813693208435
 30
0.0
  0
VERTEX
  5
8D
330
84
100
AcDbEntity
  8
EBENE_1
 62
     7
100
AcDbVertex
100
AcDb2dVertex
 10
44.85617674659846
 20
147.1813693208435
 30
0.0
  0
VERTEX
  5
8E
330
84
100
AcDbEntity
  8
EBENE_1
 62
     7
100
AcDbVertex
100
AcDb2dVertex
 10
42.50972221159479
 20
147.1813693208435
 30
0.0
  0
VERTEX
  5
8F
330
84
100
AcDbEntity
  8
EBENE_1
 62
     7
100
AcDbVertex
100
AcDb2dVertex
 10
40.29865992916145
 20
147.1813693208435
 30
0.0
  0
VERTEX
  5
90
330
84
100
AcDbEntity
  8
EBENE_1
 62
     7
100
AcDbVertex
100
AcDb2dVertex
 10
38.23677028123942
 20
147.1813693208435
 30
0.0
  0
VERTEX
  5
91
330
84
100
AcDbEntity
  8
EBENE_1
 62
     7
100
AcDbVertex
100
AcDb2dVertex
 10
36.33438855428446
 20
147.1813693208435
 30
0.0
  0
VERTEX
  5
92
330
84
100
AcDbEntity
  8
EBENE_1
 62
     7
100
AcDbVertex
100
AcDb2dVertex
 10
34.60219454430084
 20
147.1813693208435
 30
0.0
  0
VERTEX
  5
93
330
84
100
AcDbEntity
  8
EBENE_1
 62
     7
100
AcDbVertex
100
AcDb2dVertex
 10
33.05086804729284
 20
147.1813693208435
 30
0.0
  0
VERTEX
  5
94
330
84
100
AcDbEntity
  8
EBENE_1
 62
     7
100
AcDbVertex
100
AcDb2dVertex
 10
31.68764376377948
 20
147.1813693208435
 30
0.0
  0
VERTEX
  5
95
330
84
100
AcDbEntity
  8
EBENE_1
 62
     7
100
AcDbVertex
100
AcDb2dVertex
 10
30.52147894202241
 20
147.1813693208435
 30
0.0
  0
VERTEX
  5
96
330
84
100
AcDbEntity
  8
EBENE_1
 62
     7
100
AcDbVertex
100
AcDb2dVertex
 10
29.55823024434655
 20
147.1813693208435
 30
0.0
  0
VERTEX
  5
97
330
84
100
AcDbEntity
  8
EBENE_1
 62
     7
100
AcDbVertex
100
AcDb2dVertex
 10
28.80375433307684
 20
147.1813693208435
 30
0.0
  0
VERTEX
  5
98
330
84
100
AcDbEntity
  8
EBENE_1
 62
     7
100
AcDbVertex
100
AcDb2dVertex
 10
28.26080728460147
 20
147.1813693208435
 30
0.0
  0
VERTEX
  5
99
330
84
100
AcDbEntity
  8
EBENE_1
 62
     7
100
AcDbVertex
100
AcDb2dVertex
 10
27.93490125169683
 20
147.1813693208435
 30
0.0
  0
VERTEX
  5
9A
330
84
100
AcDbEntity
  8
EBENE_1
 62
     7
100
AcDbVertex
100
AcDb2dVertex
 10
27.82569172481441
 20
147.1813693208435
 30
0.0
  0
SEQEND
  5
9B
330
84
100
AcDbEntity
  8
EBENE_1
  0
POLYLINE
  5
9C
330
41
100
AcDbEntity
  8
EBENE_1
 62
     7
100
AcDb2dPolyline
 66
     1
 10
0.0
 20
0.0
 30
0.0
  0
VERTEX
  5
9D
330
9C
100
AcDbEntity
  8
EBENE_1
 62
     7
100
AcDbVertex
100
AcDb2dVertex
 10
105.8257540968075
 20
147.1813693208435
 30
0.0
  0
VERTEX
  5
9E
330
9C
100
AcDbEntity
  8
EBENE_1
 62
     7
100
AcDbVertex
100
AcDb2dVertex
 10
105.716544569925
 20
147.1813693208435
 30
0.0
  0
VERTEX
  5
9F
330
9C
100
AcDbEntity
  8
EBENE_1
 62
     7
100
AcDbVertex
100
AcDb2dVertex
 10
105.3902940274719
 20
147.1813693208435
 30
0.0
  0
VERTEX
  5
A0
330
9C
100
AcDbEntity
  8
EBENE_1
 62
     7
100
AcDbVertex
100
AcDb2dVertex
 10
104.847691488545
 20
147.1813693208435
 30
0.0
  0
VERTEX
  5
A1
330
9C
100
AcDbEntity
  8
EBENE_1
 62
     7
100
AcDbVertex
100
AcDb2dVertex
 10
104.0925265581783
 20
147.1813693208435
 30
0.0
  0
VERTEX
  5
A2
330
9C
100
AcDbEntity
  8
EBENE_1
 62
     7
100
AcDbVertex
100
AcDb2dVertex
 10
103.1299668795995
 20
147.1813693208435
 30
0.0
  0
VERTEX
  5
A3
330
9C
100
AcDbEntity
  8
EBENE_1
 62
     7
100
AcDbVertex
100
AcDb2dVertex
 10
101.9631130387453
 20
147.1813693208435
 30
0.0
  0
VERTEX
  5
A4
330
9C
100
AcDbEntity
  8
EBENE_1
 62
     7
100
AcDbVertex
100
AcDb2dVertex
 10
100.600577774329
 20
147.1813693208435
 30
0.0
  0
VERTEX
  5
A5
330
9C
100
AcDbEntity
  8
EBENE_1
 62
     7
100
AcDbVertex
100
AcDb2dVertex
 10
99.0489067677725
 20
147.1813693208435
 30
0.0
  0
VERTEX
  5
A6
330
9C
100
AcDbEntity
  8
EBENE_1
 62
     7
100
AcDbVertex
100
AcDb2dVertex
 10
97.31671275778888
 20
147.1813693208435
 30
0.0
  0
VERTEX
  5
A7
330
9C
100
AcDbEntity
  8
EBENE_1
 62
     7
100
AcDbVertex
100
AcDb2dVertex
 10
95.41433103083392
 20
147.1813693208435
 30
0.0
  0
VERTEX
  5
A8
330
9C
100
AcDbEntity
  8
EBENE_1
 62
     7
100
AcDbVertex
100
AcDb2dVertex
 10
93.35244138291189
 20
147.1813693208435
 30
0.0
  0
VERTEX
  5
A9
330
9C
100
AcDbEntity
  8
EBENE_1
 62
     7
100
AcDbVertex
100
AcDb2dVertex
 10
91.14137910047855
 20
147.1813693208435
 30
0.0
  0
VERTEX
  5
AA
330
9C
100
AcDbEntity
  8
EBENE_1
 62
     7
100
AcDbVertex
100
AcDb2dVertex
 10
88.79526907502341
 20
147.1813693208435
 30
0.0
  0
VERTEX
  5
AB
330
9C
100
AcDbEntity
  8
EBENE_1
 62
     7
100
AcDbVertex
100
AcDb2dVertex
 10
86.32582463119633
 20
147.1813693208435
 30
0.0
  0
VERTEX
  5
AC
330
9C
100
AcDbEntity
  8
EBENE_1
 62
     7
100
AcDbVertex
100
AcDb2dVertex
 10
83.7468261509383
 20
147.1813693208435
 30
0.0
  0
VERTEX
  5
AD
330
9C
100
AcDbEntity
  8
EBENE_1
 62
     7
100
AcDbVertex
100
AcDb2dVertex
 10
81.07412107348148
 20
147.1813693208435
 30
0.0
  0
VERTEX
  5
AE
330
9C
100
AcDbEntity
  8
EBENE_1
 62
     7
100
AcDbVertex
100
AcDb2dVertex
 10
78.32114527121833
 20
147.1813693208435
 30
0.0
  0
VERTEX
  5
AF
330
9C
100
AcDbEntity
  8
EBENE_1
 62
     7
100
AcDbVertex
100
AcDb2dVertex
 10
75.50443520247806
 20
147.1813693208435
 30
0.0
  0
VERTEX
  5
B0
330
9C
100
AcDbEntity
  8
EBENE_1
 62
     7
100
AcDbVertex
100
AcDb2dVertex
 10
72.63880477784724
 20
147.1813693208435
 30
0.0
  0
VERTEX
  5
B1
330
9C
100
AcDbEntity
  8
EBENE_1
 62
     7
100
AcDbVertex
100
AcDb2dVertex
 10
69.74044594610656
 20
147.1813693208435
 30
0.0
  0
VERTEX
  5
B2
330
9C
100
AcDbEntity
  8
EBENE_1
 62
     7
100
AcDbVertex
100
AcDb2dVertex
 10
66.82555065603667
 20
147.1813693208435
 30
0.0
  0
SEQEND
  5
B3
330
9C
100
AcDbEntity
  8
EBENE_1
  0
POLYLINE
  5
B4
330
41
100
AcDbEntity
  8
EBENE_1
 62
     7
100
AcDb2dPolyline
 66
     1
 10
0.0
 20
0.0
 30
0.0
  0
VERTEX
  5
B5
330
B4
100
AcDbEntity
  8
EBENE_1
 62
     7
100
AcDbVertex
100
AcDb2dVertex
 10
66.82555065603667
 20
130.1822346679753
 30
0.0
  0
VERTEX
  5
B6
330
B4
100
AcDbEntity
  8
EBENE_1
 62
     7
100
AcDbVertex
100
AcDb2dVertex
 10
69.74044594610656
 20
130.1822346679753
 30
0.0
  0
VERTEX
  5
B7
330
B4
100
AcDbEntity
  8
EBENE_1
 62
     7
100
AcDbVertex
100
AcDb2dVertex
 10
72.63880477784724
 20
130.1822346679753
 30
0.0
  0
VERTEX
  5
B8
330
B4
100
AcDbEntity
  8
EBENE_1
 62
     7
100
AcDbVertex
100
AcDb2dVertex
 10
75.50443520247806
 20
130.1822346679753
 30
0.0
  0
VERTEX
  5
B9
330
B4
100
AcDbEntity
  8
EBENE_1
 62
     7
100
AcDbVertex
100
AcDb2dVertex
 10
78.32114527121833
 20
130.1822346679753
 30
0.0
  0
VERTEX
  5
BA
330
B4
100
AcDbEntity
  8
EBENE_1
 62
     7
100
AcDbVertex
100
AcDb2dVertex
 10
81.07412107348148
 20
130.1822346679753
 30
0.0
  0
VERTEX
  5
BB
330
B4
100
AcDbEntity
  8
EBENE_1
 62
     7
100
AcDbVertex
100
AcDb2dVertex
 10
83.7468261509383
 20
130.1822346679753
 30
0.0
  0
VERTEX
  5
BC
330
B4
100
AcDbEntity
  8
EBENE_1
 62
     7
100
AcDbVertex
100
AcDb2dVertex
 10
86.32582463119633
 20
130.1822346679753
 30
0.0
  0
VERTEX
  5
BD
330
B4
100
AcDbEntity
  8
EBENE_1
 62
     7
100
AcDbVertex
100
AcDb2dVertex
 10
88.79526907502341
 20
130.1822346679753
 30
0.0
  0
VERTEX
  5
BE
330
B4
100
AcDbEntity
  8
EBENE_1
 62
     7
100
AcDbVertex
100
AcDb2dVertex
 10
91.14137910047855
 20
130.1822346679753
 30
0.0
  0
VERTEX
  5
BF
330
B4
100
AcDbEntity
  8
EBENE_1
 62
     7
100
AcDbVertex
100
AcDb2dVertex
 10
93.35244138291189
 20
130.1822346679753
 30
0.0
  0
VERTEX
  5
C0
330
B4
100
AcDbEntity
  8
EBENE_1
 62
     7
100
AcDbVertex
100
AcDb2dVertex
 10
95.41433103083392
 20
130.1822346679753
 30
0.0
  0
VERTEX
  5
C1
330
B4
100
AcDbEntity
  8
EBENE_1
 62
     7
100
AcDbVertex
100
AcDb2dVertex
 10
97.31671275778888
 20
130.1822346679753
 30
0.0
  0
VERTEX
  5
C2
330
B4
100
AcDbEntity
  8
EBENE_1
 62
     7
100
AcDbVertex
100
AcDb2dVertex
 10
99.0489067677725
 20
130.1822346679753
 30
0.0
  0
VERTEX
  5
C3
330
B4
100
AcDbEntity
  8
EBENE_1
 62
     7
100
AcDbVertex
100
AcDb2dVertex
 10
100.600577774329
 20
130.1822346679753
 30
0.0
  0
VERTEX
  5
C4
330
B4
100
AcDbEntity
  8
EBENE_1
 62
     7
100
AcDbVertex
100
AcDb2dVertex
 10
101.9631130387453
 20
130.1822346679753
 30
0.0
  0
VERTEX
  5
C5
330
B4
100
AcDbEntity
  8
EBENE_1
 62
     7
100
AcDbVertex
100
AcDb2dVertex
 10
103.1299668795995
 20
130.1822346679753
 30
0.0
  0
VERTEX
  5
C6
330
B4
100
AcDbEntity
  8
EBENE_1
 62
     7
100
AcDbVertex
100
AcDb2dVertex
 10
104.0925265581783
 20
130.1822346679753
 30
0.0
  0
VERTEX
  5
C7
330
B4
100
AcDbEntity
  8
EBENE_1
 62
     7
100
AcDbVertex
100
AcDb2dVertex
 10
104.847691488545
 20
130.1822346679753
 30
0.0
  0
VERTEX
  5
C8
330
B4
100
AcDbEntity
  8
EBENE_1
 62
     7
100
AcDbVertex
100
AcDb2dVertex
 10
105.3902940274719
 20
130.1822346679753
 30
0.0
  0
VERTEX
  5
C9
330
B4
100
AcDbEntity
  8
EBENE_1
 62
     7
100
AcDbVertex
100
AcDb2dVertex
 10
105.716544569925
 20
130.1822346679753
 30
0.0
  0
VERTEX
  5
CA
330
B4
100
AcDbEntity
  8
EBENE_1
 62
     7
100
AcDbVertex
100
AcDb2dVertex
 10
105.8257540968075
 20
130.1822346679753
 30
0.0
  0
SEQEND
  5
CB
330
B4
100
AcDbEntity
  8
EBENE_1
  0
POLYLINE
  5
CC
330
41
100
AcDbEntity
  8
EBENE_1
 62
     7
100
AcDb2dPolyline
 66
     1
 10
0.0
 20
0.0
 30
0.0
  0
VERTEX
  5
CD
330
CC
100
AcDbEntity
  8
EBENE_1
 62
     7
100
AcDbVertex
100
AcDb2dVertex
 10
27.82569172481441
 20
130.1822346679753
 30
0.0
  0
VERTEX
  5
CE
330
CC
100
AcDbEntity
  8
EBENE_1
 62
     7
100
AcDbVertex
100
AcDb2dVertex
 10
27.93490125169683
 20
130.1822346679753
 30
0.0
  0
VERTEX
  5
CF
330
CC
100
AcDbEntity
  8
EBENE_1
 62
     7
100
AcDbVertex
100
AcDb2dVertex
 10
28.26080728460147
 20
130.1822346679753
 30
0.0
  0
VERTEX
  5
D0
330
CC
100
AcDbEntity
  8
EBENE_1
 62
     7
100
AcDbVertex
100
AcDb2dVertex
 10
28.80375433307684
 20
130.1822346679753
 30
0.0
  0
VERTEX
  5
D1
330
CC
100
AcDbEntity
  8
EBENE_1
 62
     7
100
AcDbVertex
100
AcDb2dVertex
 10
29.55823024434655
 20
130.1822346679753
 30
0.0
  0
VERTEX
  5
D2
330
CC
100
AcDbEntity
  8
EBENE_1
 62
     7
100
AcDbVertex
100
AcDb2dVertex
 10
30.52147894202241
 20
130.1822346679753
 30
0.0
  0
VERTEX
  5
D3
330
CC
100
AcDbEntity
  8
EBENE_1
 62
     7
100
AcDbVertex
100
AcDb2dVertex
 10
31.68764376377948
 20
130.1822346679753
 30
0.0
  0
VERTEX
  5
D4
330
CC
100
AcDbEntity
  8
EBENE_1
 62
     7
100
AcDbVertex
100
AcDb2dVertex
 10
33.05086804729284
 20
130.1822346679753
 30
0.0
  0
VERTEX
  5
D5
330
CC
100
AcDbEntity
  8
EBENE_1
 62
     7
100
AcDbVertex
100
AcDb2dVertex
 10
34.60219454430084
 20
130.1822346679753
 30
0.0
  0
VERTEX
  5
D6
330
CC
100
AcDbEntity
  8
EBENE_1
 62
     7
100
AcDbVertex
100
AcDb2dVertex
 10
36.33438855428446
 20
130.1822346679753
 30
0.0
  0
VERTEX
  5
D7
330
CC
100
AcDbEntity
  8
EBENE_1
 62
     7
100
AcDbVertex
100
AcDb2dVertex
 10
38.23677028123942
 20
130.1822346679753
 30
0.0
  0
VERTEX
  5
D8
330
CC
100
AcDbEntity
  8
EBENE_1
 62
     7
100
AcDbVertex
100
AcDb2dVertex
 10
40.29865992916145
 20
130.1822346679753
 30
0.0
  0
VERTEX
  5
D9
330
CC
100
AcDbEntity
  8
EBENE_1
 62
     7
100
AcDbVertex
100
AcDb2dVertex
 10
42.50972221159479
 20
130.1822346679753
 30
0.0
  0
VERTEX
  5
DA
330
CC
100
AcDbEntity
  8
EBENE_1
 62
     7
100
AcDbVertex
100
AcDb2dVertex
 10
44.85617674659846
 20
130.1822346679753
 30
0.0
  0
VERTEX
  5
DB
330
CC
100
AcDbEntity
  8
EBENE_1
 62
     7
100
AcDbVertex
100
AcDb2dVertex
 10
47.32596569997406
 20
130.1822346679753
 30
0.0
  0
VERTEX
  5
DC
330
CC
100
AcDbEntity
  8
EBENE_1
 62
     7
100
AcDbVertex
100
AcDb2dVertex
 10
49.90393065158652
 20
130.1822346679753
 30
0.0
  0
VERTEX
  5
DD
330
CC
100
AcDbEntity
  8
EBENE_1
 62
     7
100
AcDbVertex
100
AcDb2dVertex
 10
52.57766925768892
 20
130.1822346679753
 30
0.0
  0
VERTEX
  5
DE
330
CC
100
AcDbEntity
  8
EBENE_1
 62
     7
100
AcDbVertex
100
AcDb2dVertex
 10
55.33064505995206
 20
130.1822346679753
 30
0.0
  0
VERTEX
  5
DF
330
CC
100
AcDbEntity
  8
EBENE_1
 62
     7
100
AcDbVertex
100
AcDb2dVertex
 10
58.14769963824086
 20
130.1822346679753
 30
0.0
  0
VERTEX
  5
E0
330
CC
100
AcDbEntity
  8
EBENE_1
 62
     7
100
AcDbVertex
100
AcDb2dVertex
 10
61.01333006287167
 20
130.1822346679753
 30
0.0
  0
VERTEX
  5
E1
330
CC
100
AcDbEntity
  8
EBENE_1
 62
     7
100
AcDbVertex
100
AcDb2dVertex
 10
63.91099987551531
 20
130.1822346679753
 30
0.0
  0
VERTEX
  5
E2
330
CC
100
AcDbEntity
  8
EBENE_1
 62
     7
100
AcDbVertex
100
AcDb2dVertex
 10
66.82555065603667
 20
130.1822346679753
 30
0.0
  0
SEQEND
  5
E3
330
CC
100
AcDbEntity
  8
EBENE_1
  0
POLYLINE
  5
E4
330
41
100
AcDbEntity
  8
EBENE_1
 62
     7
100
AcDb2dPolyline
 66
     1
 10
0.0
 20
0.0
 30
0.0
  0
VERTEX
  5
E5
330
E4
100
AcDbEntity
  8
EBENE_1
 62
     7
100
AcDbVertex
100
AcDb2dVertex
 10
66.82555065603667
 20
129.1821234486073
 30
0.0
  0
VERTEX
  5
E6
330
E4
100
AcDbEntity
  8
EBENE_1
 62
     7
100
AcDbVertex
100
AcDb2dVertex
 10
63.98610295709376
 20
129.1821234486073
 30
0.0
  0
VERTEX
  5
E7
330
E4
100
AcDbEntity
  8
EBENE_1
 62
     7
100
AcDbVertex
100
AcDb2dVertex
 10
61.16215818783446
 20
129.1821234486073
 30
0.0
  0
VERTEX
  5
E8
330
E4
100
AcDbEntity
  8
EBENE_1
 62
     7
100
AcDbVertex
100
AcDb2dVertex
 10
58.36956378749095
 20
129.1821234486073
 30
0.0
  0
VERTEX
  5
E9
330
E4
100
AcDbEntity
  8
EBENE_1
 62
     7
100
AcDbVertex
100
AcDb2dVertex
 10
55.6248562143924
 20
129.1821234486073
 30
0.0
  0
VERTEX
  5
EA
330
E4
100
AcDbEntity
  8
EBENE_1
 62
     7
100
AcDbVertex
100
AcDb2dVertex
 10
52.94216036002835
 20
129.1821234486073
 30
0.0
  0
VERTEX
  5
EB
330
E4
100
AcDbEntity
  8
EBENE_1
 62
     7
100
AcDbVertex
100
AcDb2dVertex
 10
50.33835719227653
 20
129.1821234486073
 30
0.0
  0
VERTEX
  5
EC
330
E4
100
AcDbEntity
  8
EBENE_1
 62
     7
100
AcDbVertex
100
AcDb2dVertex
 10
47.82516003578677
 20
129.1821234486073
 30
0.0
  0
VERTEX
  5
ED
330
E4
100
AcDbEntity
  8
EBENE_1
 62
     7
100
AcDbVertex
100
AcDb2dVertex
 10
45.41979436798533
 20
129.1821234486073
 30
0.0
  0
VERTEX
  5
EE
330
E4
100
AcDbEntity
  8
EBENE_1
 62
     7
100
AcDbVertex
100
AcDb2dVertex
 10
43.13362900397354
 20
129.1821234486073
 30
0.0
  0
VERTEX
  5
EF
330
E4
100
AcDbEntity
  8
EBENE_1
 62
     7
100
AcDbVertex
100
AcDb2dVertex
 10
40.97872177794977
 20
129.1821234486073
 30
0.0
  0
VERTEX
  5
F0
330
E4
100
AcDbEntity
  8
EBENE_1
 62
     7
100
AcDbVertex
100
AcDb2dVertex
 10
38.96954209095206
 20
129.1821234486073
 30
0.0
  0
VERTEX
  5
F1
330
E4
100
AcDbEntity
  8
EBENE_1
 62
     7
100
AcDbVertex
100
AcDb2dVertex
 10
37.11608071988765
 20
129.1821234486073
 30
0.0
  0
VERTEX
  5
F2
330
E4
100
AcDbEntity
  8
EBENE_1
 62
     7
100
AcDbVertex
100
AcDb2dVertex
 10
35.42867295121228
 20
129.1821234486073
 30
0.0
  0
VERTEX
  5
F3
330
E4
100
AcDbEntity
  8
EBENE_1
 62
     7
100
AcDbVertex
100
AcDb2dVertex
 10
33.91662054273613
 20
129.1821234486073
 30
0.0
  0
VERTEX
  5
F4
330
E4
100
AcDbEntity
  8
EBENE_1
 62
     7
100
AcDbVertex
100
AcDb2dVertex
 10
32.58922525226937
 20
129.1821234486073
 30
0.0
  0
VERTEX
  5
F5
330
E4
100
AcDbEntity
  8
EBENE_1
 62
     7
100
AcDbVertex
100
AcDb2dVertex
 10
31.45234374213691
 20
129.1821234486073
 30
0.0
  0
VERTEX
  5
F6
330
E4
100
AcDbEntity
  8
EBENE_1
 62
     7
100
AcDbVertex
100
AcDb2dVertex
 10
30.51389973195486
 20
129.1821234486073
 30
0.0
  0
VERTEX
  5
F7
330
E4
100
AcDbEntity
  8
EBENE_1
 62
     7
100
AcDbVertex
100
AcDb2dVertex
 10
29.77871635540254
 20
129.1821234486073
 30
0.0
  0
VERTEX
  5
F8
330
E4
100
AcDbEntity
  8
EBENE_1
 62
     7
100
AcDbVertex
100
AcDb2dVertex
 10
29.24989419841669
 20
129.1821234486073
 30
0.0
  0
VERTEX
  5
F9
330
E4
100
AcDbEntity
  8
EBENE_1
 62
     7
100
AcDbVertex
100
AcDb2dVertex
 10
28.93156737557961
 20
129.1821234486073
 30
0.0
  0
VERTEX
  5
FA
330
E4
100
AcDbEntity
  8
EBENE_1
 62
     7
100
AcDbVertex
100
AcDb2dVertex
 10
28.82545843463392
 20
129.1821234486073
 30
0.0
  0
SEQEND
  5
FB
330
E4
100
AcDbEntity
  8
EBENE_1
  0
POLYLINE
  5
FC
330
41
100
AcDbEntity
  8
EBENE_1
 62
     7
100
AcDb2dPolyline
 66
     1
 10
0.0
 20
0.0
 30
0.0
  0
VERTEX
  5
FD
330
FC
100
AcDbEntity
  8
EBENE_1
 62
     7
100
AcDbVertex
100
AcDb2dVertex
 10
104.8252983678909
 20
129.1821234486073
 30
0.0
  0
VERTEX
  5
FE
330
FC
100
AcDbEntity
  8
EBENE_1
 62
     7
100
AcDbVertex
100
AcDb2dVertex
 10
104.7191894269452
 20
129.1821234486073
 30
0.0
  0
VERTEX
  5
FF
330
FC
100
AcDbEntity
  8
EBENE_1
 62
     7
100
AcDbVertex
100
AcDb2dVertex
 10
104.4012071136567
 20
129.1821234486073
 30
0.0
  0
VERTEX
  5
100
330
FC
100
AcDbEntity
  8
EBENE_1
 62
     7
100
AcDbVertex
100
AcDb2dVertex
 10
103.8727294662193
 20
129.1821234486073
 30
0.0
  0
VERTEX
  5
101
330
FC
100
AcDbEntity
  8
EBENE_1
 62
     7
100
AcDbVertex
100
AcDb2dVertex
 10
103.1378905992155
 20
129.1821234486073
 30
0.0
  0
VERTEX
  5
102
330
FC
100
AcDbEntity
  8
EBENE_1
 62
     7
100
AcDbVertex
100
AcDb2dVertex
 10
102.1987575699364
 20
129.1821234486073
 30
0.0
  0
VERTEX
  5
103
330
FC
100
AcDbEntity
  8
EBENE_1
 62
     7
100
AcDbVertex
100
AcDb2dVertex
 10
101.062565078901
 20
129.1821234486073
 30
0.0
  0
VERTEX
  5
104
330
FC
100
AcDbEntity
  8
EBENE_1
 62
     7
100
AcDbVertex
100
AcDb2dVertex
 10
99.73448076933722
 20
129.1821234486073
 30
0.0
  0
VERTEX
  5
105
330
FC
100
AcDbEntity
  8
EBENE_1
 62
     7
100
AcDbVertex
100
AcDb2dVertex
 10
98.22242836086106
 20
129.1821234486073
 30
0.0
  0
VERTEX
  5
106
330
FC
100
AcDbEntity
  8
EBENE_1
 62
     7
100
AcDbVertex
100
AcDb2dVertex
 10
96.53502059218569
 20
129.1821234486073
 30
0.0
  0
VERTEX
  5
107
330
FC
100
AcDbEntity
  8
EBENE_1
 62
     7
100
AcDbVertex
100
AcDb2dVertex
 10
94.68224824021833
 20
129.1821234486073
 30
0.0
  0
VERTEX
  5
108
330
FC
100
AcDbEntity
  8
EBENE_1
 62
     7
100
AcDbVertex
100
AcDb2dVertex
 10
92.67203502457505
 20
129.1821234486073
 30
0.0
  0
VERTEX
  5
109
330
FC
100
AcDbEntity
  8
EBENE_1
 62
     7
100
AcDbVertex
100
AcDb2dVertex
 10
90.5188503462939
 20
129.1821234486073
 30
0.0
  0
VERTEX
  5
10A
330
FC
100
AcDbEntity
  8
EBENE_1
 62
     7
100
AcDbVertex
100
AcDb2dVertex
 10
88.23199596318506
 20
129.1821234486073
 30
0.0
  0
VERTEX
  5
10B
330
FC
100
AcDbEntity
  8
EBENE_1
 62
     7
100
AcDbVertex
100
AcDb2dVertex
 10
85.82559676673804
 20
129.1821234486073
 30
0.0
  0
VERTEX
  5
10C
330
FC
100
AcDbEntity
  8
EBENE_1
 62
     7
100
AcDbVertex
100
AcDb2dVertex
 10
83.31343313889387
 20
129.1821234486073
 30
0.0
  0
VERTEX
  5
10D
330
FC
100
AcDbEntity
  8
EBENE_1
 62
     7
100
AcDbVertex
100
AcDb2dVertex
 10
80.70825193294795
 20
129.1821234486073
 30
0.0
  0
VERTEX
  5
10E
330
FC
100
AcDbEntity
  8
EBENE_1
 62
     7
100
AcDbVertex
100
AcDb2dVertex
 10
78.02624509768094
 20
129.1821234486073
 30
0.0
  0
VERTEX
  5
10F
330
FC
100
AcDbEntity
  8
EBENE_1
 62
     7
100
AcDbVertex
100
AcDb2dVertex
 10
75.28119301503388
 20
129.1821234486073
 30
0.0
  0
VERTEX
  5
110
330
FC
100
AcDbEntity
  8
EBENE_1
 62
     7
100
AcDbVertex
100
AcDb2dVertex
 10
72.48963214333592
 20
129.1821234486073
 30
0.0
  0
VERTEX
  5
111
330
FC
100
AcDbEntity
  8
EBENE_1
 62
     7
100
AcDbVertex
100
AcDb2dVertex
 10
69.66568737407664
 20
129.1821234486073
 30
0.0
  0
VERTEX
  5
112
330
FC
100
AcDbEntity
  8
EBENE_1
 62
     7
100
AcDbVertex
100
AcDb2dVertex
 10
66.82555065603667
 20
129.1821234486073
 30
0.0
  0
SEQEND
  5
113
330
FC
100
AcDbEntity
  8
EBENE_1
  0
POLYLINE
  5
114
330
41
100
AcDbEntity
  8
EBENE_1
 62
     7
100
AcDb2dPolyline
 66
     1
 10
0.0
 20
0.0
 30
0.0
  0
VERTEX
  5
115
330
114
100
AcDbEntity
  8
EBENE_1
 62
     7
100
AcDbVertex
100
AcDb2dVertex
 10
66.82555065603667
 20
148.1818250497601
 30
0.0
  0
VERTEX
  5
116
330
114
100
AcDbEntity
  8
EBENE_1
 62
     7
100
AcDbVertex
100
AcDb2dVertex
 10
63.98610295709376
 20
148.1818250497601
 30
0.0
  0
VERTEX
  5
117
330
114
100
AcDbEntity
  8
EBENE_1
 62
     7
100
AcDbVertex
100
AcDb2dVertex
 10
61.16215818783446
 20
148.1818250497601
 30
0.0
  0
VERTEX
  5
118
330
114
100
AcDbEntity
  8
EBENE_1
 62
     7
100
AcDbVertex
100
AcDb2dVertex
 10
58.36956378749095
 20
148.1818250497601
 30
0.0
  0
VERTEX
  5
119
330
114
100
AcDbEntity
  8
EBENE_1
 62
     7
100
AcDbVertex
100
AcDb2dVertex
 10
55.6248562143924
 20
148.1818250497601
 30
0.0
  0
VERTEX
  5
11A
330
114
100
AcDbEntity
  8
EBENE_1
 62
     7
100
AcDbVertex
100
AcDb2dVertex
 10
52.94216036002835
 20
148.1818250497601
 30
0.0
  0
VERTEX
  5
11B
330
114
100
AcDbEntity
  8
EBENE_1
 62
     7
100
AcDbVertex
100
AcDb2dVertex
 10
50.33835719227653
 20
148.1818250497601
 30
0.0
  0
VERTEX
  5
11C
330
114
100
AcDbEntity
  8
EBENE_1
 62
     7
100
AcDbVertex
100
AcDb2dVertex
 10
47.82516003578677
 20
148.1818250497601
 30
0.0
  0
VERTEX
  5
11D
330
114
100
AcDbEntity
  8
EBENE_1
 62
     7
100
AcDbVertex
100
AcDb2dVertex
 10
45.41979436798533
 20
148.1818250497601
 30
0.0
  0
VERTEX
  5
11E
330
114
100
AcDbEntity
  8
EBENE_1
 62
     7
100
AcDbVertex
100
AcDb2dVertex
 10
43.13362900397354
 20
148.1818250497601
 30
0.0
  0
VERTEX
  5
11F
330
114
100
AcDbEntity
  8
EBENE_1
 62
     7
100
AcDbVertex
100
AcDb2dVertex
 10
40.97872177794977
 20
148.1818250497601
 30
0.0
  0
VERTEX
  5
120
330
114
100
AcDbEntity
  8
EBENE_1
 62
     7
100
AcDbVertex
100
AcDb2dVertex
 10
38.96954209095206
 20
148.1818250497601
 30
0.0
  0
VERTEX
  5
121
330
114
100
AcDbEntity
  8
EBENE_1
 62
     7
100
AcDbVertex
100
AcDb2dVertex
 10
37.11608071988765
 20
148.1818250497601
 30
0.0
  0
VERTEX
  5
122
330
114
100
AcDbEntity
  8
EBENE_1
 62
     7
100
AcDbVertex
100
AcDb2dVertex
 10
35.42867295121228
 20
148.1818250497601
 30
0.0
  0
VERTEX
  5
123
330
114
100
AcDbEntity
  8
EBENE_1
 62
     7
100
AcDbVertex
100
AcDb2dVertex
 10
33.91662054273613
 20
148.1818250497601
 30
0.0
  0
VERTEX
  5
124
330
114
100
AcDbEntity
  8
EBENE_1
 62
     7
100
AcDbVertex
100
AcDb2dVertex
 10
32.58922525226937
 20
148.1818250497601
 30
0.0
  0
VERTEX
  5
125
330
114
100
AcDbEntity
  8
EBENE_1
 62
     7
100
AcDbVertex
100
AcDb2dVertex
 10
31.45234374213691
 20
148.1818250497601
 30
0.0
  0
VERTEX
  5
126
330
114
100
AcDbEntity
  8
EBENE_1
 62
     7
100
AcDbVertex
100
AcDb2dVertex
 10
30.51389973195486
 20
148.1818250497601
 30
0.0
  0
VERTEX
  5
127
330
114
100
AcDbEntity
  8
EBENE_1
 62
     7
100
AcDbVertex
100
AcDb2dVertex
 10
29.77871635540254
 20
148.1818250497601
 30
0.0
  0
VERTEX
  5
128
330
114
100
AcDbEntity
  8
EBENE_1
 62
     7
100
AcDbVertex
100
AcDb2dVertex
 10
29.24989419841669
 20
148.1818250497601
 30
0.0
  0
VERTEX
  5
129
330
114
100
AcDbEntity
  8
EBENE_1
 62
     7
100
AcDbVertex
100
AcDb2dVertex
 10
28.93156737557961
 20
148.1818250497601
 30
0.0
  0
VERTEX
  5
12A
330
114
100
AcDbEntity
  8
EBENE_1
 62
     7
100
AcDbVertex
100
AcDb2dVertex
 10
28.82545843463392
 20
148.1818250497601
 30
0.0
  0
SEQEND
  5
12B
330
114
100
AcDbEntity
  8
EBENE_1
  0
POLYLINE
  5
12C
330
41
100
AcDbEntity
  8
EBENE_1
 62
     7
100
AcDb2dPolyline
 66
     1
 10
0.0
 20
0.0
 30
0.0
  0
VERTEX
  5
12D
330
12C
100
AcDbEntity
  8
EBENE_1
 62
     7
100
AcDbVertex
100
AcDb2dVertex
 10
104.8252983678909
 20
148.1818250497601
 30
0.0
  0
VERTEX
  5
12E
330
12C
100
AcDbEntity
  8
EBENE_1
 62
     7
100
AcDbVertex
100
AcDb2dVertex
 10
104.7191894269452
 20
148.1818250497601
 30
0.0
  0
VERTEX
  5
12F
330
12C
100
AcDbEntity
  8
EBENE_1
 62
     7
100
AcDbVertex
100
AcDb2dVertex
 10
104.4012071136567
 20
148.1818250497601
 30
0.0
  0
VERTEX
  5
130
330
12C
100
AcDbEntity
  8
EBENE_1
 62
     7
100
AcDbVertex
100
AcDb2dVertex
 10
103.8727294662193
 20
148.1818250497601
 30
0.0
  0
VERTEX
  5
131
330
12C
100
AcDbEntity
  8
EBENE_1
 62
     7
100
AcDbVertex
100
AcDb2dVertex
 10
103.1378905992155
 20
148.1818250497601
 30
0.0
  0
VERTEX
  5
132
330
12C
100
AcDbEntity
  8
EBENE_1
 62
     7
100
AcDbVertex
100
AcDb2dVertex
 10
102.1987575699364
 20
148.1818250497601
 30
0.0
  0
VERTEX
  5
133
330
12C
100
AcDbEntity
  8
EBENE_1
 62
     7
100
AcDbVertex
100
AcDb2dVertex
 10
101.062565078901
 20
148.1818250497601
 30
0.0
  0
VERTEX
  5
134
330
12C
100
AcDbEntity
  8
EBENE_1
 62
     7
100
AcDbVertex
100
AcDb2dVertex
 10
99.73448076933722
 20
148.1818250497601
 30
0.0
  0
VERTEX
  5
135
330
12C
100
AcDbEntity
  8
EBENE_1
 62
     7
100
AcDbVertex
100
AcDb2dVertex
 10
98.22242836086106
 20
148.1818250497601
 30
0.0
  0
VERTEX
  5
136
330
12C
100
AcDbEntity
  8
EBENE_1
 62
     7
100
AcDbVertex
100
AcDb2dVertex
 10
96.53502059218569
 20
148.1818250497601
 30
0.0
  0
VERTEX
  5
137
330
12C
100
AcDbEntity
  8
EBENE_1
 62
     7
100
AcDbVertex
100
AcDb2dVertex
 10
94.68224824021833
 20
148.1818250497601
 30
0.0
  0
VERTEX
  5
138
330
12C
100
AcDbEntity
  8
EBENE_1
 62
     7
100
AcDbVertex
100
AcDb2dVertex
 10
92.67203502457505
 20
148.1818250497601
 30
0.0
  0
VERTEX
  5
139
330
12C
100
AcDbEntity
  8
EBENE_1
 62
     7
100
AcDbVertex
100
AcDb2dVertex
 10
90.5188503462939
 20
148.1818250497601
 30
0.0
  0
VERTEX
  5
13A
330
12C
100
AcDbEntity
  8
EBENE_1
 62
     7
100
AcDbVertex
100
AcDb2dVertex
 10
88.23199596318506
 20
148.1818250497601
 30
0.0
  0
VERTEX
  5
13B
330
12C
100
AcDbEntity
  8
EBENE_1
 62
     7
100
AcDbVertex
100
AcDb2dVertex
 10
85.82559676673804
 20
148.1818250497601
 30
0.0
  0
VERTEX
  5
13C
330
12C
100
AcDbEntity
  8
EBENE_1
 62
     7
100
AcDbVertex
100
AcDb2dVertex
 10
83.31343313889387
 20
148.1818250497601
 30
0.0
  0
VERTEX
  5
13D
330
12C
100
AcDbEntity
  8
EBENE_1
 62
     7
100
AcDbVertex
100
AcDb2dVertex
 10
80.70825193294795
 20
148.1818250497601
 30
0.0
  0
VERTEX
  5
13E
330
12C
100
AcDbEntity
  8
EBENE_1
 62
     7
100
AcDbVertex
100
AcDb2dVertex
 10
78.02624509768094
 20
148.1818250497601
 30
0.0
  0
VERTEX
  5
13F
330
12C
100
AcDbEntity
  8
EBENE_1
 62
     7
100
AcDbVertex
100
AcDb2dVertex
 10
75.28119301503388
 20
148.1818250497601
 30
0.0
  0
VERTEX
  5
140
330
12C
100
AcDbEntity
  8
EBENE_1
 62
     7
100
AcDbVertex
100
AcDb2dVertex
 10
72.48963214333592
 20
148.1818250497601
 30
0.0
  0
VERTEX
  5
141
330
12C
100
AcDbEntity
  8
EBENE_1
 62
     7
100
AcDbVertex
100
AcDb2dVertex
 10
69.66568737407664
 20
148.1818250497601
 30
0.0
  0
VERTEX
  5
142
330
12C
100
AcDbEntity
  8
EBENE_1
 62
     7
100
AcDbVertex
100
AcDb2dVertex
 10
66.82555065603667
 20
148.1818250497601
 30
0.0
  0
SEQEND
  5
143
330
12C
100
AcDbEntity
  8
EBENE_1
  0
POLYLINE
  5
144
330
41
100
AcDbEntity
  8
EBENE_1
 62
     7
100
AcDb2dPolyline
 66
     1
 10
0.0
 20
0.0
 30
0.0
  0
VERTEX
  5
145
330
144
100
AcDbEntity
  8
EBENE_1
 62
     7
100
AcDbVertex
100
AcDb2dVertex
 10
28.82545843463392
 20
148.9497368334223
 30
0.0
  0
VERTEX
  5
146
330
144
100
AcDbEntity
  8
EBENE_1
 62
     7
100
AcDbVertex
100
AcDb2dVertex
 10
28.93156737557961
 20
148.9497368334223
 30
0.0
  0
VERTEX
  5
147
330
144
100
AcDbEntity
  8
EBENE_1
 62
     7
100
AcDbVertex
100
AcDb2dVertex
 10
29.24989419841669
 20
148.9497368334223
 30
0.0
  0
VERTEX
  5
148
330
144
100
AcDbEntity
  8
EBENE_1
 62
     7
100
AcDbVertex
100
AcDb2dVertex
 10
29.77871635540254
 20
148.9497368334223
 30
0.0
  0
VERTEX
  5
149
330
144
100
AcDbEntity
  8
EBENE_1
 62
     7
100
AcDbVertex
100
AcDb2dVertex
 10
30.51389973195486
 20
148.9497368334223
 30
0.0
  0
VERTEX
  5
14A
330
144
100
AcDbEntity
  8
EBENE_1
 62
     7
100
AcDbVertex
100
AcDb2dVertex
 10
31.45234374213691
 20
148.9497368334223
 30
0.0
  0
VERTEX
  5
14B
330
144
100
AcDbEntity
  8
EBENE_1
 62
     7
100
AcDbVertex
100
AcDb2dVertex
 10
32.58922525226937
 20
148.9497368334223
 30
0.0
  0
VERTEX
  5
14C
330
144
100
AcDbEntity
  8
EBENE_1
 62
     7
100
AcDbVertex
100
AcDb2dVertex
 10
33.91662054273613
 20
148.9497368334223
 30
0.0
  0
VERTEX
  5
14D
330
144
100
AcDbEntity
  8
EBENE_1
 62
     7
100
AcDbVertex
100
AcDb2dVertex
 10
35.42867295121228
 20
148.9497368334223
 30
0.0
  0
VERTEX
  5
14E
330
144
100
AcDbEntity
  8
EBENE_1
 62
     7
100
AcDbVertex
100
AcDb2dVertex
 10
37.11608071988765
 20
148.9497368334223
 30
0.0
  0
VERTEX
  5
14F
330
144
100
AcDbEntity
  8
EBENE_1
 62
     7
100
AcDbVertex
100
AcDb2dVertex
 10
38.96954209095206
 20
148.9497368334223
 30
0.0
  0
VERTEX
  5
150
330
144
100
AcDbEntity
  8
EBENE_1
 62
     7
100
AcDbVertex
100
AcDb2dVertex
 10
40.97872177794977
 20
148.9497368334223
 30
0.0
  0
VERTEX
  5
151
330
144
100
AcDbEntity
  8
EBENE_1
 62
     7
100
AcDbVertex
100
AcDb2dVertex
 10
43.13362900397354
 20
148.9497368334223
 30
0.0
  0
VERTEX
  5
152
330
144
100
AcDbEntity
  8
EBENE_1
 62
     7
100
AcDbVertex
100
AcDb2dVertex
 10
45.41979436798533
 20
148.9497368334223
 30
0.0
  0
VERTEX
  5
153
330
144
100
AcDbEntity
  8
EBENE_1
 62
     7
100
AcDbVertex
100
AcDb2dVertex
 10
47.82516003578677
 20
148.9497368334223
 30
0.0
  0
VERTEX
  5
154
330
144
100
AcDbEntity
  8
EBENE_1
 62
     7
100
AcDbVertex
100
AcDb2dVertex
 10
50.33835719227653
 20
148.9497368334223
 30
0.0
  0
VERTEX
  5
155
330
144
100
AcDbEntity
  8
EBENE_1
 62
     7
100
AcDbVertex
100
AcDb2dVertex
 10
52.94216036002835
 20
148.9497368334223
 30
0.0
  0
VERTEX
  5
156
330
144
100
AcDbEntity
  8
EBENE_1
 62
     7
100
AcDbVertex
100
AcDb2dVertex
 10
55.6248562143924
 20
148.9497368334223
 30
0.0
  0
VERTEX
  5
157
330
144
100
AcDbEntity
  8
EBENE_1
 62
     7
100
AcDbVertex
100
AcDb2dVertex
 10
58.36956378749095
 20
148.9497368334223
 30
0.0
  0
VERTEX
  5
158
330
144
100
AcDbEntity
  8
EBENE_1
 62
     7
100
AcDbVertex
100
AcDb2dVertex
 10
61.16215818783446
 20
148.9497368334223
 30
0.0
  0
VERTEX
  5
159
330
144
100
AcDbEntity
  8
EBENE_1
 62
     7
100
AcDbVertex
100
AcDb2dVertex
 10
63.98610295709376
 20
148.9497368334223
 30
0.0
  0
VERTEX
  5
15A
330
144
100
AcDbEntity
  8
EBENE_1
 62
     7
100
AcDbVertex
100
AcDb2dVertex
 10
66.82555065603667
 20
148.9497368334223
 30
0.0
  0
VERTEX
  5
15B
330
144
100
AcDbEntity
  8
EBENE_1
 62
     7
100
AcDbVertex
100
AcDb2dVertex
 10
69.66568737407664
 20
148.9497368334223
 30
0.0
  0
VERTEX
  5
15C
330
144
100
AcDbEntity
  8
EBENE_1
 62
     7
100
AcDbVertex
100
AcDb2dVertex
 10
72.48963214333592
 20
148.9497368334223
 30
0.0
  0
VERTEX
  5
15D
330
144
100
AcDbEntity
  8
EBENE_1
 62
     7
100
AcDbVertex
100
AcDb2dVertex
 10
75.28119301503388
 20
148.9497368334223
 30
0.0
  0
VERTEX
  5
15E
330
144
100
AcDbEntity
  8
EBENE_1
 62
     7
100
AcDbVertex
100
AcDb2dVertex
 10
78.02624509768094
 20
148.9497368334223
 30
0.0
  0
VERTEX
  5
15F
330
144
100
AcDbEntity
  8
EBENE_1
 62
     7
100
AcDbVertex
100
AcDb2dVertex
 10
80.70825193294795
 20
148.9497368334223
 30
0.0
  0
VERTEX
  5
160
330
144
100
AcDbEntity
  8
EBENE_1
 62
     7
100
AcDbVertex
100
AcDb2dVertex
 10
83.31343313889387
 20
148.9497368334223
 30
0.0
  0
VERTEX
  5
161
330
144
100
AcDbEntity
  8
EBENE_1
 62
     7
100
AcDbVertex
100
AcDb2dVertex
 10
85.82559676673804
 20
148.9497368334223
 30
0.0
  0
VERTEX
  5
162
330
144
100
AcDbEntity
  8
EBENE_1
 62
     7
100
AcDbVertex
100
AcDb2dVertex
 10
88.23199596318506
 20
148.9497368334223
 30
0.0
  0
VERTEX
  5
163
330
144
100
AcDbEntity
  8
EBENE_1
 62
     7
100
AcDbVertex
100
AcDb2dVertex
 10
90.5188503462939
 20
148.9497368334223
 30
0.0
  0
VERTEX
  5
164
330
144
100
AcDbEntity
  8
EBENE_1
 62
     7
100
AcDbVertex
100
AcDb2dVertex
 10
92.67203502457505
 20
148.9497368334223
 30
0.0
  0
VERTEX
  5
165
330
144
100
AcDbEntity
  8
EBENE_1
 62
     7
100
AcDbVertex
100
AcDb2dVertex
 10
94.68224824021833
 20
148.9497368334223
 30
0.0
  0
VERTEX
  5
166
330
144
100
AcDbEntity
  8
EBENE_1
 62
     7
100
AcDbVertex
100
AcDb2dVertex
 10
96.53502059218569
 20
148.9497368334223
 30
0.0
  0
VERTEX
  5
167
330
144
100
AcDbEntity
  8
EBENE_1
 62
     7
100
AcDbVertex
100
AcDb2dVertex
 10
98.22242836086106
 20
148.9497368334223
 30
0.0
  0
VERTEX
  5
168
330
144
100
AcDbEntity
  8
EBENE_1
 62
     7
100
AcDbVertex
100
AcDb2dVertex
 10
99.73448076933722
 20
148.9497368334223
 30
0.0
  0
VERTEX
  5
169
330
144
100
AcDbEntity
  8
EBENE_1
 62
     7
100
AcDbVertex
100
AcDb2dVertex
 10
101.062565078901
 20
148.9497368334223
 30
0.0
  0
VERTEX
  5
16A
330
144
100
AcDbEntity
  8
EBENE_1
 62
     7
100
AcDbVertex
100
AcDb2dVertex
 10
102.1987575699364
 20
148.9497368334223
 30
0.0
  0
VERTEX
  5
16B
330
144
100
AcDbEntity
  8
EBENE_1
 62
     7
100
AcDbVertex
100
AcDb2dVertex
 10
103.1378905992155
 20
148.9497368334223
 30
0.0
  0
VERTEX
  5
16C
330
144
100
AcDbEntity
  8
EBENE_1
 62
     7
100
AcDbVertex
100
AcDb2dVertex
 10
103.8727294662193
 20
148.9497368334223
 30
0.0
  0
VERTEX
  5
16D
330
144
100
AcDbEntity
  8
EBENE_1
 62
     7
100
AcDbVertex
100
AcDb2dVertex
 10
104.4012071136567
 20
148.9497368334223
 30
0.0
  0
VERTEX
  5
16E
330
144
100
AcDbEntity
  8
EBENE_1
 62
     7
100
AcDbVertex
100
AcDb2dVertex
 10
104.7191894269452
 20
148.9497368334223
 30
0.0
  0
VERTEX
  5
16F
330
144
100
AcDbEntity
  8
EBENE_1
 62
     7
100
AcDbVertex
100
AcDb2dVertex
 10
104.8252983678909
 20
148.9497368334223
 30
0.0
  0
SEQEND
  5
170
330
144
100
AcDbEntity
  8
EBENE_1
  0
POLYLINE
  5
171
330
41
100
AcDbEntity
  8
EBENE_1
 62
     7
100
AcDb2dPolyline
 66
     1
 10
0.0
 20
0.0
 30
0.0
  0
VERTEX
  5
172
330
171
100
AcDbEntity
  8
EBENE_1
 62
     7
100
AcDbVertex
100
AcDb2dVertex
 10
104.8252983678909
 20
128.681895584149
 30
0.0
  0
VERTEX
  5
173
330
171
100
AcDbEntity
  8
EBENE_1
 62
     7
100
AcDbVertex
100
AcDb2dVertex
 10
104.7191894269452
 20
128.681895584149
 30
0.0
  0
VERTEX
  5
174
330
171
100
AcDbEntity
  8
EBENE_1
 62
     7
100
AcDbVertex
100
AcDb2dVertex
 10
104.4012071136567
 20
128.681895584149
 30
0.0
  0
VERTEX
  5
175
330
171
100
AcDbEntity
  8
EBENE_1
 62
     7
100
AcDbVertex
100
AcDb2dVertex
 10
103.8727294662193
 20
128.681895584149
 30
0.0
  0
VERTEX
  5
176
330
171
100
AcDbEntity
  8
EBENE_1
 62
     7
100
AcDbVertex
100
AcDb2dVertex
 10
103.1378905992155
 20
128.681895584149
 30
0.0
  0
VERTEX
  5
177
330
171
100
AcDbEntity
  8
EBENE_1
 62
     7
100
AcDbVertex
100
AcDb2dVertex
 10
102.1987575699364
 20
128.681895584149
 30
0.0
  0
VERTEX
  5
178
330
171
100
AcDbEntity
  8
EBENE_1
 62
     7
100
AcDbVertex
100
AcDb2dVertex
 10
101.062565078901
 20
128.681895584149
 30
0.0
  0
VERTEX
  5
179
330
171
100
AcDbEntity
  8
EBENE_1
 62
     7
100
AcDbVertex
100
AcDb2dVertex
 10
99.73448076933722
 20
128.681895584149
 30
0.0
  0
VERTEX
  5
17A
330
171
100
AcDbEntity
  8
EBENE_1
 62
     7
100
AcDbVertex
100
AcDb2dVertex
 10
98.22242836086106
 20
128.681895584149
 30
0.0
  0
VERTEX
  5
17B
330
171
100
AcDbEntity
  8
EBENE_1
 62
     7
100
AcDbVertex
100
AcDb2dVertex
 10
96.53502059218569
 20
128.681895584149
 30
0.0
  0
VERTEX
  5
17C
330
171
100
AcDbEntity
  8
EBENE_1
 62
     7
100
AcDbVertex
100
AcDb2dVertex
 10
94.68224824021833
 20
128.681895584149
 30
0.0
  0
VERTEX
  5
17D
330
171
100
AcDbEntity
  8
EBENE_1
 62
     7
100
AcDbVertex
100
AcDb2dVertex
 10
92.67203502457505
 20
128.681895584149
 30
0.0
  0
VERTEX
  5
17E
330
171
100
AcDbEntity
  8
EBENE_1
 62
     7
100
AcDbVertex
100
AcDb2dVertex
 10
90.5188503462939
 20
128.681895584149
 30
0.0
  0
VERTEX
  5
17F
330
171
100
AcDbEntity
  8
EBENE_1
 62
     7
100
AcDbVertex
100
AcDb2dVertex
 10
88.23199596318506
 20
128.681895584149
 30
0.0
  0
VERTEX
  5
180
330
171
100
AcDbEntity
  8
EBENE_1
 62
     7
100
AcDbVertex
100
AcDb2dVertex
 10
85.82559676673804
 20
128.681895584149
 30
0.0
  0
VERTEX
  5
181
330
171
100
AcDbEntity
  8
EBENE_1
 62
     7
100
AcDbVertex
100
AcDb2dVertex
 10
83.31343313889387
 20
128.681895584149
 30
0.0
  0
VERTEX
  5
182
330
171
100
AcDbEntity
  8
EBENE_1
 62
     7
100
AcDbVertex
100
AcDb2dVertex
 10
80.70825193294795
 20
128.681895584149
 30
0.0
  0
VERTEX
  5
183
330
171
100
AcDbEntity
  8
EBENE_1
 62
     7
100
AcDbVertex
100
AcDb2dVertex
 10
78.02624509768094
 20
128.681895584149
 30
0.0
  0
VERTEX
  5
184
330
171
100
AcDbEntity
  8
EBENE_1
 62
     7
100
AcDbVertex
100
AcDb2dVertex
 10
75.28119301503388
 20
128.681895584149
 30
0.0
  0
VERTEX
  5
185
330
171
100
AcDbEntity
  8
EBENE_1
 62
     7
100
AcDbVertex
100
AcDb2dVertex
 10
72.48963214333592
 20
128.681895584149
 30
0.0
  0
VERTEX
  5
186
330
171
100
AcDbEntity
  8
EBENE_1
 62
     7
100
AcDbVertex
100
AcDb2dVertex
 10
69.66568737407664
 20
128.681895584149
 30
0.0
  0
VERTEX
  5
187
330
171
100
AcDbEntity
  8
EBENE_1
 62
     7
100
AcDbVertex
100
AcDb2dVertex
 10
66.82555065603667
 20
128.681895584149
 30
0.0
  0
VERTEX
  5
188
330
171
100
AcDbEntity
  8
EBENE_1
 62
     7
100
AcDbVertex
100
AcDb2dVertex
 10
63.98610295709376
 20
128.681895584149
 30
0.0
  0
VERTEX
  5
189
330
171
100
AcDbEntity
  8
EBENE_1
 62
     7
100
AcDbVertex
100
AcDb2dVertex
 10
61.16215818783446
 20
128.681895584149
 30
0.0
  0
VERTEX
  5
18A
330
171
100
AcDbEntity
  8
EBENE_1
 62
     7
100
AcDbVertex
100
AcDb2dVertex
 10
58.36956378749095
 20
128.681895584149
 30
0.0
  0
VERTEX
  5
18B
330
171
100
AcDbEntity
  8
EBENE_1
 62
     7
100
AcDbVertex
100
AcDb2dVertex
 10
55.6248562143924
 20
128.681895584149
 30
0.0
  0
VERTEX
  5
18C
330
171
100
AcDbEntity
  8
EBENE_1
 62
     7
100
AcDbVertex
100
AcDb2dVertex
 10
52.94216036002835
 20
128.681895584149
 30
0.0
  0
VERTEX
  5
18D
330
171
100
AcDbEntity
  8
EBENE_1
 62
     7
100
AcDbVertex
100
AcDb2dVertex
 10
50.33835719227653
 20
128.681895584149
 30
0.0
  0
VERTEX
  5
18E
330
171
100
AcDbEntity
  8
EBENE_1
 62
     7
100
AcDbVertex
100
AcDb2dVertex
 10
47.82516003578677
 20
128.681895584149
 30
0.0
  0
VERTEX
  5
18F
330
171
100
AcDbEntity
  8
EBENE_1
 62
     7
100
AcDbVertex
100
AcDb2dVertex
 10
45.41979436798533
 20
128.681895584149
 30
0.0
  0
VERTEX
  5
190
330
171
100
AcDbEntity
  8
EBENE_1
 62
     7
100
AcDbVertex
100
AcDb2dVertex
 10
43.13362900397354
 20
128.681895584149
 30
0.0
  0
VERTEX
  5
191
330
171
100
AcDbEntity
  8
EBENE_1
 62
     7
100
AcDbVertex
100
AcDb2dVertex
 10
40.97872177794977
 20
128.681895584149
 30
0.0
  0
VERTEX
  5
192
330
171
100
AcDbEntity
  8
EBENE_1
 62
     7
100
AcDbVertex
100
AcDb2dVertex
 10
38.96954209095206
 20
128.681895584149
 30
0.0
  0
VERTEX
  5
193
330
171
100
AcDbEntity
  8
EBENE_1
 62
     7
100
AcDbVertex
100
AcDb2dVertex
 10
37.11608071988765
 20
128.681895584149
 30
0.0
  0
VERTEX
  5
194
330
171
100
AcDbEntity
  8
EBENE_1
 62
     7
100
AcDbVertex
100
AcDb2dVertex
 10
35.42867295121228
 20
128.681895584149
 30
0.0
  0
VERTEX
  5
195
330
171
100
AcDbEntity
  8
EBENE_1
 62
     7
100
AcDbVertex
100
AcDb2dVertex
 10
33.91662054273613
 20
128.681895584149
 30
0.0
  0
VERTEX
  5
196
330
171
100
AcDbEntity
  8
EBENE_1
 62
     7
100
AcDbVertex
100
AcDb2dVertex
 10
32.58922525226937
 20
128.681895584149
 30
0.0
  0
VERTEX
  5
197
330
171
100
AcDbEntity
  8
EBENE_1
 62
     7
100
AcDbVertex
100
AcDb2dVertex
 10
31.45234374213691
 20
128.681895584149
 30
0.0
  0
VERTEX
  5
198
330
171
100
AcDbEntity
  8
EBENE_1
 62
     7
100
AcDbVertex
100
AcDb2dVertex
 10
30.51389973195486
 20
128.681895584149
 30
0.0
  0
VERTEX
  5
199
330
171
100
AcDbEntity
  8
EBENE_1
 62
     7
100
AcDbVertex
100
AcDb2dVertex
 10
29.77871635540254
 20
128.681895584149
 30
0.0
  0
VERTEX
  5
19A
330
171
100
AcDbEntity
  8
EBENE_1
 62
     7
100
AcDbVertex
100
AcDb2dVertex
 10
29.24989419841669
 20
128.681895584149
 30
0.0
  0
VERTEX
  5
19B
330
171
100
AcDbEntity
  8
EBENE_1
 62
     7
100
AcDbVertex
100
AcDb2dVertex
 10
28.93156737557961
 20
128.681895584149
 30
0.0
  0
VERTEX
  5
19C
330
171
100
AcDbEntity
  8
EBENE_1
 62
     7
100
AcDbVertex
100
AcDb2dVertex
 10
28.82545843463392
 20
128.681895584149
 30
0.0
  0
SEQEND
  5
19D
330
171
100
AcDbEntity
  8
EBENE_1
  0
SPLINE
  5
19E
330
41
100
AcDbEntity
  8
EBENE_1
 62
     7
100
AcDbSpline
210
0.0
220
0.0
230
1.0
 70
     8
 71
     3
 72
     8
 73
     4
 74
     0
 42
0.0000000001
 43
0.0000000001
 40
0.0
 40
0.0
 40
0.0
 40
0.0
 40
1.0
 40
1.0
 40
1.0
 40
1.0
 10
54.60200736482172
 20
155.8564642622512
 30
0.0
 10
55.93629284625899
 20
156.2140651736201
 30
0.0
 10
56.8175482713859
 20
157.4160589884238
 30
0.0
 10
56.82581650055049
 20
158.7544785844433
 30
0.0
  0
SPLINE
  5
19F
330
41
100
AcDbEntity
  8
EBENE_1
 62
     7
100
AcDbSpline
210
0.0
220
0.0
230
1.0
 70
     8
 71
     3
 72
     8
 73
     4
 74
     0
 42
0.0000000001
 43
0.0000000001
 40
0.0
 40
0.0
 40
0.0
 40
0.0
 40
1.0
 40
1.0
 40
1.0
 40
1.0
 10
76.82528481152285
 20
158.7544785844433
 30
0.0
 10
76.82528481152285
 20
157.3736843139552
 30
0.0
 10
77.75821666892851
 20
156.2109645876834
 30
0.0
 10
79.04909394725162
 20
155.8564642622512
 30
0.0
  0
POLYLINE
  5
1A0
330
41
100
AcDbEntity
  8
EBENE_1
 62
     7
100
AcDb2dPolyline
 66
     1
 10
0.0
 20
0.0
 30
0.0
  0
VERTEX
  5
1A1
330
1A0
100
AcDbEntity
  8
EBENE_1
 62
     7
100
AcDbVertex
100
AcDb2dVertex
 10
66.82555065603667
 20
217.6821478405448
 30
0.0
  0
VERTEX
  5
1A2
330
1A0
100
AcDbEntity
  8
EBENE_1
 62
     7
100
AcDbVertex
100
AcDb2dVertex
 10
65.4027262206285
 20
217.6821478405448
 30
0.0
  0
VERTEX
  5
1A3
330
1A0
100
AcDbEntity
  8
EBENE_1
 62
     7
100
AcDbVertex
100
AcDb2dVertex
 10
64.00849607774788
 20
217.6821478405448
 30
0.0
  0
VERTEX
  5
1A4
330
1A0
100
AcDbEntity
  8
EBENE_1
 62
     7
100
AcDbVertex
100
AcDb2dVertex
 10
62.67179902947094
 20
217.6821478405448
 30
0.0
  0
VERTEX
  5
1A5
330
1A0
100
AcDbEntity
  8
EBENE_1
 62
     7
100
AcDbVertex
100
AcDb2dVertex
 10
61.41950682058263
 20
217.6821478405448
 30
0.0
  0
VERTEX
  5
1A6
330
1A0
100
AcDbEntity
  8
EBENE_1
 62
     7
100
AcDbVertex
100
AcDb2dVertex
 10
60.27711315767378
 20
217.6821478405448
 30
0.0
  0
VERTEX
  5
1A7
330
1A0
100
AcDbEntity
  8
EBENE_1
 62
     7
100
AcDbVertex
100
AcDb2dVertex
 10
59.2680446900441
 20
217.6821478405448
 30
0.0
  0
VERTEX
  5
1A8
330
1A0
100
AcDbEntity
  8
EBENE_1
 62
     7
100
AcDbVertex
100
AcDb2dVertex
 10
58.41297199060509
 20
217.6821478405448
 30
0.0
  0
VERTEX
  5
1A9
330
1A0
100
AcDbEntity
  8
EBENE_1
 62
     7
100
AcDbVertex
100
AcDb2dVertex
 10
57.72946504633153
 20
217.6821478405448
 30
0.0
  0
VERTEX
  5
1AA
330
1A0
100
AcDbEntity
  8
EBENE_1
 62
     7
100
AcDbVertex
100
AcDb2dVertex
 10
57.23095972961588
 20
217.6821478405448
 30
0.0
  0
VERTEX
  5
1AB
330
1A0
100
AcDbEntity
  8
EBENE_1
 62
     7
100
AcDbVertex
100
AcDb2dVertex
 10
56.92744681736536
 20
217.6821478405448
 30
0.0
  0
VERTEX
  5
1AC
330
1A0
100
AcDbEntity
  8
EBENE_1
 62
     7
100
AcDbVertex
100
AcDb2dVertex
 10
56.82581650055049
 20
217.6821478405448
 30
0.0
  0
SEQEND
  5
1AD
330
1A0
100
AcDbEntity
  8
EBENE_1
  0
POLYLINE
  5
1AE
330
41
100
AcDbEntity
  8
EBENE_1
 62
     7
100
AcDb2dPolyline
 66
     1
 10
0.0
 20
0.0
 30
0.0
  0
VERTEX
  5
1AF
330
1AE
100
AcDbEntity
  8
EBENE_1
 62
     7
100
AcDbVertex
100
AcDb2dVertex
 10
76.82528481152285
 20
217.6821478405448
 30
0.0
  0
VERTEX
  5
1B0
330
1AE
100
AcDbEntity
  8
EBENE_1
 62
     7
100
AcDbVertex
100
AcDb2dVertex
 10
76.72434351380502
 20
217.6821478405448
 30
0.0
  0
VERTEX
  5
1B1
330
1AE
100
AcDbEntity
  8
EBENE_1
 62
     7
100
AcDbVertex
100
AcDb2dVertex
 10
76.42083060155451
 20
217.6821478405448
 30
0.0
  0
VERTEX
  5
1B2
330
1AE
100
AcDbEntity
  8
EBENE_1
 62
     7
100
AcDbVertex
100
AcDb2dVertex
 10
75.92198077529034
 20
217.6821478405448
 30
0.0
  0
VERTEX
  5
1B3
330
1AE
100
AcDbEntity
  8
EBENE_1
 62
     7
100
AcDbVertex
100
AcDb2dVertex
 10
75.23812932146825
 20
217.6821478405448
 30
0.0
  0
VERTEX
  5
1B4
330
1AE
100
AcDbEntity
  8
EBENE_1
 62
     7
100
AcDbVertex
100
AcDb2dVertex
 10
74.38305662202924
 20
217.6821478405448
 30
0.0
  0
VERTEX
  5
1B5
330
1AE
100
AcDbEntity
  8
EBENE_1
 62
     7
100
AcDbVertex
100
AcDb2dVertex
 10
73.37467717349661
 20
217.6821478405448
 30
0.0
  0
VERTEX
  5
1B6
330
1AE
100
AcDbEntity
  8
EBENE_1
 62
     7
100
AcDbVertex
100
AcDb2dVertex
 10
72.23228351058776
 20
217.6821478405448
 30
0.0
  0
VERTEX
  5
1B7
330
1AE
100
AcDbEntity
  8
EBENE_1
 62
     7
100
AcDbVertex
100
AcDb2dVertex
 10
70.97999130169946
 20
217.6821478405448
 30
0.0
  0
VERTEX
  5
1B8
330
1AE
100
AcDbEntity
  8
EBENE_1
 62
     7
100
AcDbVertex
100
AcDb2dVertex
 10
69.64329425342251
 20
217.6821478405448
 30
0.0
  0
VERTEX
  5
1B9
330
1AE
100
AcDbEntity
  8
EBENE_1
 62
     7
100
AcDbVertex
100
AcDb2dVertex
 10
68.24906411054191
 20
217.6821478405448
 30
0.0
  0
VERTEX
  5
1BA
330
1AE
100
AcDbEntity
  8
EBENE_1
 62
     7
100
AcDbVertex
100
AcDb2dVertex
 10
66.82555065603667
 20
217.6821478405448
 30
0.0
  0
SEQEND
  5
1BB
330
1AE
100
AcDbEntity
  8
EBENE_1
  0
POLYLINE
  5
1BC
330
41
100
AcDbEntity
  8
EBENE_1
 62
     7
100
AcDb2dPolyline
 66
     1
 10
0.0
 20
0.0
 30
0.0
  0
VERTEX
  5
1BD
330
1BC
100
AcDbEntity
  8
EBENE_1
 62
     7
100
AcDbVertex
100
AcDb2dVertex
 10
66.82555065603667
 20
218.6815700408157
 30
0.0
  0
VERTEX
  5
1BE
330
1BC
100
AcDbEntity
  8
EBENE_1
 62
     7
100
AcDbVertex
100
AcDb2dVertex
 10
68.2339056904068
 20
218.6815700408157
 30
0.0
  0
VERTEX
  5
1BF
330
1BC
100
AcDbEntity
  8
EBENE_1
 62
     7
100
AcDbVertex
100
AcDb2dVertex
 10
69.60712075082739
 20
218.6815700408157
 30
0.0
  0
VERTEX
  5
1C0
330
1BC
100
AcDbEntity
  8
EBENE_1
 62
     7
100
AcDbVertex
100
AcDb2dVertex
 10
70.91143390154298
 20
218.6815700408157
 30
0.0
  0
VERTEX
  5
1C1
330
1BC
100
AcDbEntity
  8
EBENE_1
 62
     7
100
AcDbVertex
100
AcDb2dVertex
 10
72.11549477363779
 20
218.6815700408157
 30
0.0
  0
VERTEX
  5
1C2
330
1BC
100
AcDbEntity
  8
EBENE_1
 62
     7
100
AcDbVertex
100
AcDb2dVertex
 10
73.19002005548722
 20
218.6815700408157
 30
0.0
  0
VERTEX
  5
1C3
330
1BC
100
AcDbEntity
  8
EBENE_1
 62
     7
100
AcDbVertex
100
AcDb2dVertex
 10
74.10641545456367
 20
218.6815700408157
 30
0.0
  0
VERTEX
  5
1C4
330
1BC
100
AcDbEntity
  8
EBENE_1
 62
     7
100
AcDbVertex
100
AcDb2dVertex
 10
74.8443549075042
 20
218.6815700408157
 30
0.0
  0
VERTEX
  5
1C5
330
1BC
100
AcDbEntity
  8
EBENE_1
 62
     7
100
AcDbVertex
100
AcDb2dVertex
 10
75.38523489868842
 20
218.6815700408157
 30
0.0
  0
VERTEX
  5
1C6
330
1BC
100
AcDbEntity
  8
EBENE_1
 62
     7
100
AcDbVertex
100
AcDb2dVertex
 10
75.7145860270783
 20
218.6815700408157
 30
0.0
  0
VERTEX
  5
1C7
330
1BC
100
AcDbEntity
  8
EBENE_1
 62
     7
100
AcDbVertex
100
AcDb2dVertex
 10
75.82551810170335
 20
218.6815700408157
 30
0.0
  0
SEQEND
  5
1C8
330
1BC
100
AcDbEntity
  8
EBENE_1
  0
POLYLINE
  5
1C9
330
41
100
AcDbEntity
  8
EBENE_1
 62
     7
100
AcDb2dPolyline
 66
     1
 10
0.0
 20
0.0
 30
0.0
  0
VERTEX
  5
1CA
330
1C9
100
AcDbEntity
  8
EBENE_1
 62
     7
100
AcDbVertex
100
AcDb2dVertex
 10
57.82523870082147
 20
218.6815700408157
 30
0.0
  0
VERTEX
  5
1CB
330
1C9
100
AcDbEntity
  8
EBENE_1
 62
     7
100
AcDbVertex
100
AcDb2dVertex
 10
57.93617077544651
 20
218.6815700408157
 30
0.0
  0
VERTEX
  5
1CC
330
1C9
100
AcDbEntity
  8
EBENE_1
 62
     7
100
AcDbVertex
100
AcDb2dVertex
 10
58.26621092293345
 20
218.6815700408157
 30
0.0
  0
VERTEX
  5
1CD
330
1C9
100
AcDbEntity
  8
EBENE_1
 62
     7
100
AcDbVertex
100
AcDb2dVertex
 10
58.80674640456915
 20
218.6815700408157
 30
0.0
  0
VERTEX
  5
1CE
330
1C9
100
AcDbEntity
  8
EBENE_1
 62
     7
100
AcDbVertex
100
AcDb2dVertex
 10
59.54434134796114
 20
218.6815700408157
 30
0.0
  0
VERTEX
  5
1CF
330
1C9
100
AcDbEntity
  8
EBENE_1
 62
     7
100
AcDbVertex
100
AcDb2dVertex
 10
60.46177027568317
 20
218.6815700408157
 30
0.0
  0
VERTEX
  5
1D0
330
1C9
100
AcDbEntity
  8
EBENE_1
 62
     7
100
AcDbVertex
100
AcDb2dVertex
 10
61.53560653843554
 20
218.6815700408157
 30
0.0
  0
VERTEX
  5
1D1
330
1C9
100
AcDbEntity
  8
EBENE_1
 62
     7
100
AcDbVertex
100
AcDb2dVertex
 10
62.73966741053037
 20
218.6815700408157
 30
0.0
  0
VERTEX
  5
1D2
330
1C9
100
AcDbEntity
  8
EBENE_1
 62
     7
100
AcDbVertex
100
AcDb2dVertex
 10
64.044669580343
 20
218.6815700408157
 30
0.0
  0
VERTEX
  5
1D3
330
1C9
100
AcDbEntity
  8
EBENE_1
 62
     7
100
AcDbVertex
100
AcDb2dVertex
 10
65.41788464076359
 20
218.6815700408157
 30
0.0
  0
VERTEX
  5
1D4
330
1C9
100
AcDbEntity
  8
EBENE_1
 62
     7
100
AcDbVertex
100
AcDb2dVertex
 10
66.82555065603667
 20
218.6815700408157
 30
0.0
  0
SEQEND
  5
1D5
330
1C9
100
AcDbEntity
  8
EBENE_1
  0
ENDBLK
  5
44
330
41
100
AcDbEntity
  8
0
100
AcDbBlockEnd
  0
BLOCK
  5
1D8
330
1D6
100
AcDbEntity
  8
0
100
AcDbBlockBegin
  2
BLOCK_3
 70
     0
 71
     0
 10
0.0
 20
0.0
 30
0.0
  3
BLOCK_3
  1

  0
POLYLINE
  5
1DA
330
1D6
100
AcDbEntity
  8
EBENE_1
 62
     7
100
AcDb2dPolyline
 66
     1
 10
0.0
 20
0.0
 30
0.0
  0
VERTEX
  5
1DB
330
1DA
100
AcDbEntity
  8
EBENE_1
 62
     7
100
AcDbVertex
100
AcDb2dVertex
 10
62.08337672059027
 20
147.2606065170043
 30
0.0
  0
VERTEX
  5
1DC
330
1DA
100
AcDbEntity
  8
EBENE_1
 62
     7
100
AcDbVertex
100
AcDb2dVertex
 10
66.77008461872416
 20
142.5614962751235
 30
0.0
  0
SEQEND
  5
1DD
330
1DA
100
AcDbEntity
  8
EBENE_1
  0
ENDBLK
  5
1D9
330
1D6
100
AcDbEntity
  8
0
100
AcDbBlockEnd
  0
BLOCK
  5
1E0
330
1DE
100
AcDbEntity
  8
0
100
AcDbBlockBegin
  2
BLOCK_4
 70
     0
 71
     0
 10
0.0
 20
0.0
 30
0.0
  3
BLOCK_4
  1

  0
POLYLINE
  5
1E2
330
1DE
100
AcDbEntity
  8
EBENE_1
 62
     7
100
AcDb2dPolyline
 66
     1
 10
0.0
 20
0.0
 30
0.0
  0
VERTEX
  5
1E3
330
1E2
100
AcDbEntity
  8
EBENE_1
 62
     7
100
AcDbVertex
100
AcDb2dVertex
 10
66.77008461872416
 20
141.1490071261711
 30
0.0
  0
VERTEX
  5
1E4
330
1E2
100
AcDbEntity
  8
EBENE_1
 62
     7
100
AcDbVertex
100
AcDb2dVertex
 10
60.65848522789094
 20
147.2606065170043
 30
0.0
  0
SEQEND
  5
1E5
330
1E2
100
AcDbEntity
  8
EBENE_1
  0
ENDBLK
  5
1E1
330
1DE
100
AcDbEntity
  8
0
100
AcDbBlockEnd
  0
BLOCK
  5
1E8
330
1E6
100
AcDbEntity
  8
0
100
AcDbBlockBegin
  2
BLOCK_5
 70
     0
 71
     0
 10
0.0
 20
0.0
 30
0.0
  3
BLOCK_5
  1

  0
POLYLINE
  5
1EA
330
1E6
100
AcDbEntity
  8
EBENE_1
 62
     7
100
AcDb2dPolyline
 66
     1
 10
0.0
 20
0.0
 30
0.0
  0
VERTEX
  5
1EB
330
1EA
100
AcDbEntity
  8
EBENE_1
 62
     7
100
AcDbVertex
100
AcDb2dVertex
 10
59.2459960789385
 20
147.2606065170043
 30
0.0
  0
VERTEX
  5
1EC
330
1EA
100
AcDbEntity
  8
EBENE_1
 62
     7
100
AcDbVertex
100
AcDb2dVertex
 10
66.77008461872416
 20
139.7372069963157
 30
0.0
  0
SEQEND
  5
1ED
330
1EA
100
AcDbEntity
  8
EBENE_1
  0
ENDBLK
  5
1E9
330
1E6
100
AcDbEntity
  8
0
100
AcDbBlockEnd
  0
BLOCK
  5
1F0
330
1EE
100
AcDbEntity
  8
0
100
AcDbBlockBegin
  2
BLOCK_6
 70
     0
 71
     0
 10
0.0
 20
0.0
 30
0.0
  3
BLOCK_6
  1

  0
POLYLINE
  5
1F2
330
1EE
100
AcDbEntity
  8
EBENE_1
 62
     7
100
AcDb2dPolyline
 66
     1
 10
0.0
 20
0.0
 30
0.0
  0
VERTEX
  5
1F3
330
1F2
100
AcDbEntity
  8
EBENE_1
 62
     7
100
AcDbVertex
100
AcDb2dVertex
 10
66.77008461872416
 20
138.3240288282662
 30
0.0
  0
VERTEX
  5
1F4
330
1F2
100
AcDbEntity
  8
EBENE_1
 62
     7
100
AcDbVertex
100
AcDb2dVertex
 10
57.83419594908312
 20
147.2606065170043
 30
0.0
  0
SEQEND
  5
1F5
330
1F2
100
AcDbEntity
  8
EBENE_1
  0
ENDBLK
  5
1F1
330
1EE
100
AcDbEntity
  8
0
100
AcDbBlockEnd
  0
BLOCK
  5
1F8
330
1F6
100
AcDbEntity
  8
0
100
AcDbBlockBegin
  2
BLOCK_7
 70
     0
 71
     0
 10
0.0
 20
0.0
 30
0.0
  3
BLOCK_7
  1

  0
POLYLINE
  5
1FA
330
1F6
100
AcDbEntity
  8
EBENE_1
 62
     7
100
AcDb2dPolyline
 66
     1
 10
0.0
 20
0.0
 30
0.0
  0
VERTEX
  5
1FB
330
1FA
100
AcDbEntity
  8
EBENE_1
 62
     7
100
AcDbVertex
100
AcDb2dVertex
 10
56.42170680013069
 20
147.2606065170043
 30
0.0
  0
VERTEX
  5
1FC
330
1FA
100
AcDbEntity
  8
EBENE_1
 62
     7
100
AcDbVertex
100
AcDb2dVertex
 10
66.77008461872416
 20
136.9125732079594
 30
0.0
  0
SEQEND
  5
1FD
330
1FA
100
AcDbEntity
  8
EBENE_1
  0
ENDBLK
  5
1F9
330
1F6
100
AcDbEntity
  8
0
100
AcDbBlockEnd
  0
BLOCK
  5
200
330
1FE
100
AcDbEntity
  8
0
100
AcDbBlockBegin
  2
BLOCK_8
 70
     0
 71
     0
 10
0.0
 20
0.0
 30
0.0
  3
BLOCK_8
  1

  0
POLYLINE
  5
202
330
1FE
100
AcDbEntity
  8
EBENE_1
 62
     7
100
AcDb2dPolyline
 66
     1
 10
0.0
 20
0.0
 30
0.0
  0
VERTEX
  5
203
330
202
100
AcDbEntity
  8
EBENE_1
 62
     7
100
AcDbVertex
100
AcDb2dVertex
 10
66.77008461872416
 20
135.4997395494584
 30
0.0
  0
VERTEX
  5
204
330
202
100
AcDbEntity
  8
EBENE_1
 62
     7
100
AcDbVertex
100
AcDb2dVertex
 10
55.00990667027531
 20
147.2606065170043
 30
0.0
  0
SEQEND
  5
205
330
202
100
AcDbEntity
  8
EBENE_1
  0
ENDBLK
  5
201
330
1FE
100
AcDbEntity
  8
0
100
AcDbBlockEnd
  0
BLOCK
  5
208
330
206
100
AcDbEntity
  8
0
100
AcDbBlockBegin
  2
BLOCK_9
 70
     0
 71
     0
 10
0.0
 20
0.0
 30
0.0
  3
BLOCK_9
  1

  0
POLYLINE
  5
20A
330
206
100
AcDbEntity
  8
EBENE_1
 62
     7
100
AcDb2dPolyline
 66
     1
 10
0.0
 20
0.0
 30
0.0
  0
VERTEX
  5
20B
330
20A
100
AcDbEntity
  8
EBENE_1
 62
     7
100
AcDbVertex
100
AcDb2dVertex
 10
53.59741752132287
 20
147.2606065170043
 30
0.0
  0
VERTEX
  5
20C
330
20A
100
AcDbEntity
  8
EBENE_1
 62
     7
100
AcDbVertex
100
AcDb2dVertex
 10
66.77008461872416
 20
134.0755370758561
 30
0.0
  0
SEQEND
  5
20D
330
20A
100
AcDbEntity
  8
EBENE_1
  0
ENDBLK
  5
209
330
206
100
AcDbEntity
  8
0
100
AcDbBlockEnd
  0
BLOCK
  5
210
330
20E
100
AcDbEntity
  8
0
100
AcDbBlockBegin
  2
BLOCK_10
 70
     0
 71
     0
 10
0.0
 20
0.0
 30
0.0
  3
BLOCK_10
  1

  0
POLYLINE
  5
212
330
20E
100
AcDbEntity
  8
EBENE_1
 62
     7
100
AcDb2dPolyline
 66
     1
 10
0.0
 20
0.0
 30
0.0
  0
VERTEX
  5
213
330
212
100
AcDbEntity
  8
EBENE_1
 62
     7
100
AcDbVertex
100
AcDb2dVertex
 10
66.77008461872416
 20
132.6633924364522
 30
0.0
  0
VERTEX
  5
214
330
212
100
AcDbEntity
  8
EBENE_1
 62
     7
100
AcDbVertex
100
AcDb2dVertex
 10
52.18561739146749
 20
147.2606065170043
 30
0.0
  0
SEQEND
  5
215
330
212
100
AcDbEntity
  8
EBENE_1
  0
ENDBLK
  5
211
330
20E
100
AcDbEntity
  8
0
100
AcDbBlockEnd
  0
BLOCK
  5
218
330
216
100
AcDbEntity
  8
0
100
AcDbBlockBegin
  2
BLOCK_11
 70
     0
 71
     0
 10
0.0
 20
0.0
 30
0.0
  3
BLOCK_11
  1

  0
POLYLINE
  5
21A
330
216
100
AcDbEntity
  8
EBENE_1
 62
     7
100
AcDb2dPolyline
 66
     1
 10
0.0
 20
0.0
 30
0.0
  0
VERTEX
  5
21B
330
21A
100
AcDbEntity
  8
EBENE_1
 62
     7
100
AcDbVertex
100
AcDb2dVertex
 10
50.77312824251506
 20
147.2606065170043
 30
0.0
  0
VERTEX
  5
21C
330
21A
100
AcDbEntity
  8
EBENE_1
 62
     7
100
AcDbVertex
100
AcDb2dVertex
 10
66.77008461872416
 20
131.2502142684027
 30
0.0
  0
SEQEND
  5
21D
330
21A
100
AcDbEntity
  8
EBENE_1
  0
ENDBLK
  5
219
330
216
100
AcDbEntity
  8
0
100
AcDbBlockEnd
  0
BLOCK
  5
220
330
21E
100
AcDbEntity
  8
0
100
AcDbBlockBegin
  2
BLOCK_12
 70
     0
 71
     0
 10
0.0
 20
0.0
 30
0.0
  3
BLOCK_12
  1

  0
POLYLINE
  5
222
330
21E
100
AcDbEntity
  8
EBENE_1
 62
     7
100
AcDb2dPolyline
 66
     1
 10
0.0
 20
0.0
 30
0.0
  0
VERTEX
  5
223
330
222
100
AcDbEntity
  8
EBENE_1
 62
     7
100
AcDbVertex
100
AcDb2dVertex
 10
66.34530434539285
 20
130.2638834309757
 30
0.0
  0
VERTEX
  5
224
330
222
100
AcDbEntity
  8
EBENE_1
 62
     7
100
AcDbVertex
100
AcDb2dVertex
 10
49.36063909356262
 20
147.2606065170043
 30
0.0
  0
SEQEND
  5
225
330
222
100
AcDbEntity
  8
EBENE_1
  0
ENDBLK
  5
221
330
21E
100
AcDbEntity
  8
0
100
AcDbBlockEnd
  0
BLOCK
  5
228
330
226
100
AcDbEntity
  8
0
100
AcDbBlockBegin
  2
BLOCK_13
 70
     0
 71
     0
 10
0.0
 20
0.0
 30
0.0
  3
BLOCK_13
  1

  0
POLYLINE
  5
22A
330
226
100
AcDbEntity
  8
EBENE_1
 62
     7
100
AcDb2dPolyline
 66
     1
 10
0.0
 20
0.0
 30
0.0
  0
VERTEX
  5
22B
330
22A
100
AcDbEntity
  8
EBENE_1
 62
     7
100
AcDbVertex
100
AcDb2dVertex
 10
47.93609211041181
 20
147.2606065170043
 30
0.0
  0
VERTEX
  5
22C
330
22A
100
AcDbEntity
  8
EBENE_1
 62
     7
100
AcDbVertex
100
AcDb2dVertex
 10
64.93281519644042
 20
130.2638834309757
 30
0.0
  0
SEQEND
  5
22D
330
22A
100
AcDbEntity
  8
EBENE_1
  0
ENDBLK
  5
229
330
226
100
AcDbEntity
  8
0
100
AcDbBlockEnd
  0
BLOCK
  5
230
330
22E
100
AcDbEntity
  8
0
100
AcDbBlockBegin
  2
BLOCK_14
 70
     0
 71
     0
 10
0.0
 20
0.0
 30
0.0
  3
BLOCK_14
  1

  0
POLYLINE
  5
232
330
22E
100
AcDbEntity
  8
EBENE_1
 62
     7
100
AcDb2dPolyline
 66
     1
 10
0.0
 20
0.0
 30
0.0
  0
VERTEX
  5
233
330
232
100
AcDbEntity
  8
EBENE_1
 62
     7
100
AcDbVertex
100
AcDb2dVertex
 10
63.52101506658503
 20
130.2638834309757
 30
0.0
  0
VERTEX
  5
234
330
232
100
AcDbEntity
  8
EBENE_1
 62
     7
100
AcDbVertex
100
AcDb2dVertex
 10
46.52360296145938
 20
147.2606065170043
 30
0.0
  0
SEQEND
  5
235
330
232
100
AcDbEntity
  8
EBENE_1
  0
ENDBLK
  5
231
330
22E
100
AcDbEntity
  8
0
100
AcDbBlockEnd
  0
BLOCK
  5
238
330
236
100
AcDbEntity
  8
0
100
AcDbBlockBegin
  2
BLOCK_15
 70
     0
 71
     0
 10
0.0
 20
0.0
 30
0.0
  3
BLOCK_15
  1

  0
POLYLINE
  5
23A
330
236
100
AcDbEntity
  8
EBENE_1
 62
     7
100
AcDb2dPolyline
 66
     1
 10
0.0
 20
0.0
 30
0.0
  0
VERTEX
  5
23B
330
23A
100
AcDbEntity
  8
EBENE_1
 62
     7
100
AcDbVertex
100
AcDb2dVertex
 10
45.11111381250694
 20
147.2606065170043
 30
0.0
  0
VERTEX
  5
23C
330
23A
100
AcDbEntity
  8
EBENE_1
 62
     7
100
AcDbVertex
100
AcDb2dVertex
 10
62.10852591763259
 20
130.2638834309757
 30
0.0
  0
SEQEND
  5
23D
330
23A
100
AcDbEntity
  8
EBENE_1
  0
ENDBLK
  5
239
330
236
100
AcDbEntity
  8
0
100
AcDbBlockEnd
  0
BLOCK
  5
240
330
23E
100
AcDbEntity
  8
0
100
AcDbBlockBegin
  2
BLOCK_16
 70
     0
 71
     0
 10
0.0
 20
0.0
 30
0.0
  3
BLOCK_16
  1

  0
POLYLINE
  5
242
330
23E
100
AcDbEntity
  8
EBENE_1
 62
     7
100
AcDb2dPolyline
 66
     1
 10
0.0
 20
0.0
 30
0.0
  0
VERTEX
  5
243
330
242
100
AcDbEntity
  8
EBENE_1
 62
     7
100
AcDbVertex
100
AcDb2dVertex
 10
60.69603676868016
 20
130.2638834309757
 30
0.0
  0
VERTEX
  5
244
330
242
100
AcDbEntity
  8
EBENE_1
 62
     7
100
AcDbVertex
100
AcDb2dVertex
 10
43.69931368265156
 20
147.2606065170043
 30
0.0
  0
SEQEND
  5
245
330
242
100
AcDbEntity
  8
EBENE_1
  0
ENDBLK
  5
241
330
23E
100
AcDbEntity
  8
0
100
AcDbBlockEnd
  0
BLOCK
  5
248
330
246
100
AcDbEntity
  8
0
100
AcDbBlockBegin
  2
BLOCK_17
 70
     0
 71
     0
 10
0.0
 20
0.0
 30
0.0
  3
BLOCK_17
  1

  0
POLYLINE
  5
24A
330
246
100
AcDbEntity
  8
EBENE_1
 62
     7
100
AcDb2dPolyline
 66
     1
 10
0.0
 20
0.0
 30
0.0
  0
VERTEX
  5
24B
330
24A
100
AcDbEntity
  8
EBENE_1
 62
     7
100
AcDbVertex
100
AcDb2dVertex
 10
42.28682453369913
 20
147.2606065170043
 30
0.0
  0
VERTEX
  5
24C
330
24A
100
AcDbEntity
  8
EBENE_1
 62
     7
100
AcDbVertex
100
AcDb2dVertex
 10
59.28354761972773
 20
130.2638834309757
 30
0.0
  0
SEQEND
  5
24D
330
24A
100
AcDbEntity
  8
EBENE_1
  0
ENDBLK
  5
249
330
246
100
AcDbEntity
  8
0
100
AcDbBlockEnd
  0
BLOCK
  5
250
330
24E
100
AcDbEntity
  8
0
100
AcDbBlockBegin
  2
BLOCK_18
 70
     0
 71
     0
 10
0.0
 20
0.0
 30
0.0
  3
BLOCK_18
  1

  0
POLYLINE
  5
252
330
24E
100
AcDbEntity
  8
EBENE_1
 62
     7
100
AcDb2dPolyline
 66
     1
 10
0.0
 20
0.0
 30
0.0
  0
VERTEX
  5
253
330
252
100
AcDbEntity
  8
EBENE_1
 62
     7
100
AcDbVertex
100
AcDb2dVertex
 10
57.87174748987234
 20
130.2638834309757
 30
0.0
  0
VERTEX
  5
254
330
252
100
AcDbEntity
  8
EBENE_1
 62
     7
100
AcDbVertex
100
AcDb2dVertex
 10
40.87433538474669
 20
147.2606065170043
 30
0.0
  0
SEQEND
  5
255
330
252
100
AcDbEntity
  8
EBENE_1
  0
ENDBLK
  5
251
330
24E
100
AcDbEntity
  8
0
100
AcDbBlockEnd
  0
BLOCK
  5
258
330
256
100
AcDbEntity
  8
0
100
AcDbBlockBegin
  2
BLOCK_19
 70
     0
 71
     0
 10
0.0
 20
0.0
 30
0.0
  3
BLOCK_19
  1

  0
POLYLINE
  5
25A
330
256
100
AcDbEntity
  8
EBENE_1
 62
     7
100
AcDb2dPolyline
 66
     1
 10
0.0
 20
0.0
 30
0.0
  0
VERTEX
  5
25B
330
25A
100
AcDbEntity
  8
EBENE_1
 62
     7
100
AcDbVertex
100
AcDb2dVertex
 10
39.46253525489131
 20
147.2606065170043
 30
0.0
  0
VERTEX
  5
25C
330
25A
100
AcDbEntity
  8
EBENE_1
 62
     7
100
AcDbVertex
100
AcDb2dVertex
 10
56.44685599717301
 20
130.2638834309757
 30
0.0
  0
SEQEND
  5
25D
330
25A
100
AcDbEntity
  8
EBENE_1
  0
ENDBLK
  5
259
330
256
100
AcDbEntity
  8
0
100
AcDbBlockEnd
  0
BLOCK
  5
260
330
25E
100
AcDbEntity
  8
0
100
AcDbBlockBegin
  2
BLOCK_20
 70
     0
 71
     0
 10
0.0
 20
0.0
 30
0.0
  3
BLOCK_20
  1

  0
POLYLINE
  5
262
330
25E
100
AcDbEntity
  8
EBENE_1
 62
     7
100
AcDb2dPolyline
 66
     1
 10
0.0
 20
0.0
 30
0.0
  0
VERTEX
  5
263
330
262
100
AcDbEntity
  8
EBENE_1
 62
     7
100
AcDbVertex
100
AcDb2dVertex
 10
55.0347113577691
 20
130.2638834309757
 30
0.0
  0
VERTEX
  5
264
330
262
100
AcDbEntity
  8
EBENE_1
 62
     7
100
AcDbVertex
100
AcDb2dVertex
 10
38.05004610593888
 20
147.2606065170043
 30
0.0
  0
SEQEND
  5
265
330
262
100
AcDbEntity
  8
EBENE_1
  0
ENDBLK
  5
261
330
25E
100
AcDbEntity
  8
0
100
AcDbBlockEnd
  0
BLOCK
  5
268
330
266
100
AcDbEntity
  8
0
100
AcDbBlockBegin
  2
BLOCK_21
 70
     0
 71
     0
 10
0.0
 20
0.0
 30
0.0
  3
BLOCK_21
  1

  0
POLYLINE
  5
26A
330
266
100
AcDbEntity
  8
EBENE_1
 62
     7
100
AcDb2dPolyline
 66
     1
 10
0.0
 20
0.0
 30
0.0
  0
VERTEX
  5
26B
330
26A
100
AcDbEntity
  8
EBENE_1
 62
     7
100
AcDbVertex
100
AcDb2dVertex
 10
36.62549912278807
 20
147.2606065170043
 30
0.0
  0
VERTEX
  5
26C
330
26A
100
AcDbEntity
  8
EBENE_1
 62
     7
100
AcDbVertex
100
AcDb2dVertex
 10
53.62222220881667
 20
130.2638834309757
 30
0.0
  0
SEQEND
  5
26D
330
26A
100
AcDbEntity
  8
EBENE_1
  0
ENDBLK
  5
269
330
266
100
AcDbEntity
  8
0
100
AcDbBlockEnd
  0
BLOCK
  5
270
330
26E
100
AcDbEntity
  8
0
100
AcDbBlockBegin
  2
BLOCK_22
 70
     0
 71
     0
 10
0.0
 20
0.0
 30
0.0
  3
BLOCK_22
  1

  0
POLYLINE
  5
272
330
26E
100
AcDbEntity
  8
EBENE_1
 62
     7
100
AcDb2dPolyline
 66
     1
 10
0.0
 20
0.0
 30
0.0
  0
VERTEX
  5
273
330
272
100
AcDbEntity
  8
EBENE_1
 62
     7
100
AcDbVertex
100
AcDb2dVertex
 10
52.20973305986423
 20
130.2638834309757
 30
0.0
  0
VERTEX
  5
274
330
272
100
AcDbEntity
  8
EBENE_1
 62
     7
100
AcDbVertex
100
AcDb2dVertex
 10
35.21300997383564
 20
147.2606065170043
 30
0.0
  0
SEQEND
  5
275
330
272
100
AcDbEntity
  8
EBENE_1
  0
ENDBLK
  5
271
330
26E
100
AcDbEntity
  8
0
100
AcDbBlockEnd
  0
BLOCK
  5
278
330
276
100
AcDbEntity
  8
0
100
AcDbBlockBegin
  2
BLOCK_23
 70
     0
 71
     0
 10
0.0
 20
0.0
 30
0.0
  3
BLOCK_23
  1

  0
POLYLINE
  5
27A
330
276
100
AcDbEntity
  8
EBENE_1
 62
     7
100
AcDb2dPolyline
 66
     1
 10
0.0
 20
0.0
 30
0.0
  0
VERTEX
  5
27B
330
27A
100
AcDbEntity
  8
EBENE_1
 62
     7
100
AcDbVertex
100
AcDb2dVertex
 10
33.80120984398025
 20
147.2606065170043
 30
0.0
  0
VERTEX
  5
27C
330
27A
100
AcDbEntity
  8
EBENE_1
 62
     7
100
AcDbVertex
100
AcDb2dVertex
 10
50.79793293000886
 20
130.2638834309757
 30
0.0
  0
SEQEND
  5
27D
330
27A
100
AcDbEntity
  8
EBENE_1
  0
ENDBLK
  5
279
330
276
100
AcDbEntity
  8
0
100
AcDbBlockEnd
  0
BLOCK
  5
280
330
27E
100
AcDbEntity
  8
0
100
AcDbBlockBegin
  2
BLOCK_24
 70
     0
 71
     0
 10
0.0
 20
0.0
 30
0.0
  3
BLOCK_24
  1

  0
POLYLINE
  5
282
330
27E
100
AcDbEntity
  8
EBENE_1
 62
     7
100
AcDb2dPolyline
 66
     1
 10
0.0
 20
0.0
 30
0.0
  0
VERTEX
  5
283
330
282
100
AcDbEntity
  8
EBENE_1
 62
     7
100
AcDbVertex
100
AcDb2dVertex
 10
49.38544378105642
 20
130.2638834309757
 30
0.0
  0
VERTEX
  5
284
330
282
100
AcDbEntity
  8
EBENE_1
 62
     7
100
AcDbVertex
100
AcDb2dVertex
 10
32.38872069502782
 20
147.2606065170043
 30
0.0
  0
SEQEND
  5
285
330
282
100
AcDbEntity
  8
EBENE_1
  0
ENDBLK
  5
281
330
27E
100
AcDbEntity
  8
0
100
AcDbBlockEnd
  0
BLOCK
  5
288
330
286
100
AcDbEntity
  8
0
100
AcDbBlockBegin
  2
BLOCK_25
 70
     0
 71
     0
 10
0.0
 20
0.0
 30
0.0
  3
BLOCK_25
  1

  0
POLYLINE
  5
28A
330
286
100
AcDbEntity
  8
EBENE_1
 62
     7
100
AcDb2dPolyline
 66
     1
 10
0.0
 20
0.0
 30
0.0
  0
VERTEX
  5
28B
330
28A
100
AcDbEntity
  8
EBENE_1
 62
     7
100
AcDbVertex
100
AcDb2dVertex
 10
49.59835068204486
 20
147.2606065170043
 30
0.0
  0
VERTEX
  5
28C
330
28A
100
AcDbEntity
  8
EBENE_1
 62
     7
100
AcDbVertex
100
AcDb2dVertex
 10
32.60093857691921
 20
130.2638834309757
 30
0.0
  0
SEQEND
  5
28D
330
28A
100
AcDbEntity
  8
EBENE_1
  0
ENDBLK
  5
289
330
286
100
AcDbEntity
  8
0
100
AcDbBlockEnd
  0
BLOCK
  5
290
330
28E
100
AcDbEntity
  8
0
100
AcDbBlockBegin
  2
BLOCK_26
 70
     0
 71
     0
 10
0.0
 20
0.0
 30
0.0
  3
BLOCK_26
  1

  0
POLYLINE
  5
292
330
28E
100
AcDbEntity
  8
EBENE_1
 62
     7
100
AcDb2dPolyline
 66
     1
 10
0.0
 20
0.0
 30
0.0
  0
VERTEX
  5
293
330
292
100
AcDbEntity
  8
EBENE_1
 62
     7
100
AcDbVertex
100
AcDb2dVertex
 10
34.01342772587164
 20
130.2638834309757
 30
0.0
  0
VERTEX
  5
294
330
292
100
AcDbEntity
  8
EBENE_1
 62
     7
100
AcDbVertex
100
AcDb2dVertex
 10
51.01049532144877
 20
147.2606065170043
 30
0.0
  0
SEQEND
  5
295
330
292
100
AcDbEntity
  8
EBENE_1
  0
ENDBLK
  5
291
330
28E
100
AcDbEntity
  8
0
100
AcDbBlockEnd
  0
BLOCK
  5
298
330
296
100
AcDbEntity
  8
0
100
AcDbBlockBegin
  2
BLOCK_27
 70
     0
 71
     0
 10
0.0
 20
0.0
 30
0.0
  3
BLOCK_27
  1

  0
POLYLINE
  5
29A
330
296
100
AcDbEntity
  8
EBENE_1
 62
     7
100
AcDb2dPolyline
 66
     1
 10
0.0
 20
0.0
 30
0.0
  0
VERTEX
  5
29B
330
29A
100
AcDbEntity
  8
EBENE_1
 62
     7
100
AcDbVertex
100
AcDb2dVertex
 10
52.42229545130415
 20
147.2606065170043
 30
0.0
  0
VERTEX
  5
29C
330
29A
100
AcDbEntity
  8
EBENE_1
 62
     7
100
AcDbVertex
100
AcDb2dVertex
 10
35.42557236527556
 20
130.2638834309757
 30
0.0
  0
SEQEND
  5
29D
330
29A
100
AcDbEntity
  8
EBENE_1
  0
ENDBLK
  5
299
330
296
100
AcDbEntity
  8
0
100
AcDbBlockEnd
  0
BLOCK
  5
2A0
330
29E
100
AcDbEntity
  8
0
100
AcDbBlockBegin
  2
BLOCK_28
 70
     0
 71
     0
 10
0.0
 20
0.0
 30
0.0
  3
BLOCK_28
  1

  0
POLYLINE
  5
2A2
330
29E
100
AcDbEntity
  8
EBENE_1
 62
     7
100
AcDb2dPolyline
 66
     1
 10
0.0
 20
0.0
 30
0.0
  0
VERTEX
  5
2A3
330
2A2
100
AcDbEntity
  8
EBENE_1
 62
     7
100
AcDbVertex
100
AcDb2dVertex
 10
36.83806151422799
 20
130.2638834309757
 30
0.0
  0
VERTEX
  5
2A4
330
2A2
100
AcDbEntity
  8
EBENE_1
 62
     7
100
AcDbVertex
100
AcDb2dVertex
 10
53.83478460025658
 20
147.2606065170043
 30
0.0
  0
SEQEND
  5
2A5
330
2A2
100
AcDbEntity
  8
EBENE_1
  0
ENDBLK
  5
2A1
330
29E
100
AcDbEntity
  8
0
100
AcDbBlockEnd
  0
BLOCK
  5
2A8
330
2A6
100
AcDbEntity
  8
0
100
AcDbBlockBegin
  2
BLOCK_29
 70
     0
 71
     0
 10
0.0
 20
0.0
 30
0.0
  3
BLOCK_29
  1

  0
POLYLINE
  5
2AA
330
2A6
100
AcDbEntity
  8
EBENE_1
 62
     7
100
AcDb2dPolyline
 66
     1
 10
0.0
 20
0.0
 30
0.0
  0
VERTEX
  5
2AB
330
2AA
100
AcDbEntity
  8
EBENE_1
 62
     7
100
AcDbVertex
100
AcDb2dVertex
 10
55.24727374920901
 20
147.2606065170043
 30
0.0
  0
VERTEX
  5
2AC
330
2AA
100
AcDbEntity
  8
EBENE_1
 62
     7
100
AcDbVertex
100
AcDb2dVertex
 10
38.25055066318042
 20
130.2638834309757
 30
0.0
  0
SEQEND
  5
2AD
330
2AA
100
AcDbEntity
  8
EBENE_1
  0
ENDBLK
  5
2A9
330
2A6
100
AcDbEntity
  8
0
100
AcDbBlockEnd
  0
BLOCK
  5
2B0
330
2AE
100
AcDbEntity
  8
0
100
AcDbBlockBegin
  2
BLOCK_30
 70
     0
 71
     0
 10
0.0
 20
0.0
 30
0.0
  3
BLOCK_30
  1

  0
POLYLINE
  5
2B2
330
2AE
100
AcDbEntity
  8
EBENE_1
 62
     7
100
AcDb2dPolyline
 66
     1
 10
0.0
 20
0.0
 30
0.0
  0
VERTEX
  5
2B3
330
2B2
100
AcDbEntity
  8
EBENE_1
 62
     7
100
AcDbVertex
100
AcDb2dVertex
 10
39.66235079303581
 20
130.2638834309757
 30
0.0
  0
VERTEX
  5
2B4
330
2B2
100
AcDbEntity
  8
EBENE_1
 62
     7
100
AcDbVertex
100
AcDb2dVertex
 10
56.6590738790644
 20
147.2606065170043
 30
0.0
  0
SEQEND
  5
2B5
330
2B2
100
AcDbEntity
  8
EBENE_1
  0
ENDBLK
  5
2B1
330
2AE
100
AcDbEntity
  8
0
100
AcDbBlockEnd
  0
BLOCK
  5
2B8
330
2B6
100
AcDbEntity
  8
0
100
AcDbBlockBegin
  2
BLOCK_31
 70
     0
 71
     0
 10
0.0
 20
0.0
 30
0.0
  3
BLOCK_31
  1

  0
POLYLINE
  5
2BA
330
2B6
100
AcDbEntity
  8
EBENE_1
 62
     7
100
AcDb2dPolyline
 66
     1
 10
0.0
 20
0.0
 30
0.0
  0
VERTEX
  5
2BB
330
2BA
100
AcDbEntity
  8
EBENE_1
 62
     7
100
AcDbVertex
100
AcDb2dVertex
 10
58.07156302801683
 20
147.2606065170043
 30
0.0
  0
VERTEX
  5
2BC
330
2BA
100
AcDbEntity
  8
EBENE_1
 62
     7
100
AcDbVertex
100
AcDb2dVertex
 10
41.07483994198824
 20
130.2638834309757
 30
0.0
  0
SEQEND
  5
2BD
330
2BA
100
AcDbEntity
  8
EBENE_1
  0
ENDBLK
  5
2B9
330
2B6
100
AcDbEntity
  8
0
100
AcDbBlockEnd
  0
BLOCK
  5
2C0
330
2BE
100
AcDbEntity
  8
0
100
AcDbBlockBegin
  2
BLOCK_32
 70
     0
 71
     0
 10
0.0
 20
0.0
 30
0.0
  3
BLOCK_32
  1

  0
POLYLINE
  5
2C2
330
2BE
100
AcDbEntity
  8
EBENE_1
 62
     7
100
AcDb2dPolyline
 66
     1
 10
0.0
 20
0.0
 30
0.0
  0
VERTEX
  5
2C3
330
2C2
100
AcDbEntity
  8
EBENE_1
 62
     7
100
AcDbVertex
100
AcDb2dVertex
 10
42.49904241559052
 20
130.2638834309757
 30
0.0
  0
VERTEX
  5
2C4
330
2C2
100
AcDbEntity
  8
EBENE_1
 62
     7
100
AcDbVertex
100
AcDb2dVertex
 10
59.48405217696926
 20
147.2606065170043
 30
0.0
  0
SEQEND
  5
2C5
330
2C2
100
AcDbEntity
  8
EBENE_1
  0
ENDBLK
  5
2C1
330
2BE
100
AcDbEntity
  8
0
100
AcDbBlockEnd
  0
BLOCK
  5
2C8
330
2C6
100
AcDbEntity
  8
0
100
AcDbBlockBegin
  2
BLOCK_33
 70
     0
 71
     0
 10
0.0
 20
0.0
 30
0.0
  3
BLOCK_33
  1

  0
POLYLINE
  5
2CA
330
2C6
100
AcDbEntity
  8
EBENE_1
 62
     7
100
AcDb2dPolyline
 66
     1
 10
0.0
 20
0.0
 30
0.0
  0
VERTEX
  5
2CB
330
2CA
100
AcDbEntity
  8
EBENE_1
 62
     7
100
AcDbVertex
100
AcDb2dVertex
 10
60.89585230682465
 20
147.2606065170043
 30
0.0
  0
VERTEX
  5
2CC
330
2CA
100
AcDbEntity
  8
EBENE_1
 62
     7
100
AcDbVertex
100
AcDb2dVertex
 10
43.91153156454295
 20
130.2638834309757
 30
0.0
  0
SEQEND
  5
2CD
330
2CA
100
AcDbEntity
  8
EBENE_1
  0
ENDBLK
  5
2C9
330
2C6
100
AcDbEntity
  8
0
100
AcDbBlockEnd
  0
BLOCK
  5
2D0
330
2CE
100
AcDbEntity
  8
0
100
AcDbBlockBegin
  2
BLOCK_34
 70
     0
 71
     0
 10
0.0
 20
0.0
 30
0.0
  3
BLOCK_34
  1

  0
POLYLINE
  5
2D2
330
2CE
100
AcDbEntity
  8
EBENE_1
 62
     7
100
AcDb2dPolyline
 66
     1
 10
0.0
 20
0.0
 30
0.0
  0
VERTEX
  5
2D3
330
2D2
100
AcDbEntity
  8
EBENE_1
 62
     7
100
AcDbVertex
100
AcDb2dVertex
 10
45.32402071349539
 20
130.2638834309757
 30
0.0
  0
VERTEX
  5
2D4
330
2D2
100
AcDbEntity
  8
EBENE_1
 62
     7
100
AcDbVertex
100
AcDb2dVertex
 10
62.32108830907251
 20
147.2606065170043
 30
0.0
  0
SEQEND
  5
2D5
330
2D2
100
AcDbEntity
  8
EBENE_1
  0
ENDBLK
  5
2D1
330
2CE
100
AcDbEntity
  8
0
100
AcDbBlockEnd
  0
BLOCK
  5
2D8
330
2D6
100
AcDbEntity
  8
0
100
AcDbBlockBegin
  2
BLOCK_35
 70
     0
 71
     0
 10
0.0
 20
0.0
 30
0.0
  3
BLOCK_35
  1

  0
POLYLINE
  5
2DA
330
2D6
100
AcDbEntity
  8
EBENE_1
 62
     7
100
AcDb2dPolyline
 66
     1
 10
0.0
 20
0.0
 30
0.0
  0
VERTEX
  5
2DB
330
2DA
100
AcDbEntity
  8
EBENE_1
 62
     7
100
AcDbVertex
100
AcDb2dVertex
 10
63.73357745802494
 20
147.2606065170043
 30
0.0
  0
VERTEX
  5
2DC
330
2DA
100
AcDbEntity
  8
EBENE_1
 62
     7
100
AcDbVertex
100
AcDb2dVertex
 10
46.73582084335077
 20
130.2638834309757
 30
0.0
  0
SEQEND
  5
2DD
330
2DA
100
AcDbEntity
  8
EBENE_1
  0
ENDBLK
  5
2D9
330
2D6
100
AcDbEntity
  8
0
100
AcDbBlockEnd
  0
BLOCK
  5
2E0
330
2DE
100
AcDbEntity
  8
0
100
AcDbBlockBegin
  2
BLOCK_36
 70
     0
 71
     0
 10
0.0
 20
0.0
 30
0.0
  3
BLOCK_36
  1

  0
POLYLINE
  5
2E2
330
2DE
100
AcDbEntity
  8
EBENE_1
 62
     7
100
AcDb2dPolyline
 66
     1
 10
0.0
 20
0.0
 30
0.0
  0
VERTEX
  5
2E3
330
2E2
100
AcDbEntity
  8
EBENE_1
 62
     7
100
AcDbVertex
100
AcDb2dVertex
 10
48.1483099923032
 20
130.2638834309757
 30
0.0
  0
VERTEX
  5
2E4
330
2E2
100
AcDbEntity
  8
EBENE_1
 62
     7
100
AcDbVertex
100
AcDb2dVertex
 10
65.14606660697737
 20
147.2606065170043
 30
0.0
  0
SEQEND
  5
2E5
330
2E2
100
AcDbEntity
  8
EBENE_1
  0
ENDBLK
  5
2E1
330
2DE
100
AcDbEntity
  8
0
100
AcDbBlockEnd
  0
BLOCK
  5
2E8
330
2E6
100
AcDbEntity
  8
0
100
AcDbBlockBegin
  2
BLOCK_37
 70
     0
 71
     0
 10
0.0
 20
0.0
 30
0.0
  3
BLOCK_37
  1

  0
POLYLINE
  5
2EA
330
2E6
100
AcDbEntity
  8
EBENE_1
 62
     7
100
AcDb2dPolyline
 66
     1
 10
0.0
 20
0.0
 30
0.0
  0
VERTEX
  5
2EB
330
2EA
100
AcDbEntity
  8
EBENE_1
 62
     7
100
AcDbVertex
100
AcDb2dVertex
 10
66.55717771773571
 20
147.2606065170043
 30
0.0
  0
VERTEX
  5
2EC
330
2EA
100
AcDbEntity
  8
EBENE_1
 62
     7
100
AcDbVertex
100
AcDb2dVertex
 10
49.56079914125564
 20
130.2638834309757
 30
0.0
  0
SEQEND
  5
2ED
330
2EA
100
AcDbEntity
  8
EBENE_1
  0
ENDBLK
  5
2E9
330
2E6
100
AcDbEntity
  8
0
100
AcDbBlockEnd
  0
BLOCK
  5
2F0
330
2EE
100
AcDbEntity
  8
0
100
AcDbBlockBegin
  2
BLOCK_38
 70
     0
 71
     0
 10
0.0
 20
0.0
 30
0.0
  3
BLOCK_38
  1

  0
POLYLINE
  5
2F2
330
2EE
100
AcDbEntity
  8
EBENE_1
 62
     7
100
AcDb2dPolyline
 66
     1
 10
0.0
 20
0.0
 30
0.0
  0
VERTEX
  5
2F3
330
2F2
100
AcDbEntity
  8
EBENE_1
 62
     7
100
AcDbVertex
100
AcDb2dVertex
 10
50.97294378065954
 20
130.2638834309757
 30
0.0
  0
VERTEX
  5
2F4
330
2F2
100
AcDbEntity
  8
EBENE_1
 62
     7
100
AcDbVertex
100
AcDb2dVertex
 10
66.77008461872416
 20
146.0479329061964
 30
0.0
  0
SEQEND
  5
2F5
330
2F2
100
AcDbEntity
  8
EBENE_1
  0
ENDBLK
  5
2F1
330
2EE
100
AcDbEntity
  8
0
100
AcDbBlockEnd
  0
BLOCK
  5
2F8
330
2F6
100
AcDbEntity
  8
0
100
AcDbBlockBegin
  2
BLOCK_39
 70
     0
 71
     0
 10
0.0
 20
0.0
 30
0.0
  3
BLOCK_39
  1

  0
POLYLINE
  5
2FA
330
2F6
100
AcDbEntity
  8
EBENE_1
 62
     7
100
AcDb2dPolyline
 66
     1
 10
0.0
 20
0.0
 30
0.0
  0
VERTEX
  5
2FB
330
2FA
100
AcDbEntity
  8
EBENE_1
 62
     7
100
AcDbVertex
100
AcDb2dVertex
 10
66.77008461872416
 20
144.636132776341
 30
0.0
  0
VERTEX
  5
2FC
330
2FA
100
AcDbEntity
  8
EBENE_1
 62
     7
100
AcDbVertex
100
AcDb2dVertex
 10
52.38543292961198
 20
130.2638834309757
 30
0.0
  0
SEQEND
  5
2FD
330
2FA
100
AcDbEntity
  8
EBENE_1
  0
ENDBLK
  5
2F9
330
2F6
100
AcDbEntity
  8
0
100
AcDbBlockEnd
  0
BLOCK
  5
300
330
2FE
100
AcDbEntity
  8
0
100
AcDbBlockBegin
  2
BLOCK_40
 70
     0
 71
     0
 10
0.0
 20
0.0
 30
0.0
  3
BLOCK_40
  1

  0
POLYLINE
  5
302
330
2FE
100
AcDbEntity
  8
EBENE_1
 62
     7
100
AcDb2dPolyline
 66
     1
 10
0.0
 20
0.0
 30
0.0
  0
VERTEX
  5
303
330
302
100
AcDbEntity
  8
EBENE_1
 62
     7
100
AcDbVertex
100
AcDb2dVertex
 10
53.80963540321426
 20
130.2638834309757
 30
0.0
  0
VERTEX
  5
304
330
302
100
AcDbEntity
  8
EBENE_1
 62
     7
100
AcDbVertex
100
AcDb2dVertex
 10
66.77008461872416
 20
143.2239881369371
 30
0.0
  0
SEQEND
  5
305
330
302
100
AcDbEntity
  8
EBENE_1
  0
ENDBLK
  5
301
330
2FE
100
AcDbEntity
  8
0
100
AcDbBlockEnd
  0
BLOCK
  5
308
330
306
100
AcDbEntity
  8
0
100
AcDbBlockBegin
  2
BLOCK_41
 70
     0
 71
     0
 10
0.0
 20
0.0
 30
0.0
  3
BLOCK_41
  1

  0
POLYLINE
  5
30A
330
306
100
AcDbEntity
  8
EBENE_1
 62
     7
100
AcDb2dPolyline
 66
     1
 10
0.0
 20
0.0
 30
0.0
  0
VERTEX
  5
30B
330
30A
100
AcDbEntity
  8
EBENE_1
 62
     7
100
AcDbVertex
100
AcDb2dVertex
 10
66.77008461872416
 20
141.8114989879846
 30
0.0
  0
VERTEX
  5
30C
330
30A
100
AcDbEntity
  8
EBENE_1
 62
     7
100
AcDbVertex
100
AcDb2dVertex
 10
55.22212455216669
 20
130.2638834309757
 30
0.0
  0
SEQEND
  5
30D
330
30A
100
AcDbEntity
  8
EBENE_1
  0
ENDBLK
  5
309
330
306
100
AcDbEntity
  8
0
100
AcDbBlockEnd
  0
BLOCK
  5
310
330
30E
100
AcDbEntity
  8
0
100
AcDbBlockBegin
  2
BLOCK_42
 70
     0
 71
     0
 10
0.0
 20
0.0
 30
0.0
  3
BLOCK_42
  1

  0
POLYLINE
  5
312
330
30E
100
AcDbEntity
  8
EBENE_1
 62
     7
100
AcDb2dPolyline
 66
     1
 10
0.0
 20
0.0
 30
0.0
  0
VERTEX
  5
313
330
312
100
AcDbEntity
  8
EBENE_1
 62
     7
100
AcDbVertex
100
AcDb2dVertex
 10
56.63461370111913
 20
130.2638834309757
 30
0.0
  0
VERTEX
  5
314
330
312
100
AcDbEntity
  8
EBENE_1
 62
     7
100
AcDbVertex
100
AcDb2dVertex
 10
66.77008461872416
 20
140.3990098390322
 30
0.0
  0
SEQEND
  5
315
330
312
100
AcDbEntity
  8
EBENE_1
  0
ENDBLK
  5
311
330
30E
100
AcDbEntity
  8
0
100
AcDbBlockEnd
  0
BLOCK
  5
318
330
316
100
AcDbEntity
  8
0
100
AcDbBlockBegin
  2
BLOCK_43
 70
     0
 71
     0
 10
0.0
 20
0.0
 30
0.0
  3
BLOCK_43
  1

  0
POLYLINE
  5
31A
330
316
100
AcDbEntity
  8
EBENE_1
 62
     7
100
AcDb2dPolyline
 66
     1
 10
0.0
 20
0.0
 30
0.0
  0
VERTEX
  5
31B
330
31A
100
AcDbEntity
  8
EBENE_1
 62
     7
100
AcDbVertex
100
AcDb2dVertex
 10
66.77008461872416
 20
138.9865206900798
 30
0.0
  0
VERTEX
  5
31C
330
31A
100
AcDbEntity
  8
EBENE_1
 62
     7
100
AcDbVertex
100
AcDb2dVertex
 10
58.04641383097451
 20
130.2638834309757
 30
0.0
  0
SEQEND
  5
31D
330
31A
100
AcDbEntity
  8
EBENE_1
  0
ENDBLK
  5
319
330
316
100
AcDbEntity
  8
0
100
AcDbBlockEnd
  0
BLOCK
  5
320
330
31E
100
AcDbEntity
  8
0
100
AcDbBlockBegin
  2
BLOCK_44
 70
     0
 71
     0
 10
0.0
 20
0.0
 30
0.0
  3
BLOCK_44
  1

  0
POLYLINE
  5
322
330
31E
100
AcDbEntity
  8
EBENE_1
 62
     7
100
AcDb2dPolyline
 66
     1
 10
0.0
 20
0.0
 30
0.0
  0
VERTEX
  5
323
330
322
100
AcDbEntity
  8
EBENE_1
 62
     7
100
AcDbVertex
100
AcDb2dVertex
 10
59.45890297992695
 20
130.2638834309757
 30
0.0
  0
VERTEX
  5
324
330
322
100
AcDbEntity
  8
EBENE_1
 62
     7
100
AcDbVertex
100
AcDb2dVertex
 10
66.77008461872416
 20
137.5747205602244
 30
0.0
  0
SEQEND
  5
325
330
322
100
AcDbEntity
  8
EBENE_1
  0
ENDBLK
  5
321
330
31E
100
AcDbEntity
  8
0
100
AcDbBlockEnd
  0
BLOCK
  5
328
330
326
100
AcDbEntity
  8
0
100
AcDbBlockBegin
  2
BLOCK_45
 70
     0
 71
     0
 10
0.0
 20
0.0
 30
0.0
  3
BLOCK_45
  1

  0
POLYLINE
  5
32A
330
326
100
AcDbEntity
  8
EBENE_1
 62
     7
100
AcDb2dPolyline
 66
     1
 10
0.0
 20
0.0
 30
0.0
  0
VERTEX
  5
32B
330
32A
100
AcDbEntity
  8
EBENE_1
 62
     7
100
AcDbVertex
100
AcDb2dVertex
 10
66.77008461872416
 20
136.162231411272
 30
0.0
  0
VERTEX
  5
32C
330
32A
100
AcDbEntity
  8
EBENE_1
 62
     7
100
AcDbVertex
100
AcDb2dVertex
 10
60.87070310978233
 20
130.2638834309757
 30
0.0
  0
SEQEND
  5
32D
330
32A
100
AcDbEntity
  8
EBENE_1
  0
ENDBLK
  5
329
330
326
100
AcDbEntity
  8
0
100
AcDbBlockEnd
  0
BLOCK
  5
330
330
32E
100
AcDbEntity
  8
0
100
AcDbBlockBegin
  2
BLOCK_46
 70
     0
 71
     0
 10
0.0
 20
0.0
 30
0.0
  3
BLOCK_46
  1

  0
POLYLINE
  5
332
330
32E
100
AcDbEntity
  8
EBENE_1
 62
     7
100
AcDb2dPolyline
 66
     1
 10
0.0
 20
0.0
 30
0.0
  0
VERTEX
  5
333
330
332
100
AcDbEntity
  8
EBENE_1
 62
     7
100
AcDbVertex
100
AcDb2dVertex
 10
62.28319225873476
 20
130.2638834309757
 30
0.0
  0
VERTEX
  5
334
330
332
100
AcDbEntity
  8
EBENE_1
 62
     7
100
AcDbVertex
100
AcDb2dVertex
 10
66.77008461872416
 20
134.7507757909651
 30
0.0
  0
SEQEND
  5
335
330
332
100
AcDbEntity
  8
EBENE_1
  0
ENDBLK
  5
331
330
32E
100
AcDbEntity
  8
0
100
AcDbBlockEnd
  0
BLOCK
  5
338
330
336
100
AcDbEntity
  8
0
100
AcDbBlockBegin
  2
BLOCK_47
 70
     0
 71
     0
 10
0.0
 20
0.0
 30
0.0
  3
BLOCK_47
  1

  0
POLYLINE
  5
33A
330
336
100
AcDbEntity
  8
EBENE_1
 62
     7
100
AcDb2dPolyline
 66
     1
 10
0.0
 20
0.0
 30
0.0
  0
VERTEX
  5
33B
330
33A
100
AcDbEntity
  8
EBENE_1
 62
     7
100
AcDbVertex
100
AcDb2dVertex
 10
30.97623154607539
 20
147.2606065170043
 30
0.0
  0
VERTEX
  5
33C
330
33A
100
AcDbEntity
  8
EBENE_1
 62
     7
100
AcDbVertex
100
AcDb2dVertex
 10
47.97364365120104
 20
130.2638834309757
 30
0.0
  0
SEQEND
  5
33D
330
33A
100
AcDbEntity
  8
EBENE_1
  0
ENDBLK
  5
339
330
336
100
AcDbEntity
  8
0
100
AcDbBlockEnd
  0
BLOCK
  5
340
330
33E
100
AcDbEntity
  8
0
100
AcDbBlockBegin
  2
BLOCK_48
 70
     0
 71
     0
 10
0.0
 20
0.0
 30
0.0
  3
BLOCK_48
  1

  0
POLYLINE
  5
342
330
33E
100
AcDbEntity
  8
EBENE_1
 62
     7
100
AcDb2dPolyline
 66
     1
 10
0.0
 20
0.0
 30
0.0
  0
VERTEX
  5
343
330
342
100
AcDbEntity
  8
EBENE_1
 62
     7
100
AcDbVertex
100
AcDb2dVertex
 10
46.56115450224861
 20
130.2638834309757
 30
0.0
  0
VERTEX
  5
344
330
342
100
AcDbEntity
  8
EBENE_1
 62
     7
100
AcDbVertex
100
AcDb2dVertex
 10
29.56443141622
 20
147.2606065170043
 30
0.0
  0
SEQEND
  5
345
330
342
100
AcDbEntity
  8
EBENE_1
  0
ENDBLK
  5
341
330
33E
100
AcDbEntity
  8
0
100
AcDbBlockEnd
  0
BLOCK
  5
348
330
346
100
AcDbEntity
  8
0
100
AcDbBlockBegin
  2
BLOCK_49
 70
     0
 71
     0
 10
0.0
 20
0.0
 30
0.0
  3
BLOCK_49
  1

  0
POLYLINE
  5
34A
330
346
100
AcDbEntity
  8
EBENE_1
 62
     7
100
AcDb2dPolyline
 66
     1
 10
0.0
 20
0.0
 30
0.0
  0
VERTEX
  5
34B
330
34A
100
AcDbEntity
  8
EBENE_1
 62
     7
100
AcDbVertex
100
AcDb2dVertex
 10
28.15194226726757
 20
147.2606065170043
 30
0.0
  0
VERTEX
  5
34C
330
34A
100
AcDbEntity
  8
EBENE_1
 62
     7
100
AcDbVertex
100
AcDb2dVertex
 10
45.14866535329617
 20
130.2638834309757
 30
0.0
  0
SEQEND
  5
34D
330
34A
100
AcDbEntity
  8
EBENE_1
  0
ENDBLK
  5
349
330
346
100
AcDbEntity
  8
0
100
AcDbBlockEnd
  0
BLOCK
  5
350
330
34E
100
AcDbEntity
  8
0
100
AcDbBlockBegin
  2
BLOCK_50
 70
     0
 71
     0
 10
0.0
 20
0.0
 30
0.0
  3
BLOCK_50
  1

  0
POLYLINE
  5
352
330
34E
100
AcDbEntity
  8
EBENE_1
 62
     7
100
AcDb2dPolyline
 66
     1
 10
0.0
 20
0.0
 30
0.0
  0
VERTEX
  5
353
330
352
100
AcDbEntity
  8
EBENE_1
 62
     7
100
AcDbVertex
100
AcDb2dVertex
 10
43.72446287969389
 20
130.2638834309757
 30
0.0
  0
VERTEX
  5
354
330
352
100
AcDbEntity
  8
EBENE_1
 62
     7
100
AcDbVertex
100
AcDb2dVertex
 10
27.78917371267076
 20
146.2105414131001
 30
0.0
  0
SEQEND
  5
355
330
352
100
AcDbEntity
  8
EBENE_1
  0
ENDBLK
  5
351
330
34E
100
AcDbEntity
  8
0
100
AcDbBlockEnd
  0
BLOCK
  5
358
330
356
100
AcDbEntity
  8
0
100
AcDbBlockBegin
  2
BLOCK_51
 70
     0
 71
     0
 10
0.0
 20
0.0
 30
0.0
  3
BLOCK_51
  1

  0
POLYLINE
  5
35A
330
356
100
AcDbEntity
  8
EBENE_1
 62
     7
100
AcDb2dPolyline
 66
     1
 10
0.0
 20
0.0
 30
0.0
  0
VERTEX
  5
35B
330
35A
100
AcDbEntity
  8
EBENE_1
 62
     7
100
AcDbVertex
100
AcDb2dVertex
 10
27.78917371267076
 20
144.7977077545992
 30
0.0
  0
VERTEX
  5
35C
330
35A
100
AcDbEntity
  8
EBENE_1
 62
     7
100
AcDbVertex
100
AcDb2dVertex
 10
42.31197373074145
 20
130.2638834309757
 30
0.0
  0
SEQEND
  5
35D
330
35A
100
AcDbEntity
  8
EBENE_1
  0
ENDBLK
  5
359
330
356
100
AcDbEntity
  8
0
100
AcDbBlockEnd
  0
BLOCK
  5
360
330
35E
100
AcDbEntity
  8
0
100
AcDbBlockBegin
  2
BLOCK_52
 70
     0
 71
     0
 10
0.0
 20
0.0
 30
0.0
  3
BLOCK_52
  1

  0
POLYLINE
  5
362
330
35E
100
AcDbEntity
  8
EBENE_1
 62
     7
100
AcDb2dPolyline
 66
     1
 10
0.0
 20
0.0
 30
0.0
  0
VERTEX
  5
363
330
362
100
AcDbEntity
  8
EBENE_1
 62
     7
100
AcDbVertex
100
AcDb2dVertex
 10
40.89948458178902
 20
130.2638834309757
 30
0.0
  0
VERTEX
  5
364
330
362
100
AcDbEntity
  8
EBENE_1
 62
     7
100
AcDbVertex
100
AcDb2dVertex
 10
27.78917371267076
 20
143.3735052809969
 30
0.0
  0
SEQEND
  5
365
330
362
100
AcDbEntity
  8
EBENE_1
  0
ENDBLK
  5
361
330
35E
100
AcDbEntity
  8
0
100
AcDbBlockEnd
  0
BLOCK
  5
368
330
366
100
AcDbEntity
  8
0
100
AcDbBlockBegin
  2
BLOCK_53
 70
     0
 71
     0
 10
0.0
 20
0.0
 30
0.0
  3
BLOCK_53
  1

  0
POLYLINE
  5
36A
330
366
100
AcDbEntity
  8
EBENE_1
 62
     7
100
AcDb2dPolyline
 66
     1
 10
0.0
 20
0.0
 30
0.0
  0
VERTEX
  5
36B
330
36A
100
AcDbEntity
  8
EBENE_1
 62
     7
100
AcDbVertex
100
AcDb2dVertex
 10
27.78917371267076
 20
141.961360641593
 30
0.0
  0
VERTEX
  5
36C
330
36A
100
AcDbEntity
  8
EBENE_1
 62
     7
100
AcDbVertex
100
AcDb2dVertex
 10
39.48733994238511
 20
130.2638834309757
 30
0.0
  0
SEQEND
  5
36D
330
36A
100
AcDbEntity
  8
EBENE_1
  0
ENDBLK
  5
369
330
366
100
AcDbEntity
  8
0
100
AcDbBlockEnd
  0
BLOCK
  5
370
330
36E
100
AcDbEntity
  8
0
100
AcDbBlockBegin
  2
BLOCK_54
 70
     0
 71
     0
 10
0.0
 20
0.0
 30
0.0
  3
BLOCK_54
  1

  0
POLYLINE
  5
372
330
36E
100
AcDbEntity
  8
EBENE_1
 62
     7
100
AcDb2dPolyline
 66
     1
 10
0.0
 20
0.0
 30
0.0
  0
VERTEX
  5
373
330
372
100
AcDbEntity
  8
EBENE_1
 62
     7
100
AcDbVertex
100
AcDb2dVertex
 10
38.07485079343268
 20
130.2638834309757
 30
0.0
  0
VERTEX
  5
374
330
372
100
AcDbEntity
  8
EBENE_1
 62
     7
100
AcDbVertex
100
AcDb2dVertex
 10
27.78917371267076
 20
140.5495605117376
 30
0.0
  0
SEQEND
  5
375
330
372
100
AcDbEntity
  8
EBENE_1
  0
ENDBLK
  5
371
330
36E
100
AcDbEntity
  8
0
100
AcDbBlockEnd
  0
BLOCK
  5
378
330
376
100
AcDbEntity
  8
0
100
AcDbBlockBegin
  2
BLOCK_55
 70
     0
 71
     0
 10
0.0
 20
0.0
 30
0.0
  3
BLOCK_55
  1

  0
POLYLINE
  5
37A
330
376
100
AcDbEntity
  8
EBENE_1
 62
     7
100
AcDb2dPolyline
 66
     1
 10
0.0
 20
0.0
 30
0.0
  0
VERTEX
  5
37B
330
37A
100
AcDbEntity
  8
EBENE_1
 62
     7
100
AcDbVertex
100
AcDb2dVertex
 10
27.78917371267076
 20
139.1363823436881
 30
0.0
  0
VERTEX
  5
37C
330
37A
100
AcDbEntity
  8
EBENE_1
 62
     7
100
AcDbVertex
100
AcDb2dVertex
 10
36.66236164448024
 20
130.2638834309757
 30
0.0
  0
SEQEND
  5
37D
330
37A
100
AcDbEntity
  8
EBENE_1
  0
ENDBLK
  5
379
330
376
100
AcDbEntity
  8
0
100
AcDbBlockEnd
  0
BLOCK
  5
380
330
37E
100
AcDbEntity
  8
0
100
AcDbBlockBegin
  2
BLOCK_56
 70
     0
 71
     0
 10
0.0
 20
0.0
 30
0.0
  3
BLOCK_56
  1

  0
POLYLINE
  5
382
330
37E
100
AcDbEntity
  8
EBENE_1
 62
     7
100
AcDb2dPolyline
 66
     1
 10
0.0
 20
0.0
 30
0.0
  0
VERTEX
  5
383
330
382
100
AcDbEntity
  8
EBENE_1
 62
     7
100
AcDbVertex
100
AcDb2dVertex
 10
35.25056151462486
 20
130.2638834309757
 30
0.0
  0
VERTEX
  5
384
330
382
100
AcDbEntity
  8
EBENE_1
 62
     7
100
AcDbVertex
100
AcDb2dVertex
 10
27.78917371267076
 20
137.7252712329298
 30
0.0
  0
SEQEND
  5
385
330
382
100
AcDbEntity
  8
EBENE_1
  0
ENDBLK
  5
381
330
37E
100
AcDbEntity
  8
0
100
AcDbBlockEnd
  0
BLOCK
  5
388
330
386
100
AcDbEntity
  8
0
100
AcDbBlockBegin
  2
BLOCK_57
 70
     0
 71
     0
 10
0.0
 20
0.0
 30
0.0
  3
BLOCK_57
  1

  0
POLYLINE
  5
38A
330
386
100
AcDbEntity
  8
EBENE_1
 62
     7
100
AcDb2dPolyline
 66
     1
 10
0.0
 20
0.0
 30
0.0
  0
VERTEX
  5
38B
330
38A
100
AcDbEntity
  8
EBENE_1
 62
     7
100
AcDbVertex
100
AcDb2dVertex
 10
27.78917371267076
 20
136.3120930648803
 30
0.0
  0
VERTEX
  5
38C
330
38A
100
AcDbEntity
  8
EBENE_1
 62
     7
100
AcDbVertex
100
AcDb2dVertex
 10
33.83807236567243
 20
130.2638834309757
 30
0.0
  0
SEQEND
  5
38D
330
38A
100
AcDbEntity
  8
EBENE_1
  0
ENDBLK
  5
389
330
386
100
AcDbEntity
  8
0
100
AcDbBlockEnd
  0
BLOCK
  5
390
330
38E
100
AcDbEntity
  8
0
100
AcDbBlockBegin
  2
BLOCK_58
 70
     0
 71
     0
 10
0.0
 20
0.0
 30
0.0
  3
BLOCK_58
  1

  0
POLYLINE
  5
392
330
38E
100
AcDbEntity
  8
EBENE_1
 62
     7
100
AcDb2dPolyline
 66
     1
 10
0.0
 20
0.0
 30
0.0
  0
VERTEX
  5
393
330
392
100
AcDbEntity
  8
EBENE_1
 62
     7
100
AcDbVertex
100
AcDb2dVertex
 10
32.41386989207015
 20
130.2638834309757
 30
0.0
  0
VERTEX
  5
394
330
392
100
AcDbEntity
  8
EBENE_1
 62
     7
100
AcDbVertex
100
AcDb2dVertex
 10
27.78917371267076
 20
134.9002929350249
 30
0.0
  0
SEQEND
  5
395
330
392
100
AcDbEntity
  8
EBENE_1
  0
ENDBLK
  5
391
330
38E
100
AcDbEntity
  8
0
100
AcDbBlockEnd
  0
BLOCK
  5
398
330
396
100
AcDbEntity
  8
0
100
AcDbBlockBegin
  2
BLOCK_59
 70
     0
 71
     0
 10
0.0
 20
0.0
 30
0.0
  3
BLOCK_59
  1

  0
POLYLINE
  5
39A
330
396
100
AcDbEntity
  8
EBENE_1
 62
     7
100
AcDb2dPolyline
 66
     1
 10
0.0
 20
0.0
 30
0.0
  0
VERTEX
  5
39B
330
39A
100
AcDbEntity
  8
EBENE_1
 62
     7
100
AcDbVertex
100
AcDb2dVertex
 10
27.78917371267076
 20
133.488148295621
 30
0.0
  0
VERTEX
  5
39C
330
39A
100
AcDbEntity
  8
EBENE_1
 62
     7
100
AcDbVertex
100
AcDb2dVertex
 10
31.00138074311771
 20
130.2638834309757
 30
0.0
  0
SEQEND
  5
39D
330
39A
100
AcDbEntity
  8
EBENE_1
  0
ENDBLK
  5
399
330
396
100
AcDbEntity
  8
0
100
AcDbBlockEnd
  0
BLOCK
  5
3A0
330
39E
100
AcDbEntity
  8
0
100
AcDbBlockBegin
  2
BLOCK_60
 70
     0
 71
     0
 10
0.0
 20
0.0
 30
0.0
  3
BLOCK_60
  1

  0
POLYLINE
  5
3A2
330
39E
100
AcDbEntity
  8
EBENE_1
 62
     7
100
AcDb2dPolyline
 66
     1
 10
0.0
 20
0.0
 30
0.0
  0
VERTEX
  5
3A3
330
3A2
100
AcDbEntity
  8
EBENE_1
 62
     7
100
AcDbVertex
100
AcDb2dVertex
 10
29.58958061326233
 20
130.2638834309757
 30
0.0
  0
VERTEX
  5
3A4
330
3A2
100
AcDbEntity
  8
EBENE_1
 62
     7
100
AcDbVertex
100
AcDb2dVertex
 10
27.78917371267076
 20
132.0625677838246
 30
0.0
  0
SEQEND
  5
3A5
330
3A2
100
AcDbEntity
  8
EBENE_1
  0
ENDBLK
  5
3A1
330
39E
100
AcDbEntity
  8
0
100
AcDbBlockEnd
  0
BLOCK
  5
3A8
330
3A6
100
AcDbEntity
  8
0
100
AcDbBlockBegin
  2
BLOCK_61
 70
     0
 71
     0
 10
0.0
 20
0.0
 30
0.0
  3
BLOCK_61
  1

  0
POLYLINE
  5
3AA
330
3A6
100
AcDbEntity
  8
EBENE_1
 62
     7
100
AcDb2dPolyline
 66
     1
 10
0.0
 20
0.0
 30
0.0
  0
VERTEX
  5
3AB
330
3AA
100
AcDbEntity
  8
EBENE_1
 62
     7
100
AcDbVertex
100
AcDb2dVertex
 10
38.28741318487259
 20
147.2606065170043
 30
0.0
  0
VERTEX
  5
3AC
330
3AA
100
AcDbEntity
  8
EBENE_1
 62
     7
100
AcDbVertex
100
AcDb2dVertex
 10
27.78917371267076
 20
136.7499647010556
 30
0.0
  0
SEQEND
  5
3AD
330
3AA
100
AcDbEntity
  8
EBENE_1
  0
ENDBLK
  5
3A9
330
3A6
100
AcDbEntity
  8
0
100
AcDbBlockEnd
  0
BLOCK
  5
3B0
330
3AE
100
AcDbEntity
  8
0
100
AcDbBlockBegin
  2
BLOCK_62
 70
     0
 71
     0
 10
0.0
 20
0.0
 30
0.0
  3
BLOCK_62
  1

  0
POLYLINE
  5
3B2
330
3AE
100
AcDbEntity
  8
EBENE_1
 62
     7
100
AcDb2dPolyline
 66
     1
 10
0.0
 20
0.0
 30
0.0
  0
VERTEX
  5
3B3
330
3B2
100
AcDbEntity
  8
EBENE_1
 62
     7
100
AcDbVertex
100
AcDb2dVertex
 10
27.78917371267076
 20
135.3378200616517
 30
0.0
  0
VERTEX
  5
3B4
330
3B2
100
AcDbEntity
  8
EBENE_1
 62
     7
100
AcDbVertex
100
AcDb2dVertex
 10
39.69990233382503
 20
147.2606065170043
 30
0.0
  0
SEQEND
  5
3B5
330
3B2
100
AcDbEntity
  8
EBENE_1
  0
ENDBLK
  5
3B1
330
3AE
100
AcDbEntity
  8
0
100
AcDbBlockEnd
  0
BLOCK
  5
3B8
330
3B6
100
AcDbEntity
  8
0
100
AcDbBlockBegin
  2
BLOCK_63
 70
     0
 71
     0
 10
0.0
 20
0.0
 30
0.0
  3
BLOCK_63
  1

  0
POLYLINE
  5
3BA
330
3B6
100
AcDbEntity
  8
EBENE_1
 62
     7
100
AcDb2dPolyline
 66
     1
 10
0.0
 20
0.0
 30
0.0
  0
VERTEX
  5
3BB
330
3BA
100
AcDbEntity
  8
EBENE_1
 62
     7
100
AcDbVertex
100
AcDb2dVertex
 10
41.11239148277746
 20
147.2606065170043
 30
0.0
  0
VERTEX
  5
3BC
330
3BA
100
AcDbEntity
  8
EBENE_1
 62
     7
100
AcDbVertex
100
AcDb2dVertex
 10
27.78917371267076
 20
133.9249864031507
 30
0.0
  0
SEQEND
  5
3BD
330
3BA
100
AcDbEntity
  8
EBENE_1
  0
ENDBLK
  5
3B9
330
3B6
100
AcDbEntity
  8
0
100
AcDbBlockEnd
  0
BLOCK
  5
3C0
330
3BE
100
AcDbEntity
  8
0
100
AcDbBlockBegin
  2
BLOCK_64
 70
     0
 71
     0
 10
0.0
 20
0.0
 30
0.0
  3
BLOCK_64
  1

  0
POLYLINE
  5
3C2
330
3BE
100
AcDbEntity
  8
EBENE_1
 62
     7
100
AcDb2dPolyline
 66
     1
 10
0.0
 20
0.0
 30
0.0
  0
VERTEX
  5
3C3
330
3C2
100
AcDbEntity
  8
EBENE_1
 62
     7
100
AcDbVertex
100
AcDb2dVertex
 10
27.78917371267076
 20
132.5131862732953
 30
0.0
  0
VERTEX
  5
3C4
330
3C2
100
AcDbEntity
  8
EBENE_1
 62
     7
100
AcDbVertex
100
AcDb2dVertex
 10
42.52419161263284
 20
147.2606065170043
 30
0.0
  0
SEQEND
  5
3C5
330
3C2
100
AcDbEntity
  8
EBENE_1
  0
ENDBLK
  5
3C1
330
3BE
100
AcDbEntity
  8
0
100
AcDbBlockEnd
  0
BLOCK
  5
3C8
330
3C6
100
AcDbEntity
  8
0
100
AcDbBlockBegin
  2
BLOCK_65
 70
     0
 71
     0
 10
0.0
 20
0.0
 30
0.0
  3
BLOCK_65
  1

  0
POLYLINE
  5
3CA
330
3C6
100
AcDbEntity
  8
EBENE_1
 62
     7
100
AcDb2dPolyline
 66
     1
 10
0.0
 20
0.0
 30
0.0
  0
VERTEX
  5
3CB
330
3CA
100
AcDbEntity
  8
EBENE_1
 62
     7
100
AcDbVertex
100
AcDb2dVertex
 10
43.93668076158528
 20
147.2606065170043
 30
0.0
  0
VERTEX
  5
3CC
330
3CA
100
AcDbEntity
  8
EBENE_1
 62
     7
100
AcDbVertex
100
AcDb2dVertex
 10
27.78917371267076
 20
131.1006971243429
 30
0.0
  0
SEQEND
  5
3CD
330
3CA
100
AcDbEntity
  8
EBENE_1
  0
ENDBLK
  5
3C9
330
3C6
100
AcDbEntity
  8
0
100
AcDbBlockEnd
  0
BLOCK
  5
3D0
330
3CE
100
AcDbEntity
  8
0
100
AcDbBlockBegin
  2
BLOCK_66
 70
     0
 71
     0
 10
0.0
 20
0.0
 30
0.0
  3
BLOCK_66
  1

  0
POLYLINE
  5
3D2
330
3CE
100
AcDbEntity
  8
EBENE_1
 62
     7
100
AcDb2dPolyline
 66
     1
 10
0.0
 20
0.0
 30
0.0
  0
VERTEX
  5
3D3
330
3D2
100
AcDbEntity
  8
EBENE_1
 62
     7
100
AcDbVertex
100
AcDb2dVertex
 10
28.35175780541206
 20
130.2638834309757
 30
0.0
  0
VERTEX
  5
3D4
330
3D2
100
AcDbEntity
  8
EBENE_1
 62
     7
100
AcDbVertex
100
AcDb2dVertex
 10
45.34848089144066
 20
147.2606065170043
 30
0.0
  0
SEQEND
  5
3D5
330
3D2
100
AcDbEntity
  8
EBENE_1
  0
ENDBLK
  5
3D1
330
3CE
100
AcDbEntity
  8
0
100
AcDbBlockEnd
  0
BLOCK
  5
3D8
330
3D6
100
AcDbEntity
  8
0
100
AcDbBlockBegin
  2
BLOCK_67
 70
     0
 71
     0
 10
0.0
 20
0.0
 30
0.0
  3
BLOCK_67
  1

  0
POLYLINE
  5
3DA
330
3D6
100
AcDbEntity
  8
EBENE_1
 62
     7
100
AcDb2dPolyline
 66
     1
 10
0.0
 20
0.0
 30
0.0
  0
VERTEX
  5
3DB
330
3DA
100
AcDbEntity
  8
EBENE_1
 62
     7
100
AcDbVertex
100
AcDb2dVertex
 10
46.76097004039309
 20
147.2606065170043
 30
0.0
  0
VERTEX
  5
3DC
330
3DA
100
AcDbEntity
  8
EBENE_1
 62
     7
100
AcDbVertex
100
AcDb2dVertex
 10
29.77664929811139
 20
130.2638834309757
 30
0.0
  0
SEQEND
  5
3DD
330
3DA
100
AcDbEntity
  8
EBENE_1
  0
ENDBLK
  5
3D9
330
3D6
100
AcDbEntity
  8
0
100
AcDbBlockEnd
  0
BLOCK
  5
3E0
330
3DE
100
AcDbEntity
  8
0
100
AcDbBlockBegin
  2
BLOCK_68
 70
     0
 71
     0
 10
0.0
 20
0.0
 30
0.0
  3
BLOCK_68
  1

  0
POLYLINE
  5
3E2
330
3DE
100
AcDbEntity
  8
EBENE_1
 62
     7
100
AcDb2dPolyline
 66
     1
 10
0.0
 20
0.0
 30
0.0
  0
VERTEX
  5
3E3
330
3E2
100
AcDbEntity
  8
EBENE_1
 62
     7
100
AcDbVertex
100
AcDb2dVertex
 10
31.18844942796678
 20
130.2638834309757
 30
0.0
  0
VERTEX
  5
3E4
330
3E2
100
AcDbEntity
  8
EBENE_1
 62
     7
100
AcDbVertex
100
AcDb2dVertex
 10
48.17345918934553
 20
147.2606065170043
 30
0.0
  0
SEQEND
  5
3E5
330
3E2
100
AcDbEntity
  8
EBENE_1
  0
ENDBLK
  5
3E1
330
3DE
100
AcDbEntity
  8
0
100
AcDbBlockEnd
  0
BLOCK
  5
3E8
330
3E6
100
AcDbEntity
  8
0
100
AcDbBlockBegin
  2
BLOCK_69
 70
     0
 71
     0
 10
0.0
 20
0.0
 30
0.0
  3
BLOCK_69
  1

  0
POLYLINE
  5
3EA
330
3E6
100
AcDbEntity
  8
EBENE_1
 62
     7
100
AcDb2dPolyline
 66
     1
 10
0.0
 20
0.0
 30
0.0
  0
VERTEX
  5
3EB
330
3EA
100
AcDbEntity
  8
EBENE_1
 62
     7
100
AcDbVertex
100
AcDb2dVertex
 10
29.80179849515372
 20
147.2606065170043
 30
0.0
  0
VERTEX
  5
3EC
330
3EA
100
AcDbEntity
  8
EBENE_1
 62
     7
100
AcDbVertex
100
AcDb2dVertex
 10
27.78917371267076
 20
145.2355793907744
 30
0.0
  0
SEQEND
  5
3ED
330
3EA
100
AcDbEntity
  8
EBENE_1
  0
ENDBLK
  5
3E9
330
3E6
100
AcDbEntity
  8
0
100
AcDbBlockEnd
  0
BLOCK
  5
3F0
330
3EE
100
AcDbEntity
  8
0
100
AcDbBlockBegin
  2
BLOCK_70
 70
     0
 71
     0
 10
0.0
 20
0.0
 30
0.0
  3
BLOCK_70
  1

  0
POLYLINE
  5
3F2
330
3EE
100
AcDbEntity
  8
EBENE_1
 62
     7
100
AcDb2dPolyline
 66
     1
 10
0.0
 20
0.0
 30
0.0
  0
VERTEX
  5
3F3
330
3F2
100
AcDbEntity
  8
EBENE_1
 62
     7
100
AcDbVertex
100
AcDb2dVertex
 10
27.78917371267076
 20
143.8234347513705
 30
0.0
  0
VERTEX
  5
3F4
330
3F2
100
AcDbEntity
  8
EBENE_1
 62
     7
100
AcDbVertex
100
AcDb2dVertex
 10
31.2135986250091
 20
147.2606065170043
 30
0.0
  0
SEQEND
  5
3F5
330
3F2
100
AcDbEntity
  8
EBENE_1
  0
ENDBLK
  5
3F1
330
3EE
100
AcDbEntity
  8
0
100
AcDbBlockEnd
  0
BLOCK
  5
3F8
330
3F6
100
AcDbEntity
  8
0
100
AcDbBlockBegin
  2
BLOCK_71
 70
     0
 71
     0
 10
0.0
 20
0.0
 30
0.0
  3
BLOCK_71
  1

  0
POLYLINE
  5
3FA
330
3F6
100
AcDbEntity
  8
EBENE_1
 62
     7
100
AcDb2dPolyline
 66
     1
 10
0.0
 20
0.0
 30
0.0
  0
VERTEX
  5
3FB
330
3FA
100
AcDbEntity
  8
EBENE_1
 62
     7
100
AcDbVertex
100
AcDb2dVertex
 10
32.62608777396154
 20
147.2606065170043
 30
0.0
  0
VERTEX
  5
3FC
330
3FA
100
AcDbEntity
  8
EBENE_1
 62
     7
100
AcDbVertex
100
AcDb2dVertex
 10
27.78917371267076
 20
142.4109456024181
 30
0.0
  0
SEQEND
  5
3FD
330
3FA
100
AcDbEntity
  8
EBENE_1
  0
ENDBLK
  5
3F9
330
3F6
100
AcDbEntity
  8
0
100
AcDbBlockEnd
  0
BLOCK
  5
400
330
3FE
100
AcDbEntity
  8
0
100
AcDbBlockBegin
  2
BLOCK_72
 70
     0
 71
     0
 10
0.0
 20
0.0
 30
0.0
  3
BLOCK_72
  1

  0
POLYLINE
  5
402
330
3FE
100
AcDbEntity
  8
EBENE_1
 62
     7
100
AcDb2dPolyline
 66
     1
 10
0.0
 20
0.0
 30
0.0
  0
VERTEX
  5
403
330
402
100
AcDbEntity
  8
EBENE_1
 62
     7
100
AcDbVertex
100
AcDb2dVertex
 10
27.78917371267076
 20
140.9991454725627
 30
0.0
  0
VERTEX
  5
404
330
402
100
AcDbEntity
  8
EBENE_1
 62
     7
100
AcDbVertex
100
AcDb2dVertex
 10
34.03857692291397
 20
147.2606065170043
 30
0.0
  0
SEQEND
  5
405
330
402
100
AcDbEntity
  8
EBENE_1
  0
ENDBLK
  5
401
330
3FE
100
AcDbEntity
  8
0
100
AcDbBlockEnd
  0
BLOCK
  5
408
330
406
100
AcDbEntity
  8
0
100
AcDbBlockBegin
  2
BLOCK_73
 70
     0
 71
     0
 10
0.0
 20
0.0
 30
0.0
  3
BLOCK_73
  1

  0
POLYLINE
  5
40A
330
406
100
AcDbEntity
  8
EBENE_1
 62
     7
100
AcDb2dPolyline
 66
     1
 10
0.0
 20
0.0
 30
0.0
  0
VERTEX
  5
40B
330
40A
100
AcDbEntity
  8
EBENE_1
 62
     7
100
AcDbVertex
100
AcDb2dVertex
 10
35.45037705276935
 20
147.2606065170043
 30
0.0
  0
VERTEX
  5
40C
330
40A
100
AcDbEntity
  8
EBENE_1
 62
     7
100
AcDbVertex
100
AcDb2dVertex
 10
27.78917371267076
 20
139.5876898522559
 30
0.0
  0
SEQEND
  5
40D
330
40A
100
AcDbEntity
  8
EBENE_1
  0
ENDBLK
  5
409
330
406
100
AcDbEntity
  8
0
100
AcDbBlockEnd
  0
BLOCK
  5
410
330
40E
100
AcDbEntity
  8
0
100
AcDbBlockBegin
  2
BLOCK_74
 70
     0
 71
     0
 10
0.0
 20
0.0
 30
0.0
  3
BLOCK_74
  1

  0
POLYLINE
  5
412
330
40E
100
AcDbEntity
  8
EBENE_1
 62
     7
100
AcDb2dPolyline
 66
     1
 10
0.0
 20
0.0
 30
0.0
  0
VERTEX
  5
413
330
412
100
AcDbEntity
  8
EBENE_1
 62
     7
100
AcDbVertex
100
AcDb2dVertex
 10
27.78917371267076
 20
138.1741671746579
 30
0.0
  0
VERTEX
  5
414
330
412
100
AcDbEntity
  8
EBENE_1
 62
     7
100
AcDbVertex
100
AcDb2dVertex
 10
36.86286620172179
 20
147.2606065170043
 30
0.0
  0
SEQEND
  5
415
330
412
100
AcDbEntity
  8
EBENE_1
  0
ENDBLK
  5
411
330
40E
100
AcDbEntity
  8
0
100
AcDbBlockEnd
  0
ENDSEC
  0
SECTION
  2
ENTITIES
  0
POLYLINE
  5
3C
330
1F
100
AcDbEntity
  8
STANDARDEBENE
 62
     7
100
AcDb2dPolyline
 66
     1
 10
0.0
 20
0.0
 30
0.0
  0
VERTEX
  5
3D
330
3C
100
AcDbEntity
  8
STANDARDEBENE
 62
     7
100
AcDbVertex
100
AcDb2dVertex
 10
55.74956867095845
 20
156.4524657811994
 30
0.0
  0
VERTEX
  5
3E
330
3C
100
AcDbEntity
  8
STANDARDEBENE
 62
     7
100
AcDbVertex
100
AcDb2dVertex
 10
77.90222166021195
 20
156.4524657811994
 30
0.0
  0
SEQEND
  5
3F
330
3C
100
AcDbEntity
  8
STANDARDEBENE
  0
INSERT
  5
42
330
1F
100
AcDbEntity
  8
EBENE_1
100
AcDbBlockReference
  2
BLOCK_2
 10
0.0
 20
0.0
 30
0.0
  0
INSERT
  5
1D7
330
1F
100
AcDbEntity
  8
EBENE_1
100
AcDbBlockReference
  2
BLOCK_3
 10
0.0
 20
0.0
 30
0.0
  0
INSERT
  5
1DF
330
1F
100
AcDbEntity
  8
EBENE_1
100
AcDbBlockReference
  2
BLOCK_4
 10
0.0
 20
0.0
 30
0.0
  0
INSERT
  5
1E7
330
1F
100
AcDbEntity
  8
EBENE_1
100
AcDbBlockReference
  2
BLOCK_5
 10
0.0
 20
0.0
 30
0.0
  0
INSERT
  5
1EF
330
1F
100
AcDbEntity
  8
EBENE_1
100
AcDbBlockReference
  2
BLOCK_6
 10
0.0
 20
0.0
 30
0.0
  0
INSERT
  5
1F7
330
1F
100
AcDbEntity
  8
EBENE_1
100
AcDbBlockReference
  2
BLOCK_7
 10
0.0
 20
0.0
 30
0.0
  0
INSERT
  5
1FF
330
1F
100
AcDbEntity
  8
EBENE_1
100
AcDbBlockReference
  2
BLOCK_8
 10
0.0
 20
0.0
 30
0.0
  0
INSERT
  5
207
330
1F
100
AcDbEntity
  8
EBENE_1
100
AcDbBlockReference
  2
BLOCK_9
 10
0.0
 20
0.0
 30
0.0
  0
INSERT
  5
20F
330
1F
100
AcDbEntity
  8
EBENE_1
100
AcDbBlockReference
  2
BLOCK_10
 10
0.0
 20
0.0
 30
0.0
  0
INSERT
  5
217
330
1F
100
AcDbEntity
  8
EBENE_1
100
AcDbBlockReference
  2
BLOCK_11
 10
0.0
 20
0.0
 30
0.0
  0
INSERT
  5
21F
330
1F
100
AcDbEntity
  8
EBENE_1
100
AcDbBlockReference
  2
BLOCK_12
 10
0.0
 20
0.0
 30
0.0
  0
INSERT
  5
227
330
1F
100
AcDbEntity
  8
EBENE_1
100
AcDbBlockReference
  2
BLOCK_13
 10
0.0
 20
0.0
 30
0.0
  0
INSERT
  5
22F
330
1F
100
AcDbEntity
  8
EBENE_1
100
AcDbBlockReference
  2
BLOCK_14
 10
0.0
 20
0.0
 30
0.0
  0
INSERT
  5
237
330
1F
100
AcDbEntity
  8
EBENE_1
100
AcDbBlockReference
  2
BLOCK_15
 10
0.0
 20
0.0
 30
0.0
  0
INSERT
  5
23F
330
1F
100
AcDbEntity
  8
EBENE_1
100
AcDbBlockReference
  2
BLOCK_16
 10
0.0
 20
0.0
 30
0.0
  0
INSERT
  5
247
330
1F
100
AcDbEntity
  8
EBENE_1
100
AcDbBlockReference
  2
BLOCK_17
 10
0.0
 20
0.0
 30
0.0
  0
INSERT
  5
24F
330
1F
100
AcDbEntity
  8
EBENE_1
100
AcDbBlockReference
  2
BLOCK_18
 10
0.0
 20
0.0
 30
0.0
  0
INSERT
  5
257
330
1F
100
AcDbEntity
  8
EBENE_1
100
AcDbBlockReference
  2
BLOCK_19
 10
0.0
 20
0.0
 30
0.0
  0
INSERT
  5
25F
330
1F
100
AcDbEntity
  8
EBENE_1
100
AcDbBlockReference
  2
BLOCK_20
 10
0.0
 20
0.0
 30
0.0
  0
INSERT
  5
267
330
1F
100
AcDbEntity
  8
EBENE_1
100
AcDbBlockReference
  2
BLOCK_21
 10
0.0
 20
0.0
 30
0.0
  0
INSERT
  5
26F
330
1F
100
AcDbEntity
  8
EBENE_1
100
AcDbBlockReference
  2
BLOCK_22
 10
0.0
 20
0.0
 30
0.0
  0
INSERT
  5
277
330
1F
100
AcDbEntity
  8
EBENE_1
100
AcDbBlockReference
  2
BLOCK_23
 10
0.0
 20
0.0
 30
0.0
  0
INSERT
  5
27F
330
1F
100
AcDbEntity
  8
EBENE_1
100
AcDbBlockReference
  2
BLOCK_24
 10
0.0
 20
0.0
 30
0.0
  0
INSERT
  5
287
330
1F
100
AcDbEntity
  8
EBENE_1
100
AcDbBlockReference
  2
BLOCK_25
 10
0.0
 20
0.0
 30
0.0
  0
INSERT
  5
28F
330
1F
100
AcDbEntity
  8
EBENE_1
100
AcDbBlockReference
  2
BLOCK_26
 10
0.0
 20
0.0
 30
0.0
  0
INSERT
  5
297
330
1F
100
AcDbEntity
  8
EBENE_1
100
AcDbBlockReference
  2
BLOCK_27
 10
0.0
 20
0.0
 30
0.0
  0
INSERT
  5
29F
330
1F
100
AcDbEntity
  8
EBENE_1
100
AcDbBlockReference
  2
BLOCK_28
 10
0.0
 20
0.0
 30
0.0
  0
INSERT
  5
2A7
330
1F
100
AcDbEntity
  8
EBENE_1
100
AcDbBlockReference
  2
BLOCK_29
 10
0.0
 20
0.0
 30
0.0
  0
INSERT
  5
2AF
330
1F
100
AcDbEntity
  8
EBENE_1
100
AcDbBlockReference
  2
BLOCK_30
 10
0.0
 20
0.0
 30
0.0
  0
INSERT
  5
2B7
330
1F
100
AcDbEntity
  8
EBENE_1
100
AcDbBlockReference
  2
BLOCK_31
 10
0.0
 20
0.0
 30
0.0
  0
INSERT
  5
2BF
330
1F
100
AcDbEntity
  8
EBENE_1
100
AcDbBlockReference
  2
BLOCK_32
 10
0.0
 20
0.0
 30
0.0
  0
INSERT
  5
2C7
330
1F
100
AcDbEntity
  8
EBENE_1
100
AcDbBlockReference
  2
BLOCK_33
 10
0.0
 20
0.0
 30
0.0
  0
INSERT
  5
2CF
330
1F
100
AcDbEntity
  8
EBENE_1
100
AcDbBlockReference
  2
BLOCK_34
 10
0.0
 20
0.0
 30
0.0
  0
INSERT
  5
2D7
330
1F
100
AcDbEntity
  8
EBENE_1
100
AcDbBlockReference
  2
BLOCK_35
 10
0.0
 20
0.0
 30
0.0
  0
INSERT
  5
2DF
330
1F
100
AcDbEntity
  8
EBENE_1
100
AcDbBlockReference
  2
BLOCK_36
 10
0.0
 20
0.0
 30
0.0
  0
INSERT
  5
2E7
330
1F
100
AcDbEntity
  8
EBENE_1
100
AcDbBlockReference
  2
BLOCK_37
 10
0.0
 20
0.0
 30
0.0
  0
INSERT
  5
2EF
330
1F
100
AcDbEntity
  8
EBENE_1
100
AcDbBlockReference
  2
BLOCK_38
 10
0.0
 20
0.0
 30
0.0
  0
INSERT
  5
2F7
330
1F
100
AcDbEntity
  8
EBENE_1
100
AcDbBlockReference
  2
BLOCK_39
 10
0.0
 20
0.0
 30
0.0
  0
INSERT
  5
2FF
330
1F
100
AcDbEntity
  8
EBENE_1
100
AcDbBlockReference
  2
BLOCK_40
 10
0.0
 20
0.0
 30
0.0
  0
INSERT
  5
307
330
1F
100
AcDbEntity
  8
EBENE_1
100
AcDbBlockReference
  2
BLOCK_41
 10
0.0
 20
0.0
 30
0.0
  0
INSERT
  5
30F
330
1F
100
AcDbEntity
  8
EBENE_1
100
AcDbBlockReference
  2
BLOCK_42
 10
0.0
 20
0.0
 30
0.0
  0
INSERT
  5
317
330
1F
100
AcDbEntity
  8
EBENE_1
100
AcDbBlockReference
  2
BLOCK_43
 10
0.0
 20
0.0
 30
0.0
  0
INSERT
  5
31F
330
1F
100
AcDbEntity
  8
EBENE_1
100
AcDbBlockReference
  2
BLOCK_44
 10
0.0
 20
0.0
 30
0.0
  0
INSERT
  5
327
330
1F
100
AcDbEntity
  8
EBENE_1
100
AcDbBlockReference
  2
BLOCK_45
 10
0.0
 20
0.0
 30
0.0
  0
INSERT
  5
32F
330
1F
100
AcDbEntity
  8
EBENE_1
100
AcDbBlockReference
  2
BLOCK_46
 10
0.0
 20
0.0
 30
0.0
  0
INSERT
  5
337
330
1F
100
AcDbEntity
  8
EBENE_1
100
AcDbBlockReference
  2
BLOCK_47
 10
0.0
 20
0.0
 30
0.0
  0
INSERT
  5
33F
330
1F
100
AcDbEntity
  8
EBENE_1
100
AcDbBlockReference
  2
BLOCK_48
 10
0.0
 20
0.0
 30
0.0
  0
INSERT
  5
347
330
1F
100
AcDbEntity
  8
EBENE_1
100
AcDbBlockReference
  2
BLOCK_49
 10
0.0
 20
0.0
 30
0.0
  0
INSERT
  5
34F
330
1F
100
AcDbEntity
  8
EBENE_1
100
AcDbBlockReference
  2
BLOCK_50
 10
0.0
 20
0.0
 30
0.0
  0
INSERT
  5
357
330
1F
100
AcDbEntity
  8
EBENE_1
100
AcDbBlockReference
  2
BLOCK_51
 10
0.0
 20
0.0
 30
0.0
  0
INSERT
  5
35F
330
1F
100
AcDbEntity
  8
EBENE_1
100
AcDbBlockReference
  2
BLOCK_52
 10
0.0
 20
0.0
 30
0.0
  0
INSERT
  5
367
330
1F
100
AcDbEntity
  8
EBENE_1
100
AcDbBlockReference
  2
BLOCK_53
 10
0.0
 20
0.0
 30
0.0
  0
INSERT
  5
36F
330
1F
100
AcDbEntity
  8
EBENE_1
100
AcDbBlockReference
  2
BLOCK_54
 10
0.0
 20
0.0
 30
0.0
  0
INSERT
  5
377
330
1F
100
AcDbEntity
  8
EBENE_1
100
AcDbBlockReference
  2
BLOCK_55
 10
0.0
 20
0.0
 30
0.0
  0
INSERT
  5
37F
330
1F
100
AcDbEntity
  8
EBENE_1
100
AcDbBlockReference
  2
BLOCK_56
 10
0.0
 20
0.0
 30
0.0
  0
INSERT
  5
387
330
1F
100
AcDbEntity
  8
EBENE_1
100
AcDbBlockReference
  2
BLOCK_57
 10
0.0
 20
0.0
 30
0.0
  0
INSERT
  5
38F
330
1F
100
AcDbEntity
  8
EBENE_1
100
AcDbBlockReference
  2
BLOCK_58
 10
0.0
 20
0.0
 30
0.0
  0
INSERT
  5
397
330
1F
100
AcDbEntity
  8
EBENE_1
100
AcDbBlockReference
  2
BLOCK_59
 10
0.0
 20
0.0
 30
0.0
  0
INSERT
  5
39F
330
1F
100
AcDbEntity
  8
EBENE_1
100
AcDbBlockReference
  2
BLOCK_60
 10
0.0
 20
0.0
 30
0.0
  0
INSERT
  5
3A7
330
1F
100
AcDbEntity
  8
EBENE_1
100
AcDbBlockReference
  2
BLOCK_61
 10
0.0
 20
0.0
 30
0.0
  0
INSERT
  5
3AF
330
1F
100
AcDbEntity
  8
EBENE_1
100
AcDbBlockReference
  2
BLOCK_62
 10
0.0
 20
0.0
 30
0.0
  0
INSERT
  5
3B7
330
1F
100
AcDbEntity
  8
EBENE_1
100
AcDbBlockReference
  2
BLOCK_63
 10
0.0
 20
0.0
 30
0.0
  0
INSERT
  5
3BF
330
1F
100
AcDbEntity
  8
EBENE_1
100
AcDbBlockReference
  2
BLOCK_64
 10
0.0
 20
0.0
 30
0.0
  0
INSERT
  5
3C7
330
1F
100
AcDbEntity
  8
EBENE_1
100
AcDbBlockReference
  2
BLOCK_65
 10
0.0
 20
0.0
 30
0.0
  0
INSERT
  5
3CF
330
1F
100
AcDbEntity
  8
EBENE_1
100
AcDbBlockReference
  2
BLOCK_66
 10
0.0
 20
0.0
 30
0.0
  0
INSERT
  5
3D7
330
1F
100
AcDbEntity
  8
EBENE_1
100
AcDbBlockReference
  2
BLOCK_67
 10
0.0
 20
0.0
 30
0.0
  0
INSERT
  5
3DF
330
1F
100
AcDbEntity
  8
EBENE_1
100
AcDbBlockReference
  2
BLOCK_68
 10
0.0
 20
0.0
 30
0.0
  0
INSERT
  5
3E7
330
1F
100
AcDbEntity
  8
EBENE_1
100
AcDbBlockReference
  2
BLOCK_69
 10
0.0
 20
0.0
 30
0.0
  0
INSERT
  5
3EF
330
1F
100
AcDbEntity
  8
EBENE_1
100
AcDbBlockReference
  2
BLOCK_70
 10
0.0
 20
0.0
 30
0.0
  0
INSERT
  5
3F7
330
1F
100
AcDbEntity
  8
EBENE_1
100
AcDbBlockReference
  2
BLOCK_71
 10
0.0
 20
0.0
 30
0.0
  0
INSERT
  5
3FF
330
1F
100
AcDbEntity
  8
EBENE_1
100
AcDbBlockReference
  2
BLOCK_72
 10
0.0
 20
0.0
 30
0.0
  0
INSERT
  5
407
330
1F
100
AcDbEntity
  8
EBENE_1
100
AcDbBlockReference
  2
BLOCK_73
 10
0.0
 20
0.0
 30
0.0
  0
INSERT
  5
40F
330
1F
100
AcDbEntity
  8
EBENE_1
100
AcDbBlockReference
  2
BLOCK_74
 10
0.0
 20
0.0
 30
0.0
  0
POLYLINE
  5
417
330
1F
100
AcDbEntity
  8
BEMAßUNG
 62
     7
100
AcDb2dPolyline
 66
     1
 10
0.0
 20
0.0
 30
0.0
  0
VERTEX
  5
418
330
417
100
AcDbEntity
  8
BEMAßUNG
 62
     7
100
AcDbVertex
100
AcDb2dVertex
 10
56.82581650055049
 20
217.6821478405448
 30
0.0
  0
VERTEX
  5
419
330
417
100
AcDbEntity
  8
BEMAßUNG
 62
     7
100
AcDbVertex
100
AcDb2dVertex
 10
56.82581650055049
 20
230.6818711445865
 30
0.0
  0
SEQEND
  5
41A
330
417
100
AcDbEntity
  8
BEMAßUNG
  0
POLYLINE
  5
41B
330
1F
100
AcDbEntity
  8
BEMAßUNG
 62
     7
100
AcDb2dPolyline
 66
     1
 10
0.0
 20
0.0
 30
0.0
  0
VERTEX
  5
41C
330
41B
100
AcDbEntity
  8
BEMAßUNG
 62
     7
100
AcDbVertex
100
AcDb2dVertex
 10
76.82528481152285
 20
217.6821478405448
 30
0.0
  0
VERTEX
  5
41D
330
41B
100
AcDbEntity
  8
BEMAßUNG
 62
     7
100
AcDbVertex
100
AcDb2dVertex
 10
76.82528481152285
 20
230.6818711445865
 30
0.0
  0
SEQEND
  5
41E
330
41B
100
AcDbEntity
  8
BEMAßUNG
  0
POLYLINE
  5
41F
330
1F
100
AcDbEntity
  8
BEMAßUNG
 62
     7
100
AcDb2dPolyline
 66
     1
 10
0.0
 20
0.0
 30
0.0
  0
VERTEX
  5
420
330
41F
100
AcDbEntity
  8
BEMAßUNG
 62
     7
100
AcDbVertex
100
AcDb2dVertex
 10
56.82581650055049
 20
228.6816487058504
 30
0.0
  0
VERTEX
  5
421
330
41F
100
AcDbEntity
  8
BEMAßUNG
 62
     7
100
AcDbVertex
100
AcDb2dVertex
 10
76.82528481152285
 20
228.6816487058504
 30
0.0
  0
SEQEND
  5
422
330
41F
100
AcDbEntity
  8
BEMAßUNG
  0
POLYLINE
  5
423
330
1F
100
AcDbEntity
  8
BEMAßUNG
 62
     7
100
AcDb2dPolyline
 66
     1
 10
0.0
 20
0.0
 30
0.0
  0
VERTEX
  5
424
330
423
100
AcDbEntity
  8
BEMAßUNG
 62
     7
100
AcDbVertex
100
AcDb2dVertex
 10
56.82581650055049
 20
228.6816487058504
 30
0.0
  0
VERTEX
  5
425
330
423
100
AcDbEntity
  8
BEMAßUNG
 62
     7
100
AcDbVertex
100
AcDb2dVertex
 10
60.32603351356433
 20
228.2213839490211
 30
0.0
  0
VERTEX
  5
426
330
423
100
AcDbEntity
  8
BEMAßUNG
 62
     7
100
AcDbVertex
100
AcDb2dVertex
 10
60.32603351356433
 20
229.1426024817769
 30
0.0
  0
VERTEX
  5
427
330
423
100
AcDbEntity
  8
BEMAßUNG
 62
     7
100
AcDbVertex
100
AcDb2dVertex
 10
56.82581650055049
 20
228.6816487058504
 30
0.0
  0
SEQEND
  5
428
330
423
100
AcDbEntity
  8
BEMAßUNG
  0
POLYLINE
  5
429
330
1F
100
AcDbEntity
  8
BEMAßUNG
 62
     7
100
AcDb2dPolyline
 66
     1
 10
0.0
 20
0.0
 30
0.0
  0
VERTEX
  5
42A
330
429
100
AcDbEntity
  8
BEMAßUNG
 62
     7
100
AcDbVertex
100
AcDb2dVertex
 10
60.32603351356433
 20
228.2244845349578
 30
0.0
  0
VERTEX
  5
42B
330
429
100
AcDbEntity
  8
BEMAßUNG
 62
     7
100
AcDbVertex
100
AcDb2dVertex
 10
60.29847274968233
 20
228.2244845349578
 30
0.0
  0
SEQEND
  5
42C
330
429
100
AcDbEntity
  8
BEMAßUNG
  0
POLYLINE
  5
42D
330
1F
100
AcDbEntity
  8
BEMAßUNG
 62
     7
100
AcDb2dPolyline
 66
     1
 10
0.0
 20
0.0
 30
0.0
  0
VERTEX
  5
42E
330
42D
100
AcDbEntity
  8
BEMAßUNG
 62
     7
100
AcDbVertex
100
AcDb2dVertex
 10
60.32603351356433
 20
228.2244845349578
 30
0.0
  0
VERTEX
  5
42F
330
42D
100
AcDbEntity
  8
BEMAßUNG
 62
     7
100
AcDbVertex
100
AcDb2dVertex
 10
60.29847274968233
 20
228.2244845349578
 30
0.0
  0
SEQEND
  5
430
330
42D
100
AcDbEntity
  8
BEMAßUNG
  0
POLYLINE
  5
431
330
1F
100
AcDbEntity
  8
BEMAßUNG
 62
     7
100
AcDb2dPolyline
 66
     1
 10
0.0
 20
0.0
 30
0.0
  0
VERTEX
  5
432
330
431
100
AcDbEntity
  8
BEMAßUNG
 62
     7
100
AcDbVertex
100
AcDb2dVertex
 10
60.32603351356433
 20
228.275816457688
 30
0.0
  0
VERTEX
  5
433
330
431
100
AcDbEntity
  8
BEMAßUNG
 62
     7
100
AcDbVertex
100
AcDb2dVertex
 10
59.91262205533435
 20
228.275816457688
 30
0.0
  0
SEQEND
  5
434
330
431
100
AcDbEntity
  8
BEMAßUNG
  0
POLYLINE
  5
435
330
1F
100
AcDbEntity
  8
BEMAßUNG
 62
     7
100
AcDb2dPolyline
 66
     1
 10
0.0
 20
0.0
 30
0.0
  0
VERTEX
  5
436
330
435
100
AcDbEntity
  8
BEMAßUNG
 62
     7
100
AcDbVertex
100
AcDb2dVertex
 10
60.32603351356433
 20
228.3264593613212
 30
0.0
  0
VERTEX
  5
437
330
435
100
AcDbEntity
  8
BEMAßUNG
 62
     7
100
AcDbVertex
100
AcDb2dVertex
 10
59.52677136098637
 20
228.3264593613212
 30
0.0
  0
SEQEND
  5
438
330
435
100
AcDbEntity
  8
BEMAßUNG
  0
POLYLINE
  5
439
330
1F
100
AcDbEntity
  8
BEMAßUNG
 62
     7
100
AcDb2dPolyline
 66
     1
 10
0.0
 20
0.0
 30
0.0
  0
VERTEX
  5
43A
330
439
100
AcDbEntity
  8
BEMAßUNG
 62
     7
100
AcDbVertex
100
AcDb2dVertex
 10
60.32603351356433
 20
228.3774467745029
 30
0.0
  0
VERTEX
  5
43B
330
439
100
AcDbEntity
  8
BEMAßUNG
 62
     7
100
AcDbVertex
100
AcDb2dVertex
 10
59.14092066663839
 20
228.3774467745029
 30
0.0
  0
SEQEND
  5
43C
330
439
100
AcDbEntity
  8
BEMAßUNG
  0
POLYLINE
  5
43D
330
1F
100
AcDbEntity
  8
BEMAßUNG
 62
     7
100
AcDb2dPolyline
 66
     1
 10
0.0
 20
0.0
 30
0.0
  0
VERTEX
  5
43E
330
43D
100
AcDbEntity
  8
BEMAßUNG
 62
     7
100
AcDbVertex
100
AcDb2dVertex
 10
60.32603351356433
 20
228.428089678136
 30
0.0
  0
VERTEX
  5
43F
330
43D
100
AcDbEntity
  8
BEMAßUNG
 62
     7
100
AcDbVertex
100
AcDb2dVertex
 10
58.7550699722904
 20
228.428089678136
 30
0.0
  0
SEQEND
  5
440
330
43D
100
AcDbEntity
  8
BEMAßUNG
  0
POLYLINE
  5
441
330
1F
100
AcDbEntity
  8
BEMAßUNG
 62
     7
100
AcDb2dPolyline
 66
     1
 10
0.0
 20
0.0
 30
0.0
  0
VERTEX
  5
442
330
441
100
AcDbEntity
  8
BEMAßUNG
 62
     7
100
AcDbVertex
100
AcDb2dVertex
 10
60.32603351356433
 20
228.4787325817692
 30
0.0
  0
VERTEX
  5
443
330
441
100
AcDbEntity
  8
BEMAßUNG
 62
     7
100
AcDbVertex
100
AcDb2dVertex
 10
58.36921927794242
 20
228.4787325817692
 30
0.0
  0
SEQEND
  5
444
330
441
100
AcDbEntity
  8
BEMAßUNG
  0
POLYLINE
  5
445
330
1F
100
AcDbEntity
  8
BEMAßUNG
 62
     7
100
AcDb2dPolyline
 66
     1
 10
0.0
 20
0.0
 30
0.0
  0
VERTEX
  5
446
330
445
100
AcDbEntity
  8
BEMAßUNG
 62
     7
100
AcDbVertex
100
AcDb2dVertex
 10
60.32603351356433
 20
228.5293754854024
 30
0.0
  0
VERTEX
  5
447
330
445
100
AcDbEntity
  8
BEMAßUNG
 62
     7
100
AcDbVertex
100
AcDb2dVertex
 10
57.98336858359444
 20
228.5293754854024
 30
0.0
  0
SEQEND
  5
448
330
445
100
AcDbEntity
  8
BEMAßUNG
  0
POLYLINE
  5
449
330
1F
100
AcDbEntity
  8
BEMAßUNG
 62
     7
100
AcDb2dPolyline
 66
     1
 10
0.0
 20
0.0
 30
0.0
  0
VERTEX
  5
44A
330
449
100
AcDbEntity
  8
BEMAßUNG
 62
     7
100
AcDbVertex
100
AcDb2dVertex
 10
60.32603351356433
 20
228.5807074081326
 30
0.0
  0
VERTEX
  5
44B
330
449
100
AcDbEntity
  8
BEMAßUNG
 62
     7
100
AcDbVertex
100
AcDb2dVertex
 10
57.59751788924645
 20
228.5807074081326
 30
0.0
  0
SEQEND
  5
44C
330
449
100
AcDbEntity
  8
BEMAßUNG
  0
POLYLINE
  5
44D
330
1F
100
AcDbEntity
  8
BEMAßUNG
 62
     7
100
AcDb2dPolyline
 66
     1
 10
0.0
 20
0.0
 30
0.0
  0
VERTEX
  5
44E
330
44D
100
AcDbEntity
  8
BEMAßUNG
 62
     7
100
AcDbVertex
100
AcDb2dVertex
 10
60.32603351356433
 20
228.6313503117658
 30
0.0
  0
VERTEX
  5
44F
330
44D
100
AcDbEntity
  8
BEMAßUNG
 62
     7
100
AcDbVertex
100
AcDb2dVertex
 10
57.21166719489847
 20
228.6313503117658
 30
0.0
  0
SEQEND
  5
450
330
44D
100
AcDbEntity
  8
BEMAßUNG
  0
POLYLINE
  5
451
330
1F
100
AcDbEntity
  8
BEMAßUNG
 62
     7
100
AcDb2dPolyline
 66
     1
 10
0.0
 20
0.0
 30
0.0
  0
VERTEX
  5
452
330
451
100
AcDbEntity
  8
BEMAßUNG
 62
     7
100
AcDbVertex
100
AcDb2dVertex
 10
60.32603351356433
 20
228.6816487058504
 30
0.0
  0
VERTEX
  5
453
330
451
100
AcDbEntity
  8
BEMAßUNG
 62
     7
100
AcDbVertex
100
AcDb2dVertex
 10
56.82581650055049
 20
228.6816487058504
 30
0.0
  0
SEQEND
  5
454
330
451
100
AcDbEntity
  8
BEMAßUNG
  0
POLYLINE
  5
455
330
1F
100
AcDbEntity
  8
BEMAßUNG
 62
     7
100
AcDb2dPolyline
 66
     1
 10
0.0
 20
0.0
 30
0.0
  0
VERTEX
  5
456
330
455
100
AcDbEntity
  8
BEMAßUNG
 62
     7
100
AcDbVertex
100
AcDb2dVertex
 10
60.32603351356433
 20
229.1391573862916
 30
0.0
  0
VERTEX
  5
457
330
455
100
AcDbEntity
  8
BEMAßUNG
 62
     7
100
AcDbVertex
100
AcDb2dVertex
 10
60.29847274968233
 20
229.1391573862916
 30
0.0
  0
SEQEND
  5
458
330
455
100
AcDbEntity
  8
BEMAßUNG
  0
POLYLINE
  5
459
330
1F
100
AcDbEntity
  8
BEMAßUNG
 62
     7
100
AcDb2dPolyline
 66
     1
 10
0.0
 20
0.0
 30
0.0
  0
VERTEX
  5
45A
330
459
100
AcDbEntity
  8
BEMAßUNG
 62
     7
100
AcDbVertex
100
AcDb2dVertex
 10
60.32603351356433
 20
229.1391573862916
 30
0.0
  0
VERTEX
  5
45B
330
459
100
AcDbEntity
  8
BEMAßUNG
 62
     7
100
AcDbVertex
100
AcDb2dVertex
 10
60.29847274968233
 20
229.1391573862916
 30
0.0
  0
SEQEND
  5
45C
330
459
100
AcDbEntity
  8
BEMAßUNG
  0
POLYLINE
  5
45D
330
1F
100
AcDbEntity
  8
BEMAßUNG
 62
     7
100
AcDb2dPolyline
 66
     1
 10
0.0
 20
0.0
 30
0.0
  0
VERTEX
  5
45E
330
45D
100
AcDbEntity
  8
BEMAßUNG
 62
     7
100
AcDbVertex
100
AcDb2dVertex
 10
60.32603351356433
 20
229.0881699731099
 30
0.0
  0
VERTEX
  5
45F
330
45D
100
AcDbEntity
  8
BEMAßUNG
 62
     7
100
AcDbVertex
100
AcDb2dVertex
 10
59.91262205533435
 20
229.0881699731099
 30
0.0
  0
SEQEND
  5
460
330
45D
100
AcDbEntity
  8
BEMAßUNG
  0
POLYLINE
  5
461
330
1F
100
AcDbEntity
  8
BEMAßUNG
 62
     7
100
AcDb2dPolyline
 66
     1
 10
0.0
 20
0.0
 30
0.0
  0
VERTEX
  5
462
330
461
100
AcDbEntity
  8
BEMAßUNG
 62
     7
100
AcDbVertex
100
AcDb2dVertex
 10
60.32603351356433
 20
229.0375270694767
 30
0.0
  0
VERTEX
  5
463
330
461
100
AcDbEntity
  8
BEMAßUNG
 62
     7
100
AcDbVertex
100
AcDb2dVertex
 10
59.52677136098637
 20
229.0375270694767
 30
0.0
  0
SEQEND
  5
464
330
461
100
AcDbEntity
  8
BEMAßUNG
  0
POLYLINE
  5
465
330
1F
100
AcDbEntity
  8
BEMAßUNG
 62
     7
100
AcDb2dPolyline
 66
     1
 10
0.0
 20
0.0
 30
0.0
  0
VERTEX
  5
466
330
465
100
AcDbEntity
  8
BEMAßUNG
 62
     7
100
AcDbVertex
100
AcDb2dVertex
 10
60.32603351356433
 20
228.986539656295
 30
0.0
  0
VERTEX
  5
467
330
465
100
AcDbEntity
  8
BEMAßUNG
 62
     7
100
AcDbVertex
100
AcDb2dVertex
 10
59.14092066663839
 20
228.986539656295
 30
0.0
  0
SEQEND
  5
468
330
465
100
AcDbEntity
  8
BEMAßUNG
  0
POLYLINE
  5
469
330
1F
100
AcDbEntity
  8
BEMAßUNG
 62
     7
100
AcDb2dPolyline
 66
     1
 10
0.0
 20
0.0
 30
0.0
  0
VERTEX
  5
46A
330
469
100
AcDbEntity
  8
BEMAßUNG
 62
     7
100
AcDbVertex
100
AcDb2dVertex
 10
60.32603351356433
 20
228.9358967526619
 30
0.0
  0
VERTEX
  5
46B
330
469
100
AcDbEntity
  8
BEMAßUNG
 62
     7
100
AcDbVertex
100
AcDb2dVertex
 10
58.7550699722904
 20
228.9358967526619
 30
0.0
  0
SEQEND
  5
46C
330
469
100
AcDbEntity
  8
BEMAßUNG
  0
POLYLINE
  5
46D
330
1F
100
AcDbEntity
  8
BEMAßUNG
 62
     7
100
AcDb2dPolyline
 66
     1
 10
0.0
 20
0.0
 30
0.0
  0
VERTEX
  5
46E
330
46D
100
AcDbEntity
  8
BEMAßUNG
 62
     7
100
AcDbVertex
100
AcDb2dVertex
 10
60.32603351356433
 20
228.8845648299316
 30
0.0
  0
VERTEX
  5
46F
330
46D
100
AcDbEntity
  8
BEMAßUNG
 62
     7
100
AcDbVertex
100
AcDb2dVertex
 10
58.36921927794242
 20
228.8845648299316
 30
0.0
  0
SEQEND
  5
470
330
46D
100
AcDbEntity
  8
BEMAßUNG
  0
POLYLINE
  5
471
330
1F
100
AcDbEntity
  8
BEMAßUNG
 62
     7
100
AcDb2dPolyline
 66
     1
 10
0.0
 20
0.0
 30
0.0
  0
VERTEX
  5
472
330
471
100
AcDbEntity
  8
BEMAßUNG
 62
     7
100
AcDbVertex
100
AcDb2dVertex
 10
60.32603351356433
 20
228.8339219262985
 30
0.0
  0
VERTEX
  5
473
330
471
100
AcDbEntity
  8
BEMAßUNG
 62
     7
100
AcDbVertex
100
AcDb2dVertex
 10
57.98336858359444
 20
228.8339219262985
 30
0.0
  0
SEQEND
  5
474
330
471
100
AcDbEntity
  8
BEMAßUNG
  0
POLYLINE
  5
475
330
1F
100
AcDbEntity
  8
BEMAßUNG
 62
     7
100
AcDb2dPolyline
 66
     1
 10
0.0
 20
0.0
 30
0.0
  0
VERTEX
  5
476
330
475
100
AcDbEntity
  8
BEMAßUNG
 62
     7
100
AcDbVertex
100
AcDb2dVertex
 10
60.32603351356433
 20
228.7836235322138
 30
0.0
  0
VERTEX
  5
477
330
475
100
AcDbEntity
  8
BEMAßUNG
 62
     7
100
AcDbVertex
100
AcDb2dVertex
 10
57.59751788924645
 20
228.7836235322138
 30
0.0
  0
SEQEND
  5
478
330
475
100
AcDbEntity
  8
BEMAßUNG
  0
POLYLINE
  5
479
330
1F
100
AcDbEntity
  8
BEMAßUNG
 62
     7
100
AcDb2dPolyline
 66
     1
 10
0.0
 20
0.0
 30
0.0
  0
VERTEX
  5
47A
330
479
100
AcDbEntity
  8
BEMAßUNG
 62
     7
100
AcDbVertex
100
AcDb2dVertex
 10
60.32603351356433
 20
228.7329806285807
 30
0.0
  0
VERTEX
  5
47B
330
479
100
AcDbEntity
  8
BEMAßUNG
 62
     7
100
AcDbVertex
100
AcDb2dVertex
 10
57.21166719489847
 20
228.7329806285807
 30
0.0
  0
SEQEND
  5
47C
330
479
100
AcDbEntity
  8
BEMAßUNG
  0
POLYLINE
  5
47D
330
1F
100
AcDbEntity
  8
BEMAßUNG
 62
     7
100
AcDb2dPolyline
 66
     1
 10
0.0
 20
0.0
 30
0.0
  0
VERTEX
  5
47E
330
47D
100
AcDbEntity
  8
BEMAßUNG
 62
     7
100
AcDbVertex
100
AcDb2dVertex
 10
60.32603351356433
 20
228.6816487058504
 30
0.0
  0
VERTEX
  5
47F
330
47D
100
AcDbEntity
  8
BEMAßUNG
 62
     7
100
AcDbVertex
100
AcDb2dVertex
 10
56.82581650055049
 20
228.6816487058504
 30
0.0
  0
SEQEND
  5
480
330
47D
100
AcDbEntity
  8
BEMAßUNG
  0
POLYLINE
  5
481
330
1F
100
AcDbEntity
  8
BEMAßUNG
 62
     7
100
AcDb2dPolyline
 66
     1
 10
0.0
 20
0.0
 30
0.0
  0
VERTEX
  5
482
330
481
100
AcDbEntity
  8
BEMAßUNG
 62
     7
100
AcDbVertex
100
AcDb2dVertex
 10
76.82528481152285
 20
228.6816487058504
 30
0.0
  0
VERTEX
  5
483
330
481
100
AcDbEntity
  8
BEMAßUNG
 62
     7
100
AcDbVertex
100
AcDb2dVertex
 10
73.32575681760606
 20
229.1426024817769
 30
0.0
  0
VERTEX
  5
484
330
481
100
AcDbEntity
  8
BEMAßUNG
 62
     7
100
AcDbVertex
100
AcDb2dVertex
 10
73.32575681760606
 20
228.2213839490211
 30
0.0
  0
VERTEX
  5
485
330
481
100
AcDbEntity
  8
BEMAßUNG
 62
     7
100
AcDbVertex
100
AcDb2dVertex
 10
76.82528481152285
 20
228.6816487058504
 30
0.0
  0
SEQEND
  5
486
330
481
100
AcDbEntity
  8
BEMAßUNG
  0
POLYLINE
  5
487
330
1F
100
AcDbEntity
  8
BEMAßUNG
 62
     7
100
AcDb2dPolyline
 66
     1
 10
0.0
 20
0.0
 30
0.0
  0
VERTEX
  5
488
330
487
100
AcDbEntity
  8
BEMAßUNG
 62
     7
100
AcDbVertex
100
AcDb2dVertex
 10
73.32575681760606
 20
229.1391573862916
 30
0.0
  0
VERTEX
  5
489
330
487
100
AcDbEntity
  8
BEMAßUNG
 62
     7
100
AcDbVertex
100
AcDb2dVertex
 10
73.35262856239102
 20
229.1391573862916
 30
0.0
  0
SEQEND
  5
48A
330
487
100
AcDbEntity
  8
BEMAßUNG
  0
POLYLINE
  5
48B
330
1F
100
AcDbEntity
  8
BEMAßUNG
 62
     7
100
AcDb2dPolyline
 66
     1
 10
0.0
 20
0.0
 30
0.0
  0
VERTEX
  5
48C
330
48B
100
AcDbEntity
  8
BEMAßUNG
 62
     7
100
AcDbVertex
100
AcDb2dVertex
 10
73.32575681760606
 20
229.1391573862916
 30
0.0
  0
VERTEX
  5
48D
330
48B
100
AcDbEntity
  8
BEMAßUNG
 62
     7
100
AcDbVertex
100
AcDb2dVertex
 10
73.35262856239102
 20
229.1391573862916
 30
0.0
  0
SEQEND
  5
48E
330
48B
100
AcDbEntity
  8
BEMAßUNG
  0
POLYLINE
  5
48F
330
1F
100
AcDbEntity
  8
BEMAßUNG
 62
     7
100
AcDb2dPolyline
 66
     1
 10
0.0
 20
0.0
 30
0.0
  0
VERTEX
  5
490
330
48F
100
AcDbEntity
  8
BEMAßUNG
 62
     7
100
AcDbVertex
100
AcDb2dVertex
 10
73.32575681760606
 20
229.0881699731099
 30
0.0
  0
VERTEX
  5
491
330
48F
100
AcDbEntity
  8
BEMAßUNG
 62
     7
100
AcDbVertex
100
AcDb2dVertex
 10
73.738479256739
 20
229.0881699731099
 30
0.0
  0
SEQEND
  5
492
330
48F
100
AcDbEntity
  8
BEMAßUNG
  0
POLYLINE
  5
493
330
1F
100
AcDbEntity
  8
BEMAßUNG
 62
     7
100
AcDb2dPolyline
 66
     1
 10
0.0
 20
0.0
 30
0.0
  0
VERTEX
  5
494
330
493
100
AcDbEntity
  8
BEMAßUNG
 62
     7
100
AcDbVertex
100
AcDb2dVertex
 10
73.32575681760606
 20
229.0375270694767
 30
0.0
  0
VERTEX
  5
495
330
493
100
AcDbEntity
  8
BEMAßUNG
 62
     7
100
AcDbVertex
100
AcDb2dVertex
 10
74.12432995108698
 20
229.0375270694767
 30
0.0
  0
SEQEND
  5
496
330
493
100
AcDbEntity
  8
BEMAßUNG
  0
POLYLINE
  5
497
330
1F
100
AcDbEntity
  8
BEMAßUNG
 62
     7
100
AcDb2dPolyline
 66
     1
 10
0.0
 20
0.0
 30
0.0
  0
VERTEX
  5
498
330
497
100
AcDbEntity
  8
BEMAßUNG
 62
     7
100
AcDbVertex
100
AcDb2dVertex
 10
73.32575681760606
 20
228.986539656295
 30
0.0
  0
VERTEX
  5
499
330
497
100
AcDbEntity
  8
BEMAßUNG
 62
     7
100
AcDbVertex
100
AcDb2dVertex
 10
74.51018064543496
 20
228.986539656295
 30
0.0
  0
SEQEND
  5
49A
330
497
100
AcDbEntity
  8
BEMAßUNG
  0
POLYLINE
  5
49B
330
1F
100
AcDbEntity
  8
BEMAßUNG
 62
     7
100
AcDb2dPolyline
 66
     1
 10
0.0
 20
0.0
 30
0.0
  0
VERTEX
  5
49C
330
49B
100
AcDbEntity
  8
BEMAßUNG
 62
     7
100
AcDbVertex
100
AcDb2dVertex
 10
73.32575681760606
 20
228.9358967526619
 30
0.0
  0
VERTEX
  5
49D
330
49B
100
AcDbEntity
  8
BEMAßUNG
 62
     7
100
AcDbVertex
100
AcDb2dVertex
 10
74.89603133978294
 20
228.9358967526619
 30
0.0
  0
SEQEND
  5
49E
330
49B
100
AcDbEntity
  8
BEMAßUNG
  0
POLYLINE
  5
49F
330
1F
100
AcDbEntity
  8
BEMAßUNG
 62
     7
100
AcDb2dPolyline
 66
     1
 10
0.0
 20
0.0
 30
0.0
  0
VERTEX
  5
4A0
330
49F
100
AcDbEntity
  8
BEMAßUNG
 62
     7
100
AcDbVertex
100
AcDb2dVertex
 10
73.32575681760606
 20
228.8845648299316
 30
0.0
  0
VERTEX
  5
4A1
330
49F
100
AcDbEntity
  8
BEMAßUNG
 62
     7
100
AcDbVertex
100
AcDb2dVertex
 10
75.28188203413092
 20
228.8845648299316
 30
0.0
  0
SEQEND
  5
4A2
330
49F
100
AcDbEntity
  8
BEMAßUNG
  0
POLYLINE
  5
4A3
330
1F
100
AcDbEntity
  8
BEMAßUNG
 62
     7
100
AcDb2dPolyline
 66
     1
 10
0.0
 20
0.0
 30
0.0
  0
VERTEX
  5
4A4
330
4A3
100
AcDbEntity
  8
BEMAßUNG
 62
     7
100
AcDbVertex
100
AcDb2dVertex
 10
73.32575681760606
 20
228.8339219262985
 30
0.0
  0
VERTEX
  5
4A5
330
4A3
100
AcDbEntity
  8
BEMAßUNG
 62
     7
100
AcDbVertex
100
AcDb2dVertex
 10
75.66773272847891
 20
228.8339219262985
 30
0.0
  0
SEQEND
  5
4A6
330
4A3
100
AcDbEntity
  8
BEMAßUNG
  0
POLYLINE
  5
4A7
330
1F
100
AcDbEntity
  8
BEMAßUNG
 62
     7
100
AcDb2dPolyline
 66
     1
 10
0.0
 20
0.0
 30
0.0
  0
VERTEX
  5
4A8
330
4A7
100
AcDbEntity
  8
BEMAßUNG
 62
     7
100
AcDbVertex
100
AcDb2dVertex
 10
73.32575681760606
 20
228.7836235322138
 30
0.0
  0
VERTEX
  5
4A9
330
4A7
100
AcDbEntity
  8
BEMAßUNG
 62
     7
100
AcDbVertex
100
AcDb2dVertex
 10
76.05427244192394
 20
228.7836235322138
 30
0.0
  0
SEQEND
  5
4AA
330
4A7
100
AcDbEntity
  8
BEMAßUNG
  0
POLYLINE
  5
4AB
330
1F
100
AcDbEntity
  8
BEMAßUNG
 62
     7
100
AcDb2dPolyline
 66
     1
 10
0.0
 20
0.0
 30
0.0
  0
VERTEX
  5
4AC
330
4AB
100
AcDbEntity
  8
BEMAßUNG
 62
     7
100
AcDbVertex
100
AcDb2dVertex
 10
73.32575681760606
 20
228.7329806285807
 30
0.0
  0
VERTEX
  5
4AD
330
4AB
100
AcDbEntity
  8
BEMAßUNG
 62
     7
100
AcDbVertex
100
AcDb2dVertex
 10
76.43943411717487
 20
228.7329806285807
 30
0.0
  0
SEQEND
  5
4AE
330
4AB
100
AcDbEntity
  8
BEMAßUNG
  0
POLYLINE
  5
4AF
330
1F
100
AcDbEntity
  8
BEMAßUNG
 62
     7
100
AcDb2dPolyline
 66
     1
 10
0.0
 20
0.0
 30
0.0
  0
VERTEX
  5
4B0
330
4AF
100
AcDbEntity
  8
BEMAßUNG
 62
     7
100
AcDbVertex
100
AcDb2dVertex
 10
73.32575681760606
 20
228.6816487058504
 30
0.0
  0
VERTEX
  5
4B1
330
4AF
100
AcDbEntity
  8
BEMAßUNG
 62
     7
100
AcDbVertex
100
AcDb2dVertex
 10
76.82528481152285
 20
228.6816487058504
 30
0.0
  0
SEQEND
  5
4B2
330
4AF
100
AcDbEntity
  8
BEMAßUNG
  0
POLYLINE
  5
4B3
330
1F
100
AcDbEntity
  8
BEMAßUNG
 62
     7
100
AcDb2dPolyline
 66
     1
 10
0.0
 20
0.0
 30
0.0
  0
VERTEX
  5
4B4
330
4B3
100
AcDbEntity
  8
BEMAßUNG
 62
     7
100
AcDbVertex
100
AcDb2dVertex
 10
73.32575681760606
 20
228.2244845349578
 30
0.0
  0
VERTEX
  5
4B5
330
4B3
100
AcDbEntity
  8
BEMAßUNG
 62
     7
100
AcDbVertex
100
AcDb2dVertex
 10
73.35262856239102
 20
228.2244845349578
 30
0.0
  0
SEQEND
  5
4B6
330
4B3
100
AcDbEntity
  8
BEMAßUNG
  0
POLYLINE
  5
4B7
330
1F
100
AcDbEntity
  8
BEMAßUNG
 62
     7
100
AcDb2dPolyline
 66
     1
 10
0.0
 20
0.0
 30
0.0
  0
VERTEX
  5
4B8
330
4B7
100
AcDbEntity
  8
BEMAßUNG
 62
     7
100
AcDbVertex
100
AcDb2dVertex
 10
73.32575681760606
 20
228.2244845349578
 30
0.0
  0
VERTEX
  5
4B9
330
4B7
100
AcDbEntity
  8
BEMAßUNG
 62
     7
100
AcDbVertex
100
AcDb2dVertex
 10
73.35262856239102
 20
228.2244845349578
 30
0.0
  0
SEQEND
  5
4BA
330
4B7
100
AcDbEntity
  8
BEMAßUNG
  0
POLYLINE
  5
4BB
330
1F
100
AcDbEntity
  8
BEMAßUNG
 62
     7
100
AcDb2dPolyline
 66
     1
 10
0.0
 20
0.0
 30
0.0
  0
VERTEX
  5
4BC
330
4BB
100
AcDbEntity
  8
BEMAßUNG
 62
     7
100
AcDbVertex
100
AcDb2dVertex
 10
73.32575681760606
 20
228.275816457688
 30
0.0
  0
VERTEX
  5
4BD
330
4BB
100
AcDbEntity
  8
BEMAßUNG
 62
     7
100
AcDbVertex
100
AcDb2dVertex
 10
73.738479256739
 20
228.275816457688
 30
0.0
  0
SEQEND
  5
4BE
330
4BB
100
AcDbEntity
  8
BEMAßUNG
  0
POLYLINE
  5
4BF
330
1F
100
AcDbEntity
  8
BEMAßUNG
 62
     7
100
AcDb2dPolyline
 66
     1
 10
0.0
 20
0.0
 30
0.0
  0
VERTEX
  5
4C0
330
4BF
100
AcDbEntity
  8
BEMAßUNG
 62
     7
100
AcDbVertex
100
AcDb2dVertex
 10
73.32575681760606
 20
228.3264593613212
 30
0.0
  0
VERTEX
  5
4C1
330
4BF
100
AcDbEntity
  8
BEMAßUNG
 62
     7
100
AcDbVertex
100
AcDb2dVertex
 10
74.12432995108698
 20
228.3264593613212
 30
0.0
  0
SEQEND
  5
4C2
330
4BF
100
AcDbEntity
  8
BEMAßUNG
  0
POLYLINE
  5
4C3
330
1F
100
AcDbEntity
  8
BEMAßUNG
 62
     7
100
AcDb2dPolyline
 66
     1
 10
0.0
 20
0.0
 30
0.0
  0
VERTEX
  5
4C4
330
4C3
100
AcDbEntity
  8
BEMAßUNG
 62
     7
100
AcDbVertex
100
AcDb2dVertex
 10
73.32575681760606
 20
228.3774467745029
 30
0.0
  0
VERTEX
  5
4C5
330
4C3
100
AcDbEntity
  8
BEMAßUNG
 62
     7
100
AcDbVertex
100
AcDb2dVertex
 10
74.51018064543496
 20
228.3774467745029
 30
0.0
  0
SEQEND
  5
4C6
330
4C3
100
AcDbEntity
  8
BEMAßUNG
  0
POLYLINE
  5
4C7
330
1F
100
AcDbEntity
  8
BEMAßUNG
 62
     7
100
AcDb2dPolyline
 66
     1
 10
0.0
 20
0.0
 30
0.0
  0
VERTEX
  5
4C8
330
4C7
100
AcDbEntity
  8
BEMAßUNG
 62
     7
100
AcDbVertex
100
AcDb2dVertex
 10
73.32575681760606
 20
228.428089678136
 30
0.0
  0
VERTEX
  5
4C9
330
4C7
100
AcDbEntity
  8
BEMAßUNG
 62
     7
100
AcDbVertex
100
AcDb2dVertex
 10
74.89603133978294
 20
228.428089678136
 30
0.0
  0
SEQEND
  5
4CA
330
4C7
100
AcDbEntity
  8
BEMAßUNG
  0
POLYLINE
  5
4CB
330
1F
100
AcDbEntity
  8
BEMAßUNG
 62
     7
100
AcDb2dPolyline
 66
     1
 10
0.0
 20
0.0
 30
0.0
  0
VERTEX
  5
4CC
330
4CB
100
AcDbEntity
  8
BEMAßUNG
 62
     7
100
AcDbVertex
100
AcDb2dVertex
 10
73.32575681760606
 20
228.4787325817692
 30
0.0
  0
VERTEX
  5
4CD
330
4CB
100
AcDbEntity
  8
BEMAßUNG
 62
     7
100
AcDbVertex
100
AcDb2dVertex
 10
75.28188203413092
 20
228.4787325817692
 30
0.0
  0
SEQEND
  5
4CE
330
4CB
100
AcDbEntity
  8
BEMAßUNG
  0
POLYLINE
  5
4CF
330
1F
100
AcDbEntity
  8
BEMAßUNG
 62
     7
100
AcDb2dPolyline
 66
     1
 10
0.0
 20
0.0
 30
0.0
  0
VERTEX
  5
4D0
330
4CF
100
AcDbEntity
  8
BEMAßUNG
 62
     7
100
AcDbVertex
100
AcDb2dVertex
 10
73.32575681760606
 20
228.5293754854024
 30
0.0
  0
VERTEX
  5
4D1
330
4CF
100
AcDbEntity
  8
BEMAßUNG
 62
     7
100
AcDbVertex
100
AcDb2dVertex
 10
75.66773272847891
 20
228.5293754854024
 30
0.0
  0
SEQEND
  5
4D2
330
4CF
100
AcDbEntity
  8
BEMAßUNG
  0
POLYLINE
  5
4D3
330
1F
100
AcDbEntity
  8
BEMAßUNG
 62
     7
100
AcDb2dPolyline
 66
     1
 10
0.0
 20
0.0
 30
0.0
  0
VERTEX
  5
4D4
330
4D3
100
AcDbEntity
  8
BEMAßUNG
 62
     7
100
AcDbVertex
100
AcDb2dVertex
 10
73.32575681760606
 20
228.5807074081326
 30
0.0
  0
VERTEX
  5
4D5
330
4D3
100
AcDbEntity
  8
BEMAßUNG
 62
     7
100
AcDbVertex
100
AcDb2dVertex
 10
76.05427244192394
 20
228.5807074081326
 30
0.0
  0
SEQEND
  5
4D6
330
4D3
100
AcDbEntity
  8
BEMAßUNG
  0
POLYLINE
  5
4D7
330
1F
100
AcDbEntity
  8
BEMAßUNG
 62
     7
100
AcDb2dPolyline
 66
     1
 10
0.0
 20
0.0
 30
0.0
  0
VERTEX
  5
4D8
330
4D7
100
AcDbEntity
  8
BEMAßUNG
 62
     7
100
AcDbVertex
100
AcDb2dVertex
 10
73.32575681760606
 20
228.6313503117658
 30
0.0
  0
VERTEX
  5
4D9
330
4D7
100
AcDbEntity
  8
BEMAßUNG
 62
     7
100
AcDbVertex
100
AcDb2dVertex
 10
76.43943411717487
 20
228.6313503117658
 30
0.0
  0
SEQEND
  5
4DA
330
4D7
100
AcDbEntity
  8
BEMAßUNG
  0
POLYLINE
  5
4DB
330
1F
100
AcDbEntity
  8
BEMAßUNG
 62
     7
100
AcDb2dPolyline
 66
     1
 10
0.0
 20
0.0
 30
0.0
  0
VERTEX
  5
4DC
330
4DB
100
AcDbEntity
  8
BEMAßUNG
 62
     7
100
AcDbVertex
100
AcDb2dVertex
 10
73.32575681760606
 20
228.6816487058504
 30
0.0
  0
VERTEX
  5
4DD
330
4DB
100
AcDbEntity
  8
BEMAßUNG
 62
     7
100
AcDbVertex
100
AcDb2dVertex
 10
76.82528481152285
 20
228.6816487058504
 30
0.0
  0
SEQEND
  5
4DE
330
4DB
100
AcDbEntity
  8
BEMAßUNG
  0
POLYLINE
  5
4DF
330
1F
100
AcDbEntity
  8
BEMAßUNG
 62
     7
100
AcDb2dPolyline
 66
     1
 10
0.0
 20
0.0
 30
0.0
  0
VERTEX
  5
4E0
330
4DF
100
AcDbEntity
  8
BEMAßUNG
 62
     7
100
AcDbVertex
100
AcDb2dVertex
 10
66.82555065603667
 20
218.6815700408157
 30
0.0
  0
VERTEX
  5
4E1
330
4DF
100
AcDbEntity
  8
BEMAßUNG
 62
     7
100
AcDbVertex
100
AcDb2dVertex
 10
133.0299505960828
 20
218.6815700408157
 30
0.0
  0
SEQEND
  5
4E2
330
4DF
100
AcDbEntity
  8
BEMAßUNG
  0
POLYLINE
  5
4E3
330
1F
100
AcDbEntity
  8
BEMAßUNG
 62
     7
100
AcDb2dPolyline
 66
     1
 10
0.0
 20
0.0
 30
0.0
  0
VERTEX
  5
4E4
330
4E3
100
AcDbEntity
  8
BEMAßUNG
 62
     7
100
AcDbVertex
100
AcDb2dVertex
 10
104.8252983678909
 20
128.681895584149
 30
0.0
  0
VERTEX
  5
4E5
330
4E3
100
AcDbEntity
  8
BEMAßUNG
 62
     7
100
AcDbVertex
100
AcDb2dVertex
 10
133.0299505960828
 20
128.681895584149
 30
0.0
  0
SEQEND
  5
4E6
330
4E3
100
AcDbEntity
  8
BEMAßUNG
  0
POLYLINE
  5
4E7
330
1F
100
AcDbEntity
  8
BEMAßUNG
 62
     7
100
AcDb2dPolyline
 66
     1
 10
0.0
 20
0.0
 30
0.0
  0
VERTEX
  5
4E8
330
4E7
100
AcDbEntity
  8
BEMAßUNG
 62
     7
100
AcDbVertex
100
AcDb2dVertex
 10
131.0297281573467
 20
218.6815700408157
 30
0.0
  0
VERTEX
  5
4E9
330
4E7
100
AcDbEntity
  8
BEMAßUNG
 62
     7
100
AcDbVertex
100
AcDb2dVertex
 10
131.0297281573467
 20
128.681895584149
 30
0.0
  0
SEQEND
  5
4EA
330
4E7
100
AcDbEntity
  8
BEMAßUNG
  0
POLYLINE
  5
4EB
330
1F
100
AcDbEntity
  8
BEMAßUNG
 62
     7
100
AcDb2dPolyline
 66
     1
 10
0.0
 20
0.0
 30
0.0
  0
VERTEX
  5
4EC
330
4EB
100
AcDbEntity
  8
BEMAßUNG
 62
     7
100
AcDbVertex
100
AcDb2dVertex
 10
131.0297281573467
 20
218.6815700408157
 30
0.0
  0
VERTEX
  5
4ED
330
4EB
100
AcDbEntity
  8
BEMAßUNG
 62
     7
100
AcDbVertex
100
AcDb2dVertex
 10
130.5694634005173
 20
215.1820420468989
 30
0.0
  0
VERTEX
  5
4EE
330
4EB
100
AcDbEntity
  8
BEMAßUNG
 62
     7
100
AcDbVertex
100
AcDb2dVertex
 10
131.4913709523702
 20
215.1820420468989
 30
0.0
  0
VERTEX
  5
4EF
330
4EB
100
AcDbEntity
  8
BEMAßUNG
 62
     7
100
AcDbVertex
100
AcDb2dVertex
 10
131.0297281573467
 20
218.6815700408157
 30
0.0
  0
SEQEND
  5
4F0
330
4EB
100
AcDbEntity
  8
BEMAßUNG
  0
POLYLINE
  5
4F1
330
1F
100
AcDbEntity
  8
BEMAßUNG
 62
     7
100
AcDb2dPolyline
 66
     1
 10
0.0
 20
0.0
 30
0.0
  0
VERTEX
  5
4F2
330
4F1
100
AcDbEntity
  8
BEMAßUNG
 62
     7
100
AcDbVertex
100
AcDb2dVertex
 10
130.5732530055511
 20
215.1820420468989
 30
0.0
  0
VERTEX
  5
4F3
330
4F1
100
AcDbEntity
  8
BEMAßUNG
 62
     7
100
AcDbVertex
100
AcDb2dVertex
 10
130.5732530055511
 20
215.2092583012324
 30
0.0
  0
SEQEND
  5
4F4
330
4F1
100
AcDbEntity
  8
BEMAßUNG
  0
POLYLINE
  5
4F5
330
1F
100
AcDbEntity
  8
BEMAßUNG
 62
     7
100
AcDb2dPolyline
 66
     1
 10
0.0
 20
0.0
 30
0.0
  0
VERTEX
  5
4F6
330
4F5
100
AcDbEntity
  8
BEMAßUNG
 62
     7
100
AcDbVertex
100
AcDb2dVertex
 10
130.5732530055511
 20
215.1820420468989
 30
0.0
  0
VERTEX
  5
4F7
330
4F5
100
AcDbEntity
  8
BEMAßUNG
 62
     7
100
AcDbVertex
100
AcDb2dVertex
 10
130.5732530055511
 20
215.2092583012324
 30
0.0
  0
SEQEND
  5
4F8
330
4F5
100
AcDbEntity
  8
BEMAßUNG
  0
POLYLINE
  5
4F9
330
1F
100
AcDbEntity
  8
BEMAßUNG
 62
     7
100
AcDb2dPolyline
 66
     1
 10
0.0
 20
0.0
 30
0.0
  0
VERTEX
  5
4FA
330
4F9
100
AcDbEntity
  8
BEMAßUNG
 62
     7
100
AcDbVertex
100
AcDb2dVertex
 10
130.6232068900873
 20
215.1820420468989
 30
0.0
  0
VERTEX
  5
4FB
330
4F9
100
AcDbEntity
  8
BEMAßUNG
 62
     7
100
AcDbVertex
100
AcDb2dVertex
 10
130.6232068900873
 20
215.5947644860319
 30
0.0
  0
SEQEND
  5
4FC
330
4F9
100
AcDbEntity
  8
BEMAßUNG
  0
POLYLINE
  5
4FD
330
1F
100
AcDbEntity
  8
BEMAßUNG
 62
     7
100
AcDb2dPolyline
 66
     1
 10
0.0
 20
0.0
 30
0.0
  0
VERTEX
  5
4FE
330
4FD
100
AcDbEntity
  8
BEMAßUNG
 62
     7
100
AcDbVertex
100
AcDb2dVertex
 10
130.6745388128175
 20
215.1820420468989
 30
0.0
  0
VERTEX
  5
4FF
330
4FD
100
AcDbEntity
  8
BEMAßUNG
 62
     7
100
AcDbVertex
100
AcDb2dVertex
 10
130.6745388128175
 20
215.9809596899284
 30
0.0
  0
SEQEND
  5
500
330
4FD
100
AcDbEntity
  8
BEMAßUNG
  0
POLYLINE
  5
501
330
1F
100
AcDbEntity
  8
BEMAßUNG
 62
     7
100
AcDb2dPolyline
 66
     1
 10
0.0
 20
0.0
 30
0.0
  0
VERTEX
  5
502
330
501
100
AcDbEntity
  8
BEMAßUNG
 62
     7
100
AcDbVertex
100
AcDb2dVertex
 10
130.7255262259992
 20
215.1820420468989
 30
0.0
  0
VERTEX
  5
503
330
501
100
AcDbEntity
  8
BEMAßUNG
 62
     7
100
AcDbVertex
100
AcDb2dVertex
 10
130.7255262259992
 20
216.3671548938249
 30
0.0
  0
SEQEND
  5
504
330
501
100
AcDbEntity
  8
BEMAßUNG
  0
POLYLINE
  5
505
330
1F
100
AcDbEntity
  8
BEMAßUNG
 62
     7
100
AcDb2dPolyline
 66
     1
 10
0.0
 20
0.0
 30
0.0
  0
VERTEX
  5
506
330
505
100
AcDbEntity
  8
BEMAßUNG
 62
     7
100
AcDbVertex
100
AcDb2dVertex
 10
130.7761691296324
 20
215.1820420468989
 30
0.0
  0
VERTEX
  5
507
330
505
100
AcDbEntity
  8
BEMAßUNG
 62
     7
100
AcDbVertex
100
AcDb2dVertex
 10
130.7761691296324
 20
216.7523165690758
 30
0.0
  0
SEQEND
  5
508
330
505
100
AcDbEntity
  8
BEMAßUNG
  0
POLYLINE
  5
509
330
1F
100
AcDbEntity
  8
BEMAßUNG
 62
     7
100
AcDb2dPolyline
 66
     1
 10
0.0
 20
0.0
 30
0.0
  0
VERTEX
  5
50A
330
509
100
AcDbEntity
  8
BEMAßUNG
 62
     7
100
AcDbVertex
100
AcDb2dVertex
 10
130.8268120332655
 20
215.1820420468989
 30
0.0
  0
VERTEX
  5
50B
330
509
100
AcDbEntity
  8
BEMAßUNG
 62
     7
100
AcDbVertex
100
AcDb2dVertex
 10
130.8268120332655
 20
217.1381672634238
 30
0.0
  0
SEQEND
  5
50C
330
509
100
AcDbEntity
  8
BEMAßUNG
  0
POLYLINE
  5
50D
330
1F
100
AcDbEntity
  8
BEMAßUNG
 62
     7
100
AcDb2dPolyline
 66
     1
 10
0.0
 20
0.0
 30
0.0
  0
VERTEX
  5
50E
330
50D
100
AcDbEntity
  8
BEMAßUNG
 62
     7
100
AcDbVertex
100
AcDb2dVertex
 10
130.8777994464472
 20
215.1820420468989
 30
0.0
  0
VERTEX
  5
50F
330
50D
100
AcDbEntity
  8
BEMAßUNG
 62
     7
100
AcDbVertex
100
AcDb2dVertex
 10
130.8777994464472
 20
217.5243624673203
 30
0.0
  0
SEQEND
  5
510
330
50D
100
AcDbEntity
  8
BEMAßUNG
  0
POLYLINE
  5
511
330
1F
100
AcDbEntity
  8
BEMAßUNG
 62
     7
100
AcDb2dPolyline
 66
     1
 10
0.0
 20
0.0
 30
0.0
  0
VERTEX
  5
512
330
511
100
AcDbEntity
  8
BEMAßUNG
 62
     7
100
AcDbVertex
100
AcDb2dVertex
 10
130.9284423500804
 20
215.1820420468989
 30
0.0
  0
VERTEX
  5
513
330
511
100
AcDbEntity
  8
BEMAßUNG
 62
     7
100
AcDbVertex
100
AcDb2dVertex
 10
130.9284423500804
 20
217.9105576712168
 30
0.0
  0
SEQEND
  5
514
330
511
100
AcDbEntity
  8
BEMAßUNG
  0
POLYLINE
  5
515
330
1F
100
AcDbEntity
  8
BEMAßUNG
 62
     7
100
AcDb2dPolyline
 66
     1
 10
0.0
 20
0.0
 30
0.0
  0
VERTEX
  5
516
330
515
100
AcDbEntity
  8
BEMAßUNG
 62
     7
100
AcDbVertex
100
AcDb2dVertex
 10
130.9790852537136
 20
215.1820420468989
 30
0.0
  0
VERTEX
  5
517
330
515
100
AcDbEntity
  8
BEMAßUNG
 62
     7
100
AcDbVertex
100
AcDb2dVertex
 10
130.9790852537136
 20
218.2960638560163
 30
0.0
  0
SEQEND
  5
518
330
515
100
AcDbEntity
  8
BEMAßUNG
  0
POLYLINE
  5
519
330
1F
100
AcDbEntity
  8
BEMAßUNG
 62
     7
100
AcDb2dPolyline
 66
     1
 10
0.0
 20
0.0
 30
0.0
  0
VERTEX
  5
51A
330
519
100
AcDbEntity
  8
BEMAßUNG
 62
     7
100
AcDbVertex
100
AcDb2dVertex
 10
131.0297281573467
 20
215.1820420468989
 30
0.0
  0
VERTEX
  5
51B
330
519
100
AcDbEntity
  8
BEMAßUNG
 62
     7
100
AcDbVertex
100
AcDb2dVertex
 10
131.0297281573467
 20
218.6815700408157
 30
0.0
  0
SEQEND
  5
51C
330
519
100
AcDbEntity
  8
BEMAßUNG
  0
POLYLINE
  5
51D
330
1F
100
AcDbEntity
  8
BEMAßUNG
 62
     7
100
AcDb2dPolyline
 66
     1
 10
0.0
 20
0.0
 30
0.0
  0
VERTEX
  5
51E
330
51D
100
AcDbEntity
  8
BEMAßUNG
 62
     7
100
AcDbVertex
100
AcDb2dVertex
 10
131.4875813473364
 20
215.1820420468989
 30
0.0
  0
VERTEX
  5
51F
330
51D
100
AcDbEntity
  8
BEMAßUNG
 62
     7
100
AcDbVertex
100
AcDb2dVertex
 10
131.4875813473364
 20
215.2092583012324
 30
0.0
  0
SEQEND
  5
520
330
51D
100
AcDbEntity
  8
BEMAßUNG
  0
POLYLINE
  5
521
330
1F
100
AcDbEntity
  8
BEMAßUNG
 62
     7
100
AcDb2dPolyline
 66
     1
 10
0.0
 20
0.0
 30
0.0
  0
VERTEX
  5
522
330
521
100
AcDbEntity
  8
BEMAßUNG
 62
     7
100
AcDbVertex
100
AcDb2dVertex
 10
131.4875813473364
 20
215.1820420468989
 30
0.0
  0
VERTEX
  5
523
330
521
100
AcDbEntity
  8
BEMAßUNG
 62
     7
100
AcDbVertex
100
AcDb2dVertex
 10
131.4875813473364
 20
215.2092583012324
 30
0.0
  0
SEQEND
  5
524
330
521
100
AcDbEntity
  8
BEMAßUNG
  0
POLYLINE
  5
525
330
1F
100
AcDbEntity
  8
BEMAßUNG
 62
     7
100
AcDb2dPolyline
 66
     1
 10
0.0
 20
0.0
 30
0.0
  0
VERTEX
  5
526
330
525
100
AcDbEntity
  8
BEMAßUNG
 62
     7
100
AcDbVertex
100
AcDb2dVertex
 10
131.4369384437033
 20
215.1820420468989
 30
0.0
  0
VERTEX
  5
527
330
525
100
AcDbEntity
  8
BEMAßUNG
 62
     7
100
AcDbVertex
100
AcDb2dVertex
 10
131.4369384437033
 20
215.5947644860319
 30
0.0
  0
SEQEND
  5
528
330
525
100
AcDbEntity
  8
BEMAßUNG
  0
POLYLINE
  5
529
330
1F
100
AcDbEntity
  8
BEMAßUNG
 62
     7
100
AcDb2dPolyline
 66
     1
 10
0.0
 20
0.0
 30
0.0
  0
VERTEX
  5
52A
330
529
100
AcDbEntity
  8
BEMAßUNG
 62
     7
100
AcDbVertex
100
AcDb2dVertex
 10
131.3862955400701
 20
215.1820420468989
 30
0.0
  0
VERTEX
  5
52B
330
529
100
AcDbEntity
  8
BEMAßUNG
 62
     7
100
AcDbVertex
100
AcDb2dVertex
 10
131.3862955400701
 20
215.9809596899284
 30
0.0
  0
SEQEND
  5
52C
330
529
100
AcDbEntity
  8
BEMAßUNG
  0
POLYLINE
  5
52D
330
1F
100
AcDbEntity
  8
BEMAßUNG
 62
     7
100
AcDb2dPolyline
 66
     1
 10
0.0
 20
0.0
 30
0.0
  0
VERTEX
  5
52E
330
52D
100
AcDbEntity
  8
BEMAßUNG
 62
     7
100
AcDbVertex
100
AcDb2dVertex
 10
131.3349636173399
 20
215.1820420468989
 30
0.0
  0
VERTEX
  5
52F
330
52D
100
AcDbEntity
  8
BEMAßUNG
 62
     7
100
AcDbVertex
100
AcDb2dVertex
 10
131.3349636173399
 20
216.3671548938249
 30
0.0
  0
SEQEND
  5
530
330
52D
100
AcDbEntity
  8
BEMAßUNG
  0
POLYLINE
  5
531
330
1F
100
AcDbEntity
  8
BEMAßUNG
 62
     7
100
AcDb2dPolyline
 66
     1
 10
0.0
 20
0.0
 30
0.0
  0
VERTEX
  5
532
330
531
100
AcDbEntity
  8
BEMAßUNG
 62
     7
100
AcDbVertex
100
AcDb2dVertex
 10
131.2843207137067
 20
215.1820420468989
 30
0.0
  0
VERTEX
  5
533
330
531
100
AcDbEntity
  8
BEMAßUNG
 62
     7
100
AcDbVertex
100
AcDb2dVertex
 10
131.2843207137067
 20
216.7523165690758
 30
0.0
  0
SEQEND
  5
534
330
531
100
AcDbEntity
  8
BEMAßUNG
  0
POLYLINE
  5
535
330
1F
100
AcDbEntity
  8
BEMAßUNG
 62
     7
100
AcDb2dPolyline
 66
     1
 10
0.0
 20
0.0
 30
0.0
  0
VERTEX
  5
536
330
535
100
AcDbEntity
  8
BEMAßUNG
 62
     7
100
AcDbVertex
100
AcDb2dVertex
 10
131.233333300525
 20
215.1820420468989
 30
0.0
  0
VERTEX
  5
537
330
535
100
AcDbEntity
  8
BEMAßUNG
 62
     7
100
AcDbVertex
100
AcDb2dVertex
 10
131.233333300525
 20
217.1381672634238
 30
0.0
  0
SEQEND
  5
538
330
535
100
AcDbEntity
  8
BEMAßUNG
  0
POLYLINE
  5
539
330
1F
100
AcDbEntity
  8
BEMAßUNG
 62
     7
100
AcDb2dPolyline
 66
     1
 10
0.0
 20
0.0
 30
0.0
  0
VERTEX
  5
53A
330
539
100
AcDbEntity
  8
BEMAßUNG
 62
     7
100
AcDbVertex
100
AcDb2dVertex
 10
131.1826903968918
 20
215.1820420468989
 30
0.0
  0
VERTEX
  5
53B
330
539
100
AcDbEntity
  8
BEMAßUNG
 62
     7
100
AcDbVertex
100
AcDb2dVertex
 10
131.1826903968918
 20
217.5243624673203
 30
0.0
  0
SEQEND
  5
53C
330
539
100
AcDbEntity
  8
BEMAßUNG
  0
POLYLINE
  5
53D
330
1F
100
AcDbEntity
  8
BEMAßUNG
 62
     7
100
AcDb2dPolyline
 66
     1
 10
0.0
 20
0.0
 30
0.0
  0
VERTEX
  5
53E
330
53D
100
AcDbEntity
  8
BEMAßUNG
 62
     7
100
AcDbVertex
100
AcDb2dVertex
 10
131.1320474932587
 20
215.1820420468989
 30
0.0
  0
VERTEX
  5
53F
330
53D
100
AcDbEntity
  8
BEMAßUNG
 62
     7
100
AcDbVertex
100
AcDb2dVertex
 10
131.1320474932587
 20
217.9105576712168
 30
0.0
  0
SEQEND
  5
540
330
53D
100
AcDbEntity
  8
BEMAßUNG
  0
POLYLINE
  5
541
330
1F
100
AcDbEntity
  8
BEMAßUNG
 62
     7
100
AcDb2dPolyline
 66
     1
 10
0.0
 20
0.0
 30
0.0
  0
VERTEX
  5
542
330
541
100
AcDbEntity
  8
BEMAßUNG
 62
     7
100
AcDbVertex
100
AcDb2dVertex
 10
131.0807155705284
 20
215.1820420468989
 30
0.0
  0
VERTEX
  5
543
330
541
100
AcDbEntity
  8
BEMAßUNG
 62
     7
100
AcDbVertex
100
AcDb2dVertex
 10
131.0807155705284
 20
218.2960638560163
 30
0.0
  0
SEQEND
  5
544
330
541
100
AcDbEntity
  8
BEMAßUNG
  0
POLYLINE
  5
545
330
1F
100
AcDbEntity
  8
BEMAßUNG
 62
     7
100
AcDb2dPolyline
 66
     1
 10
0.0
 20
0.0
 30
0.0
  0
VERTEX
  5
546
330
545
100
AcDbEntity
  8
BEMAßUNG
 62
     7
100
AcDbVertex
100
AcDb2dVertex
 10
131.0297281573467
 20
215.1820420468989
 30
0.0
  0
VERTEX
  5
547
330
545
100
AcDbEntity
  8
BEMAßUNG
 62
     7
100
AcDbVertex
100
AcDb2dVertex
 10
131.0297281573467
 20
218.6815700408157
 30
0.0
  0
SEQEND
  5
548
330
545
100
AcDbEntity
  8
BEMAßUNG
  0
POLYLINE
  5
549
330
1F
100
AcDbEntity
  8
BEMAßUNG
 62
     7
100
AcDb2dPolyline
 66
     1
 10
0.0
 20
0.0
 30
0.0
  0
VERTEX
  5
54A
330
549
100
AcDbEntity
  8
BEMAßUNG
 62
     7
100
AcDbVertex
100
AcDb2dVertex
 10
131.0297281573467
 20
128.681895584149
 30
0.0
  0
VERTEX
  5
54B
330
549
100
AcDbEntity
  8
BEMAßUNG
 62
     7
100
AcDbVertex
100
AcDb2dVertex
 10
131.4913709523702
 20
132.1817680876143
 30
0.0
  0
VERTEX
  5
54C
330
549
100
AcDbEntity
  8
BEMAßUNG
 62
     7
100
AcDbVertex
100
AcDb2dVertex
 10
130.5694634005173
 20
132.1817680876143
 30
0.0
  0
VERTEX
  5
54D
330
549
100
AcDbEntity
  8
BEMAßUNG
 62
     7
100
AcDbVertex
100
AcDb2dVertex
 10
131.0297281573467
 20
128.681895584149
 30
0.0
  0
SEQEND
  5
54E
330
549
100
AcDbEntity
  8
BEMAßUNG
  0
POLYLINE
  5
54F
330
1F
100
AcDbEntity
  8
BEMAßUNG
 62
     7
100
AcDb2dPolyline
 66
     1
 10
0.0
 20
0.0
 30
0.0
  0
VERTEX
  5
550
330
54F
100
AcDbEntity
  8
BEMAßUNG
 62
     7
100
AcDbVertex
100
AcDb2dVertex
 10
131.4875813473364
 20
132.1817680876143
 30
0.0
  0
VERTEX
  5
551
330
54F
100
AcDbEntity
  8
BEMAßUNG
 62
     7
100
AcDbVertex
100
AcDb2dVertex
 10
131.4875813473364
 20
132.1545518332808
 30
0.0
  0
SEQEND
  5
552
330
54F
100
AcDbEntity
  8
BEMAßUNG
  0
POLYLINE
  5
553
330
1F
100
AcDbEntity
  8
BEMAßUNG
 62
     7
100
AcDb2dPolyline
 66
     1
 10
0.0
 20
0.0
 30
0.0
  0
VERTEX
  5
554
330
553
100
AcDbEntity
  8
BEMAßUNG
 62
     7
100
AcDbVertex
100
AcDb2dVertex
 10
131.4875813473364
 20
132.1817680876143
 30
0.0
  0
VERTEX
  5
555
330
553
100
AcDbEntity
  8
BEMAßUNG
 62
     7
100
AcDbVertex
100
AcDb2dVertex
 10
131.4875813473364
 20
132.1545518332808
 30
0.0
  0
SEQEND
  5
556
330
553
100
AcDbEntity
  8
BEMAßUNG
  0
POLYLINE
  5
557
330
1F
100
AcDbEntity
  8
BEMAßUNG
 62
     7
100
AcDb2dPolyline
 66
     1
 10
0.0
 20
0.0
 30
0.0
  0
VERTEX
  5
558
330
557
100
AcDbEntity
  8
BEMAßUNG
 62
     7
100
AcDbVertex
100
AcDb2dVertex
 10
131.4369384437033
 20
132.1817680876143
 30
0.0
  0
VERTEX
  5
559
330
557
100
AcDbEntity
  8
BEMAßUNG
 62
     7
100
AcDbVertex
100
AcDb2dVertex
 10
131.4369384437033
 20
131.7687011389328
 30
0.0
  0
SEQEND
  5
55A
330
557
100
AcDbEntity
  8
BEMAßUNG
  0
POLYLINE
  5
55B
330
1F
100
AcDbEntity
  8
BEMAßUNG
 62
     7
100
AcDb2dPolyline
 66
     1
 10
0.0
 20
0.0
 30
0.0
  0
VERTEX
  5
55C
330
55B
100
AcDbEntity
  8
BEMAßUNG
 62
     7
100
AcDbVertex
100
AcDb2dVertex
 10
131.3862955400701
 20
132.1817680876143
 30
0.0
  0
VERTEX
  5
55D
330
55B
100
AcDbEntity
  8
BEMAßUNG
 62
     7
100
AcDbVertex
100
AcDb2dVertex
 10
131.3862955400701
 20
131.3828504445848
 30
0.0
  0
SEQEND
  5
55E
330
55B
100
AcDbEntity
  8
BEMAßUNG
  0
POLYLINE
  5
55F
330
1F
100
AcDbEntity
  8
BEMAßUNG
 62
     7
100
AcDb2dPolyline
 66
     1
 10
0.0
 20
0.0
 30
0.0
  0
VERTEX
  5
560
330
55F
100
AcDbEntity
  8
BEMAßUNG
 62
     7
100
AcDbVertex
100
AcDb2dVertex
 10
131.3349636173399
 20
132.1817680876143
 30
0.0
  0
VERTEX
  5
561
330
55F
100
AcDbEntity
  8
BEMAßUNG
 62
     7
100
AcDbVertex
100
AcDb2dVertex
 10
131.3349636173399
 20
130.9969997502369
 30
0.0
  0
SEQEND
  5
562
330
55F
100
AcDbEntity
  8
BEMAßUNG
  0
POLYLINE
  5
563
330
1F
100
AcDbEntity
  8
BEMAßUNG
 62
     7
100
AcDb2dPolyline
 66
     1
 10
0.0
 20
0.0
 30
0.0
  0
VERTEX
  5
564
330
563
100
AcDbEntity
  8
BEMAßUNG
 62
     7
100
AcDbVertex
100
AcDb2dVertex
 10
131.2843207137067
 20
132.1817680876143
 30
0.0
  0
VERTEX
  5
565
330
563
100
AcDbEntity
  8
BEMAßUNG
 62
     7
100
AcDbVertex
100
AcDb2dVertex
 10
131.2843207137067
 20
130.6111490558889
 30
0.0
  0
SEQEND
  5
566
330
563
100
AcDbEntity
  8
BEMAßUNG
  0
POLYLINE
  5
567
330
1F
100
AcDbEntity
  8
BEMAßUNG
 62
     7
100
AcDb2dPolyline
 66
     1
 10
0.0
 20
0.0
 30
0.0
  0
VERTEX
  5
568
330
567
100
AcDbEntity
  8
BEMAßUNG
 62
     7
100
AcDbVertex
100
AcDb2dVertex
 10
131.233333300525
 20
132.1817680876143
 30
0.0
  0
VERTEX
  5
569
330
567
100
AcDbEntity
  8
BEMAßUNG
 62
     7
100
AcDbVertex
100
AcDb2dVertex
 10
131.233333300525
 20
130.2252983615409
 30
0.0
  0
SEQEND
  5
56A
330
567
100
AcDbEntity
  8
BEMAßUNG
  0
POLYLINE
  5
56B
330
1F
100
AcDbEntity
  8
BEMAßUNG
 62
     7
100
AcDb2dPolyline
 66
     1
 10
0.0
 20
0.0
 30
0.0
  0
VERTEX
  5
56C
330
56B
100
AcDbEntity
  8
BEMAßUNG
 62
     7
100
AcDbVertex
100
AcDb2dVertex
 10
131.1826903968918
 20
132.1817680876143
 30
0.0
  0
VERTEX
  5
56D
330
56B
100
AcDbEntity
  8
BEMAßUNG
 62
     7
100
AcDbVertex
100
AcDb2dVertex
 10
131.1826903968918
 20
129.8394476671929
 30
0.0
  0
SEQEND
  5
56E
330
56B
100
AcDbEntity
  8
BEMAßUNG
  0
POLYLINE
  5
56F
330
1F
100
AcDbEntity
  8
BEMAßUNG
 62
     7
100
AcDb2dPolyline
 66
     1
 10
0.0
 20
0.0
 30
0.0
  0
VERTEX
  5
570
330
56F
100
AcDbEntity
  8
BEMAßUNG
 62
     7
100
AcDbVertex
100
AcDb2dVertex
 10
131.1320474932587
 20
132.1817680876143
 30
0.0
  0
VERTEX
  5
571
330
56F
100
AcDbEntity
  8
BEMAßUNG
 62
     7
100
AcDbVertex
100
AcDb2dVertex
 10
131.1320474932587
 20
129.4535969728449
 30
0.0
  0
SEQEND
  5
572
330
56F
100
AcDbEntity
  8
BEMAßUNG
  0
POLYLINE
  5
573
330
1F
100
AcDbEntity
  8
BEMAßUNG
 62
     7
100
AcDb2dPolyline
 66
     1
 10
0.0
 20
0.0
 30
0.0
  0
VERTEX
  5
574
330
573
100
AcDbEntity
  8
BEMAßUNG
 62
     7
100
AcDbVertex
100
AcDb2dVertex
 10
131.0807155705284
 20
132.1817680876143
 30
0.0
  0
VERTEX
  5
575
330
573
100
AcDbEntity
  8
BEMAßUNG
 62
     7
100
AcDbVertex
100
AcDb2dVertex
 10
131.0807155705284
 20
129.067746278497
 30
0.0
  0
SEQEND
  5
576
330
573
100
AcDbEntity
  8
BEMAßUNG
  0
POLYLINE
  5
577
330
1F
100
AcDbEntity
  8
BEMAßUNG
 62
     7
100
AcDb2dPolyline
 66
     1
 10
0.0
 20
0.0
 30
0.0
  0
VERTEX
  5
578
330
577
100
AcDbEntity
  8
BEMAßUNG
 62
     7
100
AcDbVertex
100
AcDb2dVertex
 10
131.0297281573467
 20
132.1817680876143
 30
0.0
  0
VERTEX
  5
579
330
577
100
AcDbEntity
  8
BEMAßUNG
 62
     7
100
AcDbVertex
100
AcDb2dVertex
 10
131.0297281573467
 20
128.681895584149
 30
0.0
  0
SEQEND
  5
57A
330
577
100
AcDbEntity
  8
BEMAßUNG
  0
POLYLINE
  5
57B
330
1F
100
AcDbEntity
  8
BEMAßUNG
 62
     7
100
AcDb2dPolyline
 66
     1
 10
0.0
 20
0.0
 30
0.0
  0
VERTEX
  5
57C
330
57B
100
AcDbEntity
  8
BEMAßUNG
 62
     7
100
AcDbVertex
100
AcDb2dVertex
 10
130.5732530055511
 20
132.1817680876143
 30
0.0
  0
VERTEX
  5
57D
330
57B
100
AcDbEntity
  8
BEMAßUNG
 62
     7
100
AcDbVertex
100
AcDb2dVertex
 10
130.5732530055511
 20
132.1545518332808
 30
0.0
  0
SEQEND
  5
57E
330
57B
100
AcDbEntity
  8
BEMAßUNG
  0
POLYLINE
  5
57F
330
1F
100
AcDbEntity
  8
BEMAßUNG
 62
     7
100
AcDb2dPolyline
 66
     1
 10
0.0
 20
0.0
 30
0.0
  0
VERTEX
  5
580
330
57F
100
AcDbEntity
  8
BEMAßUNG
 62
     7
100
AcDbVertex
100
AcDb2dVertex
 10
130.5732530055511
 20
132.1817680876143
 30
0.0
  0
VERTEX
  5
581
330
57F
100
AcDbEntity
  8
BEMAßUNG
 62
     7
100
AcDbVertex
100
AcDb2dVertex
 10
130.5732530055511
 20
132.1545518332808
 30
0.0
  0
SEQEND
  5
582
330
57F
100
AcDbEntity
  8
BEMAßUNG
  0
POLYLINE
  5
583
330
1F
100
AcDbEntity
  8
BEMAßUNG
 62
     7
100
AcDb2dPolyline
 66
     1
 10
0.0
 20
0.0
 30
0.0
  0
VERTEX
  5
584
330
583
100
AcDbEntity
  8
BEMAßUNG
 62
     7
100
AcDbVertex
100
AcDb2dVertex
 10
130.6232068900873
 20
132.1817680876143
 30
0.0
  0
VERTEX
  5
585
330
583
100
AcDbEntity
  8
BEMAßUNG
 62
     7
100
AcDbVertex
100
AcDb2dVertex
 10
130.6232068900873
 20
131.7687011389328
 30
0.0
  0
SEQEND
  5
586
330
583
100
AcDbEntity
  8
BEMAßUNG
  0
POLYLINE
  5
587
330
1F
100
AcDbEntity
  8
BEMAßUNG
 62
     7
100
AcDb2dPolyline
 66
     1
 10
0.0
 20
0.0
 30
0.0
  0
VERTEX
  5
588
330
587
100
AcDbEntity
  8
BEMAßUNG
 62
     7
100
AcDbVertex
100
AcDb2dVertex
 10
130.6745388128175
 20
132.1817680876143
 30
0.0
  0
VERTEX
  5
589
330
587
100
AcDbEntity
  8
BEMAßUNG
 62
     7
100
AcDbVertex
100
AcDb2dVertex
 10
130.6745388128175
 20
131.3828504445848
 30
0.0
  0
SEQEND
  5
58A
330
587
100
AcDbEntity
  8
BEMAßUNG
  0
POLYLINE
  5
58B
330
1F
100
AcDbEntity
  8
BEMAßUNG
 62
     7
100
AcDb2dPolyline
 66
     1
 10
0.0
 20
0.0
 30
0.0
  0
VERTEX
  5
58C
330
58B
100
AcDbEntity
  8
BEMAßUNG
 62
     7
100
AcDbVertex
100
AcDb2dVertex
 10
130.7255262259992
 20
132.1817680876143
 30
0.0
  0
VERTEX
  5
58D
330
58B
100
AcDbEntity
  8
BEMAßUNG
 62
     7
100
AcDbVertex
100
AcDb2dVertex
 10
130.7255262259992
 20
130.9969997502369
 30
0.0
  0
SEQEND
  5
58E
330
58B
100
AcDbEntity
  8
BEMAßUNG
  0
POLYLINE
  5
58F
330
1F
100
AcDbEntity
  8
BEMAßUNG
 62
     7
100
AcDb2dPolyline
 66
     1
 10
0.0
 20
0.0
 30
0.0
  0
VERTEX
  5
590
330
58F
100
AcDbEntity
  8
BEMAßUNG
 62
     7
100
AcDbVertex
100
AcDb2dVertex
 10
130.7761691296324
 20
132.1817680876143
 30
0.0
  0
VERTEX
  5
591
330
58F
100
AcDbEntity
  8
BEMAßUNG
 62
     7
100
AcDbVertex
100
AcDb2dVertex
 10
130.7761691296324
 20
130.6111490558889
 30
0.0
  0
SEQEND
  5
592
330
58F
100
AcDbEntity
  8
BEMAßUNG
  0
POLYLINE
  5
593
330
1F
100
AcDbEntity
  8
BEMAßUNG
 62
     7
100
AcDb2dPolyline
 66
     1
 10
0.0
 20
0.0
 30
0.0
  0
VERTEX
  5
594
330
593
100
AcDbEntity
  8
BEMAßUNG
 62
     7
100
AcDbVertex
100
AcDb2dVertex
 10
130.8268120332655
 20
132.1817680876143
 30
0.0
  0
VERTEX
  5
595
330
593
100
AcDbEntity
  8
BEMAßUNG
 62
     7
100
AcDbVertex
100
AcDb2dVertex
 10
130.8268120332655
 20
130.2252983615409
 30
0.0
  0
SEQEND
  5
596
330
593
100
AcDbEntity
  8
BEMAßUNG
  0
POLYLINE
  5
597
330
1F
100
AcDbEntity
  8
BEMAßUNG
 62
     7
100
AcDb2dPolyline
 66
     1
 10
0.0
 20
0.0
 30
0.0
  0
VERTEX
  5
598
330
597
100
AcDbEntity
  8
BEMAßUNG
 62
     7
100
AcDbVertex
100
AcDb2dVertex
 10
130.8777994464472
 20
132.1817680876143
 30
0.0
  0
VERTEX
  5
599
330
597
100
AcDbEntity
  8
BEMAßUNG
 62
     7
100
AcDbVertex
100
AcDb2dVertex
 10
130.8777994464472
 20
129.8394476671929
 30
0.0
  0
SEQEND
  5
59A
330
597
100
AcDbEntity
  8
BEMAßUNG
  0
POLYLINE
  5
59B
330
1F
100
AcDbEntity
  8
BEMAßUNG
 62
     7
100
AcDb2dPolyline
 66
     1
 10
0.0
 20
0.0
 30
0.0
  0
VERTEX
  5
59C
330
59B
100
AcDbEntity
  8
BEMAßUNG
 62
     7
100
AcDbVertex
100
AcDb2dVertex
 10
130.9284423500804
 20
132.1817680876143
 30
0.0
  0
VERTEX
  5
59D
330
59B
100
AcDbEntity
  8
BEMAßUNG
 62
     7
100
AcDbVertex
100
AcDb2dVertex
 10
130.9284423500804
 20
129.4535969728449
 30
0.0
  0
SEQEND
  5
59E
330
59B
100
AcDbEntity
  8
BEMAßUNG
  0
POLYLINE
  5
59F
330
1F
100
AcDbEntity
  8
BEMAßUNG
 62
     7
100
AcDb2dPolyline
 66
     1
 10
0.0
 20
0.0
 30
0.0
  0
VERTEX
  5
5A0
330
59F
100
AcDbEntity
  8
BEMAßUNG
 62
     7
100
AcDbVertex
100
AcDb2dVertex
 10
130.9790852537136
 20
132.1817680876143
 30
0.0
  0
VERTEX
  5
5A1
330
59F
100
AcDbEntity
  8
BEMAßUNG
 62
     7
100
AcDbVertex
100
AcDb2dVertex
 10
130.9790852537136
 20
129.067746278497
 30
0.0
  0
SEQEND
  5
5A2
330
59F
100
AcDbEntity
  8
BEMAßUNG
  0
POLYLINE
  5
5A3
330
1F
100
AcDbEntity
  8
BEMAßUNG
 62
     7
100
AcDb2dPolyline
 66
     1
 10
0.0
 20
0.0
 30
0.0
  0
VERTEX
  5
5A4
330
5A3
100
AcDbEntity
  8
BEMAßUNG
 62
     7
100
AcDbVertex
100
AcDb2dVertex
 10
131.0297281573467
 20
132.1817680876143
 30
0.0
  0
VERTEX
  5
5A5
330
5A3
100
AcDbEntity
  8
BEMAßUNG
 62
     7
100
AcDbVertex
100
AcDb2dVertex
 10
131.0297281573467
 20
128.681895584149
 30
0.0
  0
SEQEND
  5
5A6
330
5A3
100
AcDbEntity
  8
BEMAßUNG
  0
POLYLINE
  5
5A7
330
1F
100
AcDbEntity
  8
BEMAßUNG
 62
     7
100
AcDb2dPolyline
 66
     1
 10
0.0
 20
0.0
 30
0.0
  0
VERTEX
  5
5A8
330
5A7
100
AcDbEntity
  8
BEMAßUNG
 62
     7
100
AcDbVertex
100
AcDb2dVertex
 10
66.82555065603667
 20
148.1818250497601
 30
0.0
  0
VERTEX
  5
5A9
330
5A7
100
AcDbEntity
  8
BEMAßUNG
 62
     7
100
AcDbVertex
100
AcDb2dVertex
 10
122.8937906593807
 20
148.1818250497601
 30
0.0
  0
SEQEND
  5
5AA
330
5A7
100
AcDbEntity
  8
BEMAßUNG
  0
POLYLINE
  5
5AB
330
1F
100
AcDbEntity
  8
BEMAßUNG
 62
     7
100
AcDb2dPolyline
 66
     1
 10
0.0
 20
0.0
 30
0.0
  0
VERTEX
  5
5AC
330
5AB
100
AcDbEntity
  8
BEMAßUNG
 62
     7
100
AcDbVertex
100
AcDb2dVertex
 10
104.8252983678909
 20
128.681895584149
 30
0.0
  0
VERTEX
  5
5AD
330
5AB
100
AcDbEntity
  8
BEMAßUNG
 62
     7
100
AcDbVertex
100
AcDb2dVertex
 10
122.8937906593807
 20
128.681895584149
 30
0.0
  0
SEQEND
  5
5AE
330
5AB
100
AcDbEntity
  8
BEMAßUNG
  0
POLYLINE
  5
5AF
330
1F
100
AcDbEntity
  8
BEMAßUNG
 62
     7
100
AcDb2dPolyline
 66
     1
 10
0.0
 20
0.0
 30
0.0
  0
VERTEX
  5
5B0
330
5AF
100
AcDbEntity
  8
BEMAßUNG
 62
     7
100
AcDbVertex
100
AcDb2dVertex
 10
120.8942572397417
 20
148.1818250497601
 30
0.0
  0
VERTEX
  5
5B1
330
5AF
100
AcDbEntity
  8
BEMAßUNG
 62
     7
100
AcDbVertex
100
AcDb2dVertex
 10
120.8942572397417
 20
128.681895584149
 30
0.0
  0
SEQEND
  5
5B2
330
5AF
100
AcDbEntity
  8
BEMAßUNG
  0
POLYLINE
  5
5B3
330
1F
100
AcDbEntity
  8
BEMAßUNG
 62
     7
100
AcDb2dPolyline
 66
     1
 10
0.0
 20
0.0
 30
0.0
  0
VERTEX
  5
5B4
330
5B3
100
AcDbEntity
  8
BEMAßUNG
 62
     7
100
AcDbVertex
100
AcDb2dVertex
 10
120.8942572397417
 20
148.1818250497601
 30
0.0
  0
VERTEX
  5
5B5
330
5B3
100
AcDbEntity
  8
BEMAßUNG
 62
     7
100
AcDbVertex
100
AcDb2dVertex
 10
120.4333034638153
 20
144.6816080367463
 30
0.0
  0
VERTEX
  5
5B6
330
5B3
100
AcDbEntity
  8
BEMAßUNG
 62
     7
100
AcDbVertex
100
AcDb2dVertex
 10
121.3548665061196
 20
144.6816080367463
 30
0.0
  0
VERTEX
  5
5B7
330
5B3
100
AcDbEntity
  8
BEMAßUNG
 62
     7
100
AcDbVertex
100
AcDb2dVertex
 10
120.8942572397417
 20
148.1818250497601
 30
0.0
  0
SEQEND
  5
5B8
330
5B3
100
AcDbEntity
  8
BEMAßUNG
  0
POLYLINE
  5
5B9
330
1F
100
AcDbEntity
  8
BEMAßUNG
 62
     7
100
AcDb2dPolyline
 66
     1
 10
0.0
 20
0.0
 30
0.0
  0
VERTEX
  5
5BA
330
5B9
100
AcDbEntity
  8
BEMAßUNG
 62
     7
100
AcDbVertex
100
AcDb2dVertex
 10
120.4370930688491
 20
144.6816080367463
 30
0.0
  0
VERTEX
  5
5BB
330
5B9
100
AcDbEntity
  8
BEMAßUNG
 62
     7
100
AcDbVertex
100
AcDb2dVertex
 10
120.4370930688491
 20
144.7091688006283
 30
0.0
  0
SEQEND
  5
5BC
330
5B9
100
AcDbEntity
  8
BEMAßUNG
  0
POLYLINE
  5
5BD
330
1F
100
AcDbEntity
  8
BEMAßUNG
 62
     7
100
AcDb2dPolyline
 66
     1
 10
0.0
 20
0.0
 30
0.0
  0
VERTEX
  5
5BE
330
5BD
100
AcDbEntity
  8
BEMAßUNG
 62
     7
100
AcDbVertex
100
AcDb2dVertex
 10
120.4370930688491
 20
144.6816080367463
 30
0.0
  0
VERTEX
  5
5BF
330
5BD
100
AcDbEntity
  8
BEMAßUNG
 62
     7
100
AcDbVertex
100
AcDb2dVertex
 10
120.4370930688491
 20
144.7091688006283
 30
0.0
  0
SEQEND
  5
5C0
330
5BD
100
AcDbEntity
  8
BEMAßUNG
  0
POLYLINE
  5
5C1
330
1F
100
AcDbEntity
  8
BEMAßUNG
 62
     7
100
AcDb2dPolyline
 66
     1
 10
0.0
 20
0.0
 30
0.0
  0
VERTEX
  5
5C2
330
5C1
100
AcDbEntity
  8
BEMAßUNG
 62
     7
100
AcDbVertex
100
AcDb2dVertex
 10
120.4877359724822
 20
144.6816080367463
 30
0.0
  0
VERTEX
  5
5C3
330
5C1
100
AcDbEntity
  8
BEMAßUNG
 62
     7
100
AcDbVertex
100
AcDb2dVertex
 10
120.4877359724822
 20
145.0943304758792
 30
0.0
  0
SEQEND
  5
5C4
330
5C1
100
AcDbEntity
  8
BEMAßUNG
  0
POLYLINE
  5
5C5
330
1F
100
AcDbEntity
  8
BEMAßUNG
 62
     7
100
AcDb2dPolyline
 66
     1
 10
0.0
 20
0.0
 30
0.0
  0
VERTEX
  5
5C6
330
5C5
100
AcDbEntity
  8
BEMAßUNG
 62
     7
100
AcDbVertex
100
AcDb2dVertex
 10
120.5387233856639
 20
144.6816080367463
 30
0.0
  0
VERTEX
  5
5C7
330
5C5
100
AcDbEntity
  8
BEMAßUNG
 62
     7
100
AcDbVertex
100
AcDb2dVertex
 10
120.5387233856639
 20
145.4805256797757
 30
0.0
  0
SEQEND
  5
5C8
330
5C5
100
AcDbEntity
  8
BEMAßUNG
  0
POLYLINE
  5
5C9
330
1F
100
AcDbEntity
  8
BEMAßUNG
 62
     7
100
AcDb2dPolyline
 66
     1
 10
0.0
 20
0.0
 30
0.0
  0
VERTEX
  5
5CA
330
5C9
100
AcDbEntity
  8
BEMAßUNG
 62
     7
100
AcDbVertex
100
AcDb2dVertex
 10
120.5886772702001
 20
144.6816080367463
 30
0.0
  0
VERTEX
  5
5CB
330
5C9
100
AcDbEntity
  8
BEMAßUNG
 62
     7
100
AcDbVertex
100
AcDb2dVertex
 10
120.5886772702001
 20
145.8663763741237
 30
0.0
  0
SEQEND
  5
5CC
330
5C9
100
AcDbEntity
  8
BEMAßUNG
  0
POLYLINE
  5
5CD
330
1F
100
AcDbEntity
  8
BEMAßUNG
 62
     7
100
AcDb2dPolyline
 66
     1
 10
0.0
 20
0.0
 30
0.0
  0
VERTEX
  5
5CE
330
5CD
100
AcDbEntity
  8
BEMAßUNG
 62
     7
100
AcDbVertex
100
AcDb2dVertex
 10
120.6393201738332
 20
144.6816080367463
 30
0.0
  0
VERTEX
  5
5CF
330
5CD
100
AcDbEntity
  8
BEMAßUNG
 62
     7
100
AcDbVertex
100
AcDb2dVertex
 10
120.6393201738332
 20
146.2525715780202
 30
0.0
  0
SEQEND
  5
5D0
330
5CD
100
AcDbEntity
  8
BEMAßUNG
  0
POLYLINE
  5
5D1
330
1F
100
AcDbEntity
  8
BEMAßUNG
 62
     7
100
AcDb2dPolyline
 66
     1
 10
0.0
 20
0.0
 30
0.0
  0
VERTEX
  5
5D2
330
5D1
100
AcDbEntity
  8
BEMAßUNG
 62
     7
100
AcDbVertex
100
AcDb2dVertex
 10
120.6903075870149
 20
144.6816080367463
 30
0.0
  0
VERTEX
  5
5D3
330
5D1
100
AcDbEntity
  8
BEMAßUNG
 62
     7
100
AcDbVertex
100
AcDb2dVertex
 10
120.6903075870149
 20
146.6384222723682
 30
0.0
  0
SEQEND
  5
5D4
330
5D1
100
AcDbEntity
  8
BEMAßUNG
  0
POLYLINE
  5
5D5
330
1F
100
AcDbEntity
  8
BEMAßUNG
 62
     7
100
AcDb2dPolyline
 66
     1
 10
0.0
 20
0.0
 30
0.0
  0
VERTEX
  5
5D6
330
5D5
100
AcDbEntity
  8
BEMAßUNG
 62
     7
100
AcDbVertex
100
AcDb2dVertex
 10
120.7416395097452
 20
144.6816080367463
 30
0.0
  0
VERTEX
  5
5D7
330
5D5
100
AcDbEntity
  8
BEMAßUNG
 62
     7
100
AcDbVertex
100
AcDb2dVertex
 10
120.7416395097452
 20
147.0239284571676
 30
0.0
  0
SEQEND
  5
5D8
330
5D5
100
AcDbEntity
  8
BEMAßUNG
  0
POLYLINE
  5
5D9
330
1F
100
AcDbEntity
  8
BEMAßUNG
 62
     7
100
AcDb2dPolyline
 66
     1
 10
0.0
 20
0.0
 30
0.0
  0
VERTEX
  5
5DA
330
5D9
100
AcDbEntity
  8
BEMAßUNG
 62
     7
100
AcDbVertex
100
AcDb2dVertex
 10
120.7922824133783
 20
144.6816080367463
 30
0.0
  0
VERTEX
  5
5DB
330
5D9
100
AcDbEntity
  8
BEMAßUNG
 62
     7
100
AcDbVertex
100
AcDb2dVertex
 10
120.7922824133783
 20
147.4097791515156
 30
0.0
  0
SEQEND
  5
5DC
330
5D9
100
AcDbEntity
  8
BEMAßUNG
  0
POLYLINE
  5
5DD
330
1F
100
AcDbEntity
  8
BEMAßUNG
 62
     7
100
AcDb2dPolyline
 66
     1
 10
0.0
 20
0.0
 30
0.0
  0
VERTEX
  5
5DE
330
5DD
100
AcDbEntity
  8
BEMAßUNG
 62
     7
100
AcDbVertex
100
AcDb2dVertex
 10
120.8429253170115
 20
144.6816080367463
 30
0.0
  0
VERTEX
  5
5DF
330
5DD
100
AcDbEntity
  8
BEMAßUNG
 62
     7
100
AcDbVertex
100
AcDb2dVertex
 10
120.8429253170115
 20
147.7959743554121
 30
0.0
  0
SEQEND
  5
5E0
330
5DD
100
AcDbEntity
  8
BEMAßUNG
  0
POLYLINE
  5
5E1
330
1F
100
AcDbEntity
  8
BEMAßUNG
 62
     7
100
AcDb2dPolyline
 66
     1
 10
0.0
 20
0.0
 30
0.0
  0
VERTEX
  5
5E2
330
5E1
100
AcDbEntity
  8
BEMAßUNG
 62
     7
100
AcDbVertex
100
AcDb2dVertex
 10
120.8942572397417
 20
144.6816080367463
 30
0.0
  0
VERTEX
  5
5E3
330
5E1
100
AcDbEntity
  8
BEMAßUNG
 62
     7
100
AcDbVertex
100
AcDb2dVertex
 10
120.8942572397417
 20
148.1818250497601
 30
0.0
  0
SEQEND
  5
5E4
330
5E1
100
AcDbEntity
  8
BEMAßUNG
  0
POLYLINE
  5
5E5
330
1F
100
AcDbEntity
  8
BEMAßUNG
 62
     7
100
AcDb2dPolyline
 66
     1
 10
0.0
 20
0.0
 30
0.0
  0
VERTEX
  5
5E6
330
5E5
100
AcDbEntity
  8
BEMAßUNG
 62
     7
100
AcDbVertex
100
AcDb2dVertex
 10
121.3510769010858
 20
144.6816080367463
 30
0.0
  0
VERTEX
  5
5E7
330
5E5
100
AcDbEntity
  8
BEMAßUNG
 62
     7
100
AcDbVertex
100
AcDb2dVertex
 10
121.3510769010858
 20
144.7091688006283
 30
0.0
  0
SEQEND
  5
5E8
330
5E5
100
AcDbEntity
  8
BEMAßUNG
  0
POLYLINE
  5
5E9
330
1F
100
AcDbEntity
  8
BEMAßUNG
 62
     7
100
AcDb2dPolyline
 66
     1
 10
0.0
 20
0.0
 30
0.0
  0
VERTEX
  5
5EA
330
5E9
100
AcDbEntity
  8
BEMAßUNG
 62
     7
100
AcDbVertex
100
AcDb2dVertex
 10
121.3510769010858
 20
144.6816080367463
 30
0.0
  0
VERTEX
  5
5EB
330
5E9
100
AcDbEntity
  8
BEMAßUNG
 62
     7
100
AcDbVertex
100
AcDb2dVertex
 10
121.3510769010858
 20
144.7091688006283
 30
0.0
  0
SEQEND
  5
5EC
330
5E9
100
AcDbEntity
  8
BEMAßUNG
  0
POLYLINE
  5
5ED
330
1F
100
AcDbEntity
  8
BEMAßUNG
 62
     7
100
AcDb2dPolyline
 66
     1
 10
0.0
 20
0.0
 30
0.0
  0
VERTEX
  5
5EE
330
5ED
100
AcDbEntity
  8
BEMAßUNG
 62
     7
100
AcDbVertex
100
AcDb2dVertex
 10
121.3004339974527
 20
144.6816080367463
 30
0.0
  0
VERTEX
  5
5EF
330
5ED
100
AcDbEntity
  8
BEMAßUNG
 62
     7
100
AcDbVertex
100
AcDb2dVertex
 10
121.3004339974527
 20
145.0943304758792
 30
0.0
  0
SEQEND
  5
5F0
330
5ED
100
AcDbEntity
  8
BEMAßUNG
  0
POLYLINE
  5
5F1
330
1F
100
AcDbEntity
  8
BEMAßUNG
 62
     7
100
AcDb2dPolyline
 66
     1
 10
0.0
 20
0.0
 30
0.0
  0
VERTEX
  5
5F2
330
5F1
100
AcDbEntity
  8
BEMAßUNG
 62
     7
100
AcDbVertex
100
AcDb2dVertex
 10
121.2487575651739
 20
144.6816080367463
 30
0.0
  0
VERTEX
  5
5F3
330
5F1
100
AcDbEntity
  8
BEMAßUNG
 62
     7
100
AcDbVertex
100
AcDb2dVertex
 10
121.2487575651739
 20
145.4805256797757
 30
0.0
  0
SEQEND
  5
5F4
330
5F1
100
AcDbEntity
  8
BEMAßUNG
  0
POLYLINE
  5
5F5
330
1F
100
AcDbEntity
  8
BEMAßUNG
 62
     7
100
AcDb2dPolyline
 66
     1
 10
0.0
 20
0.0
 30
0.0
  0
VERTEX
  5
5F6
330
5F5
100
AcDbEntity
  8
BEMAßUNG
 62
     7
100
AcDbVertex
100
AcDb2dVertex
 10
121.1988036806378
 20
144.6816080367463
 30
0.0
  0
VERTEX
  5
5F7
330
5F5
100
AcDbEntity
  8
BEMAßUNG
 62
     7
100
AcDbVertex
100
AcDb2dVertex
 10
121.1988036806378
 20
145.8663763741237
 30
0.0
  0
SEQEND
  5
5F8
330
5F5
100
AcDbEntity
  8
BEMAßUNG
  0
POLYLINE
  5
5F9
330
1F
100
AcDbEntity
  8
BEMAßUNG
 62
     7
100
AcDb2dPolyline
 66
     1
 10
0.0
 20
0.0
 30
0.0
  0
VERTEX
  5
5FA
330
5F9
100
AcDbEntity
  8
BEMAßUNG
 62
     7
100
AcDbVertex
100
AcDb2dVertex
 10
121.1474717579076
 20
144.6816080367463
 30
0.0
  0
VERTEX
  5
5FB
330
5F9
100
AcDbEntity
  8
BEMAßUNG
 62
     7
100
AcDbVertex
100
AcDb2dVertex
 10
121.1474717579076
 20
146.2525715780202
 30
0.0
  0
SEQEND
  5
5FC
330
5F9
100
AcDbEntity
  8
BEMAßUNG
  0
POLYLINE
  5
5FD
330
1F
100
AcDbEntity
  8
BEMAßUNG
 62
     7
100
AcDb2dPolyline
 66
     1
 10
0.0
 20
0.0
 30
0.0
  0
VERTEX
  5
5FE
330
5FD
100
AcDbEntity
  8
BEMAßUNG
 62
     7
100
AcDbVertex
100
AcDb2dVertex
 10
121.0971733638229
 20
144.6816080367463
 30
0.0
  0
VERTEX
  5
5FF
330
5FD
100
AcDbEntity
  8
BEMAßUNG
 62
     7
100
AcDbVertex
100
AcDb2dVertex
 10
121.0971733638229
 20
146.6384222723682
 30
0.0
  0
SEQEND
  5
600
330
5FD
100
AcDbEntity
  8
BEMAßUNG
  0
POLYLINE
  5
601
330
1F
100
AcDbEntity
  8
BEMAßUNG
 62
     7
100
AcDb2dPolyline
 66
     1
 10
0.0
 20
0.0
 30
0.0
  0
VERTEX
  5
602
330
601
100
AcDbEntity
  8
BEMAßUNG
 62
     7
100
AcDbVertex
100
AcDb2dVertex
 10
121.0465304601898
 20
144.6816080367463
 30
0.0
  0
VERTEX
  5
603
330
601
100
AcDbEntity
  8
BEMAßUNG
 62
     7
100
AcDbVertex
100
AcDb2dVertex
 10
121.0465304601898
 20
147.0239284571676
 30
0.0
  0
SEQEND
  5
604
330
601
100
AcDbEntity
  8
BEMAßUNG
  0
POLYLINE
  5
605
330
1F
100
AcDbEntity
  8
BEMAßUNG
 62
     7
100
AcDb2dPolyline
 66
     1
 10
0.0
 20
0.0
 30
0.0
  0
VERTEX
  5
606
330
605
100
AcDbEntity
  8
BEMAßUNG
 62
     7
100
AcDbVertex
100
AcDb2dVertex
 10
120.9958875565566
 20
144.6816080367463
 30
0.0
  0
VERTEX
  5
607
330
605
100
AcDbEntity
  8
BEMAßUNG
 62
     7
100
AcDbVertex
100
AcDb2dVertex
 10
120.9958875565566
 20
147.4097791515156
 30
0.0
  0
SEQEND
  5
608
330
605
100
AcDbEntity
  8
BEMAßUNG
  0
POLYLINE
  5
609
330
1F
100
AcDbEntity
  8
BEMAßUNG
 62
     7
100
AcDb2dPolyline
 66
     1
 10
0.0
 20
0.0
 30
0.0
  0
VERTEX
  5
60A
330
609
100
AcDbEntity
  8
BEMAßUNG
 62
     7
100
AcDbVertex
100
AcDb2dVertex
 10
120.9445556338264
 20
144.6816080367463
 30
0.0
  0
VERTEX
  5
60B
330
609
100
AcDbEntity
  8
BEMAßUNG
 62
     7
100
AcDbVertex
100
AcDb2dVertex
 10
120.9445556338264
 20
147.7959743554121
 30
0.0
  0
SEQEND
  5
60C
330
609
100
AcDbEntity
  8
BEMAßUNG
  0
POLYLINE
  5
60D
330
1F
100
AcDbEntity
  8
BEMAßUNG
 62
     7
100
AcDb2dPolyline
 66
     1
 10
0.0
 20
0.0
 30
0.0
  0
VERTEX
  5
60E
330
60D
100
AcDbEntity
  8
BEMAßUNG
 62
     7
100
AcDbVertex
100
AcDb2dVertex
 10
120.8942572397417
 20
144.6816080367463
 30
0.0
  0
VERTEX
  5
60F
330
60D
100
AcDbEntity
  8
BEMAßUNG
 62
     7
100
AcDbVertex
100
AcDb2dVertex
 10
120.8942572397417
 20
148.1818250497601
 30
0.0
  0
SEQEND
  5
610
330
60D
100
AcDbEntity
  8
BEMAßUNG
  0
POLYLINE
  5
611
330
1F
100
AcDbEntity
  8
BEMAßUNG
 62
     7
100
AcDb2dPolyline
 66
     1
 10
0.0
 20
0.0
 30
0.0
  0
VERTEX
  5
612
330
611
100
AcDbEntity
  8
BEMAßUNG
 62
     7
100
AcDbVertex
100
AcDb2dVertex
 10
120.8942572397417
 20
128.681895584149
 30
0.0
  0
VERTEX
  5
613
330
611
100
AcDbEntity
  8
BEMAßUNG
 62
     7
100
AcDbVertex
100
AcDb2dVertex
 10
121.3548665061196
 20
132.1817680876143
 30
0.0
  0
VERTEX
  5
614
330
611
100
AcDbEntity
  8
BEMAßUNG
 62
     7
100
AcDbVertex
100
AcDb2dVertex
 10
120.4333034638153
 20
132.1817680876143
 30
0.0
  0
VERTEX
  5
615
330
611
100
AcDbEntity
  8
BEMAßUNG
 62
     7
100
AcDbVertex
100
AcDb2dVertex
 10
120.8942572397417
 20
128.681895584149
 30
0.0
  0
SEQEND
  5
616
330
611
100
AcDbEntity
  8
BEMAßUNG
  0
POLYLINE
  5
617
330
1F
100
AcDbEntity
  8
BEMAßUNG
 62
     7
100
AcDb2dPolyline
 66
     1
 10
0.0
 20
0.0
 30
0.0
  0
VERTEX
  5
618
330
617
100
AcDbEntity
  8
BEMAßUNG
 62
     7
100
AcDbVertex
100
AcDb2dVertex
 10
121.3510769010858
 20
132.1817680876143
 30
0.0
  0
VERTEX
  5
619
330
617
100
AcDbEntity
  8
BEMAßUNG
 62
     7
100
AcDbVertex
100
AcDb2dVertex
 10
121.3510769010858
 20
132.1545518332808
 30
0.0
  0
SEQEND
  5
61A
330
617
100
AcDbEntity
  8
BEMAßUNG
  0
POLYLINE
  5
61B
330
1F
100
AcDbEntity
  8
BEMAßUNG
 62
     7
100
AcDb2dPolyline
 66
     1
 10
0.0
 20
0.0
 30
0.0
  0
VERTEX
  5
61C
330
61B
100
AcDbEntity
  8
BEMAßUNG
 62
     7
100
AcDbVertex
100
AcDb2dVertex
 10
121.3510769010858
 20
132.1817680876143
 30
0.0
  0
VERTEX
  5
61D
330
61B
100
AcDbEntity
  8
BEMAßUNG
 62
     7
100
AcDbVertex
100
AcDb2dVertex
 10
121.3510769010858
 20
132.1545518332808
 30
0.0
  0
SEQEND
  5
61E
330
61B
100
AcDbEntity
  8
BEMAßUNG
  0
POLYLINE
  5
61F
330
1F
100
AcDbEntity
  8
BEMAßUNG
 62
     7
100
AcDb2dPolyline
 66
     1
 10
0.0
 20
0.0
 30
0.0
  0
VERTEX
  5
620
330
61F
100
AcDbEntity
  8
BEMAßUNG
 62
     7
100
AcDbVertex
100
AcDb2dVertex
 10
121.3004339974527
 20
132.1817680876143
 30
0.0
  0
VERTEX
  5
621
330
61F
100
AcDbEntity
  8
BEMAßUNG
 62
     7
100
AcDbVertex
100
AcDb2dVertex
 10
121.3004339974527
 20
131.7687011389328
 30
0.0
  0
SEQEND
  5
622
330
61F
100
AcDbEntity
  8
BEMAßUNG
  0
POLYLINE
  5
623
330
1F
100
AcDbEntity
  8
BEMAßUNG
 62
     7
100
AcDb2dPolyline
 66
     1
 10
0.0
 20
0.0
 30
0.0
  0
VERTEX
  5
624
330
623
100
AcDbEntity
  8
BEMAßUNG
 62
     7
100
AcDbVertex
100
AcDb2dVertex
 10
121.2487575651739
 20
132.1817680876143
 30
0.0
  0
VERTEX
  5
625
330
623
100
AcDbEntity
  8
BEMAßUNG
 62
     7
100
AcDbVertex
100
AcDb2dVertex
 10
121.2487575651739
 20
131.3828504445848
 30
0.0
  0
SEQEND
  5
626
330
623
100
AcDbEntity
  8
BEMAßUNG
  0
POLYLINE
  5
627
330
1F
100
AcDbEntity
  8
BEMAßUNG
 62
     7
100
AcDb2dPolyline
 66
     1
 10
0.0
 20
0.0
 30
0.0
  0
VERTEX
  5
628
330
627
100
AcDbEntity
  8
BEMAßUNG
 62
     7
100
AcDbVertex
100
AcDb2dVertex
 10
121.1988036806378
 20
132.1817680876143
 30
0.0
  0
VERTEX
  5
629
330
627
100
AcDbEntity
  8
BEMAßUNG
 62
     7
100
AcDbVertex
100
AcDb2dVertex
 10
121.1988036806378
 20
130.9969997502369
 30
0.0
  0
SEQEND
  5
62A
330
627
100
AcDbEntity
  8
BEMAßUNG
  0
POLYLINE
  5
62B
330
1F
100
AcDbEntity
  8
BEMAßUNG
 62
     7
100
AcDb2dPolyline
 66
     1
 10
0.0
 20
0.0
 30
0.0
  0
VERTEX
  5
62C
330
62B
100
AcDbEntity
  8
BEMAßUNG
 62
     7
100
AcDbVertex
100
AcDb2dVertex
 10
121.1474717579076
 20
132.1817680876143
 30
0.0
  0
VERTEX
  5
62D
330
62B
100
AcDbEntity
  8
BEMAßUNG
 62
     7
100
AcDbVertex
100
AcDb2dVertex
 10
121.1474717579076
 20
130.6111490558889
 30
0.0
  0
SEQEND
  5
62E
330
62B
100
AcDbEntity
  8
BEMAßUNG
  0
POLYLINE
  5
62F
330
1F
100
AcDbEntity
  8
BEMAßUNG
 62
     7
100
AcDb2dPolyline
 66
     1
 10
0.0
 20
0.0
 30
0.0
  0
VERTEX
  5
630
330
62F
100
AcDbEntity
  8
BEMAßUNG
 62
     7
100
AcDbVertex
100
AcDb2dVertex
 10
121.0971733638229
 20
132.1817680876143
 30
0.0
  0
VERTEX
  5
631
330
62F
100
AcDbEntity
  8
BEMAßUNG
 62
     7
100
AcDbVertex
100
AcDb2dVertex
 10
121.0971733638229
 20
130.2252983615409
 30
0.0
  0
SEQEND
  5
632
330
62F
100
AcDbEntity
  8
BEMAßUNG
  0
POLYLINE
  5
633
330
1F
100
AcDbEntity
  8
BEMAßUNG
 62
     7
100
AcDb2dPolyline
 66
     1
 10
0.0
 20
0.0
 30
0.0
  0
VERTEX
  5
634
330
633
100
AcDbEntity
  8
BEMAßUNG
 62
     7
100
AcDbVertex
100
AcDb2dVertex
 10
121.0465304601898
 20
132.1817680876143
 30
0.0
  0
VERTEX
  5
635
330
633
100
AcDbEntity
  8
BEMAßUNG
 62
     7
100
AcDbVertex
100
AcDb2dVertex
 10
121.0465304601898
 20
129.8394476671929
 30
0.0
  0
SEQEND
  5
636
330
633
100
AcDbEntity
  8
BEMAßUNG
  0
POLYLINE
  5
637
330
1F
100
AcDbEntity
  8
BEMAßUNG
 62
     7
100
AcDb2dPolyline
 66
     1
 10
0.0
 20
0.0
 30
0.0
  0
VERTEX
  5
638
330
637
100
AcDbEntity
  8
BEMAßUNG
 62
     7
100
AcDbVertex
100
AcDb2dVertex
 10
120.9958875565566
 20
132.1817680876143
 30
0.0
  0
VERTEX
  5
639
330
637
100
AcDbEntity
  8
BEMAßUNG
 62
     7
100
AcDbVertex
100
AcDb2dVertex
 10
120.9958875565566
 20
129.4535969728449
 30
0.0
  0
SEQEND
  5
63A
330
637
100
AcDbEntity
  8
BEMAßUNG
  0
POLYLINE
  5
63B
330
1F
100
AcDbEntity
  8
BEMAßUNG
 62
     7
100
AcDb2dPolyline
 66
     1
 10
0.0
 20
0.0
 30
0.0
  0
VERTEX
  5
63C
330
63B
100
AcDbEntity
  8
BEMAßUNG
 62
     7
100
AcDbVertex
100
AcDb2dVertex
 10
120.9445556338264
 20
132.1817680876143
 30
0.0
  0
VERTEX
  5
63D
330
63B
100
AcDbEntity
  8
BEMAßUNG
 62
     7
100
AcDbVertex
100
AcDb2dVertex
 10
120.9445556338264
 20
129.067746278497
 30
0.0
  0
SEQEND
  5
63E
330
63B
100
AcDbEntity
  8
BEMAßUNG
  0
POLYLINE
  5
63F
330
1F
100
AcDbEntity
  8
BEMAßUNG
 62
     7
100
AcDb2dPolyline
 66
     1
 10
0.0
 20
0.0
 30
0.0
  0
VERTEX
  5
640
330
63F
100
AcDbEntity
  8
BEMAßUNG
 62
     7
100
AcDbVertex
100
AcDb2dVertex
 10
120.8942572397417
 20
132.1817680876143
 30
0.0
  0
VERTEX
  5
641
330
63F
100
AcDbEntity
  8
BEMAßUNG
 62
     7
100
AcDbVertex
100
AcDb2dVertex
 10
120.8942572397417
 20
128.681895584149
 30
0.0
  0
SEQEND
  5
642
330
63F
100
AcDbEntity
  8
BEMAßUNG
  0
POLYLINE
  5
643
330
1F
100
AcDbEntity
  8
BEMAßUNG
 62
     7
100
AcDb2dPolyline
 66
     1
 10
0.0
 20
0.0
 30
0.0
  0
VERTEX
  5
644
330
643
100
AcDbEntity
  8
BEMAßUNG
 62
     7
100
AcDbVertex
100
AcDb2dVertex
 10
120.4370930688491
 20
132.1817680876143
 30
0.0
  0
VERTEX
  5
645
330
643
100
AcDbEntity
  8
BEMAßUNG
 62
     7
100
AcDbVertex
100
AcDb2dVertex
 10
120.4370930688491
 20
132.1545518332808
 30
0.0
  0
SEQEND
  5
646
330
643
100
AcDbEntity
  8
BEMAßUNG
  0
POLYLINE
  5
647
330
1F
100
AcDbEntity
  8
BEMAßUNG
 62
     7
100
AcDb2dPolyline
 66
     1
 10
0.0
 20
0.0
 30
0.0
  0
VERTEX
  5
648
330
647
100
AcDbEntity
  8
BEMAßUNG
 62
     7
100
AcDbVertex
100
AcDb2dVertex
 10
120.4370930688491
 20
132.1817680876143
 30
0.0
  0
VERTEX
  5
649
330
647
100
AcDbEntity
  8
BEMAßUNG
 62
     7
100
AcDbVertex
100
AcDb2dVertex
 10
120.4370930688491
 20
132.1545518332808
 30
0.0
  0
SEQEND
  5
64A
330
647
100
AcDbEntity
  8
BEMAßUNG
  0
POLYLINE
  5
64B
330
1F
100
AcDbEntity
  8
BEMAßUNG
 62
     7
100
AcDb2dPolyline
 66
     1
 10
0.0
 20
0.0
 30
0.0
  0
VERTEX
  5
64C
330
64B
100
AcDbEntity
  8
BEMAßUNG
 62
     7
100
AcDbVertex
100
AcDb2dVertex
 10
120.4877359724822
 20
132.1817680876143
 30
0.0
  0
VERTEX
  5
64D
330
64B
100
AcDbEntity
  8
BEMAßUNG
 62
     7
100
AcDbVertex
100
AcDb2dVertex
 10
120.4877359724822
 20
131.7687011389328
 30
0.0
  0
SEQEND
  5
64E
330
64B
100
AcDbEntity
  8
BEMAßUNG
  0
POLYLINE
  5
64F
330
1F
100
AcDbEntity
  8
BEMAßUNG
 62
     7
100
AcDb2dPolyline
 66
     1
 10
0.0
 20
0.0
 30
0.0
  0
VERTEX
  5
650
330
64F
100
AcDbEntity
  8
BEMAßUNG
 62
     7
100
AcDbVertex
100
AcDb2dVertex
 10
120.5387233856639
 20
132.1817680876143
 30
0.0
  0
VERTEX
  5
651
330
64F
100
AcDbEntity
  8
BEMAßUNG
 62
     7
100
AcDbVertex
100
AcDb2dVertex
 10
120.5387233856639
 20
131.3828504445848
 30
0.0
  0
SEQEND
  5
652
330
64F
100
AcDbEntity
  8
BEMAßUNG
  0
POLYLINE
  5
653
330
1F
100
AcDbEntity
  8
BEMAßUNG
 62
     7
100
AcDb2dPolyline
 66
     1
 10
0.0
 20
0.0
 30
0.0
  0
VERTEX
  5
654
330
653
100
AcDbEntity
  8
BEMAßUNG
 62
     7
100
AcDbVertex
100
AcDb2dVertex
 10
120.5886772702001
 20
132.1817680876143
 30
0.0
  0
VERTEX
  5
655
330
653
100
AcDbEntity
  8
BEMAßUNG
 62
     7
100
AcDbVertex
100
AcDb2dVertex
 10
120.5886772702001
 20
130.9969997502369
 30
0.0
  0
SEQEND
  5
656
330
653
100
AcDbEntity
  8
BEMAßUNG
  0
POLYLINE
  5
657
330
1F
100
AcDbEntity
  8
BEMAßUNG
 62
     7
100
AcDb2dPolyline
 66
     1
 10
0.0
 20
0.0
 30
0.0
  0
VERTEX
  5
658
330
657
100
AcDbEntity
  8
BEMAßUNG
 62
     7
100
AcDbVertex
100
AcDb2dVertex
 10
120.6393201738332
 20
132.1817680876143
 30
0.0
  0
VERTEX
  5
659
330
657
100
AcDbEntity
  8
BEMAßUNG
 62
     7
100
AcDbVertex
100
AcDb2dVertex
 10
120.6393201738332
 20
130.6111490558889
 30
0.0
  0
SEQEND
  5
65A
330
657
100
AcDbEntity
  8
BEMAßUNG
  0
POLYLINE
  5
65B
330
1F
100
AcDbEntity
  8
BEMAßUNG
 62
     7
100
AcDb2dPolyline
 66
     1
 10
0.0
 20
0.0
 30
0.0
  0
VERTEX
  5
65C
330
65B
100
AcDbEntity
  8
BEMAßUNG
 62
     7
100
AcDbVertex
100
AcDb2dVertex
 10
120.6903075870149
 20
132.1817680876143
 30
0.0
  0
VERTEX
  5
65D
330
65B
100
AcDbEntity
  8
BEMAßUNG
 62
     7
100
AcDbVertex
100
AcDb2dVertex
 10
120.6903075870149
 20
130.2252983615409
 30
0.0
  0
SEQEND
  5
65E
330
65B
100
AcDbEntity
  8
BEMAßUNG
  0
POLYLINE
  5
65F
330
1F
100
AcDbEntity
  8
BEMAßUNG
 62
     7
100
AcDb2dPolyline
 66
     1
 10
0.0
 20
0.0
 30
0.0
  0
VERTEX
  5
660
330
65F
100
AcDbEntity
  8
BEMAßUNG
 62
     7
100
AcDbVertex
100
AcDb2dVertex
 10
120.7416395097452
 20
132.1817680876143
 30
0.0
  0
VERTEX
  5
661
330
65F
100
AcDbEntity
  8
BEMAßUNG
 62
     7
100
AcDbVertex
100
AcDb2dVertex
 10
120.7416395097452
 20
129.8394476671929
 30
0.0
  0
SEQEND
  5
662
330
65F
100
AcDbEntity
  8
BEMAßUNG
  0
POLYLINE
  5
663
330
1F
100
AcDbEntity
  8
BEMAßUNG
 62
     7
100
AcDb2dPolyline
 66
     1
 10
0.0
 20
0.0
 30
0.0
  0
VERTEX
  5
664
330
663
100
AcDbEntity
  8
BEMAßUNG
 62
     7
100
AcDbVertex
100
AcDb2dVertex
 10
120.7922824133783
 20
132.1817680876143
 30
0.0
  0
VERTEX
  5
665
330
663
100
AcDbEntity
  8
BEMAßUNG
 62
     7
100
AcDbVertex
100
AcDb2dVertex
 10
120.7922824133783
 20
129.4535969728449
 30
0.0
  0
SEQEND
  5
666
330
663
100
AcDbEntity
  8
BEMAßUNG
  0
POLYLINE
  5
667
330
1F
100
AcDbEntity
  8
BEMAßUNG
 62
     7
100
AcDb2dPolyline
 66
     1
 10
0.0
 20
0.0
 30
0.0
  0
VERTEX
  5
668
330
667
100
AcDbEntity
  8
BEMAßUNG
 62
     7
100
AcDbVertex
100
AcDb2dVertex
 10
120.8429253170115
 20
132.1817680876143
 30
0.0
  0
VERTEX
  5
669
330
667
100
AcDbEntity
  8
BEMAßUNG
 62
     7
100
AcDbVertex
100
AcDb2dVertex
 10
120.8429253170115
 20
129.067746278497
 30
0.0
  0
SEQEND
  5
66A
330
667
100
AcDbEntity
  8
BEMAßUNG
  0
POLYLINE
  5
66B
330
1F
100
AcDbEntity
  8
BEMAßUNG
 62
     7
100
AcDb2dPolyline
 66
     1
 10
0.0
 20
0.0
 30
0.0
  0
VERTEX
  5
66C
330
66B
100
AcDbEntity
  8
BEMAßUNG
 62
     7
100
AcDbVertex
100
AcDb2dVertex
 10
120.8942572397417
 20
132.1817680876143
 30
0.0
  0
VERTEX
  5
66D
330
66B
100
AcDbEntity
  8
BEMAßUNG
 62
     7
100
AcDbVertex
100
AcDb2dVertex
 10
120.8942572397417
 20
128.681895584149
 30
0.0
  0
SEQEND
  5
66E
330
66B
100
AcDbEntity
  8
BEMAßUNG
  0
POLYLINE
  5
66F
330
1F
100
AcDbEntity
  8
BEMAßUNG
 62
     7
100
AcDb2dPolyline
 66
     1
 10
0.0
 20
0.0
 30
0.0
  0
VERTEX
  5
670
330
66F
100
AcDbEntity
  8
BEMAßUNG
 62
     7
100
AcDbVertex
100
AcDb2dVertex
 10
27.82569172481441
 20
130.1822346679753
 30
0.0
  0
VERTEX
  5
671
330
66F
100
AcDbEntity
  8
BEMAßUNG
 62
     7
100
AcDbVertex
100
AcDb2dVertex
 10
27.82569172481441
 20
116.375670001288
 30
0.0
  0
SEQEND
  5
672
330
66F
100
AcDbEntity
  8
BEMAßUNG
  0
POLYLINE
  5
673
330
1F
100
AcDbEntity
  8
BEMAßUNG
 62
     7
100
AcDb2dPolyline
 66
     1
 10
0.0
 20
0.0
 30
0.0
  0
VERTEX
  5
674
330
673
100
AcDbEntity
  8
BEMAßUNG
 62
     7
100
AcDbVertex
100
AcDb2dVertex
 10
105.8257540968075
 20
130.1822346679753
 30
0.0
  0
VERTEX
  5
675
330
673
100
AcDbEntity
  8
BEMAßUNG
 62
     7
100
AcDbVertex
100
AcDb2dVertex
 10
105.8257540968075
 20
116.375670001288
 30
0.0
  0
SEQEND
  5
676
330
673
100
AcDbEntity
  8
BEMAßUNG
  0
POLYLINE
  5
677
330
1F
100
AcDbEntity
  8
BEMAßUNG
 62
     7
100
AcDb2dPolyline
 66
     1
 10
0.0
 20
0.0
 30
0.0
  0
VERTEX
  5
678
330
677
100
AcDbEntity
  8
BEMAßUNG
 62
     7
100
AcDbVertex
100
AcDb2dVertex
 10
27.82569172481441
 20
118.375203420927
 30
0.0
  0
VERTEX
  5
679
330
677
100
AcDbEntity
  8
BEMAßUNG
 62
     7
100
AcDbVertex
100
AcDb2dVertex
 10
105.8257540968075
 20
118.375203420927
 30
0.0
  0
SEQEND
  5
67A
330
677
100
AcDbEntity
  8
BEMAßUNG
  0
POLYLINE
  5
67B
330
1F
100
AcDbEntity
  8
BEMAßUNG
 62
     7
100
AcDb2dPolyline
 66
     1
 10
0.0
 20
0.0
 30
0.0
  0
VERTEX
  5
67C
330
67B
100
AcDbEntity
  8
BEMAßUNG
 62
     7
100
AcDbVertex
100
AcDb2dVertex
 10
27.82569172481441
 20
118.375203420927
 30
0.0
  0
VERTEX
  5
67D
330
67B
100
AcDbEntity
  8
BEMAßUNG
 62
     7
100
AcDbVertex
100
AcDb2dVertex
 10
31.32590873782825
 20
117.9145941545491
 30
0.0
  0
VERTEX
  5
67E
330
67B
100
AcDbEntity
  8
BEMAßUNG
 62
     7
100
AcDbVertex
100
AcDb2dVertex
 10
31.32590873782825
 20
118.836501706402
 30
0.0
  0
VERTEX
  5
67F
330
67B
100
AcDbEntity
  8
BEMAßUNG
 62
     7
100
AcDbVertex
100
AcDb2dVertex
 10
27.82569172481441
 20
118.375203420927
 30
0.0
  0
SEQEND
  5
680
330
67B
100
AcDbEntity
  8
BEMAßUNG
  0
POLYLINE
  5
681
330
1F
100
AcDbEntity
  8
BEMAßUNG
 62
     7
100
AcDb2dPolyline
 66
     1
 10
0.0
 20
0.0
 30
0.0
  0
VERTEX
  5
682
330
681
100
AcDbEntity
  8
BEMAßUNG
 62
     7
100
AcDbVertex
100
AcDb2dVertex
 10
31.32590873782825
 20
117.9183837595829
 30
0.0
  0
VERTEX
  5
683
330
681
100
AcDbEntity
  8
BEMAßUNG
 62
     7
100
AcDbVertex
100
AcDb2dVertex
 10
31.29869248349477
 20
117.9183837595829
 30
0.0
  0
SEQEND
  5
684
330
681
100
AcDbEntity
  8
BEMAßUNG
  0
POLYLINE
  5
685
330
1F
100
AcDbEntity
  8
BEMAßUNG
 62
     7
100
AcDb2dPolyline
 66
     1
 10
0.0
 20
0.0
 30
0.0
  0
VERTEX
  5
686
330
685
100
AcDbEntity
  8
BEMAßUNG
 62
     7
100
AcDbVertex
100
AcDb2dVertex
 10
31.32590873782825
 20
117.9183837595829
 30
0.0
  0
VERTEX
  5
687
330
685
100
AcDbEntity
  8
BEMAßUNG
 62
     7
100
AcDbVertex
100
AcDb2dVertex
 10
31.29869248349477
 20
117.9183837595829
 30
0.0
  0
SEQEND
  5
688
330
685
100
AcDbEntity
  8
BEMAßUNG
  0
POLYLINE
  5
689
330
1F
100
AcDbEntity
  8
BEMAßUNG
 62
     7
100
AcDb2dPolyline
 66
     1
 10
0.0
 20
0.0
 30
0.0
  0
VERTEX
  5
68A
330
689
100
AcDbEntity
  8
BEMAßUNG
 62
     7
100
AcDbVertex
100
AcDb2dVertex
 10
31.32590873782825
 20
117.9690266632161
 30
0.0
  0
VERTEX
  5
68B
330
689
100
AcDbEntity
  8
BEMAßUNG
 62
     7
100
AcDbVertex
100
AcDb2dVertex
 10
30.91249727959827
 20
117.9690266632161
 30
0.0
  0
SEQEND
  5
68C
330
689
100
AcDbEntity
  8
BEMAßUNG
  0
POLYLINE
  5
68D
330
1F
100
AcDbEntity
  8
BEMAßUNG
 62
     7
100
AcDb2dPolyline
 66
     1
 10
0.0
 20
0.0
 30
0.0
  0
VERTEX
  5
68E
330
68D
100
AcDbEntity
  8
BEMAßUNG
 62
     7
100
AcDbVertex
100
AcDb2dVertex
 10
31.32590873782825
 20
118.0196695668493
 30
0.0
  0
VERTEX
  5
68F
330
68D
100
AcDbEntity
  8
BEMAßUNG
 62
     7
100
AcDbVertex
100
AcDb2dVertex
 10
30.52664658525028
 20
118.0196695668493
 30
0.0
  0
SEQEND
  5
690
330
68D
100
AcDbEntity
  8
BEMAßUNG
  0
POLYLINE
  5
691
330
1F
100
AcDbEntity
  8
BEMAßUNG
 62
     7
100
AcDb2dPolyline
 66
     1
 10
0.0
 20
0.0
 30
0.0
  0
VERTEX
  5
692
330
691
100
AcDbEntity
  8
BEMAßUNG
 62
     7
100
AcDbVertex
100
AcDb2dVertex
 10
31.32590873782825
 20
118.0706569800309
 30
0.0
  0
VERTEX
  5
693
330
691
100
AcDbEntity
  8
BEMAßUNG
 62
     7
100
AcDbVertex
100
AcDb2dVertex
 10
30.1407958909023
 20
118.0706569800309
 30
0.0
  0
SEQEND
  5
694
330
691
100
AcDbEntity
  8
BEMAßUNG
  0
POLYLINE
  5
695
330
1F
100
AcDbEntity
  8
BEMAßUNG
 62
     7
100
AcDb2dPolyline
 66
     1
 10
0.0
 20
0.0
 30
0.0
  0
VERTEX
  5
696
330
695
100
AcDbEntity
  8
BEMAßUNG
 62
     7
100
AcDbVertex
100
AcDb2dVertex
 10
31.32590873782825
 20
118.1216443932126
 30
0.0
  0
VERTEX
  5
697
330
695
100
AcDbEntity
  8
BEMAßUNG
 62
     7
100
AcDbVertex
100
AcDb2dVertex
 10
29.75528970610285
 20
118.1216443932126
 30
0.0
  0
SEQEND
  5
698
330
695
100
AcDbEntity
  8
BEMAßUNG
  0
POLYLINE
  5
699
330
1F
100
AcDbEntity
  8
BEMAßUNG
 62
     7
100
AcDb2dPolyline
 66
     1
 10
0.0
 20
0.0
 30
0.0
  0
VERTEX
  5
69A
330
699
100
AcDbEntity
  8
BEMAßUNG
 62
     7
100
AcDbVertex
100
AcDb2dVertex
 10
31.32590873782825
 20
118.1726318063943
 30
0.0
  0
VERTEX
  5
69B
330
699
100
AcDbEntity
  8
BEMAßUNG
 62
     7
100
AcDbVertex
100
AcDb2dVertex
 10
29.36909450220634
 20
118.1726318063943
 30
0.0
  0
SEQEND
  5
69C
330
699
100
AcDbEntity
  8
BEMAßUNG
  0
POLYLINE
  5
69D
330
1F
100
AcDbEntity
  8
BEMAßUNG
 62
     7
100
AcDb2dPolyline
 66
     1
 10
0.0
 20
0.0
 30
0.0
  0
VERTEX
  5
69E
330
69D
100
AcDbEntity
  8
BEMAßUNG
 62
     7
100
AcDbVertex
100
AcDb2dVertex
 10
31.32590873782825
 20
118.2232747100275
 30
0.0
  0
VERTEX
  5
69F
330
69D
100
AcDbEntity
  8
BEMAßUNG
 62
     7
100
AcDbVertex
100
AcDb2dVertex
 10
28.98324380785836
 20
118.2232747100275
 30
0.0
  0
SEQEND
  5
6A0
330
69D
100
AcDbEntity
  8
BEMAßUNG
  0
POLYLINE
  5
6A1
330
1F
100
AcDbEntity
  8
BEMAßUNG
 62
     7
100
AcDb2dPolyline
 66
     1
 10
0.0
 20
0.0
 30
0.0
  0
VERTEX
  5
6A2
330
6A1
100
AcDbEntity
  8
BEMAßUNG
 62
     7
100
AcDbVertex
100
AcDb2dVertex
 10
31.32590873782825
 20
118.2739176136607
 30
0.0
  0
VERTEX
  5
6A3
330
6A1
100
AcDbEntity
  8
BEMAßUNG
 62
     7
100
AcDbVertex
100
AcDb2dVertex
 10
28.59739311351037
 20
118.2739176136607
 30
0.0
  0
SEQEND
  5
6A4
330
6A1
100
AcDbEntity
  8
BEMAßUNG
  0
POLYLINE
  5
6A5
330
1F
100
AcDbEntity
  8
BEMAßUNG
 62
     7
100
AcDb2dPolyline
 66
     1
 10
0.0
 20
0.0
 30
0.0
  0
VERTEX
  5
6A6
330
6A5
100
AcDbEntity
  8
BEMAßUNG
 62
     7
100
AcDbVertex
100
AcDb2dVertex
 10
31.32590873782825
 20
118.3249050268424
 30
0.0
  0
VERTEX
  5
6A7
330
6A5
100
AcDbEntity
  8
BEMAßUNG
 62
     7
100
AcDbVertex
100
AcDb2dVertex
 10
28.2115424191624
 20
118.3249050268424
 30
0.0
  0
SEQEND
  5
6A8
330
6A5
100
AcDbEntity
  8
BEMAßUNG
  0
POLYLINE
  5
6A9
330
1F
100
AcDbEntity
  8
BEMAßUNG
 62
     7
100
AcDb2dPolyline
 66
     1
 10
0.0
 20
0.0
 30
0.0
  0
VERTEX
  5
6AA
330
6A9
100
AcDbEntity
  8
BEMAßUNG
 62
     7
100
AcDbVertex
100
AcDb2dVertex
 10
31.32590873782825
 20
118.375203420927
 30
0.0
  0
VERTEX
  5
6AB
330
6A9
100
AcDbEntity
  8
BEMAßUNG
 62
     7
100
AcDbVertex
100
AcDb2dVertex
 10
27.82569172481441
 20
118.375203420927
 30
0.0
  0
SEQEND
  5
6AC
330
6A9
100
AcDbEntity
  8
BEMAßUNG
  0
POLYLINE
  5
6AD
330
1F
100
AcDbEntity
  8
BEMAßUNG
 62
     7
100
AcDb2dPolyline
 66
     1
 10
0.0
 20
0.0
 30
0.0
  0
VERTEX
  5
6AE
330
6AD
100
AcDbEntity
  8
BEMAßUNG
 62
     7
100
AcDbVertex
100
AcDb2dVertex
 10
31.32590873782825
 20
118.8327121013682
 30
0.0
  0
VERTEX
  5
6AF
330
6AD
100
AcDbEntity
  8
BEMAßUNG
 62
     7
100
AcDbVertex
100
AcDb2dVertex
 10
31.29869248349477
 20
118.8327121013682
 30
0.0
  0
SEQEND
  5
6B0
330
6AD
100
AcDbEntity
  8
BEMAßUNG
  0
POLYLINE
  5
6B1
330
1F
100
AcDbEntity
  8
BEMAßUNG
 62
     7
100
AcDb2dPolyline
 66
     1
 10
0.0
 20
0.0
 30
0.0
  0
VERTEX
  5
6B2
330
6B1
100
AcDbEntity
  8
BEMAßUNG
 62
     7
100
AcDbVertex
100
AcDb2dVertex
 10
31.32590873782825
 20
118.8327121013682
 30
0.0
  0
VERTEX
  5
6B3
330
6B1
100
AcDbEntity
  8
BEMAßUNG
 62
     7
100
AcDbVertex
100
AcDb2dVertex
 10
31.29869248349477
 20
118.8327121013682
 30
0.0
  0
SEQEND
  5
6B4
330
6B1
100
AcDbEntity
  8
BEMAßUNG
  0
POLYLINE
  5
6B5
330
1F
100
AcDbEntity
  8
BEMAßUNG
 62
     7
100
AcDb2dPolyline
 66
     1
 10
0.0
 20
0.0
 30
0.0
  0
VERTEX
  5
6B6
330
6B5
100
AcDbEntity
  8
BEMAßUNG
 62
     7
100
AcDbVertex
100
AcDb2dVertex
 10
31.32590873782825
 20
118.782069197735
 30
0.0
  0
VERTEX
  5
6B7
330
6B5
100
AcDbEntity
  8
BEMAßUNG
 62
     7
100
AcDbVertex
100
AcDb2dVertex
 10
30.91249727959827
 20
118.782069197735
 30
0.0
  0
SEQEND
  5
6B8
330
6B5
100
AcDbEntity
  8
BEMAßUNG
  0
POLYLINE
  5
6B9
330
1F
100
AcDbEntity
  8
BEMAßUNG
 62
     7
100
AcDb2dPolyline
 66
     1
 10
0.0
 20
0.0
 30
0.0
  0
VERTEX
  5
6BA
330
6B9
100
AcDbEntity
  8
BEMAßUNG
 62
     7
100
AcDbVertex
100
AcDb2dVertex
 10
31.32590873782825
 20
118.7314262941019
 30
0.0
  0
VERTEX
  5
6BB
330
6B9
100
AcDbEntity
  8
BEMAßUNG
 62
     7
100
AcDbVertex
100
AcDb2dVertex
 10
30.52664658525028
 20
118.7314262941019
 30
0.0
  0
SEQEND
  5
6BC
330
6B9
100
AcDbEntity
  8
BEMAßUNG
  0
POLYLINE
  5
6BD
330
1F
100
AcDbEntity
  8
BEMAßUNG
 62
     7
100
AcDb2dPolyline
 66
     1
 10
0.0
 20
0.0
 30
0.0
  0
VERTEX
  5
6BE
330
6BD
100
AcDbEntity
  8
BEMAßUNG
 62
     7
100
AcDbVertex
100
AcDb2dVertex
 10
31.32590873782825
 20
118.6804388809202
 30
0.0
  0
VERTEX
  5
6BF
330
6BD
100
AcDbEntity
  8
BEMAßUNG
 62
     7
100
AcDbVertex
100
AcDb2dVertex
 10
30.1407958909023
 20
118.6804388809202
 30
0.0
  0
SEQEND
  5
6C0
330
6BD
100
AcDbEntity
  8
BEMAßUNG
  0
POLYLINE
  5
6C1
330
1F
100
AcDbEntity
  8
BEMAßUNG
 62
     7
100
AcDb2dPolyline
 66
     1
 10
0.0
 20
0.0
 30
0.0
  0
VERTEX
  5
6C2
330
6C1
100
AcDbEntity
  8
BEMAßUNG
 62
     7
100
AcDbVertex
100
AcDb2dVertex
 10
31.32590873782825
 20
118.62910695819
 30
0.0
  0
VERTEX
  5
6C3
330
6C1
100
AcDbEntity
  8
BEMAßUNG
 62
     7
100
AcDbVertex
100
AcDb2dVertex
 10
29.75528970610285
 20
118.62910695819
 30
0.0
  0
SEQEND
  5
6C4
330
6C1
100
AcDbEntity
  8
BEMAßUNG
  0
POLYLINE
  5
6C5
330
1F
100
AcDbEntity
  8
BEMAßUNG
 62
     7
100
AcDb2dPolyline
 66
     1
 10
0.0
 20
0.0
 30
0.0
  0
VERTEX
  5
6C6
330
6C5
100
AcDbEntity
  8
BEMAßUNG
 62
     7
100
AcDbVertex
100
AcDb2dVertex
 10
31.32590873782825
 20
118.5784640545568
 30
0.0
  0
VERTEX
  5
6C7
330
6C5
100
AcDbEntity
  8
BEMAßUNG
 62
     7
100
AcDbVertex
100
AcDb2dVertex
 10
29.36909450220634
 20
118.5784640545568
 30
0.0
  0
SEQEND
  5
6C8
330
6C5
100
AcDbEntity
  8
BEMAßUNG
  0
POLYLINE
  5
6C9
330
1F
100
AcDbEntity
  8
BEMAßUNG
 62
     7
100
AcDb2dPolyline
 66
     1
 10
0.0
 20
0.0
 30
0.0
  0
VERTEX
  5
6CA
330
6C9
100
AcDbEntity
  8
BEMAßUNG
 62
     7
100
AcDbVertex
100
AcDb2dVertex
 10
31.32590873782825
 20
118.5278211509236
 30
0.0
  0
VERTEX
  5
6CB
330
6C9
100
AcDbEntity
  8
BEMAßUNG
 62
     7
100
AcDbVertex
100
AcDb2dVertex
 10
28.98324380785836
 20
118.5278211509236
 30
0.0
  0
SEQEND
  5
6CC
330
6C9
100
AcDbEntity
  8
BEMAßUNG
  0
POLYLINE
  5
6CD
330
1F
100
AcDbEntity
  8
BEMAßUNG
 62
     7
100
AcDb2dPolyline
 66
     1
 10
0.0
 20
0.0
 30
0.0
  0
VERTEX
  5
6CE
330
6CD
100
AcDbEntity
  8
BEMAßUNG
 62
     7
100
AcDbVertex
100
AcDb2dVertex
 10
31.32590873782825
 20
118.4771782472904
 30
0.0
  0
VERTEX
  5
6CF
330
6CD
100
AcDbEntity
  8
BEMAßUNG
 62
     7
100
AcDbVertex
100
AcDb2dVertex
 10
28.59739311351037
 20
118.4771782472904
 30
0.0
  0
SEQEND
  5
6D0
330
6CD
100
AcDbEntity
  8
BEMAßUNG
  0
POLYLINE
  5
6D1
330
1F
100
AcDbEntity
  8
BEMAßUNG
 62
     7
100
AcDb2dPolyline
 66
     1
 10
0.0
 20
0.0
 30
0.0
  0
VERTEX
  5
6D2
330
6D1
100
AcDbEntity
  8
BEMAßUNG
 62
     7
100
AcDbVertex
100
AcDb2dVertex
 10
31.32590873782825
 20
118.4261908341087
 30
0.0
  0
VERTEX
  5
6D3
330
6D1
100
AcDbEntity
  8
BEMAßUNG
 62
     7
100
AcDbVertex
100
AcDb2dVertex
 10
28.2115424191624
 20
118.4261908341087
 30
0.0
  0
SEQEND
  5
6D4
330
6D1
100
AcDbEntity
  8
BEMAßUNG
  0
POLYLINE
  5
6D5
330
1F
100
AcDbEntity
  8
BEMAßUNG
 62
     7
100
AcDb2dPolyline
 66
     1
 10
0.0
 20
0.0
 30
0.0
  0
VERTEX
  5
6D6
330
6D5
100
AcDbEntity
  8
BEMAßUNG
 62
     7
100
AcDbVertex
100
AcDb2dVertex
 10
31.32590873782825
 20
118.375203420927
 30
0.0
  0
VERTEX
  5
6D7
330
6D5
100
AcDbEntity
  8
BEMAßUNG
 62
     7
100
AcDbVertex
100
AcDb2dVertex
 10
27.82569172481441
 20
118.375203420927
 30
0.0
  0
SEQEND
  5
6D8
330
6D5
100
AcDbEntity
  8
BEMAßUNG
  0
POLYLINE
  5
6D9
330
1F
100
AcDbEntity
  8
BEMAßUNG
 62
     7
100
AcDb2dPolyline
 66
     1
 10
0.0
 20
0.0
 30
0.0
  0
VERTEX
  5
6DA
330
6D9
100
AcDbEntity
  8
BEMAßUNG
 62
     7
100
AcDbVertex
100
AcDb2dVertex
 10
105.8257540968075
 20
118.375203420927
 30
0.0
  0
VERTEX
  5
6DB
330
6D9
100
AcDbEntity
  8
BEMAßUNG
 62
     7
100
AcDbVertex
100
AcDb2dVertex
 10
102.3255370837936
 20
118.836501706402
 30
0.0
  0
VERTEX
  5
6DC
330
6D9
100
AcDbEntity
  8
BEMAßUNG
 62
     7
100
AcDbVertex
100
AcDb2dVertex
 10
102.3255370837936
 20
117.9145941545491
 30
0.0
  0
VERTEX
  5
6DD
330
6D9
100
AcDbEntity
  8
BEMAßUNG
 62
     7
100
AcDbVertex
100
AcDb2dVertex
 10
105.8257540968075
 20
118.375203420927
 30
0.0
  0
SEQEND
  5
6DE
330
6D9
100
AcDbEntity
  8
BEMAßUNG
  0
POLYLINE
  5
6DF
330
1F
100
AcDbEntity
  8
BEMAßUNG
 62
     7
100
AcDb2dPolyline
 66
     1
 10
0.0
 20
0.0
 30
0.0
  0
VERTEX
  5
6E0
330
6DF
100
AcDbEntity
  8
BEMAßUNG
 62
     7
100
AcDbVertex
100
AcDb2dVertex
 10
102.3255370837936
 20
118.8327121013682
 30
0.0
  0
VERTEX
  5
6E1
330
6DF
100
AcDbEntity
  8
BEMAßUNG
 62
     7
100
AcDbVertex
100
AcDb2dVertex
 10
102.3527533381271
 20
118.8327121013682
 30
0.0
  0
SEQEND
  5
6E2
330
6DF
100
AcDbEntity
  8
BEMAßUNG
  0
POLYLINE
  5
6E3
330
1F
100
AcDbEntity
  8
BEMAßUNG
 62
     7
100
AcDb2dPolyline
 66
     1
 10
0.0
 20
0.0
 30
0.0
  0
VERTEX
  5
6E4
330
6E3
100
AcDbEntity
  8
BEMAßUNG
 62
     7
100
AcDbVertex
100
AcDb2dVertex
 10
102.3255370837936
 20
118.8327121013682
 30
0.0
  0
VERTEX
  5
6E5
330
6E3
100
AcDbEntity
  8
BEMAßUNG
 62
     7
100
AcDbVertex
100
AcDb2dVertex
 10
102.3527533381271
 20
118.8327121013682
 30
0.0
  0
SEQEND
  5
6E6
330
6E3
100
AcDbEntity
  8
BEMAßUNG
  0
POLYLINE
  5
6E7
330
1F
100
AcDbEntity
  8
BEMAßUNG
 62
     7
100
AcDb2dPolyline
 66
     1
 10
0.0
 20
0.0
 30
0.0
  0
VERTEX
  5
6E8
330
6E7
100
AcDbEntity
  8
BEMAßUNG
 62
     7
100
AcDbVertex
100
AcDb2dVertex
 10
102.3255370837936
 20
118.782069197735
 30
0.0
  0
VERTEX
  5
6E9
330
6E7
100
AcDbEntity
  8
BEMAßUNG
 62
     7
100
AcDbVertex
100
AcDb2dVertex
 10
102.7389485420236
 20
118.782069197735
 30
0.0
  0
SEQEND
  5
6EA
330
6E7
100
AcDbEntity
  8
BEMAßUNG
  0
POLYLINE
  5
6EB
330
1F
100
AcDbEntity
  8
BEMAßUNG
 62
     7
100
AcDb2dPolyline
 66
     1
 10
0.0
 20
0.0
 30
0.0
  0
VERTEX
  5
6EC
330
6EB
100
AcDbEntity
  8
BEMAßUNG
 62
     7
100
AcDbVertex
100
AcDb2dVertex
 10
102.3255370837936
 20
118.7314262941019
 30
0.0
  0
VERTEX
  5
6ED
330
6EB
100
AcDbEntity
  8
BEMAßUNG
 62
     7
100
AcDbVertex
100
AcDb2dVertex
 10
103.1241102172745
 20
118.7314262941019
 30
0.0
  0
SEQEND
  5
6EE
330
6EB
100
AcDbEntity
  8
BEMAßUNG
  0
POLYLINE
  5
6EF
330
1F
100
AcDbEntity
  8
BEMAßUNG
 62
     7
100
AcDb2dPolyline
 66
     1
 10
0.0
 20
0.0
 30
0.0
  0
VERTEX
  5
6F0
330
6EF
100
AcDbEntity
  8
BEMAßUNG
 62
     7
100
AcDbVertex
100
AcDb2dVertex
 10
102.3255370837936
 20
118.6804388809202
 30
0.0
  0
VERTEX
  5
6F1
330
6EF
100
AcDbEntity
  8
BEMAßUNG
 62
     7
100
AcDbVertex
100
AcDb2dVertex
 10
103.510305421171
 20
118.6804388809202
 30
0.0
  0
SEQEND
  5
6F2
330
6EF
100
AcDbEntity
  8
BEMAßUNG
  0
POLYLINE
  5
6F3
330
1F
100
AcDbEntity
  8
BEMAßUNG
 62
     7
100
AcDb2dPolyline
 66
     1
 10
0.0
 20
0.0
 30
0.0
  0
VERTEX
  5
6F4
330
6F3
100
AcDbEntity
  8
BEMAßUNG
 62
     7
100
AcDbVertex
100
AcDb2dVertex
 10
102.3255370837936
 20
118.62910695819
 30
0.0
  0
VERTEX
  5
6F5
330
6F3
100
AcDbEntity
  8
BEMAßUNG
 62
     7
100
AcDbVertex
100
AcDb2dVertex
 10
103.896156115519
 20
118.62910695819
 30
0.0
  0
SEQEND
  5
6F6
330
6F3
100
AcDbEntity
  8
BEMAßUNG
  0
POLYLINE
  5
6F7
330
1F
100
AcDbEntity
  8
BEMAßUNG
 62
     7
100
AcDb2dPolyline
 66
     1
 10
0.0
 20
0.0
 30
0.0
  0
VERTEX
  5
6F8
330
6F7
100
AcDbEntity
  8
BEMAßUNG
 62
     7
100
AcDbVertex
100
AcDb2dVertex
 10
102.3255370837936
 20
118.5784640545568
 30
0.0
  0
VERTEX
  5
6F9
330
6F7
100
AcDbEntity
  8
BEMAßUNG
 62
     7
100
AcDbVertex
100
AcDb2dVertex
 10
104.2823513194155
 20
118.5784640545568
 30
0.0
  0
SEQEND
  5
6FA
330
6F7
100
AcDbEntity
  8
BEMAßUNG
  0
POLYLINE
  5
6FB
330
1F
100
AcDbEntity
  8
BEMAßUNG
 62
     7
100
AcDb2dPolyline
 66
     1
 10
0.0
 20
0.0
 30
0.0
  0
VERTEX
  5
6FC
330
6FB
100
AcDbEntity
  8
BEMAßUNG
 62
     7
100
AcDbVertex
100
AcDb2dVertex
 10
102.3255370837936
 20
118.5278211509236
 30
0.0
  0
VERTEX
  5
6FD
330
6FB
100
AcDbEntity
  8
BEMAßUNG
 62
     7
100
AcDbVertex
100
AcDb2dVertex
 10
104.6682020137635
 20
118.5278211509236
 30
0.0
  0
SEQEND
  5
6FE
330
6FB
100
AcDbEntity
  8
BEMAßUNG
  0
POLYLINE
  5
6FF
330
1F
100
AcDbEntity
  8
BEMAßUNG
 62
     7
100
AcDb2dPolyline
 66
     1
 10
0.0
 20
0.0
 30
0.0
  0
VERTEX
  5
700
330
6FF
100
AcDbEntity
  8
BEMAßUNG
 62
     7
100
AcDbVertex
100
AcDb2dVertex
 10
102.3255370837936
 20
118.4771782472904
 30
0.0
  0
VERTEX
  5
701
330
6FF
100
AcDbEntity
  8
BEMAßUNG
 62
     7
100
AcDbVertex
100
AcDb2dVertex
 10
105.053708198563
 20
118.4771782472904
 30
0.0
  0
SEQEND
  5
702
330
6FF
100
AcDbEntity
  8
BEMAßUNG
  0
POLYLINE
  5
703
330
1F
100
AcDbEntity
  8
BEMAßUNG
 62
     7
100
AcDb2dPolyline
 66
     1
 10
0.0
 20
0.0
 30
0.0
  0
VERTEX
  5
704
330
703
100
AcDbEntity
  8
BEMAßUNG
 62
     7
100
AcDbVertex
100
AcDb2dVertex
 10
102.3255370837936
 20
118.4261908341087
 30
0.0
  0
VERTEX
  5
705
330
703
100
AcDbEntity
  8
BEMAßUNG
 62
     7
100
AcDbVertex
100
AcDb2dVertex
 10
105.439558892911
 20
118.4261908341087
 30
0.0
  0
SEQEND
  5
706
330
703
100
AcDbEntity
  8
BEMAßUNG
  0
POLYLINE
  5
707
330
1F
100
AcDbEntity
  8
BEMAßUNG
 62
     7
100
AcDb2dPolyline
 66
     1
 10
0.0
 20
0.0
 30
0.0
  0
VERTEX
  5
708
330
707
100
AcDbEntity
  8
BEMAßUNG
 62
     7
100
AcDbVertex
100
AcDb2dVertex
 10
102.3255370837936
 20
118.375203420927
 30
0.0
  0
VERTEX
  5
709
330
707
100
AcDbEntity
  8
BEMAßUNG
 62
     7
100
AcDbVertex
100
AcDb2dVertex
 10
105.8257540968075
 20
118.375203420927
 30
0.0
  0
SEQEND
  5
70A
330
707
100
AcDbEntity
  8
BEMAßUNG
  0
POLYLINE
  5
70B
330
1F
100
AcDbEntity
  8
BEMAßUNG
 62
     7
100
AcDb2dPolyline
 66
     1
 10
0.0
 20
0.0
 30
0.0
  0
VERTEX
  5
70C
330
70B
100
AcDbEntity
  8
BEMAßUNG
 62
     7
100
AcDbVertex
100
AcDb2dVertex
 10
102.3255370837936
 20
117.9183837595829
 30
0.0
  0
VERTEX
  5
70D
330
70B
100
AcDbEntity
  8
BEMAßUNG
 62
     7
100
AcDbVertex
100
AcDb2dVertex
 10
102.3527533381271
 20
117.9183837595829
 30
0.0
  0
SEQEND
  5
70E
330
70B
100
AcDbEntity
  8
BEMAßUNG
  0
POLYLINE
  5
70F
330
1F
100
AcDbEntity
  8
BEMAßUNG
 62
     7
100
AcDb2dPolyline
 66
     1
 10
0.0
 20
0.0
 30
0.0
  0
VERTEX
  5
710
330
70F
100
AcDbEntity
  8
BEMAßUNG
 62
     7
100
AcDbVertex
100
AcDb2dVertex
 10
102.3255370837936
 20
117.9183837595829
 30
0.0
  0
VERTEX
  5
711
330
70F
100
AcDbEntity
  8
BEMAßUNG
 62
     7
100
AcDbVertex
100
AcDb2dVertex
 10
102.3527533381271
 20
117.9183837595829
 30
0.0
  0
SEQEND
  5
712
330
70F
100
AcDbEntity
  8
BEMAßUNG
  0
POLYLINE
  5
713
330
1F
100
AcDbEntity
  8
BEMAßUNG
 62
     7
100
AcDb2dPolyline
 66
     1
 10
0.0
 20
0.0
 30
0.0
  0
VERTEX
  5
714
330
713
100
AcDbEntity
  8
BEMAßUNG
 62
     7
100
AcDbVertex
100
AcDb2dVertex
 10
102.3255370837936
 20
117.9690266632161
 30
0.0
  0
VERTEX
  5
715
330
713
100
AcDbEntity
  8
BEMAßUNG
 62
     7
100
AcDbVertex
100
AcDb2dVertex
 10
102.7389485420236
 20
117.9690266632161
 30
0.0
  0
SEQEND
  5
716
330
713
100
AcDbEntity
  8
BEMAßUNG
  0
POLYLINE
  5
717
330
1F
100
AcDbEntity
  8
BEMAßUNG
 62
     7
100
AcDb2dPolyline
 66
     1
 10
0.0
 20
0.0
 30
0.0
  0
VERTEX
  5
718
330
717
100
AcDbEntity
  8
BEMAßUNG
 62
     7
100
AcDbVertex
100
AcDb2dVertex
 10
102.3255370837936
 20
118.0196695668493
 30
0.0
  0
VERTEX
  5
719
330
717
100
AcDbEntity
  8
BEMAßUNG
 62
     7
100
AcDbVertex
100
AcDb2dVertex
 10
103.1241102172745
 20
118.0196695668493
 30
0.0
  0
SEQEND
  5
71A
330
717
100
AcDbEntity
  8
BEMAßUNG
  0
POLYLINE
  5
71B
330
1F
100
AcDbEntity
  8
BEMAßUNG
 62
     7
100
AcDb2dPolyline
 66
     1
 10
0.0
 20
0.0
 30
0.0
  0
VERTEX
  5
71C
330
71B
100
AcDbEntity
  8
BEMAßUNG
 62
     7
100
AcDbVertex
100
AcDb2dVertex
 10
102.3255370837936
 20
118.0706569800309
 30
0.0
  0
VERTEX
  5
71D
330
71B
100
AcDbEntity
  8
BEMAßUNG
 62
     7
100
AcDbVertex
100
AcDb2dVertex
 10
103.510305421171
 20
118.0706569800309
 30
0.0
  0
SEQEND
  5
71E
330
71B
100
AcDbEntity
  8
BEMAßUNG
  0
POLYLINE
  5
71F
330
1F
100
AcDbEntity
  8
BEMAßUNG
 62
     7
100
AcDb2dPolyline
 66
     1
 10
0.0
 20
0.0
 30
0.0
  0
VERTEX
  5
720
330
71F
100
AcDbEntity
  8
BEMAßUNG
 62
     7
100
AcDbVertex
100
AcDb2dVertex
 10
102.3255370837936
 20
118.1216443932126
 30
0.0
  0
VERTEX
  5
721
330
71F
100
AcDbEntity
  8
BEMAßUNG
 62
     7
100
AcDbVertex
100
AcDb2dVertex
 10
103.896156115519
 20
118.1216443932126
 30
0.0
  0
SEQEND
  5
722
330
71F
100
AcDbEntity
  8
BEMAßUNG
  0
POLYLINE
  5
723
330
1F
100
AcDbEntity
  8
BEMAßUNG
 62
     7
100
AcDb2dPolyline
 66
     1
 10
0.0
 20
0.0
 30
0.0
  0
VERTEX
  5
724
330
723
100
AcDbEntity
  8
BEMAßUNG
 62
     7
100
AcDbVertex
100
AcDb2dVertex
 10
102.3255370837936
 20
118.1726318063943
 30
0.0
  0
VERTEX
  5
725
330
723
100
AcDbEntity
  8
BEMAßUNG
 62
     7
100
AcDbVertex
100
AcDb2dVertex
 10
104.2823513194155
 20
118.1726318063943
 30
0.0
  0
SEQEND
  5
726
330
723
100
AcDbEntity
  8
BEMAßUNG
  0
POLYLINE
  5
727
330
1F
100
AcDbEntity
  8
BEMAßUNG
 62
     7
100
AcDb2dPolyline
 66
     1
 10
0.0
 20
0.0
 30
0.0
  0
VERTEX
  5
728
330
727
100
AcDbEntity
  8
BEMAßUNG
 62
     7
100
AcDbVertex
100
AcDb2dVertex
 10
102.3255370837936
 20
118.2232747100275
 30
0.0
  0
VERTEX
  5
729
330
727
100
AcDbEntity
  8
BEMAßUNG
 62
     7
100
AcDbVertex
100
AcDb2dVertex
 10
104.6682020137635
 20
118.2232747100275
 30
0.0
  0
SEQEND
  5
72A
330
727
100
AcDbEntity
  8
BEMAßUNG
  0
POLYLINE
  5
72B
330
1F
100
AcDbEntity
  8
BEMAßUNG
 62
     7
100
AcDb2dPolyline
 66
     1
 10
0.0
 20
0.0
 30
0.0
  0
VERTEX
  5
72C
330
72B
100
AcDbEntity
  8
BEMAßUNG
 62
     7
100
AcDbVertex
100
AcDb2dVertex
 10
102.3255370837936
 20
118.2739176136607
 30
0.0
  0
VERTEX
  5
72D
330
72B
100
AcDbEntity
  8
BEMAßUNG
 62
     7
100
AcDbVertex
100
AcDb2dVertex
 10
105.053708198563
 20
118.2739176136607
 30
0.0
  0
SEQEND
  5
72E
330
72B
100
AcDbEntity
  8
BEMAßUNG
  0
POLYLINE
  5
72F
330
1F
100
AcDbEntity
  8
BEMAßUNG
 62
     7
100
AcDb2dPolyline
 66
     1
 10
0.0
 20
0.0
 30
0.0
  0
VERTEX
  5
730
330
72F
100
AcDbEntity
  8
BEMAßUNG
 62
     7
100
AcDbVertex
100
AcDb2dVertex
 10
102.3255370837936
 20
118.3249050268424
 30
0.0
  0
VERTEX
  5
731
330
72F
100
AcDbEntity
  8
BEMAßUNG
 62
     7
100
AcDbVertex
100
AcDb2dVertex
 10
105.439558892911
 20
118.3249050268424
 30
0.0
  0
SEQEND
  5
732
330
72F
100
AcDbEntity
  8
BEMAßUNG
  0
POLYLINE
  5
733
330
1F
100
AcDbEntity
  8
BEMAßUNG
 62
     7
100
AcDb2dPolyline
 66
     1
 10
0.0
 20
0.0
 30
0.0
  0
VERTEX
  5
734
330
733
100
AcDbEntity
  8
BEMAßUNG
 62
     7
100
AcDbVertex
100
AcDb2dVertex
 10
102.3255370837936
 20
118.375203420927
 30
0.0
  0
VERTEX
  5
735
330
733
100
AcDbEntity
  8
BEMAßUNG
 62
     7
100
AcDbVertex
100
AcDb2dVertex
 10
105.8257540968075
 20
118.375203420927
 30
0.0
  0
SEQEND
  5
736
330
733
100
AcDbEntity
  8
BEMAßUNG
  0
MTEXT
  5
738
330
1F
100
AcDbEntity
  8
TEXT
 62
     7
100
AcDbMText
 10
61.24690753677161
 20
229.889499182979
 30
0.0
 40
4.361611543412703
 41
0.0
 71
     7
 72
     1
  1
\fINDEX Univers 45 Light|b0|i0|c0|p34;\W1;ø20
  0
MTEXT
  5
739
330
1F
100
AcDbEntity
  8
TEXT
 62
     7
100
AcDbMText
 10
129.7577989041925
 20
170.3031276700978
 30
0.0
 40
4.361611543412703
 41
0.0
 71
     7
 72
     1
  1
\fINDEX Univers 45 Light|b0|i0|c0|p34;\W1;90
 11
-4.371139000186241E-8
 21
0.999999999999999
 31
0.0
  0
MTEXT
  5
73A
330
1F
100
AcDbEntity
  8
TEXT
 62
     7
100
AcDbMText
 10
119.9616698918846
 20
132.2194918831778
 30
0.0
 40
4.361611543412703
 41
0.0
 71
     7
 72
     1
  1
\fINDEX Univers 45 Light|b0|i0|c0|p34;\W1;19,5
 11
-4.371139000186241E-8
 21
0.999999999999999
 31
0.0
  0
MTEXT
  5
73B
330
1F
100
AcDbEntity
  8
TEXT
 62
     7
100
AcDbMText
 10
62.15469019713494
 20
119.8021619709175
 30
0.0
 40
4.361611543412703
 41
0.0
 71
     7
 72
     1
  1
\fINDEX Univers 45 Light|b0|i0|c0|p34;\W1;ø78
  0
ENDSEC
  0
SECTION
  2
OBJECTS
  0
DICTIONARY
  5
C
330
0
100
AcDbDictionary
  3
ACAD_GROUP
350
D
  3
ACAD_LAYOUT
350
1A
  3
ACAD_MLINESTYLE
350
17
  3
ACAD_PLOTSETTINGS
350
19
  3
ACAD_TABLESTYLE
350
75C
  3
ACAD_VISUALSTYLE
350
2A
  3
ACDBHEADERROUNDTRIPXREC
350
73C
  0
DICTIONARY
  5
D
102
{ACAD_REACTORS
330
C
102
}
330
C
100
AcDbDictionary
  0
DICTIONARY
  5
1A
102
{ACAD_REACTORS
330
C
102
}
330
C
100
AcDbDictionary
  0
DICTIONARY
  5
17
102
{ACAD_REACTORS
330
C
102
}
330
C
100
AcDbDictionary
  3
STANDARD
350
18
  0
DICTIONARY
  5
19
102
{ACAD_REACTORS
330
C
102
}
330
C
100
AcDbDictionary
  0
DICTIONARY
  5
75C
102
{ACAD_REACTORS
330
C
102
}
330
C
100
AcDbDictionary
  0
DICTIONARY
  5
2A
102
{ACAD_REACTORS
330
C
102
}
330
C
100
AcDbDictionary
  3
2DWIREFRAME
350
2F
  3
3D_HIDDEN
350
31
  3
3DWIREFRAME
350
30
  3
BASIC
350
32
  3
BRIGHTEN
350
36
  3
COLORCHANGE
350
3A
  3
CONCEPTUAL
350
34
  3
DIM
350
35
  3
FACEPATTERN
350
39
  3
FLAT
350
2B
  3
FLATWITHEDGES
350
2C
  3
GOURAUD
350
2D
  3
GOURAUDWITHEDGES
350
2E
  3
LINEPATTERN
350
38
  3
REALISTIC
350
33
  3
THICKEN
350
37
  0
DICTIONARY
  5
73C
102
{ACAD_REACTORS
330
C
102
}
330
C
100
AcDbDictionary
  3
CEPSNTYPE
350
745
  3
DIMSTYLEDATA
350
75B
  3
FINGERPRINTGUID
350
746
  3
HYPERLINKBASE
350
73F
  3
INSUNITS
350
744
  3
LAYOUTDICT
350
741
  3
LWETCUNION
350
743
  3
PLOTSETDICT
350
742
  3
PSVPSCALE
350
748
  3
PUCSBASE
350
74B
  3
PUCSORGBACK
350
751
  3
PUCSORGBOTTOM
350
74D
  3
PUCSORGFRONT
350
750
  3
PUCSORGLEFT
350
74E
  3
PUCSORGRIGHT
350
74F
  3
PUCSORGTOP
350
74C
  3
PUCSORTHOREF
350
749
  3
PUCSORTHOVIEW
350
74A
  3
STYLESHEET
350
740
  3
TSTACKALIGN
350
73D
  3
TSTACKSIZE
350
73E
  3
UCSBASE
350
754
  3
UCSORGBACK
350
75A
  3
UCSORGBOTTOM
350
756
  3
UCSORGFRONT
350
759
  3
UCSORGLEFT
350
757
  3
UCSORGRIGHT
350
758
  3
UCSORGTOP
350
755
  3
UCSORTHOREF
350
752
  3
UCSORTHOVIEW
350
753
  3
VERSIONGUID
350
747
  0
MLINESTYLE
  5
18
102
{ACAD_REACTORS
330
17
102
}
330
17
100
AcDbMlineStyle
  2
Standard
 70
     0
  3

 62
   256
 51
90.0
 52
90.0
 71
     2
 49
0.5
 62
   256
  6
BYLAYER
 49
-0.5
 62
   256
  6
BYLAYER
  0
VISUALSTYLE
  5
2F
102
{ACAD_REACTORS
330
2A
102
}
330
2A
100
AcDbVisualStyle
  2
2dWireframe
 70
     4
 71
     0
 72
     2
 73
     0
 90
        0
 40
-0.6
 41
-30.0
 62
     5
 63
     7
 74
     1
 91
        4
 64
     7
 65
   257
 75
     1
175
     1
 42
1.0
 92
        0
 66
   257
 43
1.0
 76
     1
 77
     6
 78
     2
 67
     7
 79
     5
170
     0
171
     0
290
     0
174
     0
 93
        1
 44
0.0
173
     0
291
     0
 45
0.0
1001
ACAD
1000
AcDbSavedByObjectVersion
1070
     0
  0
VISUALSTYLE
  5
31
102
{ACAD_REACTORS
330
2A
102
}
330
2A
100
AcDbVisualStyle
  2
3D Hidden
 70
     6
 71
     1
 72
     2
 73
     2
 90
        0
 40
-0.6
 41
-30.0
 62
     5
 63
     7
 74
     2
 91
        2
 64
     7
 65
   257
 75
     2
175
     1
 42
40.0
 92
        0
 66
   257
 43
1.0
 76
     1
 77
     6
 78
     2
 67
     7
 79
     3
170
     0
171
     0
290
     0
174
     0
 93
        1
 44
0.0
173
     0
291
     0
 45
0.0
1001
ACAD
1000
AcDbSavedByObjectVersion
1070
     0
  0
VISUALSTYLE
  5
30
102
{ACAD_REACTORS
330
2A
102
}
330
2A
100
AcDbVisualStyle
  2
3dWireframe
 70
     5
 71
     0
 72
     2
 73
     0
 90
        0
 40
-0.6
 41
-30.0
 62
     5
 63
     7
 74
     1
 91
        4
 64
     7
 65
   257
 75
     1
175
     1
 42
1.0
 92
        0
 66
   257
 43
1.0
 76
     1
 77
     6
 78
     2
 67
     7
 79
     5
170
     0
171
     0
290
     0
174
     0
 93
        1
 44
0.0
173
     0
291
     0
 45
0.0
1001
ACAD
1000
AcDbSavedByObjectVersion
1070
     0
  0
VISUALSTYLE
  5
32
102
{ACAD_REACTORS
330
2A
102
}
330
2A
100
AcDbVisualStyle
  2
Basic
 70
     7
 71
     1
 72
     0
 73
     1
 90
        0
 40
-0.6
 41
-30.0
 62
     5
 63
     7
 74
     0
 91
        4
 64
     7
 65
   257
 75
     1
175
     1
 42
1.0
 92
        8
 66
     7
 43
1.0
 76
     1
 77
     6
 78
     2
 67
     7
 79
     5
170
     0
171
     0
290
     0
174
     0
 93
        1
 44
0.0
173
     0
291
     1
 45
0.0
1001
ACAD
1000
AcDbSavedByObjectVersion
1070
     0
  0
VISUALSTYLE
  5
36
102
{ACAD_REACTORS
330
2A
102
}
330
2A
100
AcDbVisualStyle
  2
Brighten
 70
    12
 71
     2
 72
     2
 73
     0
 90
        0
 40
-0.6
 41
-30.0
 62
     5
 63
     7
 74
     1
 91
        4
 64
     7
 65
   257
 75
     1
175
     1
 42
1.0
 92
        8
 66
     7
 43
1.0
 76
     1
 77
     6
 78
     2
 67
     7
 79
     5
170
     0
171
     0
290
     0
174
     0
 93
        1
 44
50.0
173
     0
291
     1
 45
0.0
1001
ACAD
1000
AcDbSavedByObjectVersion
1070
     0
  0
VISUALSTYLE
  5
3A
102
{ACAD_REACTORS
330
2A
102
}
330
2A
100
AcDbVisualStyle
  2
ColorChange
 70
    16
 71
     2
 72
     2
 73
     3
 90
        0
 40
-0.6
 41
-30.0
 62
     5
 63
     8
 74
     1
 91
        4
 64
     7
 65
   257
 75
     1
175
     1
 42
1.0
 92
        8
 66
     8
 43
1.0
 76
     1
 77
     6
 78
     2
 67
     7
 79
     5
170
     0
171
     0
290
     0
174
     0
 93
        1
 44
0.0
173
     0
291
     1
 45
0.0
1001
ACAD
1000
AcDbSavedByObjectVersion
1070
     0
  0
VISUALSTYLE
  5
34
102
{ACAD_REACTORS
330
2A
102
}
330
2A
100
AcDbVisualStyle
  2
Conceptual
 70
     9
 71
     3
 72
     2
 73
     0
 90
        0
 40
-0.6
 41
-30.0
 62
     5
 63
     7
 74
     2
 91
        2
 64
     7
 65
   257
 75
     1
175
     1
 42
40.0
 92
        8
 66
     7
 43
1.0
 76
     1
 77
     6
 78
     2
 67
     7
 79
     3
170
     0
171
     0
290
     0
174
     0
 93
        1
 44
0.0
173
     0
291
     0
 45
0.0
1001
ACAD
1000
AcDbSavedByObjectVersion
1070
     0
  0
VISUALSTYLE
  5
35
102
{ACAD_REACTORS
330
2A
102
}
330
2A
100
AcDbVisualStyle
  2
Dim
 70
    11
 71
     2
 72
     2
 73
     0
 90
        0
 40
-0.6
 41
-30.0
 62
     5
 63
     7
 74
     1
 91
        4
 64
     7
 65
   257
 75
     1
175
     1
 42
1.0
 92
        8
 66
     7
 43
1.0
 76
     1
 77
     6
 78
     2
 67
     7
 79
     5
170
     0
171
     0
290
     0
174
     0
 93
        1
 44
-50.0
173
     0
291
     1
 45
0.0
1001
ACAD
1000
AcDbSavedByObjectVersion
1070
     0
  0
VISUALSTYLE
  5
39
102
{ACAD_REACTORS
330
2A
102
}
330
2A
100
AcDbVisualStyle
  2
Facepattern
 70
    15
 71
     2
 72
     2
 73
     0
 90
        0
 40
-0.6
 41
-30.0
 62
     5
 63
     7
 74
     1
 91
        4
 64
     7
 65
   257
 75
     1
175
     1
 42
1.0
 92
        8
 66
     7
 43
1.0
 76
     1
 77
     6
 78
     2
 67
     7
 79
     5
170
     0
171
     0
290
     0
174
     0
 93
        1
 44
0.0
173
     0
291
     1
 45
0.0
1001
ACAD
1000
AcDbSavedByObjectVersion
1070
     0
  0
VISUALSTYLE
  5
2B
102
{ACAD_REACTORS
330
2A
102
}
330
2A
100
AcDbVisualStyle
  2
Flat
 70
     0
 71
     2
 72
     1
 73
     1
 90
        2
 40
-0.6
 41
30.0
 62
     5
 63
     7
 74
     0
 91
        4
 64
     7
 65
   257
 75
     1
175
     1
 42
1.0
 92
        8
 66
     7
 43
1.0
 76
     1
 77
     6
 78
     2
 67
     7
 79
     5
170
     0
171
     0
290
     0
174
     0
 93
       13
 44
0.0
173
     0
291
     1
 45
0.0
1001
ACAD
1000
AcDbSavedByObjectVersion
1070
     0
  0
VISUALSTYLE
  5
2C
102
{ACAD_REACTORS
330
2A
102
}
330
2A
100
AcDbVisualStyle
  2
FlatWithEdges
 70
     1
 71
     2
 72
     1
 73
     1
 90
        2
 40
-0.6
 41
30.0
 62
     5
 63
     7
 74
     1
 91
        4
 64
     7
 65
   257
 75
     1
175
     1
 42
1.0
 92
        0
 66
   257
 43
1.0
 76
     1
 77
     6
 78
     2
 67
     7
 79
     5
170
     0
171
     0
290
     0
174
     0
 93
       13
 44
0.0
173
     0
291
     1
 45
0.0
1001
ACAD
1000
AcDbSavedByObjectVersion
1070
     0
  0
VISUALSTYLE
  5
2D
102
{ACAD_REACTORS
330
2A
102
}
330
2A
100
AcDbVisualStyle
  2
Gouraud
 70
     2
 71
     2
 72
     2
 73
     1
 90
        2
 40
-0.6
 41
30.0
 62
     5
 63
     7
 74
     0
 91
        4
 64
     7
 65
   257
 75
     1
175
     1
 42
1.0
 92
        0
 66
     7
 43
1.0
 76
     1
 77
     6
 78
     2
 67
     7
 79
     5
170
     0
171
     0
290
     0
174
     0
 93
       13
 44
0.0
173
     0
291
     1
 45
0.0
1001
ACAD
1000
AcDbSavedByObjectVersion
1070
     0
  0
VISUALSTYLE
  5
2E
102
{ACAD_REACTORS
330
2A
102
}
330
2A
100
AcDbVisualStyle
  2
GouraudWithEdges
 70
     3
 71
     2
 72
     2
 73
     1
 90
        2
 40
-0.6
 41
30.0
 62
     5
 63
     7
 74
     1
 91
        4
 64
     7
 65
   257
 75
     1
175
     1
 42
1.0
 92
        0
 66
   257
 43
1.0
 76
     1
 77
     6
 78
     2
 67
     7
 79
     5
170
     0
171
     0
290
     0
174
     0
 93
       13
 44
0.0
173
     0
291
     1
 45
0.0
1001
ACAD
1000
AcDbSavedByObjectVersion
1070
     0
  0
VISUALSTYLE
  5
38
102
{ACAD_REACTORS
330
2A
102
}
330
2A
100
AcDbVisualStyle
  2
Linepattern
 70
    14
 71
     2
 72
     2
 73
     0
 90
        0
 40
-0.6
 41
-30.0
 62
     5
 63
     7
 74
     1
 91
        4
 64
     7
 65
   257
 75
     7
175
     7
 42
1.0
 92
        8
 66
     7
 43
1.0
 76
     1
 77
     6
 78
     2
 67
     7
 79
     5
170
     0
171
     0
290
     0
174
     0
 93
        1
 44
0.0
173
     0
291
     1
 45
0.0
1001
ACAD
1000
AcDbSavedByObjectVersion
1070
     0
  0
VISUALSTYLE
  5
33
102
{ACAD_REACTORS
330
2A
102
}
330
2A
100
AcDbVisualStyle
  2
Realistic
 70
     8
 71
     2
 72
     2
 73
     0
 90
        0
 40
-0.6
 41
-30.0
 62
     5
 63
     7
 74
     1
 91
        0
 64
     7
 65
   257
 75
     1
175
     1
 42
1.0
 92
        8
 66
     8
 43
1.0
 76
     1
 77
     6
 78
     2
 67
     7
 79
     5
170
     0
171
     0
290
     0
174
     0
 93
       13
 44
0.0
173
     0
291
     0
 45
0.0
1001
ACAD
1000
AcDbSavedByObjectVersion
1070
     0
  0
VISUALSTYLE
  5
37
102
{ACAD_REACTORS
330
2A
102
}
330
2A
100
AcDbVisualStyle
  2
Thicken
 70
    13
 71
     2
 72
     2
 73
     0
 90
        0
 40
-0.6
 41
-30.0
 62
     5
 63
     7
 74
     1
 91
        4
 64
     7
 65
   257
 75
     1
175
     1
 42
1.0
 92
       12
 66
     7
 43
1.0
 76
     1
 77
     6
 78
     2
 67
     7
 79
     5
170
     0
171
     0
290
     0
174
     0
 93
        1
 44
0.0
173
     0
291
     1
 45
0.0
1001
ACAD
1000
AcDbSavedByObjectVersion
1070
     0
  0
XRECORD
  5
745
102
{ACAD_REACTORS
330
73C
102
}
330
73C
100
AcDbXrecord
 90
        0
  0
XRECORD
  5
75B
102
{ACAD_REACTORS
330
73C
102
}
330
73C
100
AcDbXrecord
1000
DSTYLE
1002
{
1070
   340
340
11
1002
}
  0
XRECORD
  5
746
102
{ACAD_REACTORS
330
73C
102
}
330
73C
100
AcDbXrecord
  1
{FF783775-0C11-4D0F-81B3-D608740CCBCF}
  0
XRECORD
  5
73F
102
{ACAD_REACTORS
330
73C
102
}
330
73C
100
AcDbXrecord
  1

  0
XRECORD
  5
744
102
{ACAD_REACTORS
330
73C
102
}
330
73C
100
AcDbXrecord
 90
        1
  0
XRECORD
  5
741
102
{ACAD_REACTORS
330
73C
102
}
330
73C
100
AcDbXrecord
340
1A
  0
XRECORD
  5
743
102
{ACAD_REACTORS
330
73C
102
}
330
73C
100
AcDbXrecord
 90
    10269
  0
XRECORD
  5
742
102
{ACAD_REACTORS
330
73C
102
}
330
73C
100
AcDbXrecord
340
19
  0
XRECORD
  5
748
102
{ACAD_REACTORS
330
73C
102
}
330
73C
100
AcDbXrecord
 40
0.0
  0
XRECORD
  5
74B
102
{ACAD_REACTORS
330
73C
102
}
330
73C
100
AcDbXrecord
340
0
  0
XRECORD
  5
751
102
{ACAD_REACTORS
330
73C
102
}
330
73C
100
AcDbXrecord
 10
0.0
 20
0.0
 30
0.0
  0
XRECORD
  5
74D
102
{ACAD_REACTORS
330
73C
102
}
330
73C
100
AcDbXrecord
 10
0.0
 20
0.0
 30
0.0
  0
XRECORD
  5
750
102
{ACAD_REACTORS
330
73C
102
}
330
73C
100
AcDbXrecord
 10
0.0
 20
0.0
 30
0.0
  0
XRECORD
  5
74E
102
{ACAD_REACTORS
330
73C
102
}
330
73C
100
AcDbXrecord
 10
0.0
 20
0.0
 30
0.0
  0
XRECORD
  5
74F
102
{ACAD_REACTORS
330
73C
102
}
330
73C
100
AcDbXrecord
 10
0.0
 20
0.0
 30
0.0
  0
XRECORD
  5
74C
102
{ACAD_REACTORS
330
73C
102
}
330
73C
100
AcDbXrecord
 10
0.0
 20
0.0
 30
0.0
  0
XRECORD
  5
749
102
{ACAD_REACTORS
330
73C
102
}
330
73C
100
AcDbXrecord
340
0
  0
XRECORD
  5
74A
102
{ACAD_REACTORS
330
73C
102
}
330
73C
100
AcDbXrecord
 70
     0
  0
XRECORD
  5
740
102
{ACAD_REACTORS
330
73C
102
}
330
73C
100
AcDbXrecord
  1

  0
XRECORD
  5
73D
102
{ACAD_REACTORS
330
73C
102
}
330
73C
100
AcDbXrecord
 90
        1
  0
XRECORD
  5
73E
102
{ACAD_REACTORS
330
73C
102
}
330
73C
100
AcDbXrecord
 90
       70
  0
XRECORD
  5
754
102
{ACAD_REACTORS
330
73C
102
}
330
73C
100
AcDbXrecord
340
0
  0
XRECORD
  5
75A
102
{ACAD_REACTORS
330
73C
102
}
330
73C
100
AcDbXrecord
 10
0.0
 20
0.0
 30
0.0
  0
XRECORD
  5
756
102
{ACAD_REACTORS
330
73C
102
}
330
73C
100
AcDbXrecord
 10
0.0
 20
0.0
 30
0.0
  0
XRECORD
  5
759
102
{ACAD_REACTORS
330
73C
102
}
330
73C
100
AcDbXrecord
 10
0.0
 20
0.0
 30
0.0
  0
XRECORD
  5
757
102
{ACAD_REACTORS
330
73C
102
}
330
73C
100
AcDbXrecord
 10
0.0
 20
0.0
 30
0.0
  0
XRECORD
  5
758
102
{ACAD_REACTORS
330
73C
102
}
330
73C
100
AcDbXrecord
 10
0.0
 20
0.0
 30
0.0
  0
XRECORD
  5
755
102
{ACAD_REACTORS
330
73C
102
}
330
73C
100
AcDbXrecord
 10
0.0
 20
0.0
 30
0.0
  0
XRECORD
  5
752
102
{ACAD_REACTORS
330
73C
102
}
330
73C
100
AcDbXrecord
340
0
  0
XRECORD
  5
753
102
{ACAD_REACTORS
330
73C
102
}
330
73C
100
AcDbXrecord
 70
     0
  0
XRECORD
  5
747
102
{ACAD_REACTORS
330
73C
102
}
330
73C
100
AcDbXrecord
  1
{FAEB1C32-E019-11D5-929B-00C0DF256EC4}
  0
ENDSEC
  0
EOF
