  0
SECTION
  2
HEADER
  9
$ACADVER
  1
AC1014
  9
$ACADMAINTVER
 70
     9
  9
$DWGCODEPAGE
  3
ANSI_1252
  9
$INSBASE
 10
0.0
 20
0.0
 30
0.0
  9
$EXTMIN
 10
1.000000000000000E+20
 20
1.000000000000000E+20
 30
1.000000000000000E+20
  9
$EXTMAX
 10
-1.000000000000000E+20
 20
-1.000000000000000E+20
 30
-1.000000000000000E+20
  9
$LIMMIN
 10
0.0
 20
0.0
  9
$LIMMAX
 10
12.0
 20
9.0
  9
$ORTHOMODE
 70
     0
  9
$REGENMODE
 70
     1
  9
$FILLMODE
 70
     1
  9
$QTEXTMODE
 70
     0
  9
$MIRRTEXT
 70
     1
  9
$DRAGMODE
 70
     2
  9
$LTSCALE
 40
1.0
  9
$OSMODE
 70
    37
  9
$ATTMODE
 70
     1
  9
$TEXTSIZE
 40
0.2
  9
$TRACEWID
 40
0.05
  9
$TEXTSTYLE
  7
STANDARD
  9
$CLAYER
  8
0
  9
$CELTYPE
  6
BYLAYER
  9
$CECOLOR
 62
   256
  9
$CELTSCALE
 40
1.0
  9
$DELOBJ
 70
     1
  9
$DISPSILH
 70
     0
  9
$DIMSCALE
 40
1.0
  9
$DIMASZ
 40
0.18
  9
$DIMEXO
 40
0.0625
  9
$DIMDLI
 40
0.38
  9
$DIMRND
 40
0.0
  9
$DIMDLE
 40
0.0
  9
$DIMEXE
 40
0.18
  9
$DIMTP
 40
0.0
  9
$DIMTM
 40
0.0
  9
$DIMTXT
 40
0.18
  9
$DIMCEN
 40
0.09
  9
$DIMTSZ
 40
0.0
  9
$DIMTOL
 70
     0
  9
$DIMLIM
 70
     0
  9
$DIMTIH
 70
     1
  9
$DIMTOH
 70
     1
  9
$DIMSE1
 70
     0
  9
$DIMSE2
 70
     0
  9
$DIMTAD
 70
     0
  9
$DIMZIN
 70
     0
  9
$DIMBLK
  1

  9
$DIMASO
 70
     1
  9
$DIMSHO
 70
     1
  9
$DIMPOST
  1

  9
$DIMAPOST
  1

  9
$DIMALT
 70
     0
  9
$DIMALTD
 70
     2
  9
$DIMALTF
 40
25.4
  9
$DIMLFAC
 40
1.0
  9
$DIMTOFL
 70
     0
  9
$DIMTVP
 40
0.0
  9
$DIMTIX
 70
     0
  9
$DIMSOXD
 70
     0
  9
$DIMSAH
 70
     0
  9
$DIMBLK1
  1

  9
$DIMBLK2
  1

  9
$DIMSTYLE
  2
STANDARD
  9
$DIMCLRD
 70
     0
  9
$DIMCLRE
 70
     0
  9
$DIMCLRT
 70
     0
  9
$DIMTFAC
 40
1.0
  9
$DIMGAP
 40
0.09
  9
$DIMJUST
 70
     0
  9
$DIMSD1
 70
     0
  9
$DIMSD2
 70
     0
  9
$DIMTOLJ
 70
     1
  9
$DIMTZIN
 70
     0
  9
$DIMALTZ
 70
     0
  9
$DIMALTTZ
 70
     0
  9
$DIMFIT
 70
     3
  9
$DIMUPT
 70
     0
  9
$DIMUNIT
 70
     2
  9
$DIMDEC
 70
     4
  9
$DIMTDEC
 70
     4
  9
$DIMALTU
 70
     2
  9
$DIMALTTD
 70
     2
  9
$DIMTXSTY
  7
STANDARD
  9
$DIMAUNIT
 70
     0
  9
$LUNITS
 70
     2
  9
$LUPREC
 70
     4
  9
$SKETCHINC
 40
0.1
  9
$FILLETRAD
 40
0.5
  9
$AUNITS
 70
     0
  9
$AUPREC
 70
     0
  9
$MENU
  1
.
  9
$ELEVATION
 40
0.0
  9
$PELEVATION
 40
0.0
  9
$THICKNESS
 40
0.0
  9
$LIMCHECK
 70
     0
  9
$CHAMFERA
 40
0.5
  9
$CHAMFERB
 40
0.5
  9
$CHAMFERC
 40
1.0
  9
$CHAMFERD
 40
0.0
  9
$SKPOLY
 70
     0
  9
$TDCREATE
 40
2458284.413413877
  9
$TDUPDATE
 40
2458284.413413889
  9
$TDINDWG
 40
0.0000000116
  9
$TDUSRTIMER
 40
0.0000000116
  9
$USRTIMER
 70
     1
  9
$ANGBASE
 50
0.0
  9
$ANGDIR
 70
     0
  9
$PDMODE
 70
     0
  9
$PDSIZE
 40
0.0
  9
$PLINEWID
 40
0.0
  9
$COORDS
 70
     1
  9
$SPLFRAME
 70
     0
  9
$SPLINETYPE
 70
     6
  9
$SPLINESEGS
 70
     8
  9
$ATTDIA
 70
     0
  9
$ATTREQ
 70
     1
  9
$HANDLING
 70
     1
  9
$HANDSEED
  5
6A9
  9
$SURFTAB1
 70
     6
  9
$SURFTAB2
 70
     6
  9
$SURFTYPE
 70
     6
  9
$SURFU
 70
     6
  9
$SURFV
 70
     6
  9
$UCSNAME
  2

  9
$UCSORG
 10
0.0
 20
0.0
 30
0.0
  9
$UCSXDIR
 10
1.0
 20
0.0
 30
0.0
  9
$UCSYDIR
 10
0.0
 20
1.0
 30
0.0
  9
$PUCSNAME
  2

  9
$PUCSORG
 10
0.0
 20
0.0
 30
0.0
  9
$PUCSXDIR
 10
1.0
 20
0.0
 30
0.0
  9
$PUCSYDIR
 10
0.0
 20
1.0
 30
0.0
  9
$USERI1
 70
     0
  9
$USERI2
 70
     0
  9
$USERI3
 70
     0
  9
$USERI4
 70
     0
  9
$USERI5
 70
     0
  9
$USERR1
 40
0.0
  9
$USERR2
 40
0.0
  9
$USERR3
 40
0.0
  9
$USERR4
 40
0.0
  9
$USERR5
 40
0.0
  9
$WORLDVIEW
 70
     1
  9
$SHADEDGE
 70
     3
  9
$SHADEDIF
 70
    70
  9
$TILEMODE
 70
     1
  9
$MAXACTVP
 70
    64
  9
$PINSBASE
 10
0.0
 20
0.0
 30
0.0
  9
$PLIMCHECK
 70
     0
  9
$PEXTMIN
 10
1.000000000000000E+20
 20
1.000000000000000E+20
 30
1.000000000000000E+20
  9
$PEXTMAX
 10
-1.000000000000000E+20
 20
-1.000000000000000E+20
 30
-1.000000000000000E+20
  9
$PLIMMIN
 10
0.0
 20
0.0
  9
$PLIMMAX
 10
12.0
 20
9.0
  9
$UNITMODE
 70
     0
  9
$VISRETAIN
 70
     1
  9
$PLINEGEN
 70
     0
  9
$PSLTSCALE
 70
     1
  9
$TREEDEPTH
 70
  3020
  9
$PICKSTYLE
 70
     1
  9
$CMLSTYLE
  2
STANDARD
  9
$CMLJUST
 70
     0
  9
$CMLSCALE
 40
1.0
  9
$PROXYGRAPHICS
 70
     1
  9
$MEASUREMENT
 70
     0
  0
ENDSEC
  0
SECTION
  2
CLASSES
  0
CLASS
  1
ACDBDICTIONARYWDFLT
  2
AcDbDictionaryWithDefault
  3
ObjectDBX Classes
 90
        0
280
     0
281
     0
  0
CLASS
  1
VISUALSTYLE
  2
AcDbVisualStyle
  3
ObjectDBX Classes
 90
     4095
280
     0
281
     0
  0
CLASS
  1
XRECORD
  2
AcDbXrecord
  3
AutoCAD 2000
 90
        0
280
     0
281
     0
  0
CLASS
  1
LWPOLYLINE
  2
AcDbPolyline
  3
AutoCAD 2000
 90
        0
280
     0
281
     1
  0
CLASS
  1
HATCH
  2
AcDbHatch
  3
AutoCAD 2000
 90
        0
280
     0
281
     1
  0
CLASS
  1
ACDBPLACEHOLDER
  2
AcDbPlaceHolder
  3
ObjectDBX Classes
 90
        0
280
     0
281
     0
  0
CLASS
  1
LAYOUT
  2
AcDbLayout
  3
ObjectDBX Classes
 90
        0
280
     0
281
     0
  0
ENDSEC
  0
SECTION
  2
TABLES
  0
TABLE
  2
VPORT
  5
8
330
0
100
AcDbSymbolTable
 70
     1
  0
VPORT
  5
29
330
8
100
AcDbSymbolTableRecord
100
AcDbViewportTableRecord
  2
*ACTIVE
 70
     0
 10
0.0
 20
0.0
 11
1.0
 21
1.0
 12
0.0
 22
0.0
 13
0.0
 23
0.0
 14
0.5
 24
0.5
 15
0.5
 25
0.5
 16
0.0
 26
0.0
 36
1.0
 17
-2.73828125
 27
-151.6982421875
 37
0.0
 40
620.0
 41
1.188709677419355
 42
50.0
 43
0.0
 44
0.0
 50
0.0
 51
0.0
 71
     0
 72
   100
 73
     1
 74
     3
 75
     0
 76
     0
 77
     0
 78
     0
  0
ENDTAB
  0
TABLE
  2
LTYPE
  5
5
330
0
100
AcDbSymbolTable
 70
     2
  0
LTYPE
  5
14
330
5
100
AcDbSymbolTableRecord
100
AcDbLinetypeTableRecord
  2
BYBLOCK
 70
     0
  3

 72
    65
 73
     0
 40
0.0
  0
LTYPE
  5
15
330
5
100
AcDbSymbolTableRecord
100
AcDbLinetypeTableRecord
  2
BYLAYER
 70
     0
  3

 72
    65
 73
     0
 40
0.0
  0
LTYPE
  5
16
330
5
100
AcDbSymbolTableRecord
100
AcDbLinetypeTableRecord
  2
CONTINUOUS
 70
     0
  3
Solid line
 72
    65
 73
     0
 40
0.0
  0
LTYPE
  5
39A
330
5
100
AcDbSymbolTableRecord
100
AcDbLinetypeTableRecord
  2
AI-LINETYPE-1
 70
     0
  3
Adobe Illustrator Linetype No. 1
 72
    65
 73
     4
 40
25.0
 49
20.0
 74
     0
 49
-2.0
 74
     0
 49
1.0
 74
     0
 49
-2.0
 74
     0
  0
ENDTAB
  0
TABLE
  2
LAYER
  5
2
330
0
100
AcDbSymbolTable
 70
     5
  0
LAYER
  5
10
330
2
100
AcDbSymbolTableRecord
100
AcDbLayerTableRecord
  2
0
 70
     0
 62
     7
  6
CONTINUOUS
  0
LAYER
  5
3B
330
2
100
AcDbSymbolTableRecord
100
AcDbLayerTableRecord
  2
GRAU_10_
 70
     1
 62
     7
  6
CONTINUOUS
  0
LAYER
  5
3E
330
2
100
AcDbSymbolTableRecord
100
AcDbLayerTableRecord
  2
STANDARDEBENE
 70
     0
 62
     7
  6
CONTINUOUS
  0
LAYER
  5
5BD
330
2
100
AcDbSymbolTableRecord
100
AcDbLayerTableRecord
  2
BEMAßUNG
 70
     1
 62
     7
  6
CONTINUOUS
  0
LAYER
  5
686
330
2
100
AcDbSymbolTableRecord
100
AcDbLayerTableRecord
  2
TEXT
 70
     1
 62
     7
  6
CONTINUOUS
  0
ENDTAB
  0
TABLE
  2
STYLE
  5
3
330
0
100
AcDbSymbolTable
 70
     1
  0
STYLE
  5
11
330
3
100
AcDbSymbolTableRecord
100
AcDbTextStyleTableRecord
  2
STANDARD
 70
     0
 40
0.0
 41
1.0
 50
0.0
 71
     0
 42
0.2
  3
txt
  4

  0
ENDTAB
  0
TABLE
  2
VIEW
  5
6
330
0
100
AcDbSymbolTable
 70
     0
  0
ENDTAB
  0
TABLE
  2
UCS
  5
7
330
0
100
AcDbSymbolTable
 70
     0
  0
ENDTAB
  0
TABLE
  2
APPID
  5
9
330
0
100
AcDbSymbolTable
 70
     1
  0
APPID
  5
12
330
9
100
AcDbSymbolTableRecord
100
AcDbRegAppTableRecord
  2
ACAD
 70
     0
  0
ENDTAB
  0
TABLE
  2
DIMSTYLE
  5
A
330
0
100
AcDbSymbolTable
 70
     1
  0
DIMSTYLE
105
27
330
A
100
AcDbSymbolTableRecord
100
AcDbDimStyleTableRecord
  2
STANDARD
 70
     0
  3

  4

  5

  6

  7

 40
1.0
 41
0.18
 42
0.0625
 43
0.38
 44
0.18
 45
0.0
 46
0.0
 47
0.0
 48
0.0
140
0.18
141
0.09
142
0.0
143
25.4
144
1.0
145
0.0
146
1.0
147
0.09
 71
     0
 72
     0
 73
     1
 74
     1
 75
     0
 76
     0
 77
     0
 78
     0
170
     0
171
     2
172
     0
173
     0
174
     0
175
     0
176
     0
177
     0
178
     0
270
     2
271
     4
272
     4
273
     2
274
     2
340
11
275
     0
280
     0
281
     0
282
     0
283
     1
284
     0
285
     0
286
     0
287
     3
288
     0
  0
ENDTAB
  0
TABLE
  2
BLOCK_RECORD
  5
1
330
0
100
AcDbSymbolTable
 70
     1
  0
BLOCK_RECORD
  5
1F
330
1
100
AcDbSymbolTableRecord
100
AcDbBlockTableRecord
  2
*MODEL_SPACE
  0
BLOCK_RECORD
  5
1B
330
1
100
AcDbSymbolTableRecord
100
AcDbBlockTableRecord
  2
*PAPER_SPACE
  0
ENDTAB
  0
ENDSEC
  0
SECTION
  2
BLOCKS
  0
BLOCK
  5
20
330
1F
100
AcDbEntity
  8
0
100
AcDbBlockBegin
  2
*MODEL_SPACE
 70
     0
 71
     0
 10
0.0
 20
0.0
 30
0.0
  3
*MODEL_SPACE
  1

  0
ENDBLK
  5
21
330
1F
100
AcDbEntity
  8
0
100
AcDbBlockEnd
  0
BLOCK
  5
1C
330
1B
100
AcDbEntity
 67
     1
  8
0
100
AcDbBlockBegin
  2
*PAPER_SPACE
 70
     0
 71
     0
 10
0.0
 20
0.0
 30
0.0
  3
*PAPER_SPACE
  1

  0
ENDBLK
  5
1D
330
1B
100
AcDbEntity
 67
     1
  8
0
100
AcDbBlockEnd
  0
ENDSEC
  0
SECTION
  2
ENTITIES
  0
SPLINE
  5
3C
330
1F
100
AcDbEntity
  8
GRAU_10_
100
AcDbSpline
210
0.0
220
0.0
230
1.0
 70
    11
 71
     3
 72
    98
 73
    94
 74
     0
 42
0.0000000001
 43
0.0000000001
 40
0.0
 40
0.0
 40
0.0
 40
0.0
 40
1.0
 40
1.0
 40
1.0
 40
2.0
 40
2.0
 40
2.0
 40
3.0
 40
3.0
 40
3.0
 40
4.0
 40
4.0
 40
4.0
 40
5.0
 40
5.0
 40
5.0
 40
6.0
 40
6.0
 40
6.0
 40
7.0
 40
7.0
 40
7.0
 40
8.0
 40
8.0
 40
8.0
 40
9.0
 40
9.0
 40
9.0
 40
10.0
 40
10.0
 40
10.0
 40
11.0
 40
11.0
 40
11.0
 40
12.0
 40
12.0
 40
12.0
 40
13.0
 40
13.0
 40
13.0
 40
14.0
 40
14.0
 40
14.0
 40
15.0
 40
15.0
 40
15.0
 40
16.0
 40
16.0
 40
16.0
 40
17.0
 40
17.0
 40
17.0
 40
18.0
 40
18.0
 40
18.0
 40
19.0
 40
19.0
 40
19.0
 40
20.0
 40
20.0
 40
20.0
 40
21.0
 40
21.0
 40
21.0
 40
22.0
 40
22.0
 40
22.0
 40
23.0
 40
23.0
 40
23.0
 40
24.0
 40
24.0
 40
24.0
 40
25.0
 40
25.0
 40
25.0
 40
26.0
 40
26.0
 40
26.0
 40
27.0
 40
27.0
 40
27.0
 40
28.0
 40
28.0
 40
28.0
 40
29.0
 40
29.0
 40
29.0
 40
30.0
 40
30.0
 40
30.0
 40
31.0
 40
31.0
 40
31.0
 40
31.0
 10
-176.45703125
 20
-77.537109375
 30
0.0
 10
-176.45703125
 20
-77.537109375
 30
0.0
 10
-203.0087890625
 20
-61.650390625
 30
0.0
 10
-203.0087890625
 20
-61.650390625
 30
0.0
 10
-203.0087890625
 20
-61.650390625
 30
0.0
 10
-203.4443359375
 20
-6.583984375
 30
0.0
 10
-203.4443359375
 20
-6.583984375
 30
0.0
 10
-203.4443359375
 20
-6.583984375
 30
0.0
 10
-196.525390625
 20
-6.431640625
 30
0.0
 10
-196.525390625
 20
-6.431640625
 30
0.0
 10
-196.525390625
 20
-6.431640625
 30
0.0
 10
-193.6064453125
 20
-11.669921875
 30
0.0
 10
-190.08203125
 20
-11.669921875
 30
0.0
 10
-186.5576171875
 20
-11.669921875
 30
0.0
 10
-182.529296875
 20
-7.943359375
 30
0.0
 10
-182.529296875
 20
-7.037109375
 30
0.0
 10
-182.529296875
 20
-6.130859375
 30
0.0
 10
-33.30859375
 20
-6.736328125
 30
0.0
 10
-33.30859375
 20
-6.736328125
 30
0.0
 10
-33.30859375
 20
-6.736328125
 30
0.0
 10
-33.208984375
 20
-2.001953125
 30
0.0
 10
-33.208984375
 20
-2.001953125
 30
0.0
 10
-33.208984375
 20
-2.001953125
 30
0.0
 10
-181.9267578125
 20
-2.001953125
 30
0.0
 10
-181.9267578125
 20
-2.001953125
 30
0.0
 10
-181.9267578125
 20
-2.001953125
 30
0.0
 10
-184.2431640625
 20
2.830078125
 30
0.0
 10
-188.9755859375
 20
2.931640625
 30
0.0
 10
-193.7080078125
 20
3.033203125
 30
0.0
 10
-195.62109375
 20
-1.599609375
 30
0.0
 10
-195.62109375
 20
-1.599609375
 30
0.0
 10
-195.62109375
 20
-1.599609375
 30
0.0
 10
-203.2734375
 20
-1.396484375
 30
0.0
 10
-203.2734375
 20
-1.396484375
 30
0.0
 10
-203.2734375
 20
-1.396484375
 30
0.0
 10
-203.474609375
 20
52.169921875
 30
0.0
 10
-203.474609375
 20
52.169921875
 30
0.0
 10
-203.474609375
 20
52.169921875
 30
0.0
 10
-202.8701171875
 20
53.580078125
 30
0.0
 10
-202.4677734375
 20
53.8828125
 30
0.0
 10
-202.0654296875
 20
54.185546875
 30
0.0
 10
-177.3955078125
 20
68.884765625
 30
0.0
 10
-177.3955078125
 20
68.884765625
 30
0.0
 10
-177.3955078125
 20
68.884765625
 30
0.0
 10
-175.9853515625
 20
68.884765625
 30
0.0
 10
-175.9853515625
 20
68.884765625
 30
0.0
 10
-175.9853515625
 20
68.884765625
 30
0.0
 10
-174.978515625
 20
67.87890625
 30
0.0
 10
-174.978515625
 20
67.87890625
 30
0.0
 10
-174.978515625
 20
67.87890625
 30
0.0
 10
-174.77734375
 20
58.111328125
 30
0.0
 10
-174.77734375
 20
58.111328125
 30
0.0
 10
-174.77734375
 20
58.111328125
 30
0.0
 10
-157.7607421875
 20
58.314453125
 30
0.0
 10
-157.7607421875
 20
58.314453125
 30
0.0
 10
-157.7607421875
 20
58.314453125
 30
0.0
 10
-157.2568359375
 20
67.677734375
 30
0.0
 10
-157.2568359375
 20
67.677734375
 30
0.0
 10
-157.2568359375
 20
67.677734375
 30
0.0
 10
-155.646484375
 20
69.287109375
 30
0.0
 10
-155.646484375
 20
69.287109375
 30
0.0
 10
-155.646484375
 20
69.287109375
 30
0.0
 10
-13.56640625
 20
49.3515625
 30
0.0
 10
-13.56640625
 20
49.3515625
 30
0.0
 10
-13.56640625
 20
49.3515625
 30
0.0
 10
-10.34765625
 20
47.439453125
 30
0.0
 10
-10.34765625
 20
47.439453125
 30
0.0
 10
-10.34765625
 20
47.439453125
 30
0.0
 10
-10.041015625
 20
-55.5703125
 30
0.0
 10
-10.041015625
 20
-55.5703125
 30
0.0
 10
-10.041015625
 20
-55.5703125
 30
0.0
 10
-13.06640625
 20
-57.68359375
 30
0.0
 10
-13.06640625
 20
-57.68359375
 30
0.0
 10
-13.06640625
 20
-57.68359375
 30
0.0
 10
-155.138671875
 20
-77.8203125
 30
0.0
 10
-155.138671875
 20
-77.8203125
 30
0.0
 10
-155.138671875
 20
-77.8203125
 30
0.0
 10
-157.25390625
 20
-76.310546875
 30
0.0
 10
-157.25390625
 20
-76.310546875
 30
0.0
 10
-157.25390625
 20
-76.310546875
 30
0.0
 10
-157.5556640625
 20
-66.2421875
 30
0.0
 10
-157.5556640625
 20
-66.2421875
 30
0.0
 10
-157.5556640625
 20
-66.2421875
 30
0.0
 10
-174.9755859375
 20
-66.34375
 30
0.0
 10
-174.9755859375
 20
-66.34375
 30
0.0
 10
-174.9755859375
 20
-66.34375
 30
0.0
 10
-174.9755859375
 20
-76.009765625
 30
0.0
 10
-174.9755859375
 20
-76.009765625
 30
0.0
 10
-174.9755859375
 20
-76.009765625
 30
0.0
 10
-175.478515625
 20
-77.318359375
 30
0.0
 10
-175.478515625
 20
-77.318359375
 30
0.0
 10
-175.478515625
 20
-77.318359375
 30
0.0
 10
-176.45703125
 20
-77.537109375
 30
0.0
 10
-176.45703125
 20
-77.537109375
 30
0.0
  0
HATCH
  5
3D
330
1F
100
AcDbEntity
  8
GRAU_10_
 62
   255
100
AcDbHatch
 10
0.0
 20
0.0
 30
0.0
210
0.0
220
0.0
230
1.0
  2
SOLID
 70
     1
 71
     0
 91
        1
 92
        1
 93
        1
 72
     4
 94
        3
 73
     0
 74
     1
 95
       98
 96
       94
 40
0.0
 40
0.0
 40
0.0
 40
0.0
 40
1.0
 40
1.0
 40
1.0
 40
2.0
 40
2.0
 40
2.0
 40
3.0
 40
3.0
 40
3.0
 40
4.0
 40
4.0
 40
4.0
 40
5.0
 40
5.0
 40
5.0
 40
6.0
 40
6.0
 40
6.0
 40
7.0
 40
7.0
 40
7.0
 40
8.0
 40
8.0
 40
8.0
 40
9.0
 40
9.0
 40
9.0
 40
10.0
 40
10.0
 40
10.0
 40
11.0
 40
11.0
 40
11.0
 40
12.0
 40
12.0
 40
12.0
 40
13.0
 40
13.0
 40
13.0
 40
14.0
 40
14.0
 40
14.0
 40
15.0
 40
15.0
 40
15.0
 40
16.0
 40
16.0
 40
16.0
 40
17.0
 40
17.0
 40
17.0
 40
18.0
 40
18.0
 40
18.0
 40
19.0
 40
19.0
 40
19.0
 40
20.0
 40
20.0
 40
20.0
 40
21.0
 40
21.0
 40
21.0
 40
22.0
 40
22.0
 40
22.0
 40
23.0
 40
23.0
 40
23.0
 40
24.0
 40
24.0
 40
24.0
 40
25.0
 40
25.0
 40
25.0
 40
26.0
 40
26.0
 40
26.0
 40
27.0
 40
27.0
 40
27.0
 40
28.0
 40
28.0
 40
28.0
 40
29.0
 40
29.0
 40
29.0
 40
30.0
 40
30.0
 40
30.0
 40
31.0
 40
31.0
 40
31.0
 40
31.0
 10
-176.45703125
 20
-77.537109375
 10
-176.45703125
 20
-77.537109375
 10
-203.0087890625
 20
-61.650390625
 10
-203.0087890625
 20
-61.650390625
 10
-203.0087890625
 20
-61.650390625
 10
-203.4443359375
 20
-6.583984375
 10
-203.4443359375
 20
-6.583984375
 10
-203.4443359375
 20
-6.583984375
 10
-196.525390625
 20
-6.431640625
 10
-196.525390625
 20
-6.431640625
 10
-196.525390625
 20
-6.431640625
 10
-193.6064453125
 20
-11.669921875
 10
-190.08203125
 20
-11.669921875
 10
-186.5576171875
 20
-11.669921875
 10
-182.529296875
 20
-7.943359375
 10
-182.529296875
 20
-7.037109375
 10
-182.529296875
 20
-6.130859375
 10
-33.30859375
 20
-6.736328125
 10
-33.30859375
 20
-6.736328125
 10
-33.30859375
 20
-6.736328125
 10
-33.208984375
 20
-2.001953125
 10
-33.208984375
 20
-2.001953125
 10
-33.208984375
 20
-2.001953125
 10
-181.9267578125
 20
-2.001953125
 10
-181.9267578125
 20
-2.001953125
 10
-181.9267578125
 20
-2.001953125
 10
-184.2431640625
 20
2.830078125
 10
-188.9755859375
 20
2.931640625
 10
-193.7080078125
 20
3.033203125
 10
-195.62109375
 20
-1.599609375
 10
-195.62109375
 20
-1.599609375
 10
-195.62109375
 20
-1.599609375
 10
-203.2734375
 20
-1.396484375
 10
-203.2734375
 20
-1.396484375
 10
-203.2734375
 20
-1.396484375
 10
-203.474609375
 20
52.169921875
 10
-203.474609375
 20
52.169921875
 10
-203.474609375
 20
52.169921875
 10
-202.8701171875
 20
53.580078125
 10
-202.4677734375
 20
53.8828125
 10
-202.0654296875
 20
54.185546875
 10
-177.3955078125
 20
68.884765625
 10
-177.3955078125
 20
68.884765625
 10
-177.3955078125
 20
68.884765625
 10
-175.9853515625
 20
68.884765625
 10
-175.9853515625
 20
68.884765625
 10
-175.9853515625
 20
68.884765625
 10
-174.978515625
 20
67.87890625
 10
-174.978515625
 20
67.87890625
 10
-174.978515625
 20
67.87890625
 10
-174.77734375
 20
58.111328125
 10
-174.77734375
 20
58.111328125
 10
-174.77734375
 20
58.111328125
 10
-157.7607421875
 20
58.314453125
 10
-157.7607421875
 20
58.314453125
 10
-157.7607421875
 20
58.314453125
 10
-157.2568359375
 20
67.677734375
 10
-157.2568359375
 20
67.677734375
 10
-157.2568359375
 20
67.677734375
 10
-155.646484375
 20
69.287109375
 10
-155.646484375
 20
69.287109375
 10
-155.646484375
 20
69.287109375
 10
-13.56640625
 20
49.3515625
 10
-13.56640625
 20
49.3515625
 10
-13.56640625
 20
49.3515625
 10
-10.34765625
 20
47.439453125
 10
-10.34765625
 20
47.439453125
 10
-10.34765625
 20
47.439453125
 10
-10.041015625
 20
-55.5703125
 10
-10.041015625
 20
-55.5703125
 10
-10.041015625
 20
-55.5703125
 10
-13.06640625
 20
-57.68359375
 10
-13.06640625
 20
-57.68359375
 10
-13.06640625
 20
-57.68359375
 10
-155.138671875
 20
-77.8203125
 10
-155.138671875
 20
-77.8203125
 10
-155.138671875
 20
-77.8203125
 10
-157.25390625
 20
-76.310546875
 10
-157.25390625
 20
-76.310546875
 10
-157.25390625
 20
-76.310546875
 10
-157.5556640625
 20
-66.2421875
 10
-157.5556640625
 20
-66.2421875
 10
-157.5556640625
 20
-66.2421875
 10
-174.9755859375
 20
-66.34375
 10
-174.9755859375
 20
-66.34375
 10
-174.9755859375
 20
-66.34375
 10
-174.9755859375
 20
-76.009765625
 10
-174.9755859375
 20
-76.009765625
 10
-174.9755859375
 20
-76.009765625
 10
-175.478515625
 20
-77.318359375
 10
-175.478515625
 20
-77.318359375
 10
-175.478515625
 20
-77.318359375
 10
-176.45703125
 20
-77.537109375
 10
-176.45703125
 20
-77.537109375
 97
        0
 75
     0
 76
     1
 98
        0
  0
POLYLINE
  5
3F
330
1F
100
AcDbEntity
  8
STANDARDEBENE
 62
     7
100
AcDb2dPolyline
 66
     1
 10
0.0
 20
0.0
 30
0.0
  0
VERTEX
  5
40
330
3F
100
AcDbEntity
  8
STANDARDEBENE
 62
     7
100
AcDbVertex
100
AcDb2dVertex
 10
-13.375
 20
-35.404296875
 30
0.0
  0
VERTEX
  5
41
330
3F
100
AcDbEntity
  8
STANDARDEBENE
 62
     7
100
AcDbVertex
100
AcDb2dVertex
 10
-12.666015625
 20
-36.11328125
 30
0.0
  0
SEQEND
  5
42
330
3F
100
AcDbEntity
  8
STANDARDEBENE
  0
POLYLINE
  5
43
330
1F
100
AcDbEntity
  8
STANDARDEBENE
 62
     7
100
AcDb2dPolyline
 66
     1
 10
0.0
 20
0.0
 30
0.0
  0
VERTEX
  5
44
330
43
100
AcDbEntity
  8
STANDARDEBENE
 62
     7
100
AcDbVertex
100
AcDb2dVertex
 10
-11.25
 20
-37.53125
 30
0.0
  0
VERTEX
  5
45
330
43
100
AcDbEntity
  8
STANDARDEBENE
 62
     7
100
AcDbVertex
100
AcDb2dVertex
 10
-10.541015625
 20
-38.23828125
 30
0.0
  0
SEQEND
  5
46
330
43
100
AcDbEntity
  8
STANDARDEBENE
  0
POLYLINE
  5
47
330
1F
100
AcDbEntity
  8
STANDARDEBENE
 62
     7
100
AcDb2dPolyline
 66
     1
 10
0.0
 20
0.0
 30
0.0
  0
VERTEX
  5
48
330
47
100
AcDbEntity
  8
STANDARDEBENE
 62
     7
100
AcDbVertex
100
AcDb2dVertex
 10
-30.9921875
 20
-35.404296875
 30
0.0
  0
VERTEX
  5
49
330
47
100
AcDbEntity
  8
STANDARDEBENE
 62
     7
100
AcDbVertex
100
AcDb2dVertex
 10
-28.791015625
 20
-35.404296875
 30
0.0
  0
SEQEND
  5
4A
330
47
100
AcDbEntity
  8
STANDARDEBENE
  0
POLYLINE
  5
4B
330
1F
100
AcDbEntity
  8
STANDARDEBENE
 62
     7
100
AcDb2dPolyline
 66
     1
 10
0.0
 20
0.0
 30
0.0
  0
VERTEX
  5
4C
330
4B
100
AcDbEntity
  8
STANDARDEBENE
 62
     7
100
AcDbVertex
100
AcDb2dVertex
 10
-24.388671875
 20
-35.404296875
 30
0.0
  0
VERTEX
  5
4D
330
4B
100
AcDbEntity
  8
STANDARDEBENE
 62
     7
100
AcDbVertex
100
AcDb2dVertex
 10
-19.982421875
 20
-35.404296875
 30
0.0
  0
SEQEND
  5
4E
330
4B
100
AcDbEntity
  8
STANDARDEBENE
  0
POLYLINE
  5
4F
330
1F
100
AcDbEntity
  8
STANDARDEBENE
 62
     7
100
AcDb2dPolyline
 66
     1
 10
0.0
 20
0.0
 30
0.0
  0
VERTEX
  5
50
330
4F
100
AcDbEntity
  8
STANDARDEBENE
 62
     7
100
AcDbVertex
100
AcDb2dVertex
 10
-15.57421875
 20
-35.404296875
 30
0.0
  0
VERTEX
  5
51
330
4F
100
AcDbEntity
  8
STANDARDEBENE
 62
     7
100
AcDbVertex
100
AcDb2dVertex
 10
-13.375
 20
-35.404296875
 30
0.0
  0
SEQEND
  5
52
330
4F
100
AcDbEntity
  8
STANDARDEBENE
  0
POLYLINE
  5
53
330
1F
100
AcDbEntity
  8
STANDARDEBENE
 62
     7
100
AcDb2dPolyline
 66
     1
 10
0.0
 20
0.0
 30
0.0
  0
VERTEX
  5
54
330
53
100
AcDbEntity
  8
STANDARDEBENE
 62
     7
100
AcDbVertex
100
AcDb2dVertex
 10
-13.375
 20
26.95703125
 30
0.0
  0
VERTEX
  5
55
330
53
100
AcDbEntity
  8
STANDARDEBENE
 62
     7
100
AcDbVertex
100
AcDb2dVertex
 10
-12.666015625
 20
27.666015625
 30
0.0
  0
SEQEND
  5
56
330
53
100
AcDbEntity
  8
STANDARDEBENE
  0
POLYLINE
  5
57
330
1F
100
AcDbEntity
  8
STANDARDEBENE
 62
     7
100
AcDb2dPolyline
 66
     1
 10
0.0
 20
0.0
 30
0.0
  0
VERTEX
  5
58
330
57
100
AcDbEntity
  8
STANDARDEBENE
 62
     7
100
AcDbVertex
100
AcDb2dVertex
 10
-11.25
 20
29.083984375
 30
0.0
  0
VERTEX
  5
59
330
57
100
AcDbEntity
  8
STANDARDEBENE
 62
     7
100
AcDbVertex
100
AcDb2dVertex
 10
-10.541015625
 20
29.79296875
 30
0.0
  0
SEQEND
  5
5A
330
57
100
AcDbEntity
  8
STANDARDEBENE
  0
POLYLINE
  5
5B
330
1F
100
AcDbEntity
  8
STANDARDEBENE
 62
     7
100
AcDb2dPolyline
 66
     1
 10
0.0
 20
0.0
 30
0.0
  0
VERTEX
  5
5C
330
5B
100
AcDbEntity
  8
STANDARDEBENE
 62
     7
100
AcDbVertex
100
AcDb2dVertex
 10
-10.541015625
 20
21.37890625
 30
0.0
  0
VERTEX
  5
5D
330
5B
100
AcDbEntity
  8
STANDARDEBENE
 62
     7
100
AcDbVertex
100
AcDb2dVertex
 10
-11.25
 20
20.876953125
 30
0.0
  0
SEQEND
  5
5E
330
5B
100
AcDbEntity
  8
STANDARDEBENE
  0
POLYLINE
  5
5F
330
1F
100
AcDbEntity
  8
STANDARDEBENE
 62
     7
100
AcDb2dPolyline
 66
     1
 10
0.0
 20
0.0
 30
0.0
  0
VERTEX
  5
60
330
5F
100
AcDbEntity
  8
STANDARDEBENE
 62
     7
100
AcDbVertex
100
AcDb2dVertex
 10
-12.666015625
 20
19.87109375
 30
0.0
  0
VERTEX
  5
61
330
5F
100
AcDbEntity
  8
STANDARDEBENE
 62
     7
100
AcDbVertex
100
AcDb2dVertex
 10
-13.375
 20
19.369140625
 30
0.0
  0
SEQEND
  5
62
330
5F
100
AcDbEntity
  8
STANDARDEBENE
  0
POLYLINE
  5
63
330
1F
100
AcDbEntity
  8
STANDARDEBENE
 62
     7
100
AcDb2dPolyline
 66
     1
 10
0.0
 20
0.0
 30
0.0
  0
VERTEX
  5
64
330
63
100
AcDbEntity
  8
STANDARDEBENE
 62
     7
100
AcDbVertex
100
AcDb2dVertex
 10
-31.0
 20
26.95703125
 30
0.0
  0
VERTEX
  5
65
330
63
100
AcDbEntity
  8
STANDARDEBENE
 62
     7
100
AcDbVertex
100
AcDb2dVertex
 10
-28.798828125
 20
26.95703125
 30
0.0
  0
SEQEND
  5
66
330
63
100
AcDbEntity
  8
STANDARDEBENE
  0
POLYLINE
  5
67
330
1F
100
AcDbEntity
  8
STANDARDEBENE
 62
     7
100
AcDb2dPolyline
 66
     1
 10
0.0
 20
0.0
 30
0.0
  0
VERTEX
  5
68
330
67
100
AcDbEntity
  8
STANDARDEBENE
 62
     7
100
AcDbVertex
100
AcDb2dVertex
 10
-24.390625
 20
26.95703125
 30
0.0
  0
VERTEX
  5
69
330
67
100
AcDbEntity
  8
STANDARDEBENE
 62
     7
100
AcDbVertex
100
AcDb2dVertex
 10
-19.984375
 20
26.95703125
 30
0.0
  0
SEQEND
  5
6A
330
67
100
AcDbEntity
  8
STANDARDEBENE
  0
POLYLINE
  5
6B
330
1F
100
AcDbEntity
  8
STANDARDEBENE
 62
     7
100
AcDb2dPolyline
 66
     1
 10
0.0
 20
0.0
 30
0.0
  0
VERTEX
  5
6C
330
6B
100
AcDbEntity
  8
STANDARDEBENE
 62
     7
100
AcDbVertex
100
AcDb2dVertex
 10
-15.576171875
 20
26.95703125
 30
0.0
  0
VERTEX
  5
6D
330
6B
100
AcDbEntity
  8
STANDARDEBENE
 62
     7
100
AcDbVertex
100
AcDb2dVertex
 10
-13.375
 20
26.95703125
 30
0.0
  0
SEQEND
  5
6E
330
6B
100
AcDbEntity
  8
STANDARDEBENE
  0
POLYLINE
  5
6F
330
1F
100
AcDbEntity
  8
STANDARDEBENE
 62
     7
100
AcDb2dPolyline
 66
     1
 10
0.0
 20
0.0
 30
0.0
  0
VERTEX
  5
70
330
6F
100
AcDbEntity
  8
STANDARDEBENE
 62
     7
100
AcDbVertex
100
AcDb2dVertex
 10
-13.375
 20
19.369140625
 30
0.0
  0
VERTEX
  5
71
330
6F
100
AcDbEntity
  8
STANDARDEBENE
 62
     7
100
AcDbVertex
100
AcDb2dVertex
 10
-16.107421875
 20
19.369140625
 30
0.0
  0
SEQEND
  5
72
330
6F
100
AcDbEntity
  8
STANDARDEBENE
  0
POLYLINE
  5
73
330
1F
100
AcDbEntity
  8
STANDARDEBENE
 62
     7
100
AcDb2dPolyline
 66
     1
 10
0.0
 20
0.0
 30
0.0
  0
VERTEX
  5
74
330
73
100
AcDbEntity
  8
STANDARDEBENE
 62
     7
100
AcDbVertex
100
AcDb2dVertex
 10
-21.57421875
 20
19.369140625
 30
0.0
  0
VERTEX
  5
75
330
73
100
AcDbEntity
  8
STANDARDEBENE
 62
     7
100
AcDbVertex
100
AcDb2dVertex
 10
-27.041015625
 20
19.369140625
 30
0.0
  0
SEQEND
  5
76
330
73
100
AcDbEntity
  8
STANDARDEBENE
  0
POLYLINE
  5
77
330
1F
100
AcDbEntity
  8
STANDARDEBENE
 62
     7
100
AcDb2dPolyline
 66
     1
 10
0.0
 20
0.0
 30
0.0
  0
VERTEX
  5
78
330
77
100
AcDbEntity
  8
STANDARDEBENE
 62
     7
100
AcDbVertex
100
AcDb2dVertex
 10
-32.5078125
 20
19.369140625
 30
0.0
  0
VERTEX
  5
79
330
77
100
AcDbEntity
  8
STANDARDEBENE
 62
     7
100
AcDbVertex
100
AcDb2dVertex
 10
-37.974609375
 20
19.369140625
 30
0.0
  0
SEQEND
  5
7A
330
77
100
AcDbEntity
  8
STANDARDEBENE
  0
POLYLINE
  5
7B
330
1F
100
AcDbEntity
  8
STANDARDEBENE
 62
     7
100
AcDb2dPolyline
 66
     1
 10
0.0
 20
0.0
 30
0.0
  0
VERTEX
  5
7C
330
7B
100
AcDbEntity
  8
STANDARDEBENE
 62
     7
100
AcDbVertex
100
AcDb2dVertex
 10
-43.44140625
 20
19.369140625
 30
0.0
  0
VERTEX
  5
7D
330
7B
100
AcDbEntity
  8
STANDARDEBENE
 62
     7
100
AcDbVertex
100
AcDb2dVertex
 10
-48.908203125
 20
19.369140625
 30
0.0
  0
SEQEND
  5
7E
330
7B
100
AcDbEntity
  8
STANDARDEBENE
  0
POLYLINE
  5
7F
330
1F
100
AcDbEntity
  8
STANDARDEBENE
 62
     7
100
AcDb2dPolyline
 66
     1
 10
0.0
 20
0.0
 30
0.0
  0
VERTEX
  5
80
330
7F
100
AcDbEntity
  8
STANDARDEBENE
 62
     7
100
AcDbVertex
100
AcDb2dVertex
 10
-54.375
 20
19.369140625
 30
0.0
  0
VERTEX
  5
81
330
7F
100
AcDbEntity
  8
STANDARDEBENE
 62
     7
100
AcDbVertex
100
AcDb2dVertex
 10
-59.841796875
 20
19.369140625
 30
0.0
  0
SEQEND
  5
82
330
7F
100
AcDbEntity
  8
STANDARDEBENE
  0
POLYLINE
  5
83
330
1F
100
AcDbEntity
  8
STANDARDEBENE
 62
     7
100
AcDb2dPolyline
 66
     1
 10
0.0
 20
0.0
 30
0.0
  0
VERTEX
  5
84
330
83
100
AcDbEntity
  8
STANDARDEBENE
 62
     7
100
AcDbVertex
100
AcDb2dVertex
 10
-65.310546875
 20
19.369140625
 30
0.0
  0
VERTEX
  5
85
330
83
100
AcDbEntity
  8
STANDARDEBENE
 62
     7
100
AcDbVertex
100
AcDb2dVertex
 10
-70.775390625
 20
19.369140625
 30
0.0
  0
SEQEND
  5
86
330
83
100
AcDbEntity
  8
STANDARDEBENE
  0
POLYLINE
  5
87
330
1F
100
AcDbEntity
  8
STANDARDEBENE
 62
     7
100
AcDb2dPolyline
 66
     1
 10
0.0
 20
0.0
 30
0.0
  0
VERTEX
  5
88
330
87
100
AcDbEntity
  8
STANDARDEBENE
 62
     7
100
AcDbVertex
100
AcDb2dVertex
 10
-76.2421875
 20
19.369140625
 30
0.0
  0
VERTEX
  5
89
330
87
100
AcDbEntity
  8
STANDARDEBENE
 62
     7
100
AcDbVertex
100
AcDb2dVertex
 10
-81.708984375
 20
19.369140625
 30
0.0
  0
SEQEND
  5
8A
330
87
100
AcDbEntity
  8
STANDARDEBENE
  0
POLYLINE
  5
8B
330
1F
100
AcDbEntity
  8
STANDARDEBENE
 62
     7
100
AcDb2dPolyline
 66
     1
 10
0.0
 20
0.0
 30
0.0
  0
VERTEX
  5
8C
330
8B
100
AcDbEntity
  8
STANDARDEBENE
 62
     7
100
AcDbVertex
100
AcDb2dVertex
 10
-87.17578125
 20
19.369140625
 30
0.0
  0
VERTEX
  5
8D
330
8B
100
AcDbEntity
  8
STANDARDEBENE
 62
     7
100
AcDbVertex
100
AcDb2dVertex
 10
-89.91015625
 20
19.369140625
 30
0.0
  0
SEQEND
  5
8E
330
8B
100
AcDbEntity
  8
STANDARDEBENE
  0
POLYLINE
  5
8F
330
1F
100
AcDbEntity
  8
STANDARDEBENE
 62
     7
100
AcDb2dPolyline
 66
     1
 10
0.0
 20
0.0
 30
0.0
  0
VERTEX
  5
90
330
8F
100
AcDbEntity
  8
STANDARDEBENE
 62
     7
100
AcDbVertex
100
AcDb2dVertex
 10
-89.91015625
 20
26.873046875
 30
0.0
  0
VERTEX
  5
91
330
8F
100
AcDbEntity
  8
STANDARDEBENE
 62
     7
100
AcDbVertex
100
AcDb2dVertex
 10
-89.91015625
 20
25.689453125
 30
0.0
  0
VERTEX
  5
92
330
8F
100
AcDbEntity
  8
STANDARDEBENE
 62
     7
100
AcDbVertex
100
AcDb2dVertex
 10
-89.91015625
 20
24.998046875
 30
0.0
  0
SEQEND
  5
93
330
8F
100
AcDbEntity
  8
STANDARDEBENE
  0
POLYLINE
  5
94
330
1F
100
AcDbEntity
  8
STANDARDEBENE
 62
     7
100
AcDb2dPolyline
 66
     1
 10
0.0
 20
0.0
 30
0.0
  0
VERTEX
  5
95
330
94
100
AcDbEntity
  8
STANDARDEBENE
 62
     7
100
AcDbVertex
100
AcDb2dVertex
 10
-89.91015625
 20
21.244140625
 30
0.0
  0
VERTEX
  5
96
330
94
100
AcDbEntity
  8
STANDARDEBENE
 62
     7
100
AcDbVertex
100
AcDb2dVertex
 10
-89.91015625
 20
19.369140625
 30
0.0
  0
SEQEND
  5
97
330
94
100
AcDbEntity
  8
STANDARDEBENE
  0
POLYLINE
  5
98
330
1F
100
AcDbEntity
  8
STANDARDEBENE
 62
     7
100
AcDb2dPolyline
 66
     1
 10
0.0
 20
0.0
 30
0.0
  0
VERTEX
  5
99
330
98
100
AcDbEntity
  8
STANDARDEBENE
 62
     7
100
AcDbVertex
100
AcDb2dVertex
 10
-30.9921875
 20
26.873046875
 30
0.0
  0
VERTEX
  5
9A
330
98
100
AcDbEntity
  8
STANDARDEBENE
 62
     7
100
AcDbVertex
100
AcDb2dVertex
 10
-33.939453125
 20
26.873046875
 30
0.0
  0
SEQEND
  5
9B
330
98
100
AcDbEntity
  8
STANDARDEBENE
  0
POLYLINE
  5
9C
330
1F
100
AcDbEntity
  8
STANDARDEBENE
 62
     7
100
AcDb2dPolyline
 66
     1
 10
0.0
 20
0.0
 30
0.0
  0
VERTEX
  5
9D
330
9C
100
AcDbEntity
  8
STANDARDEBENE
 62
     7
100
AcDbVertex
100
AcDb2dVertex
 10
-39.83203125
 20
26.873046875
 30
0.0
  0
VERTEX
  5
9E
330
9C
100
AcDbEntity
  8
STANDARDEBENE
 62
     7
100
AcDbVertex
100
AcDb2dVertex
 10
-45.72265625
 20
26.873046875
 30
0.0
  0
SEQEND
  5
9F
330
9C
100
AcDbEntity
  8
STANDARDEBENE
  0
POLYLINE
  5
A0
330
1F
100
AcDbEntity
  8
STANDARDEBENE
 62
     7
100
AcDb2dPolyline
 66
     1
 10
0.0
 20
0.0
 30
0.0
  0
VERTEX
  5
A1
330
A0
100
AcDbEntity
  8
STANDARDEBENE
 62
     7
100
AcDbVertex
100
AcDb2dVertex
 10
-51.6171875
 20
26.873046875
 30
0.0
  0
VERTEX
  5
A2
330
A0
100
AcDbEntity
  8
STANDARDEBENE
 62
     7
100
AcDbVertex
100
AcDb2dVertex
 10
-57.505859375
 20
26.873046875
 30
0.0
  0
SEQEND
  5
A3
330
A0
100
AcDbEntity
  8
STANDARDEBENE
  0
POLYLINE
  5
A4
330
1F
100
AcDbEntity
  8
STANDARDEBENE
 62
     7
100
AcDb2dPolyline
 66
     1
 10
0.0
 20
0.0
 30
0.0
  0
VERTEX
  5
A5
330
A4
100
AcDbEntity
  8
STANDARDEBENE
 62
     7
100
AcDbVertex
100
AcDb2dVertex
 10
-63.3984375
 20
26.873046875
 30
0.0
  0
VERTEX
  5
A6
330
A4
100
AcDbEntity
  8
STANDARDEBENE
 62
     7
100
AcDbVertex
100
AcDb2dVertex
 10
-69.28515625
 20
26.873046875
 30
0.0
  0
SEQEND
  5
A7
330
A4
100
AcDbEntity
  8
STANDARDEBENE
  0
POLYLINE
  5
A8
330
1F
100
AcDbEntity
  8
STANDARDEBENE
 62
     7
100
AcDb2dPolyline
 66
     1
 10
0.0
 20
0.0
 30
0.0
  0
VERTEX
  5
A9
330
A8
100
AcDbEntity
  8
STANDARDEBENE
 62
     7
100
AcDbVertex
100
AcDb2dVertex
 10
-75.18359375
 20
26.873046875
 30
0.0
  0
VERTEX
  5
AA
330
A8
100
AcDbEntity
  8
STANDARDEBENE
 62
     7
100
AcDbVertex
100
AcDb2dVertex
 10
-81.072265625
 20
26.873046875
 30
0.0
  0
SEQEND
  5
AB
330
A8
100
AcDbEntity
  8
STANDARDEBENE
  0
POLYLINE
  5
AC
330
1F
100
AcDbEntity
  8
STANDARDEBENE
 62
     7
100
AcDb2dPolyline
 66
     1
 10
0.0
 20
0.0
 30
0.0
  0
VERTEX
  5
AD
330
AC
100
AcDbEntity
  8
STANDARDEBENE
 62
     7
100
AcDbVertex
100
AcDb2dVertex
 10
-86.966796875
 20
26.873046875
 30
0.0
  0
VERTEX
  5
AE
330
AC
100
AcDbEntity
  8
STANDARDEBENE
 62
     7
100
AcDbVertex
100
AcDb2dVertex
 10
-89.91015625
 20
26.873046875
 30
0.0
  0
SEQEND
  5
AF
330
AC
100
AcDbEntity
  8
STANDARDEBENE
  0
POLYLINE
  5
B0
330
1F
100
AcDbEntity
  8
STANDARDEBENE
 62
     7
100
AcDb2dPolyline
 66
     1
 10
0.0
 20
0.0
 30
0.0
  0
VERTEX
  5
B1
330
B0
100
AcDbEntity
  8
STANDARDEBENE
 62
     7
100
AcDbVertex
100
AcDb2dVertex
 10
-33.208984375
 20
-1.95703125
 30
0.0
  0
VERTEX
  5
B2
330
B0
100
AcDbEntity
  8
STANDARDEBENE
 62
     7
100
AcDbVertex
100
AcDb2dVertex
 10
-32.658203125
 20
-1.95703125
 30
0.0
  0
SEQEND
  5
B3
330
B0
100
AcDbEntity
  8
STANDARDEBENE
  0
POLYLINE
  5
B4
330
1F
100
AcDbEntity
  8
STANDARDEBENE
 62
     7
100
AcDb2dPolyline
 66
     1
 10
0.0
 20
0.0
 30
0.0
  0
VERTEX
  5
B5
330
B4
100
AcDbEntity
  8
STANDARDEBENE
 62
     7
100
AcDbVertex
100
AcDb2dVertex
 10
-31.548828125
 20
-1.95703125
 30
0.0
  0
VERTEX
  5
B6
330
B4
100
AcDbEntity
  8
STANDARDEBENE
 62
     7
100
AcDbVertex
100
AcDb2dVertex
 10
-30.9921875
 20
-1.95703125
 30
0.0
  0
SEQEND
  5
B7
330
B4
100
AcDbEntity
  8
STANDARDEBENE
  0
POLYLINE
  5
B8
330
1F
100
AcDbEntity
  8
STANDARDEBENE
 62
     7
100
AcDb2dPolyline
 66
     1
 10
0.0
 20
0.0
 30
0.0
  0
VERTEX
  5
B9
330
B8
100
AcDbEntity
  8
STANDARDEBENE
 62
     7
100
AcDbVertex
100
AcDb2dVertex
 10
-33.208984375
 20
-6.4921875
 30
0.0
  0
VERTEX
  5
BA
330
B8
100
AcDbEntity
  8
STANDARDEBENE
 62
     7
100
AcDbVertex
100
AcDb2dVertex
 10
-32.658203125
 20
-6.4921875
 30
0.0
  0
SEQEND
  5
BB
330
B8
100
AcDbEntity
  8
STANDARDEBENE
  0
POLYLINE
  5
BC
330
1F
100
AcDbEntity
  8
STANDARDEBENE
 62
     7
100
AcDb2dPolyline
 66
     1
 10
0.0
 20
0.0
 30
0.0
  0
VERTEX
  5
BD
330
BC
100
AcDbEntity
  8
STANDARDEBENE
 62
     7
100
AcDbVertex
100
AcDb2dVertex
 10
-31.548828125
 20
-6.4921875
 30
0.0
  0
VERTEX
  5
BE
330
BC
100
AcDbEntity
  8
STANDARDEBENE
 62
     7
100
AcDbVertex
100
AcDb2dVertex
 10
-30.9921875
 20
-6.4921875
 30
0.0
  0
SEQEND
  5
BF
330
BC
100
AcDbEntity
  8
STANDARDEBENE
  0
POLYLINE
  5
C0
330
1F
100
AcDbEntity
  8
STANDARDEBENE
 62
     7
100
AcDb2dPolyline
 66
     1
 10
0.0
 20
0.0
 30
0.0
  0
VERTEX
  5
C1
330
C0
100
AcDbEntity
  8
STANDARDEBENE
 62
     7
100
AcDbVertex
100
AcDb2dVertex
 10
-182.4072265625
 20
-74.150390625
 30
0.0
  0
VERTEX
  5
C2
330
C0
100
AcDbEntity
  8
STANDARDEBENE
 62
     7
100
AcDbVertex
100
AcDb2dVertex
 10
-182.4072265625
 20
-71.49609375
 30
0.0
  0
SEQEND
  5
C3
330
C0
100
AcDbEntity
  8
STANDARDEBENE
  0
POLYLINE
  5
C4
330
1F
100
AcDbEntity
  8
STANDARDEBENE
 62
     7
100
AcDb2dPolyline
 66
     1
 10
0.0
 20
0.0
 30
0.0
  0
VERTEX
  5
C5
330
C4
100
AcDbEntity
  8
STANDARDEBENE
 62
     7
100
AcDbVertex
100
AcDb2dVertex
 10
-182.4072265625
 20
-66.189453125
 30
0.0
  0
VERTEX
  5
C6
330
C4
100
AcDbEntity
  8
STANDARDEBENE
 62
     7
100
AcDbVertex
100
AcDb2dVertex
 10
-182.4072265625
 20
-60.880859375
 30
0.0
  0
SEQEND
  5
C7
330
C4
100
AcDbEntity
  8
STANDARDEBENE
  0
POLYLINE
  5
C8
330
1F
100
AcDbEntity
  8
STANDARDEBENE
 62
     7
100
AcDb2dPolyline
 66
     1
 10
0.0
 20
0.0
 30
0.0
  0
VERTEX
  5
C9
330
C8
100
AcDbEntity
  8
STANDARDEBENE
 62
     7
100
AcDbVertex
100
AcDb2dVertex
 10
-182.4072265625
 20
-55.572265625
 30
0.0
  0
VERTEX
  5
CA
330
C8
100
AcDbEntity
  8
STANDARDEBENE
 62
     7
100
AcDbVertex
100
AcDb2dVertex
 10
-182.4072265625
 20
-50.267578125
 30
0.0
  0
SEQEND
  5
CB
330
C8
100
AcDbEntity
  8
STANDARDEBENE
  0
POLYLINE
  5
CC
330
1F
100
AcDbEntity
  8
STANDARDEBENE
 62
     7
100
AcDb2dPolyline
 66
     1
 10
0.0
 20
0.0
 30
0.0
  0
VERTEX
  5
CD
330
CC
100
AcDbEntity
  8
STANDARDEBENE
 62
     7
100
AcDbVertex
100
AcDb2dVertex
 10
-182.4072265625
 20
-44.958984375
 30
0.0
  0
VERTEX
  5
CE
330
CC
100
AcDbEntity
  8
STANDARDEBENE
 62
     7
100
AcDbVertex
100
AcDb2dVertex
 10
-182.4072265625
 20
-39.654296875
 30
0.0
  0
SEQEND
  5
CF
330
CC
100
AcDbEntity
  8
STANDARDEBENE
  0
POLYLINE
  5
D0
330
1F
100
AcDbEntity
  8
STANDARDEBENE
 62
     7
100
AcDb2dPolyline
 66
     1
 10
0.0
 20
0.0
 30
0.0
  0
VERTEX
  5
D1
330
D0
100
AcDbEntity
  8
STANDARDEBENE
 62
     7
100
AcDbVertex
100
AcDb2dVertex
 10
-182.4072265625
 20
-34.345703125
 30
0.0
  0
VERTEX
  5
D2
330
D0
100
AcDbEntity
  8
STANDARDEBENE
 62
     7
100
AcDbVertex
100
AcDb2dVertex
 10
-182.4072265625
 20
-29.041015625
 30
0.0
  0
SEQEND
  5
D3
330
D0
100
AcDbEntity
  8
STANDARDEBENE
  0
POLYLINE
  5
D4
330
1F
100
AcDbEntity
  8
STANDARDEBENE
 62
     7
100
AcDb2dPolyline
 66
     1
 10
0.0
 20
0.0
 30
0.0
  0
VERTEX
  5
D5
330
D4
100
AcDbEntity
  8
STANDARDEBENE
 62
     7
100
AcDbVertex
100
AcDb2dVertex
 10
-182.4072265625
 20
-23.736328125
 30
0.0
  0
VERTEX
  5
D6
330
D4
100
AcDbEntity
  8
STANDARDEBENE
 62
     7
100
AcDbVertex
100
AcDb2dVertex
 10
-182.4072265625
 20
-21.080078125
 30
0.0
  0
VERTEX
  5
D7
330
D4
100
AcDbEntity
  8
STANDARDEBENE
 62
     7
100
AcDbVertex
100
AcDb2dVertex
 10
-179.3974609375
 20
-21.080078125
 30
0.0
  0
SEQEND
  5
D8
330
D4
100
AcDbEntity
  8
STANDARDEBENE
  0
POLYLINE
  5
D9
330
1F
100
AcDbEntity
  8
STANDARDEBENE
 62
     7
100
AcDb2dPolyline
 66
     1
 10
0.0
 20
0.0
 30
0.0
  0
VERTEX
  5
DA
330
D9
100
AcDbEntity
  8
STANDARDEBENE
 62
     7
100
AcDbVertex
100
AcDb2dVertex
 10
-173.373046875
 20
-21.080078125
 30
0.0
  0
VERTEX
  5
DB
330
D9
100
AcDbEntity
  8
STANDARDEBENE
 62
     7
100
AcDbVertex
100
AcDb2dVertex
 10
-167.3515625
 20
-21.080078125
 30
0.0
  0
SEQEND
  5
DC
330
D9
100
AcDbEntity
  8
STANDARDEBENE
  0
POLYLINE
  5
DD
330
1F
100
AcDbEntity
  8
STANDARDEBENE
 62
     7
100
AcDb2dPolyline
 66
     1
 10
0.0
 20
0.0
 30
0.0
  0
VERTEX
  5
DE
330
DD
100
AcDbEntity
  8
STANDARDEBENE
 62
     7
100
AcDbVertex
100
AcDb2dVertex
 10
-161.3310546875
 20
-21.080078125
 30
0.0
  0
VERTEX
  5
DF
330
DD
100
AcDbEntity
  8
STANDARDEBENE
 62
     7
100
AcDbVertex
100
AcDb2dVertex
 10
-155.3076171875
 20
-21.080078125
 30
0.0
  0
SEQEND
  5
E0
330
DD
100
AcDbEntity
  8
STANDARDEBENE
  0
POLYLINE
  5
E1
330
1F
100
AcDbEntity
  8
STANDARDEBENE
 62
     7
100
AcDb2dPolyline
 66
     1
 10
0.0
 20
0.0
 30
0.0
  0
VERTEX
  5
E2
330
E1
100
AcDbEntity
  8
STANDARDEBENE
 62
     7
100
AcDbVertex
100
AcDb2dVertex
 10
-149.283203125
 20
-21.080078125
 30
0.0
  0
VERTEX
  5
E3
330
E1
100
AcDbEntity
  8
STANDARDEBENE
 62
     7
100
AcDbVertex
100
AcDb2dVertex
 10
-143.263671875
 20
-21.080078125
 30
0.0
  0
SEQEND
  5
E4
330
E1
100
AcDbEntity
  8
STANDARDEBENE
  0
POLYLINE
  5
E5
330
1F
100
AcDbEntity
  8
STANDARDEBENE
 62
     7
100
AcDb2dPolyline
 66
     1
 10
0.0
 20
0.0
 30
0.0
  0
VERTEX
  5
E6
330
E5
100
AcDbEntity
  8
STANDARDEBENE
 62
     7
100
AcDbVertex
100
AcDb2dVertex
 10
-137.240234375
 20
-21.080078125
 30
0.0
  0
VERTEX
  5
E7
330
E5
100
AcDbEntity
  8
STANDARDEBENE
 62
     7
100
AcDbVertex
100
AcDb2dVertex
 10
-131.21484375
 20
-21.080078125
 30
0.0
  0
SEQEND
  5
E8
330
E5
100
AcDbEntity
  8
STANDARDEBENE
  0
POLYLINE
  5
E9
330
1F
100
AcDbEntity
  8
STANDARDEBENE
 62
     7
100
AcDb2dPolyline
 66
     1
 10
0.0
 20
0.0
 30
0.0
  0
VERTEX
  5
EA
330
E9
100
AcDbEntity
  8
STANDARDEBENE
 62
     7
100
AcDbVertex
100
AcDb2dVertex
 10
-125.1953125
 20
-21.080078125
 30
0.0
  0
VERTEX
  5
EB
330
E9
100
AcDbEntity
  8
STANDARDEBENE
 62
     7
100
AcDbVertex
100
AcDb2dVertex
 10
-119.171875
 20
-21.080078125
 30
0.0
  0
SEQEND
  5
EC
330
E9
100
AcDbEntity
  8
STANDARDEBENE
  0
POLYLINE
  5
ED
330
1F
100
AcDbEntity
  8
STANDARDEBENE
 62
     7
100
AcDb2dPolyline
 66
     1
 10
0.0
 20
0.0
 30
0.0
  0
VERTEX
  5
EE
330
ED
100
AcDbEntity
  8
STANDARDEBENE
 62
     7
100
AcDbVertex
100
AcDb2dVertex
 10
-113.150390625
 20
-21.080078125
 30
0.0
  0
VERTEX
  5
EF
330
ED
100
AcDbEntity
  8
STANDARDEBENE
 62
     7
100
AcDbVertex
100
AcDb2dVertex
 10
-107.125
 20
-21.080078125
 30
0.0
  0
SEQEND
  5
F0
330
ED
100
AcDbEntity
  8
STANDARDEBENE
  0
POLYLINE
  5
F1
330
1F
100
AcDbEntity
  8
STANDARDEBENE
 62
     7
100
AcDb2dPolyline
 66
     1
 10
0.0
 20
0.0
 30
0.0
  0
VERTEX
  5
F2
330
F1
100
AcDbEntity
  8
STANDARDEBENE
 62
     7
100
AcDbVertex
100
AcDb2dVertex
 10
-101.107421875
 20
-21.080078125
 30
0.0
  0
VERTEX
  5
F3
330
F1
100
AcDbEntity
  8
STANDARDEBENE
 62
     7
100
AcDbVertex
100
AcDb2dVertex
 10
-98.091796875
 20
-21.080078125
 30
0.0
  0
VERTEX
  5
F4
330
F1
100
AcDbEntity
  8
STANDARDEBENE
 62
     7
100
AcDbVertex
100
AcDb2dVertex
 10
-96.048828125
 20
-24.640625
 30
0.0
  0
SEQEND
  5
F5
330
F1
100
AcDbEntity
  8
STANDARDEBENE
  0
POLYLINE
  5
F6
330
1F
100
AcDbEntity
  8
STANDARDEBENE
 62
     7
100
AcDb2dPolyline
 66
     1
 10
0.0
 20
0.0
 30
0.0
  0
VERTEX
  5
F7
330
F6
100
AcDbEntity
  8
STANDARDEBENE
 62
     7
100
AcDbVertex
100
AcDb2dVertex
 10
-91.95703125
 20
-31.763671875
 30
0.0
  0
VERTEX
  5
F8
330
F6
100
AcDbEntity
  8
STANDARDEBENE
 62
     7
100
AcDbVertex
100
AcDb2dVertex
 10
-89.91015625
 20
-35.322265625
 30
0.0
  0
VERTEX
  5
F9
330
F6
100
AcDbEntity
  8
STANDARDEBENE
 62
     7
100
AcDbVertex
100
AcDb2dVertex
 10
-86.966796875
 20
-35.322265625
 30
0.0
  0
SEQEND
  5
FA
330
F6
100
AcDbEntity
  8
STANDARDEBENE
  0
POLYLINE
  5
FB
330
1F
100
AcDbEntity
  8
STANDARDEBENE
 62
     7
100
AcDb2dPolyline
 66
     1
 10
0.0
 20
0.0
 30
0.0
  0
VERTEX
  5
FC
330
FB
100
AcDbEntity
  8
STANDARDEBENE
 62
     7
100
AcDbVertex
100
AcDb2dVertex
 10
-81.072265625
 20
-35.322265625
 30
0.0
  0
VERTEX
  5
FD
330
FB
100
AcDbEntity
  8
STANDARDEBENE
 62
     7
100
AcDbVertex
100
AcDb2dVertex
 10
-75.18359375
 20
-35.322265625
 30
0.0
  0
SEQEND
  5
FE
330
FB
100
AcDbEntity
  8
STANDARDEBENE
  0
POLYLINE
  5
FF
330
1F
100
AcDbEntity
  8
STANDARDEBENE
 62
     7
100
AcDb2dPolyline
 66
     1
 10
0.0
 20
0.0
 30
0.0
  0
VERTEX
  5
100
330
FF
100
AcDbEntity
  8
STANDARDEBENE
 62
     7
100
AcDbVertex
100
AcDb2dVertex
 10
-69.28515625
 20
-35.322265625
 30
0.0
  0
VERTEX
  5
101
330
FF
100
AcDbEntity
  8
STANDARDEBENE
 62
     7
100
AcDbVertex
100
AcDb2dVertex
 10
-63.3984375
 20
-35.322265625
 30
0.0
  0
SEQEND
  5
102
330
FF
100
AcDbEntity
  8
STANDARDEBENE
  0
POLYLINE
  5
103
330
1F
100
AcDbEntity
  8
STANDARDEBENE
 62
     7
100
AcDb2dPolyline
 66
     1
 10
0.0
 20
0.0
 30
0.0
  0
VERTEX
  5
104
330
103
100
AcDbEntity
  8
STANDARDEBENE
 62
     7
100
AcDbVertex
100
AcDb2dVertex
 10
-57.505859375
 20
-35.322265625
 30
0.0
  0
VERTEX
  5
105
330
103
100
AcDbEntity
  8
STANDARDEBENE
 62
     7
100
AcDbVertex
100
AcDb2dVertex
 10
-51.6171875
 20
-35.322265625
 30
0.0
  0
SEQEND
  5
106
330
103
100
AcDbEntity
  8
STANDARDEBENE
  0
POLYLINE
  5
107
330
1F
100
AcDbEntity
  8
STANDARDEBENE
 62
     7
100
AcDb2dPolyline
 66
     1
 10
0.0
 20
0.0
 30
0.0
  0
VERTEX
  5
108
330
107
100
AcDbEntity
  8
STANDARDEBENE
 62
     7
100
AcDbVertex
100
AcDb2dVertex
 10
-45.72265625
 20
-35.322265625
 30
0.0
  0
VERTEX
  5
109
330
107
100
AcDbEntity
  8
STANDARDEBENE
 62
     7
100
AcDbVertex
100
AcDb2dVertex
 10
-39.83203125
 20
-35.322265625
 30
0.0
  0
SEQEND
  5
10A
330
107
100
AcDbEntity
  8
STANDARDEBENE
  0
POLYLINE
  5
10B
330
1F
100
AcDbEntity
  8
STANDARDEBENE
 62
     7
100
AcDb2dPolyline
 66
     1
 10
0.0
 20
0.0
 30
0.0
  0
VERTEX
  5
10C
330
10B
100
AcDbEntity
  8
STANDARDEBENE
 62
     7
100
AcDbVertex
100
AcDb2dVertex
 10
-33.939453125
 20
-35.322265625
 30
0.0
  0
VERTEX
  5
10D
330
10B
100
AcDbEntity
  8
STANDARDEBENE
 62
     7
100
AcDbVertex
100
AcDb2dVertex
 10
-30.9921875
 20
-35.322265625
 30
0.0
  0
SEQEND
  5
10E
330
10B
100
AcDbEntity
  8
STANDARDEBENE
  0
POLYLINE
  5
10F
330
1F
100
AcDbEntity
  8
STANDARDEBENE
 62
     7
100
AcDb2dPolyline
 66
     1
 10
0.0
 20
0.0
 30
0.0
  0
VERTEX
  5
110
330
10F
100
AcDbEntity
  8
STANDARDEBENE
 62
     7
100
AcDbVertex
100
AcDb2dVertex
 10
-33.208984375
 20
-60.4296875
 30
0.0
  0
VERTEX
  5
111
330
10F
100
AcDbEntity
  8
STANDARDEBENE
 62
     7
100
AcDbVertex
100
AcDb2dVertex
 10
-32.892578125
 20
-57.294921875
 30
0.0
  0
SEQEND
  5
112
330
10F
100
AcDbEntity
  8
STANDARDEBENE
  0
POLYLINE
  5
113
330
1F
100
AcDbEntity
  8
STANDARDEBENE
 62
     7
100
AcDb2dPolyline
 66
     1
 10
0.0
 20
0.0
 30
0.0
  0
VERTEX
  5
114
330
113
100
AcDbEntity
  8
STANDARDEBENE
 62
     7
100
AcDbVertex
100
AcDb2dVertex
 10
-32.2578125
 20
-51.025390625
 30
0.0
  0
VERTEX
  5
115
330
113
100
AcDbEntity
  8
STANDARDEBENE
 62
     7
100
AcDbVertex
100
AcDb2dVertex
 10
-31.94140625
 20
-47.890625
 30
0.0
  0
VERTEX
  5
116
330
113
100
AcDbEntity
  8
STANDARDEBENE
 62
     7
100
AcDbVertex
100
AcDb2dVertex
 10
-31.70703125
 20
-44.748046875
 30
0.0
  0
SEQEND
  5
117
330
113
100
AcDbEntity
  8
STANDARDEBENE
  0
POLYLINE
  5
118
330
1F
100
AcDbEntity
  8
STANDARDEBENE
 62
     7
100
AcDb2dPolyline
 66
     1
 10
0.0
 20
0.0
 30
0.0
  0
VERTEX
  5
119
330
118
100
AcDbEntity
  8
STANDARDEBENE
 62
     7
100
AcDbVertex
100
AcDb2dVertex
 10
-31.23046875
 20
-38.46484375
 30
0.0
  0
VERTEX
  5
11A
330
118
100
AcDbEntity
  8
STANDARDEBENE
 62
     7
100
AcDbVertex
100
AcDb2dVertex
 10
-30.9921875
 20
-35.322265625
 30
0.0
  0
SEQEND
  5
11B
330
118
100
AcDbEntity
  8
STANDARDEBENE
  0
POLYLINE
  5
11C
330
1F
100
AcDbEntity
  8
STANDARDEBENE
 62
     7
100
AcDb2dPolyline
 66
     1
 10
0.0
 20
0.0
 30
0.0
  0
VERTEX
  5
11D
330
11C
100
AcDbEntity
  8
STANDARDEBENE
 62
     7
100
AcDbVertex
100
AcDb2dVertex
 10
-98.091796875
 20
12.630859375
 30
0.0
  0
VERTEX
  5
11E
330
11C
100
AcDbEntity
  8
STANDARDEBENE
 62
     7
100
AcDbVertex
100
AcDb2dVertex
 10
-101.107421875
 20
12.630859375
 30
0.0
  0
SEQEND
  5
11F
330
11C
100
AcDbEntity
  8
STANDARDEBENE
  0
POLYLINE
  5
120
330
1F
100
AcDbEntity
  8
STANDARDEBENE
 62
     7
100
AcDb2dPolyline
 66
     1
 10
0.0
 20
0.0
 30
0.0
  0
VERTEX
  5
121
330
120
100
AcDbEntity
  8
STANDARDEBENE
 62
     7
100
AcDbVertex
100
AcDb2dVertex
 10
-107.125
 20
12.630859375
 30
0.0
  0
VERTEX
  5
122
330
120
100
AcDbEntity
  8
STANDARDEBENE
 62
     7
100
AcDbVertex
100
AcDb2dVertex
 10
-113.150390625
 20
12.630859375
 30
0.0
  0
SEQEND
  5
123
330
120
100
AcDbEntity
  8
STANDARDEBENE
  0
POLYLINE
  5
124
330
1F
100
AcDbEntity
  8
STANDARDEBENE
 62
     7
100
AcDb2dPolyline
 66
     1
 10
0.0
 20
0.0
 30
0.0
  0
VERTEX
  5
125
330
124
100
AcDbEntity
  8
STANDARDEBENE
 62
     7
100
AcDbVertex
100
AcDb2dVertex
 10
-119.171875
 20
12.630859375
 30
0.0
  0
VERTEX
  5
126
330
124
100
AcDbEntity
  8
STANDARDEBENE
 62
     7
100
AcDbVertex
100
AcDb2dVertex
 10
-125.1953125
 20
12.630859375
 30
0.0
  0
SEQEND
  5
127
330
124
100
AcDbEntity
  8
STANDARDEBENE
  0
POLYLINE
  5
128
330
1F
100
AcDbEntity
  8
STANDARDEBENE
 62
     7
100
AcDb2dPolyline
 66
     1
 10
0.0
 20
0.0
 30
0.0
  0
VERTEX
  5
129
330
128
100
AcDbEntity
  8
STANDARDEBENE
 62
     7
100
AcDbVertex
100
AcDb2dVertex
 10
-131.21484375
 20
12.630859375
 30
0.0
  0
VERTEX
  5
12A
330
128
100
AcDbEntity
  8
STANDARDEBENE
 62
     7
100
AcDbVertex
100
AcDb2dVertex
 10
-137.240234375
 20
12.630859375
 30
0.0
  0
SEQEND
  5
12B
330
128
100
AcDbEntity
  8
STANDARDEBENE
  0
POLYLINE
  5
12C
330
1F
100
AcDbEntity
  8
STANDARDEBENE
 62
     7
100
AcDb2dPolyline
 66
     1
 10
0.0
 20
0.0
 30
0.0
  0
VERTEX
  5
12D
330
12C
100
AcDbEntity
  8
STANDARDEBENE
 62
     7
100
AcDbVertex
100
AcDb2dVertex
 10
-143.263671875
 20
12.630859375
 30
0.0
  0
VERTEX
  5
12E
330
12C
100
AcDbEntity
  8
STANDARDEBENE
 62
     7
100
AcDbVertex
100
AcDb2dVertex
 10
-149.283203125
 20
12.630859375
 30
0.0
  0
SEQEND
  5
12F
330
12C
100
AcDbEntity
  8
STANDARDEBENE
  0
POLYLINE
  5
130
330
1F
100
AcDbEntity
  8
STANDARDEBENE
 62
     7
100
AcDb2dPolyline
 66
     1
 10
0.0
 20
0.0
 30
0.0
  0
VERTEX
  5
131
330
130
100
AcDbEntity
  8
STANDARDEBENE
 62
     7
100
AcDbVertex
100
AcDb2dVertex
 10
-155.3076171875
 20
12.630859375
 30
0.0
  0
VERTEX
  5
132
330
130
100
AcDbEntity
  8
STANDARDEBENE
 62
     7
100
AcDbVertex
100
AcDb2dVertex
 10
-161.3310546875
 20
12.630859375
 30
0.0
  0
SEQEND
  5
133
330
130
100
AcDbEntity
  8
STANDARDEBENE
  0
POLYLINE
  5
134
330
1F
100
AcDbEntity
  8
STANDARDEBENE
 62
     7
100
AcDb2dPolyline
 66
     1
 10
0.0
 20
0.0
 30
0.0
  0
VERTEX
  5
135
330
134
100
AcDbEntity
  8
STANDARDEBENE
 62
     7
100
AcDbVertex
100
AcDb2dVertex
 10
-167.3515625
 20
12.630859375
 30
0.0
  0
VERTEX
  5
136
330
134
100
AcDbEntity
  8
STANDARDEBENE
 62
     7
100
AcDbVertex
100
AcDb2dVertex
 10
-173.373046875
 20
12.630859375
 30
0.0
  0
SEQEND
  5
137
330
134
100
AcDbEntity
  8
STANDARDEBENE
  0
POLYLINE
  5
138
330
1F
100
AcDbEntity
  8
STANDARDEBENE
 62
     7
100
AcDb2dPolyline
 66
     1
 10
0.0
 20
0.0
 30
0.0
  0
VERTEX
  5
139
330
138
100
AcDbEntity
  8
STANDARDEBENE
 62
     7
100
AcDbVertex
100
AcDb2dVertex
 10
-179.3974609375
 20
12.630859375
 30
0.0
  0
VERTEX
  5
13A
330
138
100
AcDbEntity
  8
STANDARDEBENE
 62
     7
100
AcDbVertex
100
AcDb2dVertex
 10
-182.4072265625
 20
12.630859375
 30
0.0
  0
VERTEX
  5
13B
330
138
100
AcDbEntity
  8
STANDARDEBENE
 62
     7
100
AcDbVertex
100
AcDb2dVertex
 10
-182.4072265625
 20
15.28515625
 30
0.0
  0
SEQEND
  5
13C
330
138
100
AcDbEntity
  8
STANDARDEBENE
  0
POLYLINE
  5
13D
330
1F
100
AcDbEntity
  8
STANDARDEBENE
 62
     7
100
AcDb2dPolyline
 66
     1
 10
0.0
 20
0.0
 30
0.0
  0
VERTEX
  5
13E
330
13D
100
AcDbEntity
  8
STANDARDEBENE
 62
     7
100
AcDbVertex
100
AcDb2dVertex
 10
-182.4072265625
 20
20.591796875
 30
0.0
  0
VERTEX
  5
13F
330
13D
100
AcDbEntity
  8
STANDARDEBENE
 62
     7
100
AcDbVertex
100
AcDb2dVertex
 10
-182.4072265625
 20
25.8984375
 30
0.0
  0
SEQEND
  5
140
330
13D
100
AcDbEntity
  8
STANDARDEBENE
  0
POLYLINE
  5
141
330
1F
100
AcDbEntity
  8
STANDARDEBENE
 62
     7
100
AcDb2dPolyline
 66
     1
 10
0.0
 20
0.0
 30
0.0
  0
VERTEX
  5
142
330
141
100
AcDbEntity
  8
STANDARDEBENE
 62
     7
100
AcDbVertex
100
AcDb2dVertex
 10
-182.4072265625
 20
31.205078125
 30
0.0
  0
VERTEX
  5
143
330
141
100
AcDbEntity
  8
STANDARDEBENE
 62
     7
100
AcDbVertex
100
AcDb2dVertex
 10
-182.4072265625
 20
36.513671875
 30
0.0
  0
SEQEND
  5
144
330
141
100
AcDbEntity
  8
STANDARDEBENE
  0
POLYLINE
  5
145
330
1F
100
AcDbEntity
  8
STANDARDEBENE
 62
     7
100
AcDb2dPolyline
 66
     1
 10
0.0
 20
0.0
 30
0.0
  0
VERTEX
  5
146
330
145
100
AcDbEntity
  8
STANDARDEBENE
 62
     7
100
AcDbVertex
100
AcDb2dVertex
 10
-182.4072265625
 20
41.8203125
 30
0.0
  0
VERTEX
  5
147
330
145
100
AcDbEntity
  8
STANDARDEBENE
 62
     7
100
AcDbVertex
100
AcDb2dVertex
 10
-182.4072265625
 20
47.126953125
 30
0.0
  0
SEQEND
  5
148
330
145
100
AcDbEntity
  8
STANDARDEBENE
  0
POLYLINE
  5
149
330
1F
100
AcDbEntity
  8
STANDARDEBENE
 62
     7
100
AcDb2dPolyline
 66
     1
 10
0.0
 20
0.0
 30
0.0
  0
VERTEX
  5
14A
330
149
100
AcDbEntity
  8
STANDARDEBENE
 62
     7
100
AcDbVertex
100
AcDb2dVertex
 10
-182.4072265625
 20
52.435546875
 30
0.0
  0
VERTEX
  5
14B
330
149
100
AcDbEntity
  8
STANDARDEBENE
 62
     7
100
AcDbVertex
100
AcDb2dVertex
 10
-182.4072265625
 20
57.740234375
 30
0.0
  0
SEQEND
  5
14C
330
149
100
AcDbEntity
  8
STANDARDEBENE
  0
POLYLINE
  5
14D
330
1F
100
AcDbEntity
  8
STANDARDEBENE
 62
     7
100
AcDb2dPolyline
 66
     1
 10
0.0
 20
0.0
 30
0.0
  0
VERTEX
  5
14E
330
14D
100
AcDbEntity
  8
STANDARDEBENE
 62
     7
100
AcDbVertex
100
AcDb2dVertex
 10
-182.4072265625
 20
63.048828125
 30
0.0
  0
VERTEX
  5
14F
330
14D
100
AcDbEntity
  8
STANDARDEBENE
 62
     7
100
AcDbVertex
100
AcDb2dVertex
 10
-182.4072265625
 20
65.69921875
 30
0.0
  0
SEQEND
  5
150
330
14D
100
AcDbEntity
  8
STANDARDEBENE
  0
POLYLINE
  5
151
330
1F
100
AcDbEntity
  8
STANDARDEBENE
 62
     7
100
AcDb2dPolyline
 66
     1
 10
0.0
 20
0.0
 30
0.0
  0
VERTEX
  5
152
330
151
100
AcDbEntity
  8
STANDARDEBENE
 62
     7
100
AcDbVertex
100
AcDb2dVertex
 10
-30.9921875
 20
26.873046875
 30
0.0
  0
VERTEX
  5
153
330
151
100
AcDbEntity
  8
STANDARDEBENE
 62
     7
100
AcDbVertex
100
AcDb2dVertex
 10
-31.23046875
 20
30.013671875
 30
0.0
  0
SEQEND
  5
154
330
151
100
AcDbEntity
  8
STANDARDEBENE
  0
POLYLINE
  5
155
330
1F
100
AcDbEntity
  8
STANDARDEBENE
 62
     7
100
AcDb2dPolyline
 66
     1
 10
0.0
 20
0.0
 30
0.0
  0
VERTEX
  5
156
330
155
100
AcDbEntity
  8
STANDARDEBENE
 62
     7
100
AcDbVertex
100
AcDb2dVertex
 10
-31.70703125
 20
36.30078125
 30
0.0
  0
VERTEX
  5
157
330
155
100
AcDbEntity
  8
STANDARDEBENE
 62
     7
100
AcDbVertex
100
AcDb2dVertex
 10
-31.94140625
 20
39.443359375
 30
0.0
  0
VERTEX
  5
158
330
155
100
AcDbEntity
  8
STANDARDEBENE
 62
     7
100
AcDbVertex
100
AcDb2dVertex
 10
-32.2578125
 20
42.57421875
 30
0.0
  0
SEQEND
  5
159
330
155
100
AcDbEntity
  8
STANDARDEBENE
  0
POLYLINE
  5
15A
330
1F
100
AcDbEntity
  8
STANDARDEBENE
 62
     7
100
AcDb2dPolyline
 66
     1
 10
0.0
 20
0.0
 30
0.0
  0
VERTEX
  5
15B
330
15A
100
AcDbEntity
  8
STANDARDEBENE
 62
     7
100
AcDbVertex
100
AcDb2dVertex
 10
-32.892578125
 20
48.845703125
 30
0.0
  0
VERTEX
  5
15C
330
15A
100
AcDbEntity
  8
STANDARDEBENE
 62
     7
100
AcDbVertex
100
AcDb2dVertex
 10
-33.208984375
 20
51.982421875
 30
0.0
  0
SEQEND
  5
15D
330
15A
100
AcDbEntity
  8
STANDARDEBENE
  0
POLYLINE
  5
15E
330
1F
100
AcDbEntity
  8
STANDARDEBENE
 62
     7
100
AcDb2dPolyline
 66
     1
 10
0.0
 20
0.0
 30
0.0
  0
VERTEX
  5
15F
330
15E
100
AcDbEntity
  8
STANDARDEBENE
 62
     7
100
AcDbVertex
100
AcDb2dVertex
 10
-89.91015625
 20
26.873046875
 30
0.0
  0
VERTEX
  5
160
330
15E
100
AcDbEntity
  8
STANDARDEBENE
 62
     7
100
AcDbVertex
100
AcDb2dVertex
 10
-91.95703125
 20
23.3125
 30
0.0
  0
SEQEND
  5
161
330
15E
100
AcDbEntity
  8
STANDARDEBENE
  0
POLYLINE
  5
162
330
1F
100
AcDbEntity
  8
STANDARDEBENE
 62
     7
100
AcDb2dPolyline
 66
     1
 10
0.0
 20
0.0
 30
0.0
  0
VERTEX
  5
163
330
162
100
AcDbEntity
  8
STANDARDEBENE
 62
     7
100
AcDbVertex
100
AcDb2dVertex
 10
-96.048828125
 20
16.193359375
 30
0.0
  0
VERTEX
  5
164
330
162
100
AcDbEntity
  8
STANDARDEBENE
 62
     7
100
AcDbVertex
100
AcDb2dVertex
 10
-98.091796875
 20
12.630859375
 30
0.0
  0
SEQEND
  5
165
330
162
100
AcDbEntity
  8
STANDARDEBENE
  0
POLYLINE
  5
166
330
1F
100
AcDbEntity
  8
STANDARDEBENE
 62
     7
100
AcDb2dPolyline
 66
     1
 10
0.0
 20
0.0
 30
0.0
  0
VERTEX
  5
167
330
166
100
AcDbEntity
  8
STANDARDEBENE
 62
     7
100
AcDbVertex
100
AcDb2dVertex
 10
-89.91015625
 20
-6.4921875
 30
0.0
  0
VERTEX
  5
168
330
166
100
AcDbEntity
  8
STANDARDEBENE
 62
     7
100
AcDbVertex
100
AcDb2dVertex
 10
-89.91015625
 20
-8.755859375
 30
0.0
  0
SEQEND
  5
169
330
166
100
AcDbEntity
  8
STANDARDEBENE
  0
POLYLINE
  5
16A
330
1F
100
AcDbEntity
  8
STANDARDEBENE
 62
     7
100
AcDb2dPolyline
 66
     1
 10
0.0
 20
0.0
 30
0.0
  0
VERTEX
  5
16B
330
16A
100
AcDbEntity
  8
STANDARDEBENE
 62
     7
100
AcDbVertex
100
AcDb2dVertex
 10
-89.91015625
 20
-13.28515625
 30
0.0
  0
VERTEX
  5
16C
330
16A
100
AcDbEntity
  8
STANDARDEBENE
 62
     7
100
AcDbVertex
100
AcDb2dVertex
 10
-89.91015625
 20
-17.814453125
 30
0.0
  0
SEQEND
  5
16D
330
16A
100
AcDbEntity
  8
STANDARDEBENE
  0
POLYLINE
  5
16E
330
1F
100
AcDbEntity
  8
STANDARDEBENE
 62
     7
100
AcDb2dPolyline
 66
     1
 10
0.0
 20
0.0
 30
0.0
  0
VERTEX
  5
16F
330
16E
100
AcDbEntity
  8
STANDARDEBENE
 62
     7
100
AcDbVertex
100
AcDb2dVertex
 10
-89.91015625
 20
-22.345703125
 30
0.0
  0
VERTEX
  5
170
330
16E
100
AcDbEntity
  8
STANDARDEBENE
 62
     7
100
AcDbVertex
100
AcDb2dVertex
 10
-89.91015625
 20
-24.611328125
 30
0.0
  0
VERTEX
  5
171
330
16E
100
AcDbEntity
  8
STANDARDEBENE
 62
     7
100
AcDbVertex
100
AcDb2dVertex
 10
-91.95703125
 20
-22.09375
 30
0.0
  0
SEQEND
  5
172
330
16E
100
AcDbEntity
  8
STANDARDEBENE
  0
POLYLINE
  5
173
330
1F
100
AcDbEntity
  8
STANDARDEBENE
 62
     7
100
AcDb2dPolyline
 66
     1
 10
0.0
 20
0.0
 30
0.0
  0
VERTEX
  5
174
330
173
100
AcDbEntity
  8
STANDARDEBENE
 62
     7
100
AcDbVertex
100
AcDb2dVertex
 10
-96.048828125
 20
-17.0546875
 30
0.0
  0
VERTEX
  5
175
330
173
100
AcDbEntity
  8
STANDARDEBENE
 62
     7
100
AcDbVertex
100
AcDb2dVertex
 10
-98.091796875
 20
-14.541015625
 30
0.0
  0
SEQEND
  5
176
330
173
100
AcDbEntity
  8
STANDARDEBENE
  0
POLYLINE
  5
177
330
1F
100
AcDbEntity
  8
STANDARDEBENE
 62
     7
100
AcDb2dPolyline
 66
     1
 10
0.0
 20
0.0
 30
0.0
  0
VERTEX
  5
178
330
177
100
AcDbEntity
  8
STANDARDEBENE
 62
     7
100
AcDbVertex
100
AcDb2dVertex
 10
-98.091796875
 20
-6.4921875
 30
0.0
  0
VERTEX
  5
179
330
177
100
AcDbEntity
  8
STANDARDEBENE
 62
     7
100
AcDbVertex
100
AcDb2dVertex
 10
-98.091796875
 20
-8.505859375
 30
0.0
  0
SEQEND
  5
17A
330
177
100
AcDbEntity
  8
STANDARDEBENE
  0
POLYLINE
  5
17B
330
1F
100
AcDbEntity
  8
STANDARDEBENE
 62
     7
100
AcDb2dPolyline
 66
     1
 10
0.0
 20
0.0
 30
0.0
  0
VERTEX
  5
17C
330
17B
100
AcDbEntity
  8
STANDARDEBENE
 62
     7
100
AcDbVertex
100
AcDb2dVertex
 10
-98.091796875
 20
-12.52734375
 30
0.0
  0
VERTEX
  5
17D
330
17B
100
AcDbEntity
  8
STANDARDEBENE
 62
     7
100
AcDbVertex
100
AcDb2dVertex
 10
-98.091796875
 20
-14.541015625
 30
0.0
  0
SEQEND
  5
17E
330
17B
100
AcDbEntity
  8
STANDARDEBENE
  0
POLYLINE
  5
17F
330
1F
100
AcDbEntity
  8
STANDARDEBENE
 62
     7
100
AcDb2dPolyline
 66
     1
 10
0.0
 20
0.0
 30
0.0
  0
VERTEX
  5
180
330
17F
100
AcDbEntity
  8
STANDARDEBENE
 62
     7
100
AcDbVertex
100
AcDb2dVertex
 10
-13.375
 20
-24.611328125
 30
0.0
  0
VERTEX
  5
181
330
17F
100
AcDbEntity
  8
STANDARDEBENE
 62
     7
100
AcDbVertex
100
AcDb2dVertex
 10
-16.107421875
 20
-24.611328125
 30
0.0
  0
SEQEND
  5
182
330
17F
100
AcDbEntity
  8
STANDARDEBENE
  0
POLYLINE
  5
183
330
1F
100
AcDbEntity
  8
STANDARDEBENE
 62
     7
100
AcDb2dPolyline
 66
     1
 10
0.0
 20
0.0
 30
0.0
  0
VERTEX
  5
184
330
183
100
AcDbEntity
  8
STANDARDEBENE
 62
     7
100
AcDbVertex
100
AcDb2dVertex
 10
-21.57421875
 20
-24.611328125
 30
0.0
  0
VERTEX
  5
185
330
183
100
AcDbEntity
  8
STANDARDEBENE
 62
     7
100
AcDbVertex
100
AcDb2dVertex
 10
-27.041015625
 20
-24.611328125
 30
0.0
  0
SEQEND
  5
186
330
183
100
AcDbEntity
  8
STANDARDEBENE
  0
POLYLINE
  5
187
330
1F
100
AcDbEntity
  8
STANDARDEBENE
 62
     7
100
AcDb2dPolyline
 66
     1
 10
0.0
 20
0.0
 30
0.0
  0
VERTEX
  5
188
330
187
100
AcDbEntity
  8
STANDARDEBENE
 62
     7
100
AcDbVertex
100
AcDb2dVertex
 10
-32.5078125
 20
-24.611328125
 30
0.0
  0
VERTEX
  5
189
330
187
100
AcDbEntity
  8
STANDARDEBENE
 62
     7
100
AcDbVertex
100
AcDb2dVertex
 10
-37.974609375
 20
-24.611328125
 30
0.0
  0
SEQEND
  5
18A
330
187
100
AcDbEntity
  8
STANDARDEBENE
  0
POLYLINE
  5
18B
330
1F
100
AcDbEntity
  8
STANDARDEBENE
 62
     7
100
AcDb2dPolyline
 66
     1
 10
0.0
 20
0.0
 30
0.0
  0
VERTEX
  5
18C
330
18B
100
AcDbEntity
  8
STANDARDEBENE
 62
     7
100
AcDbVertex
100
AcDb2dVertex
 10
-43.44140625
 20
-24.611328125
 30
0.0
  0
VERTEX
  5
18D
330
18B
100
AcDbEntity
  8
STANDARDEBENE
 62
     7
100
AcDbVertex
100
AcDb2dVertex
 10
-48.908203125
 20
-24.611328125
 30
0.0
  0
SEQEND
  5
18E
330
18B
100
AcDbEntity
  8
STANDARDEBENE
  0
POLYLINE
  5
18F
330
1F
100
AcDbEntity
  8
STANDARDEBENE
 62
     7
100
AcDb2dPolyline
 66
     1
 10
0.0
 20
0.0
 30
0.0
  0
VERTEX
  5
190
330
18F
100
AcDbEntity
  8
STANDARDEBENE
 62
     7
100
AcDbVertex
100
AcDb2dVertex
 10
-54.375
 20
-24.611328125
 30
0.0
  0
VERTEX
  5
191
330
18F
100
AcDbEntity
  8
STANDARDEBENE
 62
     7
100
AcDbVertex
100
AcDb2dVertex
 10
-59.841796875
 20
-24.611328125
 30
0.0
  0
SEQEND
  5
192
330
18F
100
AcDbEntity
  8
STANDARDEBENE
  0
POLYLINE
  5
193
330
1F
100
AcDbEntity
  8
STANDARDEBENE
 62
     7
100
AcDb2dPolyline
 66
     1
 10
0.0
 20
0.0
 30
0.0
  0
VERTEX
  5
194
330
193
100
AcDbEntity
  8
STANDARDEBENE
 62
     7
100
AcDbVertex
100
AcDb2dVertex
 10
-65.310546875
 20
-24.611328125
 30
0.0
  0
VERTEX
  5
195
330
193
100
AcDbEntity
  8
STANDARDEBENE
 62
     7
100
AcDbVertex
100
AcDb2dVertex
 10
-70.775390625
 20
-24.611328125
 30
0.0
  0
SEQEND
  5
196
330
193
100
AcDbEntity
  8
STANDARDEBENE
  0
POLYLINE
  5
197
330
1F
100
AcDbEntity
  8
STANDARDEBENE
 62
     7
100
AcDb2dPolyline
 66
     1
 10
0.0
 20
0.0
 30
0.0
  0
VERTEX
  5
198
330
197
100
AcDbEntity
  8
STANDARDEBENE
 62
     7
100
AcDbVertex
100
AcDb2dVertex
 10
-76.2421875
 20
-24.611328125
 30
0.0
  0
VERTEX
  5
199
330
197
100
AcDbEntity
  8
STANDARDEBENE
 62
     7
100
AcDbVertex
100
AcDb2dVertex
 10
-81.708984375
 20
-24.611328125
 30
0.0
  0
SEQEND
  5
19A
330
197
100
AcDbEntity
  8
STANDARDEBENE
  0
POLYLINE
  5
19B
330
1F
100
AcDbEntity
  8
STANDARDEBENE
 62
     7
100
AcDb2dPolyline
 66
     1
 10
0.0
 20
0.0
 30
0.0
  0
VERTEX
  5
19C
330
19B
100
AcDbEntity
  8
STANDARDEBENE
 62
     7
100
AcDbVertex
100
AcDb2dVertex
 10
-87.17578125
 20
-24.611328125
 30
0.0
  0
VERTEX
  5
19D
330
19B
100
AcDbEntity
  8
STANDARDEBENE
 62
     7
100
AcDbVertex
100
AcDb2dVertex
 10
-89.91015625
 20
-24.611328125
 30
0.0
  0
SEQEND
  5
19E
330
19B
100
AcDbEntity
  8
STANDARDEBENE
  0
POLYLINE
  5
19F
330
1F
100
AcDbEntity
  8
STANDARDEBENE
 62
     7
100
AcDb2dPolyline
 66
     1
 10
0.0
 20
0.0
 30
0.0
  0
VERTEX
  5
1A0
330
19F
100
AcDbEntity
  8
STANDARDEBENE
 62
     7
100
AcDbVertex
100
AcDb2dVertex
 10
-30.9921875
 20
-6.4921875
 30
0.0
  0
VERTEX
  5
1A1
330
19F
100
AcDbEntity
  8
STANDARDEBENE
 62
     7
100
AcDbVertex
100
AcDb2dVertex
 10
-30.9921875
 20
-5.359375
 30
0.0
  0
SEQEND
  5
1A2
330
19F
100
AcDbEntity
  8
STANDARDEBENE
  0
POLYLINE
  5
1A3
330
1F
100
AcDbEntity
  8
STANDARDEBENE
 62
     7
100
AcDb2dPolyline
 66
     1
 10
0.0
 20
0.0
 30
0.0
  0
VERTEX
  5
1A4
330
1A3
100
AcDbEntity
  8
STANDARDEBENE
 62
     7
100
AcDbVertex
100
AcDb2dVertex
 10
-30.9921875
 20
-3.091796875
 30
0.0
  0
VERTEX
  5
1A5
330
1A3
100
AcDbEntity
  8
STANDARDEBENE
 62
     7
100
AcDbVertex
100
AcDb2dVertex
 10
-30.9921875
 20
-1.95703125
 30
0.0
  0
SEQEND
  5
1A6
330
1A3
100
AcDbEntity
  8
STANDARDEBENE
  0
POLYLINE
  5
1A7
330
1F
100
AcDbEntity
  8
STANDARDEBENE
 62
     7
100
AcDb2dPolyline
 66
     1
 10
0.0
 20
0.0
 30
0.0
  0
VERTEX
  5
1A8
330
1A7
100
AcDbEntity
  8
STANDARDEBENE
 62
     7
100
AcDbVertex
100
AcDb2dVertex
 10
-89.91015625
 20
16.16015625
 30
0.0
  0
VERTEX
  5
1A9
330
1A7
100
AcDbEntity
  8
STANDARDEBENE
 62
     7
100
AcDbVertex
100
AcDb2dVertex
 10
-89.91015625
 20
13.8984375
 30
0.0
  0
SEQEND
  5
1AA
330
1A7
100
AcDbEntity
  8
STANDARDEBENE
  0
POLYLINE
  5
1AB
330
1F
100
AcDbEntity
  8
STANDARDEBENE
 62
     7
100
AcDb2dPolyline
 66
     1
 10
0.0
 20
0.0
 30
0.0
  0
VERTEX
  5
1AC
330
1AB
100
AcDbEntity
  8
STANDARDEBENE
 62
     7
100
AcDbVertex
100
AcDb2dVertex
 10
-89.91015625
 20
9.369140625
 30
0.0
  0
VERTEX
  5
1AD
330
1AB
100
AcDbEntity
  8
STANDARDEBENE
 62
     7
100
AcDbVertex
100
AcDb2dVertex
 10
-89.91015625
 20
4.837890625
 30
0.0
  0
SEQEND
  5
1AE
330
1AB
100
AcDbEntity
  8
STANDARDEBENE
  0
POLYLINE
  5
1AF
330
1F
100
AcDbEntity
  8
STANDARDEBENE
 62
     7
100
AcDb2dPolyline
 66
     1
 10
0.0
 20
0.0
 30
0.0
  0
VERTEX
  5
1B0
330
1AF
100
AcDbEntity
  8
STANDARDEBENE
 62
     7
100
AcDbVertex
100
AcDb2dVertex
 10
-89.91015625
 20
0.30859375
 30
0.0
  0
VERTEX
  5
1B1
330
1AF
100
AcDbEntity
  8
STANDARDEBENE
 62
     7
100
AcDbVertex
100
AcDb2dVertex
 10
-89.91015625
 20
-1.95703125
 30
0.0
  0
SEQEND
  5
1B2
330
1AF
100
AcDbEntity
  8
STANDARDEBENE
  0
POLYLINE
  5
1B3
330
1F
100
AcDbEntity
  8
STANDARDEBENE
 62
     7
100
AcDb2dPolyline
 66
     1
 10
0.0
 20
0.0
 30
0.0
  0
VERTEX
  5
1B4
330
1B3
100
AcDbEntity
  8
STANDARDEBENE
 62
     7
100
AcDbVertex
100
AcDb2dVertex
 10
-13.375
 20
16.16015625
 30
0.0
  0
VERTEX
  5
1B5
330
1B3
100
AcDbEntity
  8
STANDARDEBENE
 62
     7
100
AcDbVertex
100
AcDb2dVertex
 10
-16.107421875
 20
16.16015625
 30
0.0
  0
SEQEND
  5
1B6
330
1B3
100
AcDbEntity
  8
STANDARDEBENE
  0
POLYLINE
  5
1B7
330
1F
100
AcDbEntity
  8
STANDARDEBENE
 62
     7
100
AcDb2dPolyline
 66
     1
 10
0.0
 20
0.0
 30
0.0
  0
VERTEX
  5
1B8
330
1B7
100
AcDbEntity
  8
STANDARDEBENE
 62
     7
100
AcDbVertex
100
AcDb2dVertex
 10
-21.57421875
 20
16.16015625
 30
0.0
  0
VERTEX
  5
1B9
330
1B7
100
AcDbEntity
  8
STANDARDEBENE
 62
     7
100
AcDbVertex
100
AcDb2dVertex
 10
-27.041015625
 20
16.16015625
 30
0.0
  0
SEQEND
  5
1BA
330
1B7
100
AcDbEntity
  8
STANDARDEBENE
  0
POLYLINE
  5
1BB
330
1F
100
AcDbEntity
  8
STANDARDEBENE
 62
     7
100
AcDb2dPolyline
 66
     1
 10
0.0
 20
0.0
 30
0.0
  0
VERTEX
  5
1BC
330
1BB
100
AcDbEntity
  8
STANDARDEBENE
 62
     7
100
AcDbVertex
100
AcDb2dVertex
 10
-32.5078125
 20
16.16015625
 30
0.0
  0
VERTEX
  5
1BD
330
1BB
100
AcDbEntity
  8
STANDARDEBENE
 62
     7
100
AcDbVertex
100
AcDb2dVertex
 10
-37.974609375
 20
16.16015625
 30
0.0
  0
SEQEND
  5
1BE
330
1BB
100
AcDbEntity
  8
STANDARDEBENE
  0
POLYLINE
  5
1BF
330
1F
100
AcDbEntity
  8
STANDARDEBENE
 62
     7
100
AcDb2dPolyline
 66
     1
 10
0.0
 20
0.0
 30
0.0
  0
VERTEX
  5
1C0
330
1BF
100
AcDbEntity
  8
STANDARDEBENE
 62
     7
100
AcDbVertex
100
AcDb2dVertex
 10
-43.44140625
 20
16.16015625
 30
0.0
  0
VERTEX
  5
1C1
330
1BF
100
AcDbEntity
  8
STANDARDEBENE
 62
     7
100
AcDbVertex
100
AcDb2dVertex
 10
-48.908203125
 20
16.16015625
 30
0.0
  0
SEQEND
  5
1C2
330
1BF
100
AcDbEntity
  8
STANDARDEBENE
  0
POLYLINE
  5
1C3
330
1F
100
AcDbEntity
  8
STANDARDEBENE
 62
     7
100
AcDb2dPolyline
 66
     1
 10
0.0
 20
0.0
 30
0.0
  0
VERTEX
  5
1C4
330
1C3
100
AcDbEntity
  8
STANDARDEBENE
 62
     7
100
AcDbVertex
100
AcDb2dVertex
 10
-54.375
 20
16.16015625
 30
0.0
  0
VERTEX
  5
1C5
330
1C3
100
AcDbEntity
  8
STANDARDEBENE
 62
     7
100
AcDbVertex
100
AcDb2dVertex
 10
-59.841796875
 20
16.16015625
 30
0.0
  0
SEQEND
  5
1C6
330
1C3
100
AcDbEntity
  8
STANDARDEBENE
  0
POLYLINE
  5
1C7
330
1F
100
AcDbEntity
  8
STANDARDEBENE
 62
     7
100
AcDb2dPolyline
 66
     1
 10
0.0
 20
0.0
 30
0.0
  0
VERTEX
  5
1C8
330
1C7
100
AcDbEntity
  8
STANDARDEBENE
 62
     7
100
AcDbVertex
100
AcDb2dVertex
 10
-65.310546875
 20
16.16015625
 30
0.0
  0
VERTEX
  5
1C9
330
1C7
100
AcDbEntity
  8
STANDARDEBENE
 62
     7
100
AcDbVertex
100
AcDb2dVertex
 10
-70.775390625
 20
16.16015625
 30
0.0
  0
SEQEND
  5
1CA
330
1C7
100
AcDbEntity
  8
STANDARDEBENE
  0
POLYLINE
  5
1CB
330
1F
100
AcDbEntity
  8
STANDARDEBENE
 62
     7
100
AcDb2dPolyline
 66
     1
 10
0.0
 20
0.0
 30
0.0
  0
VERTEX
  5
1CC
330
1CB
100
AcDbEntity
  8
STANDARDEBENE
 62
     7
100
AcDbVertex
100
AcDb2dVertex
 10
-76.2421875
 20
16.16015625
 30
0.0
  0
VERTEX
  5
1CD
330
1CB
100
AcDbEntity
  8
STANDARDEBENE
 62
     7
100
AcDbVertex
100
AcDb2dVertex
 10
-81.708984375
 20
16.16015625
 30
0.0
  0
SEQEND
  5
1CE
330
1CB
100
AcDbEntity
  8
STANDARDEBENE
  0
POLYLINE
  5
1CF
330
1F
100
AcDbEntity
  8
STANDARDEBENE
 62
     7
100
AcDb2dPolyline
 66
     1
 10
0.0
 20
0.0
 30
0.0
  0
VERTEX
  5
1D0
330
1CF
100
AcDbEntity
  8
STANDARDEBENE
 62
     7
100
AcDbVertex
100
AcDb2dVertex
 10
-87.17578125
 20
16.16015625
 30
0.0
  0
VERTEX
  5
1D1
330
1CF
100
AcDbEntity
  8
STANDARDEBENE
 62
     7
100
AcDbVertex
100
AcDb2dVertex
 10
-89.91015625
 20
16.16015625
 30
0.0
  0
SEQEND
  5
1D2
330
1CF
100
AcDbEntity
  8
STANDARDEBENE
  0
POLYLINE
  5
1D3
330
1F
100
AcDbEntity
  8
STANDARDEBENE
 62
     7
100
AcDb2dPolyline
 66
     1
 10
0.0
 20
0.0
 30
0.0
  0
VERTEX
  5
1D4
330
1D3
100
AcDbEntity
  8
STANDARDEBENE
 62
     7
100
AcDbVertex
100
AcDb2dVertex
 10
-10.541015625
 20
-26.62109375
 30
0.0
  0
VERTEX
  5
1D5
330
1D3
100
AcDbEntity
  8
STANDARDEBENE
 62
     7
100
AcDbVertex
100
AcDb2dVertex
 10
-11.25
 20
-26.119140625
 30
0.0
  0
SEQEND
  5
1D6
330
1D3
100
AcDbEntity
  8
STANDARDEBENE
  0
POLYLINE
  5
1D7
330
1F
100
AcDbEntity
  8
STANDARDEBENE
 62
     7
100
AcDb2dPolyline
 66
     1
 10
0.0
 20
0.0
 30
0.0
  0
VERTEX
  5
1D8
330
1D7
100
AcDbEntity
  8
STANDARDEBENE
 62
     7
100
AcDbVertex
100
AcDb2dVertex
 10
-12.666015625
 20
-25.111328125
 30
0.0
  0
VERTEX
  5
1D9
330
1D7
100
AcDbEntity
  8
STANDARDEBENE
 62
     7
100
AcDbVertex
100
AcDb2dVertex
 10
-13.375
 20
-24.611328125
 30
0.0
  0
SEQEND
  5
1DA
330
1D7
100
AcDbEntity
  8
STANDARDEBENE
  0
POLYLINE
  5
1DB
330
1F
100
AcDbEntity
  8
STANDARDEBENE
 62
     7
100
AcDb2dPolyline
 66
     1
 10
0.0
 20
0.0
 30
0.0
  0
VERTEX
  5
1DC
330
1DB
100
AcDbEntity
  8
STANDARDEBENE
 62
     7
100
AcDbVertex
100
AcDb2dVertex
 10
-10.541015625
 20
18.169921875
 30
0.0
  0
VERTEX
  5
1DD
330
1DB
100
AcDbEntity
  8
STANDARDEBENE
 62
     7
100
AcDbVertex
100
AcDb2dVertex
 10
-11.25
 20
17.669921875
 30
0.0
  0
SEQEND
  5
1DE
330
1DB
100
AcDbEntity
  8
STANDARDEBENE
  0
POLYLINE
  5
1DF
330
1F
100
AcDbEntity
  8
STANDARDEBENE
 62
     7
100
AcDb2dPolyline
 66
     1
 10
0.0
 20
0.0
 30
0.0
  0
VERTEX
  5
1E0
330
1DF
100
AcDbEntity
  8
STANDARDEBENE
 62
     7
100
AcDbVertex
100
AcDb2dVertex
 10
-12.666015625
 20
16.666015625
 30
0.0
  0
VERTEX
  5
1E1
330
1DF
100
AcDbEntity
  8
STANDARDEBENE
 62
     7
100
AcDbVertex
100
AcDb2dVertex
 10
-13.375
 20
16.16015625
 30
0.0
  0
SEQEND
  5
1E2
330
1DF
100
AcDbEntity
  8
STANDARDEBENE
  0
POLYLINE
  5
1E3
330
1F
100
AcDbEntity
  8
STANDARDEBENE
 62
     7
100
AcDb2dPolyline
 66
     1
 10
0.0
 20
0.0
 30
0.0
  0
VERTEX
  5
1E4
330
1E3
100
AcDbEntity
  8
STANDARDEBENE
 62
     7
100
AcDbVertex
100
AcDb2dVertex
 10
-89.91015625
 20
19.369140625
 30
0.0
  0
VERTEX
  5
1E5
330
1E3
100
AcDbEntity
  8
STANDARDEBENE
 62
     7
100
AcDbVertex
100
AcDb2dVertex
 10
-91.95703125
 20
16.849609375
 30
0.0
  0
SEQEND
  5
1E6
330
1E3
100
AcDbEntity
  8
STANDARDEBENE
  0
POLYLINE
  5
1E7
330
1F
100
AcDbEntity
  8
STANDARDEBENE
 62
     7
100
AcDb2dPolyline
 66
     1
 10
0.0
 20
0.0
 30
0.0
  0
VERTEX
  5
1E8
330
1E7
100
AcDbEntity
  8
STANDARDEBENE
 62
     7
100
AcDbVertex
100
AcDb2dVertex
 10
-96.048828125
 20
11.814453125
 30
0.0
  0
VERTEX
  5
1E9
330
1E7
100
AcDbEntity
  8
STANDARDEBENE
 62
     7
100
AcDbVertex
100
AcDb2dVertex
 10
-98.091796875
 20
9.298828125
 30
0.0
  0
SEQEND
  5
1EA
330
1E7
100
AcDbEntity
  8
STANDARDEBENE
  0
POLYLINE
  5
1EB
330
1F
100
AcDbEntity
  8
STANDARDEBENE
 62
     7
100
AcDb2dPolyline
 66
     1
 10
0.0
 20
0.0
 30
0.0
  0
VERTEX
  5
1EC
330
1EB
100
AcDbEntity
  8
STANDARDEBENE
 62
     7
100
AcDbVertex
100
AcDb2dVertex
 10
-98.091796875
 20
12.630859375
 30
0.0
  0
VERTEX
  5
1ED
330
1EB
100
AcDbEntity
  8
STANDARDEBENE
 62
     7
100
AcDbVertex
100
AcDb2dVertex
 10
-98.091796875
 20
11.798828125
 30
0.0
  0
SEQEND
  5
1EE
330
1EB
100
AcDbEntity
  8
STANDARDEBENE
  0
POLYLINE
  5
1EF
330
1F
100
AcDbEntity
  8
STANDARDEBENE
 62
     7
100
AcDb2dPolyline
 66
     1
 10
0.0
 20
0.0
 30
0.0
  0
VERTEX
  5
1F0
330
1EF
100
AcDbEntity
  8
STANDARDEBENE
 62
     7
100
AcDbVertex
100
AcDb2dVertex
 10
-98.091796875
 20
10.130859375
 30
0.0
  0
VERTEX
  5
1F1
330
1EF
100
AcDbEntity
  8
STANDARDEBENE
 62
     7
100
AcDbVertex
100
AcDb2dVertex
 10
-98.091796875
 20
9.298828125
 30
0.0
  0
SEQEND
  5
1F2
330
1EF
100
AcDbEntity
  8
STANDARDEBENE
  0
POLYLINE
  5
1F3
330
1F
100
AcDbEntity
  8
STANDARDEBENE
 62
     7
100
AcDb2dPolyline
 66
     1
 10
0.0
 20
0.0
 30
0.0
  0
VERTEX
  5
1F4
330
1F3
100
AcDbEntity
  8
STANDARDEBENE
 62
     7
100
AcDbVertex
100
AcDb2dVertex
 10
-98.091796875
 20
-14.541015625
 30
0.0
  0
VERTEX
  5
1F5
330
1F3
100
AcDbEntity
  8
STANDARDEBENE
 62
     7
100
AcDbVertex
100
AcDb2dVertex
 10
-101.06640625
 20
-14.541015625
 30
0.0
  0
SEQEND
  5
1F6
330
1F3
100
AcDbEntity
  8
STANDARDEBENE
  0
POLYLINE
  5
1F7
330
1F
100
AcDbEntity
  8
STANDARDEBENE
 62
     7
100
AcDb2dPolyline
 66
     1
 10
0.0
 20
0.0
 30
0.0
  0
VERTEX
  5
1F8
330
1F7
100
AcDbEntity
  8
STANDARDEBENE
 62
     7
100
AcDbVertex
100
AcDb2dVertex
 10
-107.013671875
 20
-14.541015625
 30
0.0
  0
VERTEX
  5
1F9
330
1F7
100
AcDbEntity
  8
STANDARDEBENE
 62
     7
100
AcDbVertex
100
AcDb2dVertex
 10
-112.9609375
 20
-14.541015625
 30
0.0
  0
SEQEND
  5
1FA
330
1F7
100
AcDbEntity
  8
STANDARDEBENE
  0
POLYLINE
  5
1FB
330
1F
100
AcDbEntity
  8
STANDARDEBENE
 62
     7
100
AcDb2dPolyline
 66
     1
 10
0.0
 20
0.0
 30
0.0
  0
VERTEX
  5
1FC
330
1FB
100
AcDbEntity
  8
STANDARDEBENE
 62
     7
100
AcDbVertex
100
AcDb2dVertex
 10
-118.91015625
 20
-14.541015625
 30
0.0
  0
VERTEX
  5
1FD
330
1FB
100
AcDbEntity
  8
STANDARDEBENE
 62
     7
100
AcDbVertex
100
AcDb2dVertex
 10
-124.859375
 20
-14.541015625
 30
0.0
  0
SEQEND
  5
1FE
330
1FB
100
AcDbEntity
  8
STANDARDEBENE
  0
POLYLINE
  5
1FF
330
1F
100
AcDbEntity
  8
STANDARDEBENE
 62
     7
100
AcDb2dPolyline
 66
     1
 10
0.0
 20
0.0
 30
0.0
  0
VERTEX
  5
200
330
1FF
100
AcDbEntity
  8
STANDARDEBENE
 62
     7
100
AcDbVertex
100
AcDb2dVertex
 10
-130.80859375
 20
-14.541015625
 30
0.0
  0
VERTEX
  5
201
330
1FF
100
AcDbEntity
  8
STANDARDEBENE
 62
     7
100
AcDbVertex
100
AcDb2dVertex
 10
-136.751953125
 20
-14.541015625
 30
0.0
  0
SEQEND
  5
202
330
1FF
100
AcDbEntity
  8
STANDARDEBENE
  0
POLYLINE
  5
203
330
1F
100
AcDbEntity
  8
STANDARDEBENE
 62
     7
100
AcDb2dPolyline
 66
     1
 10
0.0
 20
0.0
 30
0.0
  0
VERTEX
  5
204
330
203
100
AcDbEntity
  8
STANDARDEBENE
 62
     7
100
AcDbVertex
100
AcDb2dVertex
 10
-142.701171875
 20
-14.541015625
 30
0.0
  0
VERTEX
  5
205
330
203
100
AcDbEntity
  8
STANDARDEBENE
 62
     7
100
AcDbVertex
100
AcDb2dVertex
 10
-148.6494140625
 20
-14.541015625
 30
0.0
  0
SEQEND
  5
206
330
203
100
AcDbEntity
  8
STANDARDEBENE
  0
POLYLINE
  5
207
330
1F
100
AcDbEntity
  8
STANDARDEBENE
 62
     7
100
AcDb2dPolyline
 66
     1
 10
0.0
 20
0.0
 30
0.0
  0
VERTEX
  5
208
330
207
100
AcDbEntity
  8
STANDARDEBENE
 62
     7
100
AcDbVertex
100
AcDb2dVertex
 10
-154.595703125
 20
-14.541015625
 30
0.0
  0
VERTEX
  5
209
330
207
100
AcDbEntity
  8
STANDARDEBENE
 62
     7
100
AcDbVertex
100
AcDb2dVertex
 10
-160.54296875
 20
-14.541015625
 30
0.0
  0
SEQEND
  5
20A
330
207
100
AcDbEntity
  8
STANDARDEBENE
  0
POLYLINE
  5
20B
330
1F
100
AcDbEntity
  8
STANDARDEBENE
 62
     7
100
AcDb2dPolyline
 66
     1
 10
0.0
 20
0.0
 30
0.0
  0
VERTEX
  5
20C
330
20B
100
AcDbEntity
  8
STANDARDEBENE
 62
     7
100
AcDbVertex
100
AcDb2dVertex
 10
-166.4931640625
 20
-14.541015625
 30
0.0
  0
VERTEX
  5
20D
330
20B
100
AcDbEntity
  8
STANDARDEBENE
 62
     7
100
AcDbVertex
100
AcDb2dVertex
 10
-172.44140625
 20
-14.541015625
 30
0.0
  0
SEQEND
  5
20E
330
20B
100
AcDbEntity
  8
STANDARDEBENE
  0
POLYLINE
  5
20F
330
1F
100
AcDbEntity
  8
STANDARDEBENE
 62
     7
100
AcDb2dPolyline
 66
     1
 10
0.0
 20
0.0
 30
0.0
  0
VERTEX
  5
210
330
20F
100
AcDbEntity
  8
STANDARDEBENE
 62
     7
100
AcDbVertex
100
AcDb2dVertex
 10
-178.3896484375
 20
-14.541015625
 30
0.0
  0
VERTEX
  5
211
330
20F
100
AcDbEntity
  8
STANDARDEBENE
 62
     7
100
AcDbVertex
100
AcDb2dVertex
 10
-184.3349609375
 20
-14.541015625
 30
0.0
  0
SEQEND
  5
212
330
20F
100
AcDbEntity
  8
STANDARDEBENE
  0
POLYLINE
  5
213
330
1F
100
AcDbEntity
  8
STANDARDEBENE
 62
     7
100
AcDb2dPolyline
 66
     1
 10
0.0
 20
0.0
 30
0.0
  0
VERTEX
  5
214
330
213
100
AcDbEntity
  8
STANDARDEBENE
 62
     7
100
AcDbVertex
100
AcDb2dVertex
 10
-190.283203125
 20
-14.541015625
 30
0.0
  0
VERTEX
  5
215
330
213
100
AcDbEntity
  8
STANDARDEBENE
 62
     7
100
AcDbVertex
100
AcDb2dVertex
 10
-193.259765625
 20
-14.541015625
 30
0.0
  0
VERTEX
  5
216
330
213
100
AcDbEntity
  8
STANDARDEBENE
 62
     7
100
AcDbVertex
100
AcDb2dVertex
 10
-193.259765625
 20
-15.33984375
 30
0.0
  0
SEQEND
  5
217
330
213
100
AcDbEntity
  8
STANDARDEBENE
  0
POLYLINE
  5
218
330
1F
100
AcDbEntity
  8
STANDARDEBENE
 62
     7
100
AcDb2dPolyline
 66
     1
 10
0.0
 20
0.0
 30
0.0
  0
VERTEX
  5
219
330
218
100
AcDbEntity
  8
STANDARDEBENE
 62
     7
100
AcDbVertex
100
AcDb2dVertex
 10
-193.259765625
 20
-16.9453125
 30
0.0
  0
VERTEX
  5
21A
330
218
100
AcDbEntity
  8
STANDARDEBENE
 62
     7
100
AcDbVertex
100
AcDb2dVertex
 10
-193.259765625
 20
-17.748046875
 30
0.0
  0
SEQEND
  5
21B
330
218
100
AcDbEntity
  8
STANDARDEBENE
  0
POLYLINE
  5
21C
330
1F
100
AcDbEntity
  8
STANDARDEBENE
 62
     7
100
AcDb2dPolyline
 66
     1
 10
0.0
 20
0.0
 30
0.0
  0
VERTEX
  5
21D
330
21C
100
AcDbEntity
  8
STANDARDEBENE
 62
     7
100
AcDbVertex
100
AcDb2dVertex
 10
-98.091796875
 20
-17.748046875
 30
0.0
  0
VERTEX
  5
21E
330
21C
100
AcDbEntity
  8
STANDARDEBENE
 62
     7
100
AcDbVertex
100
AcDb2dVertex
 10
-101.06640625
 20
-17.748046875
 30
0.0
  0
SEQEND
  5
21F
330
21C
100
AcDbEntity
  8
STANDARDEBENE
  0
POLYLINE
  5
220
330
1F
100
AcDbEntity
  8
STANDARDEBENE
 62
     7
100
AcDb2dPolyline
 66
     1
 10
0.0
 20
0.0
 30
0.0
  0
VERTEX
  5
221
330
220
100
AcDbEntity
  8
STANDARDEBENE
 62
     7
100
AcDbVertex
100
AcDb2dVertex
 10
-107.013671875
 20
-17.748046875
 30
0.0
  0
VERTEX
  5
222
330
220
100
AcDbEntity
  8
STANDARDEBENE
 62
     7
100
AcDbVertex
100
AcDb2dVertex
 10
-112.9609375
 20
-17.748046875
 30
0.0
  0
SEQEND
  5
223
330
220
100
AcDbEntity
  8
STANDARDEBENE
  0
POLYLINE
  5
224
330
1F
100
AcDbEntity
  8
STANDARDEBENE
 62
     7
100
AcDb2dPolyline
 66
     1
 10
0.0
 20
0.0
 30
0.0
  0
VERTEX
  5
225
330
224
100
AcDbEntity
  8
STANDARDEBENE
 62
     7
100
AcDbVertex
100
AcDb2dVertex
 10
-118.91015625
 20
-17.748046875
 30
0.0
  0
VERTEX
  5
226
330
224
100
AcDbEntity
  8
STANDARDEBENE
 62
     7
100
AcDbVertex
100
AcDb2dVertex
 10
-124.859375
 20
-17.748046875
 30
0.0
  0
SEQEND
  5
227
330
224
100
AcDbEntity
  8
STANDARDEBENE
  0
POLYLINE
  5
228
330
1F
100
AcDbEntity
  8
STANDARDEBENE
 62
     7
100
AcDb2dPolyline
 66
     1
 10
0.0
 20
0.0
 30
0.0
  0
VERTEX
  5
229
330
228
100
AcDbEntity
  8
STANDARDEBENE
 62
     7
100
AcDbVertex
100
AcDb2dVertex
 10
-130.80859375
 20
-17.748046875
 30
0.0
  0
VERTEX
  5
22A
330
228
100
AcDbEntity
  8
STANDARDEBENE
 62
     7
100
AcDbVertex
100
AcDb2dVertex
 10
-136.751953125
 20
-17.748046875
 30
0.0
  0
SEQEND
  5
22B
330
228
100
AcDbEntity
  8
STANDARDEBENE
  0
POLYLINE
  5
22C
330
1F
100
AcDbEntity
  8
STANDARDEBENE
 62
     7
100
AcDb2dPolyline
 66
     1
 10
0.0
 20
0.0
 30
0.0
  0
VERTEX
  5
22D
330
22C
100
AcDbEntity
  8
STANDARDEBENE
 62
     7
100
AcDbVertex
100
AcDb2dVertex
 10
-142.701171875
 20
-17.748046875
 30
0.0
  0
VERTEX
  5
22E
330
22C
100
AcDbEntity
  8
STANDARDEBENE
 62
     7
100
AcDbVertex
100
AcDb2dVertex
 10
-148.6494140625
 20
-17.748046875
 30
0.0
  0
SEQEND
  5
22F
330
22C
100
AcDbEntity
  8
STANDARDEBENE
  0
POLYLINE
  5
230
330
1F
100
AcDbEntity
  8
STANDARDEBENE
 62
     7
100
AcDb2dPolyline
 66
     1
 10
0.0
 20
0.0
 30
0.0
  0
VERTEX
  5
231
330
230
100
AcDbEntity
  8
STANDARDEBENE
 62
     7
100
AcDbVertex
100
AcDb2dVertex
 10
-154.595703125
 20
-17.748046875
 30
0.0
  0
VERTEX
  5
232
330
230
100
AcDbEntity
  8
STANDARDEBENE
 62
     7
100
AcDbVertex
100
AcDb2dVertex
 10
-160.54296875
 20
-17.748046875
 30
0.0
  0
SEQEND
  5
233
330
230
100
AcDbEntity
  8
STANDARDEBENE
  0
POLYLINE
  5
234
330
1F
100
AcDbEntity
  8
STANDARDEBENE
 62
     7
100
AcDb2dPolyline
 66
     1
 10
0.0
 20
0.0
 30
0.0
  0
VERTEX
  5
235
330
234
100
AcDbEntity
  8
STANDARDEBENE
 62
     7
100
AcDbVertex
100
AcDb2dVertex
 10
-166.4931640625
 20
-17.748046875
 30
0.0
  0
VERTEX
  5
236
330
234
100
AcDbEntity
  8
STANDARDEBENE
 62
     7
100
AcDbVertex
100
AcDb2dVertex
 10
-172.44140625
 20
-17.748046875
 30
0.0
  0
SEQEND
  5
237
330
234
100
AcDbEntity
  8
STANDARDEBENE
  0
POLYLINE
  5
238
330
1F
100
AcDbEntity
  8
STANDARDEBENE
 62
     7
100
AcDb2dPolyline
 66
     1
 10
0.0
 20
0.0
 30
0.0
  0
VERTEX
  5
239
330
238
100
AcDbEntity
  8
STANDARDEBENE
 62
     7
100
AcDbVertex
100
AcDb2dVertex
 10
-178.3896484375
 20
-17.748046875
 30
0.0
  0
VERTEX
  5
23A
330
238
100
AcDbEntity
  8
STANDARDEBENE
 62
     7
100
AcDbVertex
100
AcDb2dVertex
 10
-184.3349609375
 20
-17.748046875
 30
0.0
  0
SEQEND
  5
23B
330
238
100
AcDbEntity
  8
STANDARDEBENE
  0
POLYLINE
  5
23C
330
1F
100
AcDbEntity
  8
STANDARDEBENE
 62
     7
100
AcDb2dPolyline
 66
     1
 10
0.0
 20
0.0
 30
0.0
  0
VERTEX
  5
23D
330
23C
100
AcDbEntity
  8
STANDARDEBENE
 62
     7
100
AcDbVertex
100
AcDb2dVertex
 10
-190.283203125
 20
-17.748046875
 30
0.0
  0
VERTEX
  5
23E
330
23C
100
AcDbEntity
  8
STANDARDEBENE
 62
     7
100
AcDbVertex
100
AcDb2dVertex
 10
-193.259765625
 20
-17.748046875
 30
0.0
  0
SEQEND
  5
23F
330
23C
100
AcDbEntity
  8
STANDARDEBENE
  0
POLYLINE
  5
240
330
1F
100
AcDbEntity
  8
STANDARDEBENE
 62
     7
100
AcDb2dPolyline
 66
     1
 10
0.0
 20
0.0
 30
0.0
  0
VERTEX
  5
241
330
240
100
AcDbEntity
  8
STANDARDEBENE
 62
     7
100
AcDbVertex
100
AcDb2dVertex
 10
-98.091796875
 20
-17.748046875
 30
0.0
  0
VERTEX
  5
242
330
240
100
AcDbEntity
  8
STANDARDEBENE
 62
     7
100
AcDbVertex
100
AcDb2dVertex
 10
-98.091796875
 20
-18.580078125
 30
0.0
  0
SEQEND
  5
243
330
240
100
AcDbEntity
  8
STANDARDEBENE
  0
POLYLINE
  5
244
330
1F
100
AcDbEntity
  8
STANDARDEBENE
 62
     7
100
AcDb2dPolyline
 66
     1
 10
0.0
 20
0.0
 30
0.0
  0
VERTEX
  5
245
330
244
100
AcDbEntity
  8
STANDARDEBENE
 62
     7
100
AcDbVertex
100
AcDb2dVertex
 10
-98.091796875
 20
-20.248046875
 30
0.0
  0
VERTEX
  5
246
330
244
100
AcDbEntity
  8
STANDARDEBENE
 62
     7
100
AcDbVertex
100
AcDb2dVertex
 10
-98.091796875
 20
-21.080078125
 30
0.0
  0
SEQEND
  5
247
330
244
100
AcDbEntity
  8
STANDARDEBENE
  0
POLYLINE
  5
248
330
1F
100
AcDbEntity
  8
STANDARDEBENE
 62
     7
100
AcDb2dPolyline
 66
     1
 10
0.0
 20
0.0
 30
0.0
  0
VERTEX
  5
249
330
248
100
AcDbEntity
  8
STANDARDEBENE
 62
     7
100
AcDbVertex
100
AcDb2dVertex
 10
-195.8349609375
 20
-21.080078125
 30
0.0
  0
VERTEX
  5
24A
330
248
100
AcDbEntity
  8
STANDARDEBENE
 62
     7
100
AcDbVertex
100
AcDb2dVertex
 10
-194.705078125
 20
-20.662109375
 30
0.0
  0
VERTEX
  5
24B
330
248
100
AcDbEntity
  8
STANDARDEBENE
 62
     7
100
AcDbVertex
100
AcDb2dVertex
 10
-192.95703125
 20
-20.154296875
 30
0.0
  0
VERTEX
  5
24C
330
248
100
AcDbEntity
  8
STANDARDEBENE
 62
     7
100
AcDbVertex
100
AcDb2dVertex
 10
-192.54296875
 20
-20.08203125
 30
0.0
  0
SEQEND
  5
24D
330
248
100
AcDbEntity
  8
STANDARDEBENE
  0
POLYLINE
  5
24E
330
1F
100
AcDbEntity
  8
STANDARDEBENE
 62
     7
100
AcDb2dPolyline
 66
     1
 10
0.0
 20
0.0
 30
0.0
  0
VERTEX
  5
24F
330
24E
100
AcDbEntity
  8
STANDARDEBENE
 62
     7
100
AcDbVertex
100
AcDb2dVertex
 10
-185.705078125
 20
-20.080078125
 30
0.0
  0
VERTEX
  5
250
330
24E
100
AcDbEntity
  8
STANDARDEBENE
 62
     7
100
AcDbVertex
100
AcDb2dVertex
 10
-184.4111328125
 20
-20.388671875
 30
0.0
  0
VERTEX
  5
251
330
24E
100
AcDbEntity
  8
STANDARDEBENE
 62
     7
100
AcDbVertex
100
AcDb2dVertex
 10
-182.9208984375
 20
-20.880859375
 30
0.0
  0
VERTEX
  5
252
330
24E
100
AcDbEntity
  8
STANDARDEBENE
 62
     7
100
AcDbVertex
100
AcDb2dVertex
 10
-182.4072265625
 20
-21.080078125
 30
0.0
  0
SEQEND
  5
253
330
24E
100
AcDbEntity
  8
STANDARDEBENE
  0
POLYLINE
  5
254
330
1F
100
AcDbEntity
  8
STANDARDEBENE
 62
     7
100
AcDb2dPolyline
 66
     1
 10
0.0
 20
0.0
 30
0.0
  0
VERTEX
  5
255
330
254
100
AcDbEntity
  8
STANDARDEBENE
 62
     7
100
AcDbVertex
100
AcDb2dVertex
 10
-200.4609375
 20
-21.080078125
 30
0.0
  0
VERTEX
  5
256
330
254
100
AcDbEntity
  8
STANDARDEBENE
 62
     7
100
AcDbVertex
100
AcDb2dVertex
 10
-199.3037109375
 20
-21.080078125
 30
0.0
  0
SEQEND
  5
257
330
254
100
AcDbEntity
  8
STANDARDEBENE
  0
POLYLINE
  5
258
330
1F
100
AcDbEntity
  8
STANDARDEBENE
 62
     7
100
AcDb2dPolyline
 66
     1
 10
0.0
 20
0.0
 30
0.0
  0
VERTEX
  5
259
330
258
100
AcDbEntity
  8
STANDARDEBENE
 62
     7
100
AcDbVertex
100
AcDb2dVertex
 10
-196.9931640625
 20
-21.080078125
 30
0.0
  0
VERTEX
  5
25A
330
258
100
AcDbEntity
  8
STANDARDEBENE
 62
     7
100
AcDbVertex
100
AcDb2dVertex
 10
-195.8349609375
 20
-21.080078125
 30
0.0
  0
SEQEND
  5
25B
330
258
100
AcDbEntity
  8
STANDARDEBENE
  0
POLYLINE
  5
25C
330
1F
100
AcDbEntity
  8
STANDARDEBENE
 62
     7
100
AcDb2dPolyline
 66
     1
 10
0.0
 20
0.0
 30
0.0
  0
VERTEX
  5
25D
330
25C
100
AcDbEntity
  8
STANDARDEBENE
 62
     7
100
AcDbVertex
100
AcDb2dVertex
 10
-200.4609375
 20
-6.4921875
 30
0.0
  0
VERTEX
  5
25E
330
25C
100
AcDbEntity
  8
STANDARDEBENE
 62
     7
100
AcDbVertex
100
AcDb2dVertex
 10
-200.4609375
 20
-10.138671875
 30
0.0
  0
SEQEND
  5
25F
330
25C
100
AcDbEntity
  8
STANDARDEBENE
  0
POLYLINE
  5
260
330
1F
100
AcDbEntity
  8
STANDARDEBENE
 62
     7
100
AcDb2dPolyline
 66
     1
 10
0.0
 20
0.0
 30
0.0
  0
VERTEX
  5
261
330
260
100
AcDbEntity
  8
STANDARDEBENE
 62
     7
100
AcDbVertex
100
AcDb2dVertex
 10
-200.4609375
 20
-17.431640625
 30
0.0
  0
VERTEX
  5
262
330
260
100
AcDbEntity
  8
STANDARDEBENE
 62
     7
100
AcDbVertex
100
AcDb2dVertex
 10
-200.4609375
 20
-17.7109375
 30
0.0
  0
VERTEX
  5
263
330
260
100
AcDbEntity
  8
STANDARDEBENE
 62
     7
100
AcDbVertex
100
AcDb2dVertex
 10
-200.4609375
 20
-19.927734375
 30
0.0
  0
VERTEX
  5
264
330
260
100
AcDbEntity
  8
STANDARDEBENE
 62
     7
100
AcDbVertex
100
AcDb2dVertex
 10
-200.4609375
 20
-21.080078125
 30
0.0
  0
SEQEND
  5
265
330
260
100
AcDbEntity
  8
STANDARDEBENE
  0
POLYLINE
  5
266
330
1F
100
AcDbEntity
  8
STANDARDEBENE
 62
     7
100
AcDb2dPolyline
 66
     1
 10
0.0
 20
0.0
 30
0.0
  0
VERTEX
  5
267
330
266
100
AcDbEntity
  8
STANDARDEBENE
 62
     7
100
AcDbVertex
100
AcDb2dVertex
 10
-203.296875
 20
-23.9375
 30
0.0
  0
VERTEX
  5
268
330
266
100
AcDbEntity
  8
STANDARDEBENE
 62
     7
100
AcDbVertex
100
AcDb2dVertex
 10
-202.5849609375
 20
-23.220703125
 30
0.0
  0
SEQEND
  5
269
330
266
100
AcDbEntity
  8
STANDARDEBENE
  0
POLYLINE
  5
26A
330
1F
100
AcDbEntity
  8
STANDARDEBENE
 62
     7
100
AcDb2dPolyline
 66
     1
 10
0.0
 20
0.0
 30
0.0
  0
VERTEX
  5
26B
330
26A
100
AcDbEntity
  8
STANDARDEBENE
 62
     7
100
AcDbVertex
100
AcDb2dVertex
 10
-201.1708984375
 20
-21.794921875
 30
0.0
  0
VERTEX
  5
26C
330
26A
100
AcDbEntity
  8
STANDARDEBENE
 62
     7
100
AcDbVertex
100
AcDb2dVertex
 10
-200.4609375
 20
-21.080078125
 30
0.0
  0
SEQEND
  5
26D
330
26A
100
AcDbEntity
  8
STANDARDEBENE
  0
POLYLINE
  5
26E
330
1F
100
AcDbEntity
  8
STANDARDEBENE
 62
     7
100
AcDb2dPolyline
 66
     1
 10
0.0
 20
0.0
 30
0.0
  0
VERTEX
  5
26F
330
26E
100
AcDbEntity
  8
STANDARDEBENE
 62
     7
100
AcDbVertex
100
AcDb2dVertex
 10
-89.91015625
 20
-27.81640625
 30
0.0
  0
VERTEX
  5
270
330
26E
100
AcDbEntity
  8
STANDARDEBENE
 62
     7
100
AcDbVertex
100
AcDb2dVertex
 10
-91.95703125
 20
-25.30078125
 30
0.0
  0
SEQEND
  5
271
330
26E
100
AcDbEntity
  8
STANDARDEBENE
  0
POLYLINE
  5
272
330
1F
100
AcDbEntity
  8
STANDARDEBENE
 62
     7
100
AcDb2dPolyline
 66
     1
 10
0.0
 20
0.0
 30
0.0
  0
VERTEX
  5
273
330
272
100
AcDbEntity
  8
STANDARDEBENE
 62
     7
100
AcDbVertex
100
AcDb2dVertex
 10
-96.048828125
 20
-20.265625
 30
0.0
  0
VERTEX
  5
274
330
272
100
AcDbEntity
  8
STANDARDEBENE
 62
     7
100
AcDbVertex
100
AcDb2dVertex
 10
-98.091796875
 20
-17.748046875
 30
0.0
  0
SEQEND
  5
275
330
272
100
AcDbEntity
  8
STANDARDEBENE
  0
POLYLINE
  5
276
330
1F
100
AcDbEntity
  8
STANDARDEBENE
 62
     7
100
AcDb2dPolyline
 66
     1
 10
0.0
 20
0.0
 30
0.0
  0
VERTEX
  5
277
330
276
100
AcDbEntity
  8
STANDARDEBENE
 62
     7
100
AcDbVertex
100
AcDb2dVertex
 10
-89.91015625
 20
-27.81640625
 30
0.0
  0
VERTEX
  5
278
330
276
100
AcDbEntity
  8
STANDARDEBENE
 62
     7
100
AcDbVertex
100
AcDb2dVertex
 10
-89.91015625
 20
-29.6953125
 30
0.0
  0
SEQEND
  5
279
330
276
100
AcDbEntity
  8
STANDARDEBENE
  0
POLYLINE
  5
27A
330
1F
100
AcDbEntity
  8
STANDARDEBENE
 62
     7
100
AcDb2dPolyline
 66
     1
 10
0.0
 20
0.0
 30
0.0
  0
VERTEX
  5
27B
330
27A
100
AcDbEntity
  8
STANDARDEBENE
 62
     7
100
AcDbVertex
100
AcDb2dVertex
 10
-89.91015625
 20
-33.447265625
 30
0.0
  0
VERTEX
  5
27C
330
27A
100
AcDbEntity
  8
STANDARDEBENE
 62
     7
100
AcDbVertex
100
AcDb2dVertex
 10
-89.91015625
 20
-34.138671875
 30
0.0
  0
VERTEX
  5
27D
330
27A
100
AcDbEntity
  8
STANDARDEBENE
 62
     7
100
AcDbVertex
100
AcDb2dVertex
 10
-89.91015625
 20
-35.322265625
 30
0.0
  0
SEQEND
  5
27E
330
27A
100
AcDbEntity
  8
STANDARDEBENE
  0
POLYLINE
  5
27F
330
1F
100
AcDbEntity
  8
STANDARDEBENE
 62
     7
100
AcDb2dPolyline
 66
     1
 10
0.0
 20
0.0
 30
0.0
  0
VERTEX
  5
280
330
27F
100
AcDbEntity
  8
STANDARDEBENE
 62
     7
100
AcDbVertex
100
AcDb2dVertex
 10
-200.4609375
 20
12.630859375
 30
0.0
  0
VERTEX
  5
281
330
27F
100
AcDbEntity
  8
STANDARDEBENE
 62
     7
100
AcDbVertex
100
AcDb2dVertex
 10
-200.4609375
 20
11.4765625
 30
0.0
  0
VERTEX
  5
282
330
27F
100
AcDbEntity
  8
STANDARDEBENE
 62
     7
100
AcDbVertex
100
AcDb2dVertex
 10
-200.4609375
 20
9.263671875
 30
0.0
  0
VERTEX
  5
283
330
27F
100
AcDbEntity
  8
STANDARDEBENE
 62
     7
100
AcDbVertex
100
AcDb2dVertex
 10
-200.4609375
 20
8.984375
 30
0.0
  0
SEQEND
  5
284
330
27F
100
AcDbEntity
  8
STANDARDEBENE
  0
POLYLINE
  5
285
330
1F
100
AcDbEntity
  8
STANDARDEBENE
 62
     7
100
AcDb2dPolyline
 66
     1
 10
0.0
 20
0.0
 30
0.0
  0
VERTEX
  5
286
330
285
100
AcDbEntity
  8
STANDARDEBENE
 62
     7
100
AcDbVertex
100
AcDb2dVertex
 10
-200.4609375
 20
1.693359375
 30
0.0
  0
VERTEX
  5
287
330
285
100
AcDbEntity
  8
STANDARDEBENE
 62
     7
100
AcDbVertex
100
AcDb2dVertex
 10
-200.4609375
 20
-1.95703125
 30
0.0
  0
SEQEND
  5
288
330
285
100
AcDbEntity
  8
STANDARDEBENE
  0
POLYLINE
  5
289
330
1F
100
AcDbEntity
  8
STANDARDEBENE
 62
     7
100
AcDb2dPolyline
 66
     1
 10
0.0
 20
0.0
 30
0.0
  0
VERTEX
  5
28A
330
289
100
AcDbEntity
  8
STANDARDEBENE
 62
     7
100
AcDbVertex
100
AcDb2dVertex
 10
-195.8349609375
 20
12.630859375
 30
0.0
  0
VERTEX
  5
28B
330
289
100
AcDbEntity
  8
STANDARDEBENE
 62
     7
100
AcDbVertex
100
AcDb2dVertex
 10
-196.9931640625
 20
12.630859375
 30
0.0
  0
SEQEND
  5
28C
330
289
100
AcDbEntity
  8
STANDARDEBENE
  0
POLYLINE
  5
28D
330
1F
100
AcDbEntity
  8
STANDARDEBENE
 62
     7
100
AcDb2dPolyline
 66
     1
 10
0.0
 20
0.0
 30
0.0
  0
VERTEX
  5
28E
330
28D
100
AcDbEntity
  8
STANDARDEBENE
 62
     7
100
AcDbVertex
100
AcDb2dVertex
 10
-199.3037109375
 20
12.630859375
 30
0.0
  0
VERTEX
  5
28F
330
28D
100
AcDbEntity
  8
STANDARDEBENE
 62
     7
100
AcDbVertex
100
AcDb2dVertex
 10
-200.4609375
 20
12.630859375
 30
0.0
  0
SEQEND
  5
290
330
28D
100
AcDbEntity
  8
STANDARDEBENE
  0
POLYLINE
  5
291
330
1F
100
AcDbEntity
  8
STANDARDEBENE
 62
     7
100
AcDb2dPolyline
 66
     1
 10
0.0
 20
0.0
 30
0.0
  0
VERTEX
  5
292
330
291
100
AcDbEntity
  8
STANDARDEBENE
 62
     7
100
AcDbVertex
100
AcDb2dVertex
 10
-182.4072265625
 20
12.630859375
 30
0.0
  0
VERTEX
  5
293
330
291
100
AcDbEntity
  8
STANDARDEBENE
 62
     7
100
AcDbVertex
100
AcDb2dVertex
 10
-183.541015625
 20
12.21484375
 30
0.0
  0
VERTEX
  5
294
330
291
100
AcDbEntity
  8
STANDARDEBENE
 62
     7
100
AcDbVertex
100
AcDb2dVertex
 10
-185.287109375
 20
11.705078125
 30
0.0
  0
VERTEX
  5
295
330
291
100
AcDbEntity
  8
STANDARDEBENE
 62
     7
100
AcDbVertex
100
AcDb2dVertex
 10
-185.705078125
 20
11.634765625
 30
0.0
  0
SEQEND
  5
296
330
291
100
AcDbEntity
  8
STANDARDEBENE
  0
POLYLINE
  5
297
330
1F
100
AcDbEntity
  8
STANDARDEBENE
 62
     7
100
AcDb2dPolyline
 66
     1
 10
0.0
 20
0.0
 30
0.0
  0
VERTEX
  5
298
330
297
100
AcDbEntity
  8
STANDARDEBENE
 62
     7
100
AcDbVertex
100
AcDb2dVertex
 10
-192.54296875
 20
11.630859375
 30
0.0
  0
VERTEX
  5
299
330
297
100
AcDbEntity
  8
STANDARDEBENE
 62
     7
100
AcDbVertex
100
AcDb2dVertex
 10
-193.8349609375
 20
11.939453125
 30
0.0
  0
VERTEX
  5
29A
330
297
100
AcDbEntity
  8
STANDARDEBENE
 62
     7
100
AcDbVertex
100
AcDb2dVertex
 10
-195.3251953125
 20
12.435546875
 30
0.0
  0
VERTEX
  5
29B
330
297
100
AcDbEntity
  8
STANDARDEBENE
 62
     7
100
AcDbVertex
100
AcDb2dVertex
 10
-195.8349609375
 20
12.630859375
 30
0.0
  0
SEQEND
  5
29C
330
297
100
AcDbEntity
  8
STANDARDEBENE
  0
POLYLINE
  5
29D
330
1F
100
AcDbEntity
  8
STANDARDEBENE
 62
     7
100
AcDb2dPolyline
 66
     1
 10
0.0
 20
0.0
 30
0.0
  0
VERTEX
  5
29E
330
29D
100
AcDbEntity
  8
STANDARDEBENE
 62
     7
100
AcDbVertex
100
AcDb2dVertex
 10
-98.091796875
 20
9.298828125
 30
0.0
  0
VERTEX
  5
29F
330
29D
100
AcDbEntity
  8
STANDARDEBENE
 62
     7
100
AcDbVertex
100
AcDb2dVertex
 10
-101.06640625
 20
9.298828125
 30
0.0
  0
SEQEND
  5
2A0
330
29D
100
AcDbEntity
  8
STANDARDEBENE
  0
POLYLINE
  5
2A1
330
1F
100
AcDbEntity
  8
STANDARDEBENE
 62
     7
100
AcDb2dPolyline
 66
     1
 10
0.0
 20
0.0
 30
0.0
  0
VERTEX
  5
2A2
330
2A1
100
AcDbEntity
  8
STANDARDEBENE
 62
     7
100
AcDbVertex
100
AcDb2dVertex
 10
-107.013671875
 20
9.298828125
 30
0.0
  0
VERTEX
  5
2A3
330
2A1
100
AcDbEntity
  8
STANDARDEBENE
 62
     7
100
AcDbVertex
100
AcDb2dVertex
 10
-112.9609375
 20
9.298828125
 30
0.0
  0
SEQEND
  5
2A4
330
2A1
100
AcDbEntity
  8
STANDARDEBENE
  0
POLYLINE
  5
2A5
330
1F
100
AcDbEntity
  8
STANDARDEBENE
 62
     7
100
AcDb2dPolyline
 66
     1
 10
0.0
 20
0.0
 30
0.0
  0
VERTEX
  5
2A6
330
2A5
100
AcDbEntity
  8
STANDARDEBENE
 62
     7
100
AcDbVertex
100
AcDb2dVertex
 10
-118.91015625
 20
9.298828125
 30
0.0
  0
VERTEX
  5
2A7
330
2A5
100
AcDbEntity
  8
STANDARDEBENE
 62
     7
100
AcDbVertex
100
AcDb2dVertex
 10
-124.859375
 20
9.298828125
 30
0.0
  0
SEQEND
  5
2A8
330
2A5
100
AcDbEntity
  8
STANDARDEBENE
  0
POLYLINE
  5
2A9
330
1F
100
AcDbEntity
  8
STANDARDEBENE
 62
     7
100
AcDb2dPolyline
 66
     1
 10
0.0
 20
0.0
 30
0.0
  0
VERTEX
  5
2AA
330
2A9
100
AcDbEntity
  8
STANDARDEBENE
 62
     7
100
AcDbVertex
100
AcDb2dVertex
 10
-130.80859375
 20
9.298828125
 30
0.0
  0
VERTEX
  5
2AB
330
2A9
100
AcDbEntity
  8
STANDARDEBENE
 62
     7
100
AcDbVertex
100
AcDb2dVertex
 10
-136.751953125
 20
9.298828125
 30
0.0
  0
SEQEND
  5
2AC
330
2A9
100
AcDbEntity
  8
STANDARDEBENE
  0
POLYLINE
  5
2AD
330
1F
100
AcDbEntity
  8
STANDARDEBENE
 62
     7
100
AcDb2dPolyline
 66
     1
 10
0.0
 20
0.0
 30
0.0
  0
VERTEX
  5
2AE
330
2AD
100
AcDbEntity
  8
STANDARDEBENE
 62
     7
100
AcDbVertex
100
AcDb2dVertex
 10
-142.701171875
 20
9.298828125
 30
0.0
  0
VERTEX
  5
2AF
330
2AD
100
AcDbEntity
  8
STANDARDEBENE
 62
     7
100
AcDbVertex
100
AcDb2dVertex
 10
-148.6494140625
 20
9.298828125
 30
0.0
  0
SEQEND
  5
2B0
330
2AD
100
AcDbEntity
  8
STANDARDEBENE
  0
POLYLINE
  5
2B1
330
1F
100
AcDbEntity
  8
STANDARDEBENE
 62
     7
100
AcDb2dPolyline
 66
     1
 10
0.0
 20
0.0
 30
0.0
  0
VERTEX
  5
2B2
330
2B1
100
AcDbEntity
  8
STANDARDEBENE
 62
     7
100
AcDbVertex
100
AcDb2dVertex
 10
-154.595703125
 20
9.298828125
 30
0.0
  0
VERTEX
  5
2B3
330
2B1
100
AcDbEntity
  8
STANDARDEBENE
 62
     7
100
AcDbVertex
100
AcDb2dVertex
 10
-160.54296875
 20
9.298828125
 30
0.0
  0
SEQEND
  5
2B4
330
2B1
100
AcDbEntity
  8
STANDARDEBENE
  0
POLYLINE
  5
2B5
330
1F
100
AcDbEntity
  8
STANDARDEBENE
 62
     7
100
AcDb2dPolyline
 66
     1
 10
0.0
 20
0.0
 30
0.0
  0
VERTEX
  5
2B6
330
2B5
100
AcDbEntity
  8
STANDARDEBENE
 62
     7
100
AcDbVertex
100
AcDb2dVertex
 10
-166.4931640625
 20
9.298828125
 30
0.0
  0
VERTEX
  5
2B7
330
2B5
100
AcDbEntity
  8
STANDARDEBENE
 62
     7
100
AcDbVertex
100
AcDb2dVertex
 10
-172.44140625
 20
9.298828125
 30
0.0
  0
SEQEND
  5
2B8
330
2B5
100
AcDbEntity
  8
STANDARDEBENE
  0
POLYLINE
  5
2B9
330
1F
100
AcDbEntity
  8
STANDARDEBENE
 62
     7
100
AcDb2dPolyline
 66
     1
 10
0.0
 20
0.0
 30
0.0
  0
VERTEX
  5
2BA
330
2B9
100
AcDbEntity
  8
STANDARDEBENE
 62
     7
100
AcDbVertex
100
AcDb2dVertex
 10
-178.3896484375
 20
9.298828125
 30
0.0
  0
VERTEX
  5
2BB
330
2B9
100
AcDbEntity
  8
STANDARDEBENE
 62
     7
100
AcDbVertex
100
AcDb2dVertex
 10
-184.3349609375
 20
9.298828125
 30
0.0
  0
SEQEND
  5
2BC
330
2B9
100
AcDbEntity
  8
STANDARDEBENE
  0
POLYLINE
  5
2BD
330
1F
100
AcDbEntity
  8
STANDARDEBENE
 62
     7
100
AcDb2dPolyline
 66
     1
 10
0.0
 20
0.0
 30
0.0
  0
VERTEX
  5
2BE
330
2BD
100
AcDbEntity
  8
STANDARDEBENE
 62
     7
100
AcDbVertex
100
AcDb2dVertex
 10
-190.283203125
 20
9.298828125
 30
0.0
  0
VERTEX
  5
2BF
330
2BD
100
AcDbEntity
  8
STANDARDEBENE
 62
     7
100
AcDbVertex
100
AcDb2dVertex
 10
-193.259765625
 20
9.298828125
 30
0.0
  0
VERTEX
  5
2C0
330
2BD
100
AcDbEntity
  8
STANDARDEBENE
 62
     7
100
AcDbVertex
100
AcDb2dVertex
 10
-193.259765625
 20
8.498046875
 30
0.0
  0
SEQEND
  5
2C1
330
2BD
100
AcDbEntity
  8
STANDARDEBENE
  0
POLYLINE
  5
2C2
330
1F
100
AcDbEntity
  8
STANDARDEBENE
 62
     7
100
AcDb2dPolyline
 66
     1
 10
0.0
 20
0.0
 30
0.0
  0
VERTEX
  5
2C3
330
2C2
100
AcDbEntity
  8
STANDARDEBENE
 62
     7
100
AcDbVertex
100
AcDb2dVertex
 10
-193.259765625
 20
6.89453125
 30
0.0
  0
VERTEX
  5
2C4
330
2C2
100
AcDbEntity
  8
STANDARDEBENE
 62
     7
100
AcDbVertex
100
AcDb2dVertex
 10
-193.259765625
 20
6.091796875
 30
0.0
  0
SEQEND
  5
2C5
330
2C2
100
AcDbEntity
  8
STANDARDEBENE
  0
POLYLINE
  5
2C6
330
1F
100
AcDbEntity
  8
STANDARDEBENE
 62
     7
100
AcDb2dPolyline
 66
     1
 10
0.0
 20
0.0
 30
0.0
  0
VERTEX
  5
2C7
330
2C6
100
AcDbEntity
  8
STANDARDEBENE
 62
     7
100
AcDbVertex
100
AcDb2dVertex
 10
-98.091796875
 20
6.091796875
 30
0.0
  0
VERTEX
  5
2C8
330
2C6
100
AcDbEntity
  8
STANDARDEBENE
 62
     7
100
AcDbVertex
100
AcDb2dVertex
 10
-101.06640625
 20
6.091796875
 30
0.0
  0
SEQEND
  5
2C9
330
2C6
100
AcDbEntity
  8
STANDARDEBENE
  0
POLYLINE
  5
2CA
330
1F
100
AcDbEntity
  8
STANDARDEBENE
 62
     7
100
AcDb2dPolyline
 66
     1
 10
0.0
 20
0.0
 30
0.0
  0
VERTEX
  5
2CB
330
2CA
100
AcDbEntity
  8
STANDARDEBENE
 62
     7
100
AcDbVertex
100
AcDb2dVertex
 10
-107.013671875
 20
6.091796875
 30
0.0
  0
VERTEX
  5
2CC
330
2CA
100
AcDbEntity
  8
STANDARDEBENE
 62
     7
100
AcDbVertex
100
AcDb2dVertex
 10
-112.9609375
 20
6.091796875
 30
0.0
  0
SEQEND
  5
2CD
330
2CA
100
AcDbEntity
  8
STANDARDEBENE
  0
POLYLINE
  5
2CE
330
1F
100
AcDbEntity
  8
STANDARDEBENE
 62
     7
100
AcDb2dPolyline
 66
     1
 10
0.0
 20
0.0
 30
0.0
  0
VERTEX
  5
2CF
330
2CE
100
AcDbEntity
  8
STANDARDEBENE
 62
     7
100
AcDbVertex
100
AcDb2dVertex
 10
-118.91015625
 20
6.091796875
 30
0.0
  0
VERTEX
  5
2D0
330
2CE
100
AcDbEntity
  8
STANDARDEBENE
 62
     7
100
AcDbVertex
100
AcDb2dVertex
 10
-124.859375
 20
6.091796875
 30
0.0
  0
SEQEND
  5
2D1
330
2CE
100
AcDbEntity
  8
STANDARDEBENE
  0
POLYLINE
  5
2D2
330
1F
100
AcDbEntity
  8
STANDARDEBENE
 62
     7
100
AcDb2dPolyline
 66
     1
 10
0.0
 20
0.0
 30
0.0
  0
VERTEX
  5
2D3
330
2D2
100
AcDbEntity
  8
STANDARDEBENE
 62
     7
100
AcDbVertex
100
AcDb2dVertex
 10
-130.80859375
 20
6.091796875
 30
0.0
  0
VERTEX
  5
2D4
330
2D2
100
AcDbEntity
  8
STANDARDEBENE
 62
     7
100
AcDbVertex
100
AcDb2dVertex
 10
-136.751953125
 20
6.091796875
 30
0.0
  0
SEQEND
  5
2D5
330
2D2
100
AcDbEntity
  8
STANDARDEBENE
  0
POLYLINE
  5
2D6
330
1F
100
AcDbEntity
  8
STANDARDEBENE
 62
     7
100
AcDb2dPolyline
 66
     1
 10
0.0
 20
0.0
 30
0.0
  0
VERTEX
  5
2D7
330
2D6
100
AcDbEntity
  8
STANDARDEBENE
 62
     7
100
AcDbVertex
100
AcDb2dVertex
 10
-142.701171875
 20
6.091796875
 30
0.0
  0
VERTEX
  5
2D8
330
2D6
100
AcDbEntity
  8
STANDARDEBENE
 62
     7
100
AcDbVertex
100
AcDb2dVertex
 10
-148.6494140625
 20
6.091796875
 30
0.0
  0
SEQEND
  5
2D9
330
2D6
100
AcDbEntity
  8
STANDARDEBENE
  0
POLYLINE
  5
2DA
330
1F
100
AcDbEntity
  8
STANDARDEBENE
 62
     7
100
AcDb2dPolyline
 66
     1
 10
0.0
 20
0.0
 30
0.0
  0
VERTEX
  5
2DB
330
2DA
100
AcDbEntity
  8
STANDARDEBENE
 62
     7
100
AcDbVertex
100
AcDb2dVertex
 10
-154.595703125
 20
6.091796875
 30
0.0
  0
VERTEX
  5
2DC
330
2DA
100
AcDbEntity
  8
STANDARDEBENE
 62
     7
100
AcDbVertex
100
AcDb2dVertex
 10
-160.54296875
 20
6.091796875
 30
0.0
  0
SEQEND
  5
2DD
330
2DA
100
AcDbEntity
  8
STANDARDEBENE
  0
POLYLINE
  5
2DE
330
1F
100
AcDbEntity
  8
STANDARDEBENE
 62
     7
100
AcDb2dPolyline
 66
     1
 10
0.0
 20
0.0
 30
0.0
  0
VERTEX
  5
2DF
330
2DE
100
AcDbEntity
  8
STANDARDEBENE
 62
     7
100
AcDbVertex
100
AcDb2dVertex
 10
-166.4931640625
 20
6.091796875
 30
0.0
  0
VERTEX
  5
2E0
330
2DE
100
AcDbEntity
  8
STANDARDEBENE
 62
     7
100
AcDbVertex
100
AcDb2dVertex
 10
-172.44140625
 20
6.091796875
 30
0.0
  0
SEQEND
  5
2E1
330
2DE
100
AcDbEntity
  8
STANDARDEBENE
  0
POLYLINE
  5
2E2
330
1F
100
AcDbEntity
  8
STANDARDEBENE
 62
     7
100
AcDb2dPolyline
 66
     1
 10
0.0
 20
0.0
 30
0.0
  0
VERTEX
  5
2E3
330
2E2
100
AcDbEntity
  8
STANDARDEBENE
 62
     7
100
AcDbVertex
100
AcDb2dVertex
 10
-178.3896484375
 20
6.091796875
 30
0.0
  0
VERTEX
  5
2E4
330
2E2
100
AcDbEntity
  8
STANDARDEBENE
 62
     7
100
AcDbVertex
100
AcDb2dVertex
 10
-184.3349609375
 20
6.091796875
 30
0.0
  0
SEQEND
  5
2E5
330
2E2
100
AcDbEntity
  8
STANDARDEBENE
  0
POLYLINE
  5
2E6
330
1F
100
AcDbEntity
  8
STANDARDEBENE
 62
     7
100
AcDb2dPolyline
 66
     1
 10
0.0
 20
0.0
 30
0.0
  0
VERTEX
  5
2E7
330
2E6
100
AcDbEntity
  8
STANDARDEBENE
 62
     7
100
AcDbVertex
100
AcDb2dVertex
 10
-190.283203125
 20
6.091796875
 30
0.0
  0
VERTEX
  5
2E8
330
2E6
100
AcDbEntity
  8
STANDARDEBENE
 62
     7
100
AcDbVertex
100
AcDb2dVertex
 10
-193.259765625
 20
6.091796875
 30
0.0
  0
SEQEND
  5
2E9
330
2E6
100
AcDbEntity
  8
STANDARDEBENE
  0
POLYLINE
  5
2EA
330
1F
100
AcDbEntity
  8
STANDARDEBENE
 62
     7
100
AcDb2dPolyline
 66
     1
 10
0.0
 20
0.0
 30
0.0
  0
VERTEX
  5
2EB
330
2EA
100
AcDbEntity
  8
STANDARDEBENE
 62
     7
100
AcDbVertex
100
AcDb2dVertex
 10
-98.091796875
 20
6.091796875
 30
0.0
  0
VERTEX
  5
2EC
330
2EA
100
AcDbEntity
  8
STANDARDEBENE
 62
     7
100
AcDbVertex
100
AcDb2dVertex
 10
-98.091796875
 20
4.080078125
 30
0.0
  0
SEQEND
  5
2ED
330
2EA
100
AcDbEntity
  8
STANDARDEBENE
  0
POLYLINE
  5
2EE
330
1F
100
AcDbEntity
  8
STANDARDEBENE
 62
     7
100
AcDb2dPolyline
 66
     1
 10
0.0
 20
0.0
 30
0.0
  0
VERTEX
  5
2EF
330
2EE
100
AcDbEntity
  8
STANDARDEBENE
 62
     7
100
AcDbVertex
100
AcDb2dVertex
 10
-98.091796875
 20
0.0546875
 30
0.0
  0
VERTEX
  5
2F0
330
2EE
100
AcDbEntity
  8
STANDARDEBENE
 62
     7
100
AcDbVertex
100
AcDb2dVertex
 10
-98.091796875
 20
-1.95703125
 30
0.0
  0
SEQEND
  5
2F1
330
2EE
100
AcDbEntity
  8
STANDARDEBENE
  0
POLYLINE
  5
2F2
330
1F
100
AcDbEntity
  8
STANDARDEBENE
 62
     7
100
AcDb2dPolyline
 66
     1
 10
0.0
 20
0.0
 30
0.0
  0
VERTEX
  5
2F3
330
2F2
100
AcDbEntity
  8
STANDARDEBENE
 62
     7
100
AcDbVertex
100
AcDb2dVertex
 10
-200.4609375
 20
12.630859375
 30
0.0
  0
VERTEX
  5
2F4
330
2F2
100
AcDbEntity
  8
STANDARDEBENE
 62
     7
100
AcDbVertex
100
AcDb2dVertex
 10
-201.1708984375
 20
13.345703125
 30
0.0
  0
SEQEND
  5
2F5
330
2F2
100
AcDbEntity
  8
STANDARDEBENE
  0
POLYLINE
  5
2F6
330
1F
100
AcDbEntity
  8
STANDARDEBENE
 62
     7
100
AcDb2dPolyline
 66
     1
 10
0.0
 20
0.0
 30
0.0
  0
VERTEX
  5
2F7
330
2F6
100
AcDbEntity
  8
STANDARDEBENE
 62
     7
100
AcDbVertex
100
AcDb2dVertex
 10
-202.5849609375
 20
14.775390625
 30
0.0
  0
VERTEX
  5
2F8
330
2F6
100
AcDbEntity
  8
STANDARDEBENE
 62
     7
100
AcDbVertex
100
AcDb2dVertex
 10
-203.296875
 20
15.486328125
 30
0.0
  0
SEQEND
  5
2F9
330
2F6
100
AcDbEntity
  8
STANDARDEBENE
  0
POLYLINE
  5
2FA
330
1F
100
AcDbEntity
  8
STANDARDEBENE
 62
     7
100
AcDb2dPolyline
 66
     1
 10
0.0
 20
0.0
 30
0.0
  0
VERTEX
  5
2FB
330
2FA
100
AcDbEntity
  8
STANDARDEBENE
 62
     7
100
AcDbVertex
100
AcDb2dVertex
 10
-13.375
 20
-27.81640625
 30
0.0
  0
VERTEX
  5
2FC
330
2FA
100
AcDbEntity
  8
STANDARDEBENE
 62
     7
100
AcDbVertex
100
AcDb2dVertex
 10
-16.107421875
 20
-27.81640625
 30
0.0
  0
SEQEND
  5
2FD
330
2FA
100
AcDbEntity
  8
STANDARDEBENE
  0
POLYLINE
  5
2FE
330
1F
100
AcDbEntity
  8
STANDARDEBENE
 62
     7
100
AcDb2dPolyline
 66
     1
 10
0.0
 20
0.0
 30
0.0
  0
VERTEX
  5
2FF
330
2FE
100
AcDbEntity
  8
STANDARDEBENE
 62
     7
100
AcDbVertex
100
AcDb2dVertex
 10
-21.57421875
 20
-27.81640625
 30
0.0
  0
VERTEX
  5
300
330
2FE
100
AcDbEntity
  8
STANDARDEBENE
 62
     7
100
AcDbVertex
100
AcDb2dVertex
 10
-27.041015625
 20
-27.81640625
 30
0.0
  0
SEQEND
  5
301
330
2FE
100
AcDbEntity
  8
STANDARDEBENE
  0
POLYLINE
  5
302
330
1F
100
AcDbEntity
  8
STANDARDEBENE
 62
     7
100
AcDb2dPolyline
 66
     1
 10
0.0
 20
0.0
 30
0.0
  0
VERTEX
  5
303
330
302
100
AcDbEntity
  8
STANDARDEBENE
 62
     7
100
AcDbVertex
100
AcDb2dVertex
 10
-32.5078125
 20
-27.81640625
 30
0.0
  0
VERTEX
  5
304
330
302
100
AcDbEntity
  8
STANDARDEBENE
 62
     7
100
AcDbVertex
100
AcDb2dVertex
 10
-37.974609375
 20
-27.81640625
 30
0.0
  0
SEQEND
  5
305
330
302
100
AcDbEntity
  8
STANDARDEBENE
  0
POLYLINE
  5
306
330
1F
100
AcDbEntity
  8
STANDARDEBENE
 62
     7
100
AcDb2dPolyline
 66
     1
 10
0.0
 20
0.0
 30
0.0
  0
VERTEX
  5
307
330
306
100
AcDbEntity
  8
STANDARDEBENE
 62
     7
100
AcDbVertex
100
AcDb2dVertex
 10
-43.44140625
 20
-27.81640625
 30
0.0
  0
VERTEX
  5
308
330
306
100
AcDbEntity
  8
STANDARDEBENE
 62
     7
100
AcDbVertex
100
AcDb2dVertex
 10
-48.908203125
 20
-27.81640625
 30
0.0
  0
SEQEND
  5
309
330
306
100
AcDbEntity
  8
STANDARDEBENE
  0
POLYLINE
  5
30A
330
1F
100
AcDbEntity
  8
STANDARDEBENE
 62
     7
100
AcDb2dPolyline
 66
     1
 10
0.0
 20
0.0
 30
0.0
  0
VERTEX
  5
30B
330
30A
100
AcDbEntity
  8
STANDARDEBENE
 62
     7
100
AcDbVertex
100
AcDb2dVertex
 10
-54.375
 20
-27.81640625
 30
0.0
  0
VERTEX
  5
30C
330
30A
100
AcDbEntity
  8
STANDARDEBENE
 62
     7
100
AcDbVertex
100
AcDb2dVertex
 10
-59.841796875
 20
-27.81640625
 30
0.0
  0
SEQEND
  5
30D
330
30A
100
AcDbEntity
  8
STANDARDEBENE
  0
POLYLINE
  5
30E
330
1F
100
AcDbEntity
  8
STANDARDEBENE
 62
     7
100
AcDb2dPolyline
 66
     1
 10
0.0
 20
0.0
 30
0.0
  0
VERTEX
  5
30F
330
30E
100
AcDbEntity
  8
STANDARDEBENE
 62
     7
100
AcDbVertex
100
AcDb2dVertex
 10
-65.310546875
 20
-27.81640625
 30
0.0
  0
VERTEX
  5
310
330
30E
100
AcDbEntity
  8
STANDARDEBENE
 62
     7
100
AcDbVertex
100
AcDb2dVertex
 10
-70.775390625
 20
-27.81640625
 30
0.0
  0
SEQEND
  5
311
330
30E
100
AcDbEntity
  8
STANDARDEBENE
  0
POLYLINE
  5
312
330
1F
100
AcDbEntity
  8
STANDARDEBENE
 62
     7
100
AcDb2dPolyline
 66
     1
 10
0.0
 20
0.0
 30
0.0
  0
VERTEX
  5
313
330
312
100
AcDbEntity
  8
STANDARDEBENE
 62
     7
100
AcDbVertex
100
AcDb2dVertex
 10
-76.2421875
 20
-27.81640625
 30
0.0
  0
VERTEX
  5
314
330
312
100
AcDbEntity
  8
STANDARDEBENE
 62
     7
100
AcDbVertex
100
AcDb2dVertex
 10
-81.708984375
 20
-27.81640625
 30
0.0
  0
SEQEND
  5
315
330
312
100
AcDbEntity
  8
STANDARDEBENE
  0
POLYLINE
  5
316
330
1F
100
AcDbEntity
  8
STANDARDEBENE
 62
     7
100
AcDb2dPolyline
 66
     1
 10
0.0
 20
0.0
 30
0.0
  0
VERTEX
  5
317
330
316
100
AcDbEntity
  8
STANDARDEBENE
 62
     7
100
AcDbVertex
100
AcDb2dVertex
 10
-87.17578125
 20
-27.81640625
 30
0.0
  0
VERTEX
  5
318
330
316
100
AcDbEntity
  8
STANDARDEBENE
 62
     7
100
AcDbVertex
100
AcDb2dVertex
 10
-89.91015625
 20
-27.81640625
 30
0.0
  0
SEQEND
  5
319
330
316
100
AcDbEntity
  8
STANDARDEBENE
  0
POLYLINE
  5
31A
330
1F
100
AcDbEntity
  8
STANDARDEBENE
 62
     7
100
AcDb2dPolyline
 66
     1
 10
0.0
 20
0.0
 30
0.0
  0
VERTEX
  5
31B
330
31A
100
AcDbEntity
  8
STANDARDEBENE
 62
     7
100
AcDbVertex
100
AcDb2dVertex
 10
-89.91015625
 20
16.16015625
 30
0.0
  0
VERTEX
  5
31C
330
31A
100
AcDbEntity
  8
STANDARDEBENE
 62
     7
100
AcDbVertex
100
AcDb2dVertex
 10
-91.95703125
 20
13.646484375
 30
0.0
  0
SEQEND
  5
31D
330
31A
100
AcDbEntity
  8
STANDARDEBENE
  0
POLYLINE
  5
31E
330
1F
100
AcDbEntity
  8
STANDARDEBENE
 62
     7
100
AcDb2dPolyline
 66
     1
 10
0.0
 20
0.0
 30
0.0
  0
VERTEX
  5
31F
330
31E
100
AcDbEntity
  8
STANDARDEBENE
 62
     7
100
AcDbVertex
100
AcDb2dVertex
 10
-96.048828125
 20
8.607421875
 30
0.0
  0
VERTEX
  5
320
330
31E
100
AcDbEntity
  8
STANDARDEBENE
 62
     7
100
AcDbVertex
100
AcDb2dVertex
 10
-98.091796875
 20
6.091796875
 30
0.0
  0
SEQEND
  5
321
330
31E
100
AcDbEntity
  8
STANDARDEBENE
  0
POLYLINE
  5
322
330
1F
100
AcDbEntity
  8
STANDARDEBENE
 62
     7
100
AcDb2dPolyline
 66
     1
 10
0.0
 20
0.0
 30
0.0
  0
VERTEX
  5
323
330
322
100
AcDbEntity
  8
STANDARDEBENE
 62
     7
100
AcDbVertex
100
AcDb2dVertex
 10
-10.541015625
 20
-29.82421875
 30
0.0
  0
VERTEX
  5
324
330
322
100
AcDbEntity
  8
STANDARDEBENE
 62
     7
100
AcDbVertex
100
AcDb2dVertex
 10
-11.25
 20
-29.322265625
 30
0.0
  0
SEQEND
  5
325
330
322
100
AcDbEntity
  8
STANDARDEBENE
  0
POLYLINE
  5
326
330
1F
100
AcDbEntity
  8
STANDARDEBENE
 62
     7
100
AcDb2dPolyline
 66
     1
 10
0.0
 20
0.0
 30
0.0
  0
VERTEX
  5
327
330
326
100
AcDbEntity
  8
STANDARDEBENE
 62
     7
100
AcDbVertex
100
AcDb2dVertex
 10
-12.666015625
 20
-28.322265625
 30
0.0
  0
VERTEX
  5
328
330
326
100
AcDbEntity
  8
STANDARDEBENE
 62
     7
100
AcDbVertex
100
AcDb2dVertex
 10
-13.375
 20
-27.81640625
 30
0.0
  0
SEQEND
  5
329
330
326
100
AcDbEntity
  8
STANDARDEBENE
  0
POLYLINE
  5
32A
330
1F
100
AcDbEntity
  8
STANDARDEBENE
 62
     7
100
AcDb2dPolyline
 66
     1
 10
0.0
 20
0.0
 30
0.0
  0
VERTEX
  5
32B
330
32A
100
AcDbEntity
  8
STANDARDEBENE
 62
     7
100
AcDbVertex
100
AcDb2dVertex
 10
-189.12890625
 20
40.87109375
 30
0.0
  0
VERTEX
  5
32C
330
32A
100
AcDbEntity
  8
STANDARDEBENE
 62
     7
100
AcDbVertex
100
AcDb2dVertex
 10
-189.5751953125
 20
37.984375
 30
0.0
  0
SEQEND
  5
32D
330
32A
100
AcDbEntity
  8
STANDARDEBENE
  0
POLYLINE
  5
32E
330
1F
100
AcDbEntity
  8
STANDARDEBENE
 62
     7
100
AcDb2dPolyline
 66
     1
 10
0.0
 20
0.0
 30
0.0
  0
VERTEX
  5
32F
330
32E
100
AcDbEntity
  8
STANDARDEBENE
 62
     7
100
AcDbVertex
100
AcDb2dVertex
 10
-190.46484375
 20
32.212890625
 30
0.0
  0
VERTEX
  5
330
330
32E
100
AcDbEntity
  8
STANDARDEBENE
 62
     7
100
AcDbVertex
100
AcDb2dVertex
 10
-191.35546875
 20
26.439453125
 30
0.0
  0
SEQEND
  5
331
330
32E
100
AcDbEntity
  8
STANDARDEBENE
  0
POLYLINE
  5
332
330
1F
100
AcDbEntity
  8
STANDARDEBENE
 62
     7
100
AcDb2dPolyline
 66
     1
 10
0.0
 20
0.0
 30
0.0
  0
VERTEX
  5
333
330
332
100
AcDbEntity
  8
STANDARDEBENE
 62
     7
100
AcDbVertex
100
AcDb2dVertex
 10
-192.04296875
 20
20.64453125
 30
0.0
  0
VERTEX
  5
334
330
332
100
AcDbEntity
  8
STANDARDEBENE
 62
     7
100
AcDbVertex
100
AcDb2dVertex
 10
-192.529296875
 20
14.8203125
 30
0.0
  0
SEQEND
  5
335
330
332
100
AcDbEntity
  8
STANDARDEBENE
  0
POLYLINE
  5
336
330
1F
100
AcDbEntity
  8
STANDARDEBENE
 62
     7
100
AcDb2dPolyline
 66
     1
 10
0.0
 20
0.0
 30
0.0
  0
VERTEX
  5
337
330
336
100
AcDbEntity
  8
STANDARDEBENE
 62
     7
100
AcDbVertex
100
AcDb2dVertex
 10
-193.013671875
 20
9.001953125
 30
0.0
  0
VERTEX
  5
338
330
336
100
AcDbEntity
  8
STANDARDEBENE
 62
     7
100
AcDbVertex
100
AcDb2dVertex
 10
-193.259765625
 20
6.091796875
 30
0.0
  0
SEQEND
  5
339
330
336
100
AcDbEntity
  8
STANDARDEBENE
  0
POLYLINE
  5
33A
330
1F
100
AcDbEntity
  8
STANDARDEBENE
 62
     7
100
AcDb2dPolyline
 66
     1
 10
0.0
 20
0.0
 30
0.0
  0
VERTEX
  5
33B
330
33A
100
AcDbEntity
  8
STANDARDEBENE
 62
     7
100
AcDbVertex
100
AcDb2dVertex
 10
-189.12890625
 20
44.078125
 30
0.0
  0
VERTEX
  5
33C
330
33A
100
AcDbEntity
  8
STANDARDEBENE
 62
     7
100
AcDbVertex
100
AcDb2dVertex
 10
-189.5751953125
 20
41.193359375
 30
0.0
  0
SEQEND
  5
33D
330
33A
100
AcDbEntity
  8
STANDARDEBENE
  0
POLYLINE
  5
33E
330
1F
100
AcDbEntity
  8
STANDARDEBENE
 62
     7
100
AcDb2dPolyline
 66
     1
 10
0.0
 20
0.0
 30
0.0
  0
VERTEX
  5
33F
330
33E
100
AcDbEntity
  8
STANDARDEBENE
 62
     7
100
AcDbVertex
100
AcDb2dVertex
 10
-190.46484375
 20
35.419921875
 30
0.0
  0
VERTEX
  5
340
330
33E
100
AcDbEntity
  8
STANDARDEBENE
 62
     7
100
AcDbVertex
100
AcDb2dVertex
 10
-191.35546875
 20
29.6484375
 30
0.0
  0
SEQEND
  5
341
330
33E
100
AcDbEntity
  8
STANDARDEBENE
  0
POLYLINE
  5
342
330
1F
100
AcDbEntity
  8
STANDARDEBENE
 62
     7
100
AcDb2dPolyline
 66
     1
 10
0.0
 20
0.0
 30
0.0
  0
VERTEX
  5
343
330
342
100
AcDbEntity
  8
STANDARDEBENE
 62
     7
100
AcDbVertex
100
AcDb2dVertex
 10
-192.04296875
 20
23.849609375
 30
0.0
  0
VERTEX
  5
344
330
342
100
AcDbEntity
  8
STANDARDEBENE
 62
     7
100
AcDbVertex
100
AcDb2dVertex
 10
-192.529296875
 20
18.03125
 30
0.0
  0
SEQEND
  5
345
330
342
100
AcDbEntity
  8
STANDARDEBENE
  0
POLYLINE
  5
346
330
1F
100
AcDbEntity
  8
STANDARDEBENE
 62
     7
100
AcDb2dPolyline
 66
     1
 10
0.0
 20
0.0
 30
0.0
  0
VERTEX
  5
347
330
346
100
AcDbEntity
  8
STANDARDEBENE
 62
     7
100
AcDbVertex
100
AcDb2dVertex
 10
-193.013671875
 20
12.208984375
 30
0.0
  0
VERTEX
  5
348
330
346
100
AcDbEntity
  8
STANDARDEBENE
 62
     7
100
AcDbVertex
100
AcDb2dVertex
 10
-193.259765625
 20
9.298828125
 30
0.0
  0
SEQEND
  5
349
330
346
100
AcDbEntity
  8
STANDARDEBENE
  0
POLYLINE
  5
34A
330
1F
100
AcDbEntity
  8
STANDARDEBENE
 62
     7
100
AcDb2dPolyline
 66
     1
 10
0.0
 20
0.0
 30
0.0
  0
VERTEX
  5
34B
330
34A
100
AcDbEntity
  8
STANDARDEBENE
 62
     7
100
AcDbVertex
100
AcDb2dVertex
 10
-195.8349609375
 20
-21.080078125
 30
0.0
  0
VERTEX
  5
34C
330
34A
100
AcDbEntity
  8
STANDARDEBENE
 62
     7
100
AcDbVertex
100
AcDb2dVertex
 10
-195.8349609375
 20
-23.912109375
 30
0.0
  0
SEQEND
  5
34D
330
34A
100
AcDbEntity
  8
STANDARDEBENE
  0
POLYLINE
  5
34E
330
1F
100
AcDbEntity
  8
STANDARDEBENE
 62
     7
100
AcDb2dPolyline
 66
     1
 10
0.0
 20
0.0
 30
0.0
  0
VERTEX
  5
34F
330
34E
100
AcDbEntity
  8
STANDARDEBENE
 62
     7
100
AcDbVertex
100
AcDb2dVertex
 10
-195.8349609375
 20
-29.57421875
 30
0.0
  0
VERTEX
  5
350
330
34E
100
AcDbEntity
  8
STANDARDEBENE
 62
     7
100
AcDbVertex
100
AcDb2dVertex
 10
-195.8349609375
 20
-35.23828125
 30
0.0
  0
SEQEND
  5
351
330
34E
100
AcDbEntity
  8
STANDARDEBENE
  0
POLYLINE
  5
352
330
1F
100
AcDbEntity
  8
STANDARDEBENE
 62
     7
100
AcDb2dPolyline
 66
     1
 10
0.0
 20
0.0
 30
0.0
  0
VERTEX
  5
353
330
352
100
AcDbEntity
  8
STANDARDEBENE
 62
     7
100
AcDbVertex
100
AcDb2dVertex
 10
-195.8349609375
 20
-40.904296875
 30
0.0
  0
VERTEX
  5
354
330
352
100
AcDbEntity
  8
STANDARDEBENE
 62
     7
100
AcDbVertex
100
AcDb2dVertex
 10
-195.8349609375
 20
-46.56640625
 30
0.0
  0
SEQEND
  5
355
330
352
100
AcDbEntity
  8
STANDARDEBENE
  0
POLYLINE
  5
356
330
1F
100
AcDbEntity
  8
STANDARDEBENE
 62
     7
100
AcDb2dPolyline
 66
     1
 10
0.0
 20
0.0
 30
0.0
  0
VERTEX
  5
357
330
356
100
AcDbEntity
  8
STANDARDEBENE
 62
     7
100
AcDbVertex
100
AcDb2dVertex
 10
-195.8349609375
 20
-52.232421875
 30
0.0
  0
VERTEX
  5
358
330
356
100
AcDbEntity
  8
STANDARDEBENE
 62
     7
100
AcDbVertex
100
AcDb2dVertex
 10
-195.8349609375
 20
-57.8984375
 30
0.0
  0
SEQEND
  5
359
330
356
100
AcDbEntity
  8
STANDARDEBENE
  0
POLYLINE
  5
35A
330
1F
100
AcDbEntity
  8
STANDARDEBENE
 62
     7
100
AcDb2dPolyline
 66
     1
 10
0.0
 20
0.0
 30
0.0
  0
VERTEX
  5
35B
330
35A
100
AcDbEntity
  8
STANDARDEBENE
 62
     7
100
AcDbVertex
100
AcDb2dVertex
 10
-195.8349609375
 20
-63.55859375
 30
0.0
  0
VERTEX
  5
35C
330
35A
100
AcDbEntity
  8
STANDARDEBENE
 62
     7
100
AcDbVertex
100
AcDb2dVertex
 10
-195.8349609375
 20
-66.392578125
 30
0.0
  0
SEQEND
  5
35D
330
35A
100
AcDbEntity
  8
STANDARDEBENE
  0
POLYLINE
  5
35E
330
1F
100
AcDbEntity
  8
STANDARDEBENE
 62
     7
100
AcDb2dPolyline
 66
     1
 10
0.0
 20
0.0
 30
0.0
  0
VERTEX
  5
35F
330
35E
100
AcDbEntity
  8
STANDARDEBENE
 62
     7
100
AcDbVertex
100
AcDb2dVertex
 10
-195.8349609375
 20
57.9453125
 30
0.0
  0
VERTEX
  5
360
330
35E
100
AcDbEntity
  8
STANDARDEBENE
 62
     7
100
AcDbVertex
100
AcDb2dVertex
 10
-195.8349609375
 20
55.111328125
 30
0.0
  0
SEQEND
  5
361
330
35E
100
AcDbEntity
  8
STANDARDEBENE
  0
POLYLINE
  5
362
330
1F
100
AcDbEntity
  8
STANDARDEBENE
 62
     7
100
AcDb2dPolyline
 66
     1
 10
0.0
 20
0.0
 30
0.0
  0
VERTEX
  5
363
330
362
100
AcDbEntity
  8
STANDARDEBENE
 62
     7
100
AcDbVertex
100
AcDb2dVertex
 10
-195.8349609375
 20
49.447265625
 30
0.0
  0
VERTEX
  5
364
330
362
100
AcDbEntity
  8
STANDARDEBENE
 62
     7
100
AcDbVertex
100
AcDb2dVertex
 10
-195.8349609375
 20
43.783203125
 30
0.0
  0
SEQEND
  5
365
330
362
100
AcDbEntity
  8
STANDARDEBENE
  0
POLYLINE
  5
366
330
1F
100
AcDbEntity
  8
STANDARDEBENE
 62
     7
100
AcDb2dPolyline
 66
     1
 10
0.0
 20
0.0
 30
0.0
  0
VERTEX
  5
367
330
366
100
AcDbEntity
  8
STANDARDEBENE
 62
     7
100
AcDbVertex
100
AcDb2dVertex
 10
-195.8349609375
 20
38.119140625
 30
0.0
  0
VERTEX
  5
368
330
366
100
AcDbEntity
  8
STANDARDEBENE
 62
     7
100
AcDbVertex
100
AcDb2dVertex
 10
-195.8349609375
 20
32.455078125
 30
0.0
  0
SEQEND
  5
369
330
366
100
AcDbEntity
  8
STANDARDEBENE
  0
POLYLINE
  5
36A
330
1F
100
AcDbEntity
  8
STANDARDEBENE
 62
     7
100
AcDb2dPolyline
 66
     1
 10
0.0
 20
0.0
 30
0.0
  0
VERTEX
  5
36B
330
36A
100
AcDbEntity
  8
STANDARDEBENE
 62
     7
100
AcDbVertex
100
AcDb2dVertex
 10
-195.8349609375
 20
26.79296875
 30
0.0
  0
VERTEX
  5
36C
330
36A
100
AcDbEntity
  8
STANDARDEBENE
 62
     7
100
AcDbVertex
100
AcDb2dVertex
 10
-195.8349609375
 20
21.12890625
 30
0.0
  0
SEQEND
  5
36D
330
36A
100
AcDbEntity
  8
STANDARDEBENE
  0
POLYLINE
  5
36E
330
1F
100
AcDbEntity
  8
STANDARDEBENE
 62
     7
100
AcDb2dPolyline
 66
     1
 10
0.0
 20
0.0
 30
0.0
  0
VERTEX
  5
36F
330
36E
100
AcDbEntity
  8
STANDARDEBENE
 62
     7
100
AcDbVertex
100
AcDb2dVertex
 10
-195.8349609375
 20
15.46484375
 30
0.0
  0
VERTEX
  5
370
330
36E
100
AcDbEntity
  8
STANDARDEBENE
 62
     7
100
AcDbVertex
100
AcDb2dVertex
 10
-195.8349609375
 20
12.630859375
 30
0.0
  0
SEQEND
  5
371
330
36E
100
AcDbEntity
  8
STANDARDEBENE
  0
POLYLINE
  5
372
330
1F
100
AcDbEntity
  8
STANDARDEBENE
 62
     7
100
AcDb2dPolyline
 66
     1
 10
0.0
 20
0.0
 30
0.0
  0
VERTEX
  5
373
330
372
100
AcDbEntity
  8
STANDARDEBENE
 62
     7
100
AcDbVertex
100
AcDb2dVertex
 10
-189.12890625
 20
-52.525390625
 30
0.0
  0
VERTEX
  5
374
330
372
100
AcDbEntity
  8
STANDARDEBENE
 62
     7
100
AcDbVertex
100
AcDb2dVertex
 10
-189.5751953125
 20
-49.640625
 30
0.0
  0
SEQEND
  5
375
330
372
100
AcDbEntity
  8
STANDARDEBENE
  0
POLYLINE
  5
376
330
1F
100
AcDbEntity
  8
STANDARDEBENE
 62
     7
100
AcDb2dPolyline
 66
     1
 10
0.0
 20
0.0
 30
0.0
  0
VERTEX
  5
377
330
376
100
AcDbEntity
  8
STANDARDEBENE
 62
     7
100
AcDbVertex
100
AcDb2dVertex
 10
-190.46484375
 20
-43.869140625
 30
0.0
  0
VERTEX
  5
378
330
376
100
AcDbEntity
  8
STANDARDEBENE
 62
     7
100
AcDbVertex
100
AcDb2dVertex
 10
-191.35546875
 20
-38.09375
 30
0.0
  0
SEQEND
  5
379
330
376
100
AcDbEntity
  8
STANDARDEBENE
  0
POLYLINE
  5
37A
330
1F
100
AcDbEntity
  8
STANDARDEBENE
 62
     7
100
AcDb2dPolyline
 66
     1
 10
0.0
 20
0.0
 30
0.0
  0
VERTEX
  5
37B
330
37A
100
AcDbEntity
  8
STANDARDEBENE
 62
     7
100
AcDbVertex
100
AcDb2dVertex
 10
-192.04296875
 20
-32.296875
 30
0.0
  0
VERTEX
  5
37C
330
37A
100
AcDbEntity
  8
STANDARDEBENE
 62
     7
100
AcDbVertex
100
AcDb2dVertex
 10
-192.529296875
 20
-26.478515625
 30
0.0
  0
SEQEND
  5
37D
330
37A
100
AcDbEntity
  8
STANDARDEBENE
  0
POLYLINE
  5
37E
330
1F
100
AcDbEntity
  8
STANDARDEBENE
 62
     7
100
AcDb2dPolyline
 66
     1
 10
0.0
 20
0.0
 30
0.0
  0
VERTEX
  5
37F
330
37E
100
AcDbEntity
  8
STANDARDEBENE
 62
     7
100
AcDbVertex
100
AcDb2dVertex
 10
-193.013671875
 20
-20.65625
 30
0.0
  0
VERTEX
  5
380
330
37E
100
AcDbEntity
  8
STANDARDEBENE
 62
     7
100
AcDbVertex
100
AcDb2dVertex
 10
-193.259765625
 20
-17.748046875
 30
0.0
  0
SEQEND
  5
381
330
37E
100
AcDbEntity
  8
STANDARDEBENE
  0
POLYLINE
  5
382
330
1F
100
AcDbEntity
  8
STANDARDEBENE
 62
     7
100
AcDb2dPolyline
 66
     1
 10
0.0
 20
0.0
 30
0.0
  0
VERTEX
  5
383
330
382
100
AcDbEntity
  8
STANDARDEBENE
 62
     7
100
AcDbVertex
100
AcDb2dVertex
 10
-189.12890625
 20
-49.322265625
 30
0.0
  0
VERTEX
  5
384
330
382
100
AcDbEntity
  8
STANDARDEBENE
 62
     7
100
AcDbVertex
100
AcDb2dVertex
 10
-189.5751953125
 20
-46.431640625
 30
0.0
  0
SEQEND
  5
385
330
382
100
AcDbEntity
  8
STANDARDEBENE
  0
POLYLINE
  5
386
330
1F
100
AcDbEntity
  8
STANDARDEBENE
 62
     7
100
AcDb2dPolyline
 66
     1
 10
0.0
 20
0.0
 30
0.0
  0
VERTEX
  5
387
330
386
100
AcDbEntity
  8
STANDARDEBENE
 62
     7
100
AcDbVertex
100
AcDb2dVertex
 10
-190.46484375
 20
-40.658203125
 30
0.0
  0
VERTEX
  5
388
330
386
100
AcDbEntity
  8
STANDARDEBENE
 62
     7
100
AcDbVertex
100
AcDb2dVertex
 10
-191.35546875
 20
-34.888671875
 30
0.0
  0
SEQEND
  5
389
330
386
100
AcDbEntity
  8
STANDARDEBENE
  0
POLYLINE
  5
38A
330
1F
100
AcDbEntity
  8
STANDARDEBENE
 62
     7
100
AcDb2dPolyline
 66
     1
 10
0.0
 20
0.0
 30
0.0
  0
VERTEX
  5
38B
330
38A
100
AcDbEntity
  8
STANDARDEBENE
 62
     7
100
AcDbVertex
100
AcDb2dVertex
 10
-192.04296875
 20
-29.09375
 30
0.0
  0
VERTEX
  5
38C
330
38A
100
AcDbEntity
  8
STANDARDEBENE
 62
     7
100
AcDbVertex
100
AcDb2dVertex
 10
-192.529296875
 20
-23.26953125
 30
0.0
  0
SEQEND
  5
38D
330
38A
100
AcDbEntity
  8
STANDARDEBENE
  0
POLYLINE
  5
38E
330
1F
100
AcDbEntity
  8
STANDARDEBENE
 62
     7
100
AcDb2dPolyline
 66
     1
 10
0.0
 20
0.0
 30
0.0
  0
VERTEX
  5
38F
330
38E
100
AcDbEntity
  8
STANDARDEBENE
 62
     7
100
AcDbVertex
100
AcDb2dVertex
 10
-193.013671875
 20
-17.44921875
 30
0.0
  0
VERTEX
  5
390
330
38E
100
AcDbEntity
  8
STANDARDEBENE
 62
     7
100
AcDbVertex
100
AcDb2dVertex
 10
-193.259765625
 20
-14.541015625
 30
0.0
  0
SEQEND
  5
391
330
38E
100
AcDbEntity
  8
STANDARDEBENE
  0
POLYLINE
  5
392
330
1F
100
AcDbEntity
  8
STANDARDEBENE
  6
AI-LINETYPE-1
 62
   250
100
AcDb2dPolyline
 66
     1
 10
0.0
 20
0.0
 30
0.0
  0
VERTEX
  5
393
330
392
100
AcDbEntity
  8
STANDARDEBENE
  6
AI-LINETYPE-1
 62
   250
100
AcDbVertex
100
AcDb2dVertex
 10
-211.80078125
 20
-4.224609375
 30
0.0
  0
VERTEX
  5
394
330
392
100
AcDbEntity
  8
STANDARDEBENE
  6
AI-LINETYPE-1
 62
   250
100
AcDbVertex
100
AcDb2dVertex
 10
-193.373046875
 20
-4.224609375
 30
0.0
  0
VERTEX
  5
395
330
392
100
AcDbEntity
  8
STANDARDEBENE
  6
AI-LINETYPE-1
 62
   250
100
AcDbVertex
100
AcDb2dVertex
 10
-174.951171875
 20
-4.224609375
 30
0.0
  0
VERTEX
  5
396
330
392
100
AcDbEntity
  8
STANDARDEBENE
  6
AI-LINETYPE-1
 62
   250
100
AcDbVertex
100
AcDb2dVertex
 10
-166.1630859375
 20
-4.224609375
 30
0.0
  0
VERTEX
  5
397
330
392
100
AcDbEntity
  8
STANDARDEBENE
  6
AI-LINETYPE-1
 62
   250
100
AcDbVertex
100
AcDb2dVertex
 10
-157.373046875
 20
-4.224609375
 30
0.0
  0
VERTEX
  5
398
330
392
100
AcDbEntity
  8
STANDARDEBENE
  6
AI-LINETYPE-1
 62
   250
100
AcDbVertex
100
AcDb2dVertex
 10
-5.302734375
 20
-4.224609375
 30
0.0
  0
SEQEND
  5
399
330
392
100
AcDbEntity
  8
STANDARDEBENE
  6
AI-LINETYPE-1
  0
POLYLINE
  5
39B
330
1F
100
AcDbEntity
  8
STANDARDEBENE
 62
     7
100
AcDb2dPolyline
 66
     1
 10
0.0
 20
0.0
 30
0.0
  0
VERTEX
  5
39C
330
39B
100
AcDbEntity
  8
STANDARDEBENE
 62
     7
100
AcDbVertex
100
AcDb2dVertex
 10
-13.375
 20
49.240234375
 30
0.0
  0
VERTEX
  5
39D
330
39B
100
AcDbEntity
  8
STANDARDEBENE
 62
     7
100
AcDbVertex
100
AcDb2dVertex
 10
-33.216796875
 20
52.029296875
 30
0.0
  0
SEQEND
  5
39E
330
39B
100
AcDbEntity
  8
STANDARDEBENE
  0
POLYLINE
  5
39F
330
1F
100
AcDbEntity
  8
STANDARDEBENE
 62
     7
100
AcDb2dPolyline
 66
     1
 10
0.0
 20
0.0
 30
0.0
  0
VERTEX
  5
3A0
330
39F
100
AcDbEntity
  8
STANDARDEBENE
 62
     7
100
AcDbVertex
100
AcDb2dVertex
 10
-10.541015625
 20
47.3984375
 30
0.0
  0
VERTEX
  5
3A1
330
39F
100
AcDbEntity
  8
STANDARDEBENE
 62
     7
100
AcDbVertex
100
AcDb2dVertex
 10
-13.375
 20
49.240234375
 30
0.0
  0
SEQEND
  5
3A2
330
39F
100
AcDbEntity
  8
STANDARDEBENE
  0
POLYLINE
  5
3A3
330
1F
100
AcDbEntity
  8
STANDARDEBENE
 62
     7
100
AcDb2dPolyline
 66
     1
 10
0.0
 20
0.0
 30
0.0
  0
VERTEX
  5
3A4
330
3A3
100
AcDbEntity
  8
STANDARDEBENE
 62
     7
100
AcDbVertex
100
AcDb2dVertex
 10
-189.123046875
 20
-11.3125
 30
0.0
  0
VERTEX
  5
3A5
330
3A3
100
AcDbEntity
  8
STANDARDEBENE
 62
     7
100
AcDbVertex
100
AcDb2dVertex
 10
-191.70703125
 20
-10.822265625
 30
0.0
  0
VERTEX
  5
3A6
330
3A3
100
AcDbEntity
  8
STANDARDEBENE
 62
     7
100
AcDbVertex
100
AcDb2dVertex
 10
-194.033203125
 20
-9.33203125
 30
0.0
  0
VERTEX
  5
3A7
330
3A3
100
AcDbEntity
  8
STANDARDEBENE
 62
     7
100
AcDbVertex
100
AcDb2dVertex
 10
-195.546875
 20
-7.216796875
 30
0.0
  0
VERTEX
  5
3A8
330
3A3
100
AcDbEntity
  8
STANDARDEBENE
 62
     7
100
AcDbVertex
100
AcDb2dVertex
 10
-195.8349609375
 20
-6.4921875
 30
0.0
  0
SEQEND
  5
3A9
330
3A3
100
AcDbEntity
  8
STANDARDEBENE
  0
POLYLINE
  5
3AA
330
1F
100
AcDbEntity
  8
STANDARDEBENE
 62
     7
100
AcDb2dPolyline
 66
     1
 10
0.0
 20
0.0
 30
0.0
  0
VERTEX
  5
3AB
330
3AA
100
AcDbEntity
  8
STANDARDEBENE
 62
     7
100
AcDbVertex
100
AcDb2dVertex
 10
-13.375
 20
-57.6875
 30
0.0
  0
VERTEX
  5
3AC
330
3AA
100
AcDbEntity
  8
STANDARDEBENE
 62
     7
100
AcDbVertex
100
AcDb2dVertex
 10
-33.216796875
 20
-60.478515625
 30
0.0
  0
SEQEND
  5
3AD
330
3AA
100
AcDbEntity
  8
STANDARDEBENE
  0
POLYLINE
  5
3AE
330
1F
100
AcDbEntity
  8
STANDARDEBENE
 62
     7
100
AcDb2dPolyline
 66
     1
 10
0.0
 20
0.0
 30
0.0
  0
VERTEX
  5
3AF
330
3AE
100
AcDbEntity
  8
STANDARDEBENE
 62
     7
100
AcDbVertex
100
AcDb2dVertex
 10
-10.541015625
 20
-55.845703125
 30
0.0
  0
VERTEX
  5
3B0
330
3AE
100
AcDbEntity
  8
STANDARDEBENE
 62
     7
100
AcDbVertex
100
AcDb2dVertex
 10
-13.375
 20
-57.6875
 30
0.0
  0
SEQEND
  5
3B1
330
3AE
100
AcDbEntity
  8
STANDARDEBENE
  0
POLYLINE
  5
3B2
330
1F
100
AcDbEntity
  8
STANDARDEBENE
 62
     7
100
AcDb2dPolyline
 66
     1
 10
0.0
 20
0.0
 30
0.0
  0
VERTEX
  5
3B3
330
3B2
100
AcDbEntity
  8
STANDARDEBENE
 62
     7
100
AcDbVertex
100
AcDb2dVertex
 10
-182.4072265625
 20
-1.95703125
 30
0.0
  0
VERTEX
  5
3B4
330
3B2
100
AcDbEntity
  8
STANDARDEBENE
 62
     7
100
AcDbVertex
100
AcDb2dVertex
 10
-179.3310546875
 20
-1.95703125
 30
0.0
  0
VERTEX
  5
3B5
330
3B2
100
AcDbEntity
  8
STANDARDEBENE
 62
     7
100
AcDbVertex
100
AcDb2dVertex
 10
-176.9130859375
 20
-1.95703125
 30
0.0
  0
SEQEND
  5
3B6
330
3B2
100
AcDbEntity
  8
STANDARDEBENE
  0
POLYLINE
  5
3B7
330
1F
100
AcDbEntity
  8
STANDARDEBENE
 62
     7
100
AcDb2dPolyline
 66
     1
 10
0.0
 20
0.0
 30
0.0
  0
VERTEX
  5
3B8
330
3B7
100
AcDbEntity
  8
STANDARDEBENE
 62
     7
100
AcDbVertex
100
AcDb2dVertex
 10
-155.6728515625
 20
-1.95703125
 30
0.0
  0
VERTEX
  5
3B9
330
3B7
100
AcDbEntity
  8
STANDARDEBENE
 62
     7
100
AcDbVertex
100
AcDb2dVertex
 10
-87.09765625
 20
-1.95703125
 30
0.0
  0
VERTEX
  5
3BA
330
3B7
100
AcDbEntity
  8
STANDARDEBENE
 62
     7
100
AcDbVertex
100
AcDb2dVertex
 10
-33.208984375
 20
-1.95703125
 30
0.0
  0
SEQEND
  5
3BB
330
3B7
100
AcDbEntity
  8
STANDARDEBENE
  0
POLYLINE
  5
3BC
330
1F
100
AcDbEntity
  8
STANDARDEBENE
 62
     7
100
AcDb2dPolyline
 66
     1
 10
0.0
 20
0.0
 30
0.0
  0
VERTEX
  5
3BD
330
3BC
100
AcDbEntity
  8
STANDARDEBENE
 62
     7
100
AcDbVertex
100
AcDb2dVertex
 10
-157.373046875
 20
-1.95703125
 30
0.0
  0
VERTEX
  5
3BE
330
3BC
100
AcDbEntity
  8
STANDARDEBENE
 62
     7
100
AcDbVertex
100
AcDb2dVertex
 10
-155.6728515625
 20
-1.95703125
 30
0.0
  0
SEQEND
  5
3BF
330
3BC
100
AcDbEntity
  8
STANDARDEBENE
  0
POLYLINE
  5
3C0
330
1F
100
AcDbEntity
  8
STANDARDEBENE
 62
     7
100
AcDb2dPolyline
 66
     1
 10
0.0
 20
0.0
 30
0.0
  0
VERTEX
  5
3C1
330
3C0
100
AcDbEntity
  8
STANDARDEBENE
 62
     7
100
AcDbVertex
100
AcDb2dVertex
 10
-174.951171875
 20
-1.95703125
 30
0.0
  0
VERTEX
  5
3C2
330
3C0
100
AcDbEntity
  8
STANDARDEBENE
 62
     7
100
AcDbVertex
100
AcDb2dVertex
 10
-157.373046875
 20
-1.95703125
 30
0.0
  0
SEQEND
  5
3C3
330
3C0
100
AcDbEntity
  8
STANDARDEBENE
  0
POLYLINE
  5
3C4
330
1F
100
AcDbEntity
  8
STANDARDEBENE
 62
     7
100
AcDb2dPolyline
 66
     1
 10
0.0
 20
0.0
 30
0.0
  0
VERTEX
  5
3C5
330
3C4
100
AcDbEntity
  8
STANDARDEBENE
 62
     7
100
AcDbVertex
100
AcDb2dVertex
 10
-175.80078125
 20
-1.95703125
 30
0.0
  0
VERTEX
  5
3C6
330
3C4
100
AcDbEntity
  8
STANDARDEBENE
 62
     7
100
AcDbVertex
100
AcDb2dVertex
 10
-174.951171875
 20
-1.95703125
 30
0.0
  0
SEQEND
  5
3C7
330
3C4
100
AcDbEntity
  8
STANDARDEBENE
  0
POLYLINE
  5
3C8
330
1F
100
AcDbEntity
  8
STANDARDEBENE
 62
     7
100
AcDb2dPolyline
 66
     1
 10
0.0
 20
0.0
 30
0.0
  0
VERTEX
  5
3C9
330
3C8
100
AcDbEntity
  8
STANDARDEBENE
 62
     7
100
AcDbVertex
100
AcDb2dVertex
 10
-176.9130859375
 20
-1.95703125
 30
0.0
  0
VERTEX
  5
3CA
330
3C8
100
AcDbEntity
  8
STANDARDEBENE
 62
     7
100
AcDbVertex
100
AcDb2dVertex
 10
-175.80078125
 20
-1.95703125
 30
0.0
  0
SEQEND
  5
3CB
330
3C8
100
AcDbEntity
  8
STANDARDEBENE
  0
POLYLINE
  5
3CC
330
1F
100
AcDbEntity
  8
STANDARDEBENE
 62
     7
100
AcDb2dPolyline
 66
     1
 10
0.0
 20
0.0
 30
0.0
  0
VERTEX
  5
3CD
330
3CC
100
AcDbEntity
  8
STANDARDEBENE
 62
     7
100
AcDbVertex
100
AcDb2dVertex
 10
-182.4072265625
 20
-6.4921875
 30
0.0
  0
VERTEX
  5
3CE
330
3CC
100
AcDbEntity
  8
STANDARDEBENE
 62
     7
100
AcDbVertex
100
AcDb2dVertex
 10
-179.3310546875
 20
-6.4921875
 30
0.0
  0
VERTEX
  5
3CF
330
3CC
100
AcDbEntity
  8
STANDARDEBENE
 62
     7
100
AcDbVertex
100
AcDb2dVertex
 10
-176.9130859375
 20
-6.4921875
 30
0.0
  0
VERTEX
  5
3D0
330
3CC
100
AcDbEntity
  8
STANDARDEBENE
 62
     7
100
AcDbVertex
100
AcDb2dVertex
 10
-175.80078125
 20
-6.4921875
 30
0.0
  0
VERTEX
  5
3D1
330
3CC
100
AcDbEntity
  8
STANDARDEBENE
 62
     7
100
AcDbVertex
100
AcDb2dVertex
 10
-174.951171875
 20
-6.4921875
 30
0.0
  0
VERTEX
  5
3D2
330
3CC
100
AcDbEntity
  8
STANDARDEBENE
 62
     7
100
AcDbVertex
100
AcDb2dVertex
 10
-157.373046875
 20
-6.4921875
 30
0.0
  0
VERTEX
  5
3D3
330
3CC
100
AcDbEntity
  8
STANDARDEBENE
 62
     7
100
AcDbVertex
100
AcDb2dVertex
 10
-155.6728515625
 20
-6.4921875
 30
0.0
  0
VERTEX
  5
3D4
330
3CC
100
AcDbEntity
  8
STANDARDEBENE
 62
     7
100
AcDbVertex
100
AcDb2dVertex
 10
-87.09765625
 20
-6.4921875
 30
0.0
  0
VERTEX
  5
3D5
330
3CC
100
AcDbEntity
  8
STANDARDEBENE
 62
     7
100
AcDbVertex
100
AcDb2dVertex
 10
-33.208984375
 20
-6.4921875
 30
0.0
  0
SEQEND
  5
3D6
330
3CC
100
AcDbEntity
  8
STANDARDEBENE
  0
POLYLINE
  5
3D7
330
1F
100
AcDbEntity
  8
STANDARDEBENE
 62
     7
100
AcDb2dPolyline
 66
     1
 10
0.0
 20
0.0
 30
0.0
  0
VERTEX
  5
3D8
330
3D7
100
AcDbEntity
  8
STANDARDEBENE
 62
     7
100
AcDbVertex
100
AcDb2dVertex
 10
-182.4072265625
 20
-74.150390625
 30
0.0
  0
VERTEX
  5
3D9
330
3D7
100
AcDbEntity
  8
STANDARDEBENE
 62
     7
100
AcDbVertex
100
AcDb2dVertex
 10
-179.3310546875
 20
-75.927734375
 30
0.0
  0
VERTEX
  5
3DA
330
3D7
100
AcDbEntity
  8
STANDARDEBENE
 62
     7
100
AcDbVertex
100
AcDb2dVertex
 10
-176.9130859375
 20
-77.32421875
 30
0.0
  0
SEQEND
  5
3DB
330
3D7
100
AcDbEntity
  8
STANDARDEBENE
  0
POLYLINE
  5
3DC
330
1F
100
AcDbEntity
  8
STANDARDEBENE
 62
     7
100
AcDb2dPolyline
 66
     1
 10
0.0
 20
0.0
 30
0.0
  0
VERTEX
  5
3DD
330
3DC
100
AcDbEntity
  8
STANDARDEBENE
 62
     7
100
AcDbVertex
100
AcDb2dVertex
 10
-155.6728515625
 20
-77.650390625
 30
0.0
  0
VERTEX
  5
3DE
330
3DC
100
AcDbEntity
  8
STANDARDEBENE
 62
     7
100
AcDbVertex
100
AcDb2dVertex
 10
-87.09765625
 20
-68.0078125
 30
0.0
  0
VERTEX
  5
3DF
330
3DC
100
AcDbEntity
  8
STANDARDEBENE
 62
     7
100
AcDbVertex
100
AcDb2dVertex
 10
-33.208984375
 20
-60.4296875
 30
0.0
  0
SEQEND
  5
3E0
330
3DC
100
AcDbEntity
  8
STANDARDEBENE
  0
POLYLINE
  5
3E1
330
1F
100
AcDbEntity
  8
STANDARDEBENE
 62
     7
100
AcDb2dPolyline
 66
     1
 10
0.0
 20
0.0
 30
0.0
  0
VERTEX
  5
3E2
330
3E1
100
AcDbEntity
  8
STANDARDEBENE
 62
     7
100
AcDbVertex
100
AcDb2dVertex
 10
-157.373046875
 20
-76.189453125
 30
0.0
  0
VERTEX
  5
3E3
330
3E1
100
AcDbEntity
  8
STANDARDEBENE
 62
     7
100
AcDbVertex
100
AcDb2dVertex
 10
-155.6728515625
 20
-77.650390625
 30
0.0
  0
SEQEND
  5
3E4
330
3E1
100
AcDbEntity
  8
STANDARDEBENE
  0
POLYLINE
  5
3E5
330
1F
100
AcDbEntity
  8
STANDARDEBENE
 62
     7
100
AcDb2dPolyline
 66
     1
 10
0.0
 20
0.0
 30
0.0
  0
VERTEX
  5
3E6
330
3E5
100
AcDbEntity
  8
STANDARDEBENE
 62
     7
100
AcDbVertex
100
AcDb2dVertex
 10
-174.951171875
 20
-66.544921875
 30
0.0
  0
VERTEX
  5
3E7
330
3E5
100
AcDbEntity
  8
STANDARDEBENE
 62
     7
100
AcDbVertex
100
AcDb2dVertex
 10
-157.373046875
 20
-66.544921875
 30
0.0
  0
SEQEND
  5
3E8
330
3E5
100
AcDbEntity
  8
STANDARDEBENE
  0
POLYLINE
  5
3E9
330
1F
100
AcDbEntity
  8
STANDARDEBENE
 62
     7
100
AcDb2dPolyline
 66
     1
 10
0.0
 20
0.0
 30
0.0
  0
VERTEX
  5
3EA
330
3E9
100
AcDbEntity
  8
STANDARDEBENE
 62
     7
100
AcDbVertex
100
AcDb2dVertex
 10
-175.80078125
 20
-77.32421875
 30
0.0
  0
VERTEX
  5
3EB
330
3E9
100
AcDbEntity
  8
STANDARDEBENE
 62
     7
100
AcDbVertex
100
AcDb2dVertex
 10
-174.951171875
 20
-76.470703125
 30
0.0
  0
SEQEND
  5
3EC
330
3E9
100
AcDbEntity
  8
STANDARDEBENE
  0
POLYLINE
  5
3ED
330
1F
100
AcDbEntity
  8
STANDARDEBENE
 62
     7
100
AcDb2dPolyline
 66
     1
 10
0.0
 20
0.0
 30
0.0
  0
VERTEX
  5
3EE
330
3ED
100
AcDbEntity
  8
STANDARDEBENE
 62
     7
100
AcDbVertex
100
AcDb2dVertex
 10
-176.9130859375
 20
-77.32421875
 30
0.0
  0
VERTEX
  5
3EF
330
3ED
100
AcDbEntity
  8
STANDARDEBENE
 62
     7
100
AcDbVertex
100
AcDb2dVertex
 10
-175.80078125
 20
-77.32421875
 30
0.0
  0
SEQEND
  5
3F0
330
3ED
100
AcDbEntity
  8
STANDARDEBENE
  0
POLYLINE
  5
3F1
330
1F
100
AcDbEntity
  8
STANDARDEBENE
 62
     7
100
AcDb2dPolyline
 66
     1
 10
0.0
 20
0.0
 30
0.0
  0
VERTEX
  5
3F2
330
3F1
100
AcDbEntity
  8
STANDARDEBENE
 62
     7
100
AcDbVertex
100
AcDb2dVertex
 10
-176.9130859375
 20
68.873046875
 30
0.0
  0
VERTEX
  5
3F3
330
3F1
100
AcDbEntity
  8
STANDARDEBENE
 62
     7
100
AcDbVertex
100
AcDb2dVertex
 10
-179.9892578125
 20
67.099609375
 30
0.0
  0
VERTEX
  5
3F4
330
3F1
100
AcDbEntity
  8
STANDARDEBENE
 62
     7
100
AcDbVertex
100
AcDb2dVertex
 10
-182.4072265625
 20
65.69921875
 30
0.0
  0
SEQEND
  5
3F5
330
3F1
100
AcDbEntity
  8
STANDARDEBENE
  0
POLYLINE
  5
3F6
330
1F
100
AcDbEntity
  8
STANDARDEBENE
 62
     7
100
AcDb2dPolyline
 66
     1
 10
0.0
 20
0.0
 30
0.0
  0
VERTEX
  5
3F7
330
3F6
100
AcDbEntity
  8
STANDARDEBENE
 62
     7
100
AcDbVertex
100
AcDb2dVertex
 10
-175.80078125
 20
68.873046875
 30
0.0
  0
VERTEX
  5
3F8
330
3F6
100
AcDbEntity
  8
STANDARDEBENE
 62
     7
100
AcDbVertex
100
AcDb2dVertex
 10
-176.9130859375
 20
68.873046875
 30
0.0
  0
SEQEND
  5
3F9
330
3F6
100
AcDbEntity
  8
STANDARDEBENE
  0
POLYLINE
  5
3FA
330
1F
100
AcDbEntity
  8
STANDARDEBENE
 62
     7
100
AcDb2dPolyline
 66
     1
 10
0.0
 20
0.0
 30
0.0
  0
VERTEX
  5
3FB
330
3FA
100
AcDbEntity
  8
STANDARDEBENE
 62
     7
100
AcDbVertex
100
AcDb2dVertex
 10
-174.951171875
 20
68.021484375
 30
0.0
  0
VERTEX
  5
3FC
330
3FA
100
AcDbEntity
  8
STANDARDEBENE
 62
     7
100
AcDbVertex
100
AcDb2dVertex
 10
-175.80078125
 20
68.873046875
 30
0.0
  0
SEQEND
  5
3FD
330
3FA
100
AcDbEntity
  8
STANDARDEBENE
  0
POLYLINE
  5
3FE
330
1F
100
AcDbEntity
  8
STANDARDEBENE
 62
     7
100
AcDb2dPolyline
 66
     1
 10
0.0
 20
0.0
 30
0.0
  0
VERTEX
  5
3FF
330
3FE
100
AcDbEntity
  8
STANDARDEBENE
 62
     7
100
AcDbVertex
100
AcDb2dVertex
 10
-157.373046875
 20
58.099609375
 30
0.0
  0
VERTEX
  5
400
330
3FE
100
AcDbEntity
  8
STANDARDEBENE
 62
     7
100
AcDbVertex
100
AcDb2dVertex
 10
-174.951171875
 20
58.099609375
 30
0.0
  0
SEQEND
  5
401
330
3FE
100
AcDbEntity
  8
STANDARDEBENE
  0
POLYLINE
  5
402
330
1F
100
AcDbEntity
  8
STANDARDEBENE
 62
     7
100
AcDb2dPolyline
 66
     1
 10
0.0
 20
0.0
 30
0.0
  0
VERTEX
  5
403
330
402
100
AcDbEntity
  8
STANDARDEBENE
 62
     7
100
AcDbVertex
100
AcDb2dVertex
 10
-155.6728515625
 20
69.205078125
 30
0.0
  0
VERTEX
  5
404
330
402
100
AcDbEntity
  8
STANDARDEBENE
 62
     7
100
AcDbVertex
100
AcDb2dVertex
 10
-157.373046875
 20
67.740234375
 30
0.0
  0
SEQEND
  5
405
330
402
100
AcDbEntity
  8
STANDARDEBENE
  0
POLYLINE
  5
406
330
1F
100
AcDbEntity
  8
STANDARDEBENE
 62
     7
100
AcDb2dPolyline
 66
     1
 10
0.0
 20
0.0
 30
0.0
  0
VERTEX
  5
407
330
406
100
AcDbEntity
  8
STANDARDEBENE
 62
     7
100
AcDbVertex
100
AcDb2dVertex
 10
-33.208984375
 20
51.982421875
 30
0.0
  0
VERTEX
  5
408
330
406
100
AcDbEntity
  8
STANDARDEBENE
 62
     7
100
AcDbVertex
100
AcDb2dVertex
 10
-101.791015625
 20
61.626953125
 30
0.0
  0
VERTEX
  5
409
330
406
100
AcDbEntity
  8
STANDARDEBENE
 62
     7
100
AcDbVertex
100
AcDb2dVertex
 10
-155.6728515625
 20
69.205078125
 30
0.0
  0
SEQEND
  5
40A
330
406
100
AcDbEntity
  8
STANDARDEBENE
  0
POLYLINE
  5
40B
330
1F
100
AcDbEntity
  8
STANDARDEBENE
 62
     7
100
AcDb2dPolyline
 66
     1
 10
0.0
 20
0.0
 30
0.0
  0
VERTEX
  5
40C
330
40B
100
AcDbEntity
  8
STANDARDEBENE
 62
     7
100
AcDbVertex
100
AcDb2dVertex
 10
-10.541015625
 20
47.3984375
 30
0.0
  0
VERTEX
  5
40D
330
40B
100
AcDbEntity
  8
STANDARDEBENE
 62
     7
100
AcDbVertex
100
AcDb2dVertex
 10
-10.541015625
 20
46.513671875
 30
0.0
  0
VERTEX
  5
40E
330
40B
100
AcDbEntity
  8
STANDARDEBENE
 62
     7
100
AcDbVertex
100
AcDb2dVertex
 10
-10.541015625
 20
43.890625
 30
0.0
  0
VERTEX
  5
40F
330
40B
100
AcDbEntity
  8
STANDARDEBENE
 62
     7
100
AcDbVertex
100
AcDb2dVertex
 10
-10.541015625
 20
39.619140625
 30
0.0
  0
VERTEX
  5
410
330
40B
100
AcDbEntity
  8
STANDARDEBENE
 62
     7
100
AcDbVertex
100
AcDb2dVertex
 10
-10.541015625
 20
33.845703125
 30
0.0
  0
SEQEND
  5
411
330
40B
100
AcDbEntity
  8
STANDARDEBENE
  0
POLYLINE
  5
412
330
1F
100
AcDbEntity
  8
STANDARDEBENE
 62
     7
100
AcDb2dPolyline
 66
     1
 10
0.0
 20
0.0
 30
0.0
  0
VERTEX
  5
413
330
412
100
AcDbEntity
  8
STANDARDEBENE
 62
     7
100
AcDbVertex
100
AcDb2dVertex
 10
-10.541015625
 20
30.638671875
 30
0.0
  0
VERTEX
  5
414
330
412
100
AcDbEntity
  8
STANDARDEBENE
 62
     7
100
AcDbVertex
100
AcDb2dVertex
 10
-10.541015625
 20
33.845703125
 30
0.0
  0
SEQEND
  5
415
330
412
100
AcDbEntity
  8
STANDARDEBENE
  0
POLYLINE
  5
416
330
1F
100
AcDbEntity
  8
STANDARDEBENE
 62
     7
100
AcDb2dPolyline
 66
     1
 10
0.0
 20
0.0
 30
0.0
  0
VERTEX
  5
417
330
416
100
AcDbEntity
  8
STANDARDEBENE
 62
     7
100
AcDbVertex
100
AcDb2dVertex
 10
-13.375
 20
49.240234375
 30
0.0
  0
VERTEX
  5
418
330
416
100
AcDbEntity
  8
STANDARDEBENE
 62
     7
100
AcDbVertex
100
AcDb2dVertex
 10
-13.375
 20
48.6484375
 30
0.0
  0
VERTEX
  5
419
330
416
100
AcDbEntity
  8
STANDARDEBENE
 62
     7
100
AcDbVertex
100
AcDb2dVertex
 10
-13.375
 20
46.896484375
 30
0.0
  0
VERTEX
  5
41A
330
416
100
AcDbEntity
  8
STANDARDEBENE
 62
     7
100
AcDbVertex
100
AcDb2dVertex
 10
-13.375
 20
44.013671875
 30
0.0
  0
VERTEX
  5
41B
330
416
100
AcDbEntity
  8
STANDARDEBENE
 62
     7
100
AcDbVertex
100
AcDb2dVertex
 10
-13.375
 20
40.0703125
 30
0.0
  0
VERTEX
  5
41C
330
416
100
AcDbEntity
  8
STANDARDEBENE
 62
     7
100
AcDbVertex
100
AcDb2dVertex
 10
-13.375
 20
35.1484375
 30
0.0
  0
SEQEND
  5
41D
330
416
100
AcDbEntity
  8
STANDARDEBENE
  0
POLYLINE
  5
41E
330
1F
100
AcDbEntity
  8
STANDARDEBENE
 62
     7
100
AcDb2dPolyline
 66
     1
 10
0.0
 20
0.0
 30
0.0
  0
VERTEX
  5
41F
330
41E
100
AcDbEntity
  8
STANDARDEBENE
 62
     7
100
AcDbVertex
100
AcDb2dVertex
 10
-10.541015625
 20
33.845703125
 30
0.0
  0
VERTEX
  5
420
330
41E
100
AcDbEntity
  8
STANDARDEBENE
 62
     7
100
AcDbVertex
100
AcDb2dVertex
 10
-13.375
 20
35.1484375
 30
0.0
  0
SEQEND
  5
421
330
41E
100
AcDbEntity
  8
STANDARDEBENE
  0
POLYLINE
  5
422
330
1F
100
AcDbEntity
  8
STANDARDEBENE
 62
     7
100
AcDb2dPolyline
 66
     1
 10
0.0
 20
0.0
 30
0.0
  0
VERTEX
  5
423
330
422
100
AcDbEntity
  8
STANDARDEBENE
 62
     7
100
AcDbVertex
100
AcDb2dVertex
 10
-33.208984375
 20
51.982421875
 30
0.0
  0
VERTEX
  5
424
330
422
100
AcDbEntity
  8
STANDARDEBENE
 62
     7
100
AcDbVertex
100
AcDb2dVertex
 10
-33.216796875
 20
52.021484375
 30
0.0
  0
SEQEND
  5
425
330
422
100
AcDbEntity
  8
STANDARDEBENE
  0
POLYLINE
  5
426
330
1F
100
AcDbEntity
  8
STANDARDEBENE
 62
     7
100
AcDb2dPolyline
 66
     1
 10
0.0
 20
0.0
 30
0.0
  0
VERTEX
  5
427
330
426
100
AcDbEntity
  8
STANDARDEBENE
 62
     7
100
AcDbVertex
100
AcDb2dVertex
 10
-155.6728515625
 20
69.205078125
 30
0.0
  0
VERTEX
  5
428
330
426
100
AcDbEntity
  8
STANDARDEBENE
 62
     7
100
AcDbVertex
100
AcDb2dVertex
 10
-155.6728515625
 20
68.109375
 30
0.0
  0
VERTEX
  5
429
330
426
100
AcDbEntity
  8
STANDARDEBENE
 62
     7
100
AcDbVertex
100
AcDb2dVertex
 10
-155.6728515625
 20
65.501953125
 30
0.0
  0
VERTEX
  5
42A
330
426
100
AcDbEntity
  8
STANDARDEBENE
 62
     7
100
AcDbVertex
100
AcDb2dVertex
 10
-155.6728515625
 20
61.435546875
 30
0.0
  0
VERTEX
  5
42B
330
426
100
AcDbEntity
  8
STANDARDEBENE
 62
     7
100
AcDbVertex
100
AcDb2dVertex
 10
-155.6728515625
 20
55.998046875
 30
0.0
  0
VERTEX
  5
42C
330
426
100
AcDbEntity
  8
STANDARDEBENE
 62
     7
100
AcDbVertex
100
AcDb2dVertex
 10
-155.6728515625
 20
49.30078125
 30
0.0
  0
SEQEND
  5
42D
330
426
100
AcDbEntity
  8
STANDARDEBENE
  0
POLYLINE
  5
42E
330
1F
100
AcDbEntity
  8
STANDARDEBENE
 62
     7
100
AcDb2dPolyline
 66
     1
 10
0.0
 20
0.0
 30
0.0
  0
VERTEX
  5
42F
330
42E
100
AcDbEntity
  8
STANDARDEBENE
 62
     7
100
AcDbVertex
100
AcDb2dVertex
 10
-13.375
 20
35.1484375
 30
0.0
  0
VERTEX
  5
430
330
42E
100
AcDbEntity
  8
STANDARDEBENE
 62
     7
100
AcDbVertex
100
AcDb2dVertex
 10
-93.060546875
 20
43.072265625
 30
0.0
  0
VERTEX
  5
431
330
42E
100
AcDbEntity
  8
STANDARDEBENE
 62
     7
100
AcDbVertex
100
AcDb2dVertex
 10
-155.6728515625
 20
49.30078125
 30
0.0
  0
SEQEND
  5
432
330
42E
100
AcDbEntity
  8
STANDARDEBENE
  0
POLYLINE
  5
433
330
1F
100
AcDbEntity
  8
STANDARDEBENE
 62
     7
100
AcDb2dPolyline
 66
     1
 10
0.0
 20
0.0
 30
0.0
  0
VERTEX
  5
434
330
433
100
AcDbEntity
  8
STANDARDEBENE
 62
     7
100
AcDbVertex
100
AcDb2dVertex
 10
-155.6728515625
 20
-54.541015625
 30
0.0
  0
VERTEX
  5
435
330
433
100
AcDbEntity
  8
STANDARDEBENE
 62
     7
100
AcDbVertex
100
AcDb2dVertex
 10
-157.373046875
 20
-53.505859375
 30
0.0
  0
SEQEND
  5
436
330
433
100
AcDbEntity
  8
STANDARDEBENE
  0
POLYLINE
  5
437
330
1F
100
AcDbEntity
  8
STANDARDEBENE
 62
     7
100
AcDb2dPolyline
 66
     1
 10
0.0
 20
0.0
 30
0.0
  0
VERTEX
  5
438
330
437
100
AcDbEntity
  8
STANDARDEBENE
 62
     7
100
AcDbVertex
100
AcDb2dVertex
 10
-155.6728515625
 20
-6.4921875
 30
0.0
  0
VERTEX
  5
439
330
437
100
AcDbEntity
  8
STANDARDEBENE
 62
     7
100
AcDbVertex
100
AcDb2dVertex
 10
-155.6728515625
 20
-17.056640625
 30
0.0
  0
VERTEX
  5
43A
330
437
100
AcDbEntity
  8
STANDARDEBENE
 62
     7
100
AcDbVertex
100
AcDb2dVertex
 10
-155.6728515625
 20
-27.35546875
 30
0.0
  0
VERTEX
  5
43B
330
437
100
AcDbEntity
  8
STANDARDEBENE
 62
     7
100
AcDbVertex
100
AcDb2dVertex
 10
-155.6728515625
 20
-37.169921875
 30
0.0
  0
VERTEX
  5
43C
330
437
100
AcDbEntity
  8
STANDARDEBENE
 62
     7
100
AcDbVertex
100
AcDb2dVertex
 10
-155.6728515625
 20
-46.294921875
 30
0.0
  0
VERTEX
  5
43D
330
437
100
AcDbEntity
  8
STANDARDEBENE
 62
     7
100
AcDbVertex
100
AcDb2dVertex
 10
-155.6728515625
 20
-54.541015625
 30
0.0
  0
SEQEND
  5
43E
330
437
100
AcDbEntity
  8
STANDARDEBENE
  0
POLYLINE
  5
43F
330
1F
100
AcDbEntity
  8
STANDARDEBENE
 62
     7
100
AcDb2dPolyline
 66
     1
 10
0.0
 20
0.0
 30
0.0
  0
VERTEX
  5
440
330
43F
100
AcDbEntity
  8
STANDARDEBENE
 62
     7
100
AcDbVertex
100
AcDb2dVertex
 10
-157.373046875
 20
-6.4921875
 30
0.0
  0
VERTEX
  5
441
330
43F
100
AcDbEntity
  8
STANDARDEBENE
 62
     7
100
AcDbVertex
100
AcDb2dVertex
 10
-157.373046875
 20
-16.830078125
 30
0.0
  0
VERTEX
  5
442
330
43F
100
AcDbEntity
  8
STANDARDEBENE
 62
     7
100
AcDbVertex
100
AcDb2dVertex
 10
-157.373046875
 20
-26.904296875
 30
0.0
  0
VERTEX
  5
443
330
43F
100
AcDbEntity
  8
STANDARDEBENE
 62
     7
100
AcDbVertex
100
AcDb2dVertex
 10
-157.373046875
 20
-36.505859375
 30
0.0
  0
VERTEX
  5
444
330
43F
100
AcDbEntity
  8
STANDARDEBENE
 62
     7
100
AcDbVertex
100
AcDb2dVertex
 10
-157.373046875
 20
-45.4375
 30
0.0
  0
VERTEX
  5
445
330
43F
100
AcDbEntity
  8
STANDARDEBENE
 62
     7
100
AcDbVertex
100
AcDb2dVertex
 10
-157.373046875
 20
-53.505859375
 30
0.0
  0
SEQEND
  5
446
330
43F
100
AcDbEntity
  8
STANDARDEBENE
  0
POLYLINE
  5
447
330
1F
100
AcDbEntity
  8
STANDARDEBENE
 62
     7
100
AcDb2dPolyline
 66
     1
 10
0.0
 20
0.0
 30
0.0
  0
VERTEX
  5
448
330
447
100
AcDbEntity
  8
STANDARDEBENE
 62
     7
100
AcDbVertex
100
AcDb2dVertex
 10
-157.373046875
 20
-46.689453125
 30
0.0
  0
VERTEX
  5
449
330
447
100
AcDbEntity
  8
STANDARDEBENE
 62
     7
100
AcDbVertex
100
AcDb2dVertex
 10
-174.951171875
 20
-46.689453125
 30
0.0
  0
SEQEND
  5
44A
330
447
100
AcDbEntity
  8
STANDARDEBENE
  0
POLYLINE
  5
44B
330
1F
100
AcDbEntity
  8
STANDARDEBENE
 62
     7
100
AcDb2dPolyline
 66
     1
 10
0.0
 20
0.0
 30
0.0
  0
VERTEX
  5
44C
330
44B
100
AcDbEntity
  8
STANDARDEBENE
 62
     7
100
AcDbVertex
100
AcDb2dVertex
 10
-174.951171875
 20
-6.4921875
 30
0.0
  0
VERTEX
  5
44D
330
44B
100
AcDbEntity
  8
STANDARDEBENE
 62
     7
100
AcDbVertex
100
AcDb2dVertex
 10
-174.951171875
 20
-16.873046875
 30
0.0
  0
VERTEX
  5
44E
330
44B
100
AcDbEntity
  8
STANDARDEBENE
 62
     7
100
AcDbVertex
100
AcDb2dVertex
 10
-174.951171875
 20
-26.9921875
 30
0.0
  0
VERTEX
  5
44F
330
44B
100
AcDbEntity
  8
STANDARDEBENE
 62
     7
100
AcDbVertex
100
AcDb2dVertex
 10
-174.951171875
 20
-36.6328125
 30
0.0
  0
VERTEX
  5
450
330
44B
100
AcDbEntity
  8
STANDARDEBENE
 62
     7
100
AcDbVertex
100
AcDb2dVertex
 10
-174.951171875
 20
-45.6015625
 30
0.0
  0
VERTEX
  5
451
330
44B
100
AcDbEntity
  8
STANDARDEBENE
 62
     7
100
AcDbVertex
100
AcDb2dVertex
 10
-174.951171875
 20
-53.70703125
 30
0.0
  0
VERTEX
  5
452
330
44B
100
AcDbEntity
  8
STANDARDEBENE
 62
     7
100
AcDbVertex
100
AcDb2dVertex
 10
-175.80078125
 20
-54.306640625
 30
0.0
  0
SEQEND
  5
453
330
44B
100
AcDbEntity
  8
STANDARDEBENE
  0
POLYLINE
  5
454
330
1F
100
AcDbEntity
  8
STANDARDEBENE
 62
     7
100
AcDb2dPolyline
 66
     1
 10
0.0
 20
0.0
 30
0.0
  0
VERTEX
  5
455
330
454
100
AcDbEntity
  8
STANDARDEBENE
 62
     7
100
AcDbVertex
100
AcDb2dVertex
 10
-175.80078125
 20
-6.4921875
 30
0.0
  0
VERTEX
  5
456
330
454
100
AcDbEntity
  8
STANDARDEBENE
 62
     7
100
AcDbVertex
100
AcDb2dVertex
 10
-175.80078125
 20
-17.005859375
 30
0.0
  0
VERTEX
  5
457
330
454
100
AcDbEntity
  8
STANDARDEBENE
 62
     7
100
AcDbVertex
100
AcDb2dVertex
 10
-175.80078125
 20
-27.255859375
 30
0.0
  0
VERTEX
  5
458
330
454
100
AcDbEntity
  8
STANDARDEBENE
 62
     7
100
AcDbVertex
100
AcDb2dVertex
 10
-175.80078125
 20
-37.01953125
 30
0.0
  0
VERTEX
  5
459
330
454
100
AcDbEntity
  8
STANDARDEBENE
 62
     7
100
AcDbVertex
100
AcDb2dVertex
 10
-175.80078125
 20
-46.1015625
 30
0.0
  0
VERTEX
  5
45A
330
454
100
AcDbEntity
  8
STANDARDEBENE
 62
     7
100
AcDbVertex
100
AcDb2dVertex
 10
-175.80078125
 20
-54.306640625
 30
0.0
  0
VERTEX
  5
45B
330
454
100
AcDbEntity
  8
STANDARDEBENE
 62
     7
100
AcDbVertex
100
AcDb2dVertex
 10
-176.9130859375
 20
-54.306640625
 30
0.0
  0
SEQEND
  5
45C
330
454
100
AcDbEntity
  8
STANDARDEBENE
  0
POLYLINE
  5
45D
330
1F
100
AcDbEntity
  8
STANDARDEBENE
 62
     7
100
AcDb2dPolyline
 66
     1
 10
0.0
 20
0.0
 30
0.0
  0
VERTEX
  5
45E
330
45D
100
AcDbEntity
  8
STANDARDEBENE
 62
     7
100
AcDbVertex
100
AcDb2dVertex
 10
-176.9130859375
 20
-6.4921875
 30
0.0
  0
VERTEX
  5
45F
330
45D
100
AcDbEntity
  8
STANDARDEBENE
 62
     7
100
AcDbVertex
100
AcDb2dVertex
 10
-176.9130859375
 20
-17.005859375
 30
0.0
  0
VERTEX
  5
460
330
45D
100
AcDbEntity
  8
STANDARDEBENE
 62
     7
100
AcDbVertex
100
AcDb2dVertex
 10
-176.9130859375
 20
-27.255859375
 30
0.0
  0
VERTEX
  5
461
330
45D
100
AcDbEntity
  8
STANDARDEBENE
 62
     7
100
AcDbVertex
100
AcDb2dVertex
 10
-176.9130859375
 20
-37.01953125
 30
0.0
  0
VERTEX
  5
462
330
45D
100
AcDbEntity
  8
STANDARDEBENE
 62
     7
100
AcDbVertex
100
AcDb2dVertex
 10
-176.9130859375
 20
-46.1015625
 30
0.0
  0
VERTEX
  5
463
330
45D
100
AcDbEntity
  8
STANDARDEBENE
 62
     7
100
AcDbVertex
100
AcDb2dVertex
 10
-176.9130859375
 20
-54.306640625
 30
0.0
  0
SEQEND
  5
464
330
45D
100
AcDbEntity
  8
STANDARDEBENE
  0
POLYLINE
  5
465
330
1F
100
AcDbEntity
  8
STANDARDEBENE
 62
     7
100
AcDb2dPolyline
 66
     1
 10
0.0
 20
0.0
 30
0.0
  0
VERTEX
  5
466
330
465
100
AcDbEntity
  8
STANDARDEBENE
 62
     7
100
AcDbVertex
100
AcDb2dVertex
 10
-10.541015625
 20
30.638671875
 30
0.0
  0
VERTEX
  5
467
330
465
100
AcDbEntity
  8
STANDARDEBENE
 62
     7
100
AcDbVertex
100
AcDb2dVertex
 10
-10.541015625
 20
23.923828125
 30
0.0
  0
VERTEX
  5
468
330
465
100
AcDbEntity
  8
STANDARDEBENE
 62
     7
100
AcDbVertex
100
AcDb2dVertex
 10
-10.541015625
 20
16.4453125
 30
0.0
  0
VERTEX
  5
469
330
465
100
AcDbEntity
  8
STANDARDEBENE
 62
     7
100
AcDbVertex
100
AcDb2dVertex
 10
-10.541015625
 20
8.40625
 30
0.0
  0
VERTEX
  5
46A
330
465
100
AcDbEntity
  8
STANDARDEBENE
 62
     7
100
AcDbVertex
100
AcDb2dVertex
 10
-10.541015625
 20
0.021484375
 30
0.0
  0
VERTEX
  5
46B
330
465
100
AcDbEntity
  8
STANDARDEBENE
 62
     7
100
AcDbVertex
100
AcDb2dVertex
 10
-10.541015625
 20
-8.470703125
 30
0.0
  0
VERTEX
  5
46C
330
465
100
AcDbEntity
  8
STANDARDEBENE
 62
     7
100
AcDbVertex
100
AcDb2dVertex
 10
-10.541015625
 20
-16.8515625
 30
0.0
  0
VERTEX
  5
46D
330
465
100
AcDbEntity
  8
STANDARDEBENE
 62
     7
100
AcDbVertex
100
AcDb2dVertex
 10
-10.541015625
 20
-24.890625
 30
0.0
  0
VERTEX
  5
46E
330
465
100
AcDbEntity
  8
STANDARDEBENE
 62
     7
100
AcDbVertex
100
AcDb2dVertex
 10
-10.541015625
 20
-32.37109375
 30
0.0
  0
VERTEX
  5
46F
330
465
100
AcDbEntity
  8
STANDARDEBENE
 62
     7
100
AcDbVertex
100
AcDb2dVertex
 10
-10.541015625
 20
-39.08984375
 30
0.0
  0
VERTEX
  5
470
330
465
100
AcDbEntity
  8
STANDARDEBENE
 62
     7
100
AcDbVertex
100
AcDb2dVertex
 10
-13.375
 20
-40.390625
 30
0.0
  0
SEQEND
  5
471
330
465
100
AcDbEntity
  8
STANDARDEBENE
  0
POLYLINE
  5
472
330
1F
100
AcDbEntity
  8
STANDARDEBENE
 62
     7
100
AcDb2dPolyline
 66
     1
 10
0.0
 20
0.0
 30
0.0
  0
VERTEX
  5
473
330
472
100
AcDbEntity
  8
STANDARDEBENE
 62
     7
100
AcDbVertex
100
AcDb2dVertex
 10
-10.541015625
 20
30.638671875
 30
0.0
  0
VERTEX
  5
474
330
472
100
AcDbEntity
  8
STANDARDEBENE
 62
     7
100
AcDbVertex
100
AcDb2dVertex
 10
-13.375
 20
31.943359375
 30
0.0
  0
VERTEX
  5
475
330
472
100
AcDbEntity
  8
STANDARDEBENE
 62
     7
100
AcDbVertex
100
AcDb2dVertex
 10
-13.375
 20
25.71484375
 30
0.0
  0
VERTEX
  5
476
330
472
100
AcDbEntity
  8
STANDARDEBENE
 62
     7
100
AcDbVertex
100
AcDb2dVertex
 10
-13.375
 20
18.828125
 30
0.0
  0
VERTEX
  5
477
330
472
100
AcDbEntity
  8
STANDARDEBENE
 62
     7
100
AcDbVertex
100
AcDb2dVertex
 10
-13.375
 20
11.431640625
 30
0.0
  0
VERTEX
  5
478
330
472
100
AcDbEntity
  8
STANDARDEBENE
 62
     7
100
AcDbVertex
100
AcDb2dVertex
 10
-13.375
 20
3.693359375
 30
0.0
  0
VERTEX
  5
479
330
472
100
AcDbEntity
  8
STANDARDEBENE
 62
     7
100
AcDbVertex
100
AcDb2dVertex
 10
-13.375
 20
-4.224609375
 30
0.0
  0
VERTEX
  5
47A
330
472
100
AcDbEntity
  8
STANDARDEBENE
 62
     7
100
AcDbVertex
100
AcDb2dVertex
 10
-13.375
 20
-12.138671875
 30
0.0
  0
VERTEX
  5
47B
330
472
100
AcDbEntity
  8
STANDARDEBENE
 62
     7
100
AcDbVertex
100
AcDb2dVertex
 10
-13.375
 20
-19.880859375
 30
0.0
  0
VERTEX
  5
47C
330
472
100
AcDbEntity
  8
STANDARDEBENE
 62
     7
100
AcDbVertex
100
AcDb2dVertex
 10
-13.375
 20
-27.275390625
 30
0.0
  0
VERTEX
  5
47D
330
472
100
AcDbEntity
  8
STANDARDEBENE
 62
     7
100
AcDbVertex
100
AcDb2dVertex
 10
-13.375
 20
-34.162109375
 30
0.0
  0
VERTEX
  5
47E
330
472
100
AcDbEntity
  8
STANDARDEBENE
 62
     7
100
AcDbVertex
100
AcDb2dVertex
 10
-13.375
 20
-40.390625
 30
0.0
  0
VERTEX
  5
47F
330
472
100
AcDbEntity
  8
STANDARDEBENE
 62
     7
100
AcDbVertex
100
AcDb2dVertex
 10
-93.060546875
 20
-48.314453125
 30
0.0
  0
VERTEX
  5
480
330
472
100
AcDbEntity
  8
STANDARDEBENE
 62
     7
100
AcDbVertex
100
AcDb2dVertex
 10
-155.6728515625
 20
-54.541015625
 30
0.0
  0
SEQEND
  5
481
330
472
100
AcDbEntity
  8
STANDARDEBENE
  0
POLYLINE
  5
482
330
1F
100
AcDbEntity
  8
STANDARDEBENE
 62
     7
100
AcDb2dPolyline
 66
     1
 10
0.0
 20
0.0
 30
0.0
  0
VERTEX
  5
483
330
482
100
AcDbEntity
  8
STANDARDEBENE
 62
     7
100
AcDbVertex
100
AcDb2dVertex
 10
-13.375
 20
31.943359375
 30
0.0
  0
VERTEX
  5
484
330
482
100
AcDbEntity
  8
STANDARDEBENE
 62
     7
100
AcDbVertex
100
AcDb2dVertex
 10
-93.060546875
 20
39.869140625
 30
0.0
  0
VERTEX
  5
485
330
482
100
AcDbEntity
  8
STANDARDEBENE
 62
     7
100
AcDbVertex
100
AcDb2dVertex
 10
-155.6728515625
 20
46.091796875
 30
0.0
  0
VERTEX
  5
486
330
482
100
AcDbEntity
  8
STANDARDEBENE
 62
     7
100
AcDbVertex
100
AcDb2dVertex
 10
-155.6728515625
 20
37.849609375
 30
0.0
  0
VERTEX
  5
487
330
482
100
AcDbEntity
  8
STANDARDEBENE
 62
     7
100
AcDbVertex
100
AcDb2dVertex
 10
-155.6728515625
 20
28.72265625
 30
0.0
  0
VERTEX
  5
488
330
482
100
AcDbEntity
  8
STANDARDEBENE
 62
     7
100
AcDbVertex
100
AcDb2dVertex
 10
-155.6728515625
 20
18.90625
 30
0.0
  0
VERTEX
  5
489
330
482
100
AcDbEntity
  8
STANDARDEBENE
 62
     7
100
AcDbVertex
100
AcDb2dVertex
 10
-155.6728515625
 20
8.607421875
 30
0.0
  0
VERTEX
  5
48A
330
482
100
AcDbEntity
  8
STANDARDEBENE
 62
     7
100
AcDbVertex
100
AcDb2dVertex
 10
-155.6728515625
 20
-1.95703125
 30
0.0
  0
SEQEND
  5
48B
330
482
100
AcDbEntity
  8
STANDARDEBENE
  0
POLYLINE
  5
48C
330
1F
100
AcDbEntity
  8
STANDARDEBENE
 62
     7
100
AcDb2dPolyline
 66
     1
 10
0.0
 20
0.0
 30
0.0
  0
VERTEX
  5
48D
330
48C
100
AcDbEntity
  8
STANDARDEBENE
 62
     7
100
AcDbVertex
100
AcDb2dVertex
 10
-33.208984375
 20
-6.4921875
 30
0.0
  0
VERTEX
  5
48E
330
48C
100
AcDbEntity
  8
STANDARDEBENE
 62
     7
100
AcDbVertex
100
AcDb2dVertex
 10
-33.216796875
 20
-3.951171875
 30
0.0
  0
VERTEX
  5
48F
330
48C
100
AcDbEntity
  8
STANDARDEBENE
 62
     7
100
AcDbVertex
100
AcDb2dVertex
 10
-33.208984375
 20
-1.95703125
 30
0.0
  0
SEQEND
  5
490
330
48C
100
AcDbEntity
  8
STANDARDEBENE
  0
POLYLINE
  5
491
330
1F
100
AcDbEntity
  8
STANDARDEBENE
 62
     7
100
AcDb2dPolyline
 66
     1
 10
0.0
 20
0.0
 30
0.0
  0
VERTEX
  5
492
330
491
100
AcDbEntity
  8
STANDARDEBENE
 62
     7
100
AcDbVertex
100
AcDb2dVertex
 10
-157.373046875
 20
67.740234375
 30
0.0
  0
VERTEX
  5
493
330
491
100
AcDbEntity
  8
STANDARDEBENE
 62
     7
100
AcDbVertex
100
AcDb2dVertex
 10
-157.373046875
 20
66.666015625
 30
0.0
  0
VERTEX
  5
494
330
491
100
AcDbEntity
  8
STANDARDEBENE
 62
     7
100
AcDbVertex
100
AcDb2dVertex
 10
-157.373046875
 20
64.109375
 30
0.0
  0
VERTEX
  5
495
330
491
100
AcDbEntity
  8
STANDARDEBENE
 62
     7
100
AcDbVertex
100
AcDb2dVertex
 10
-157.373046875
 20
60.134765625
 30
0.0
  0
VERTEX
  5
496
330
491
100
AcDbEntity
  8
STANDARDEBENE
 62
     7
100
AcDbVertex
100
AcDb2dVertex
 10
-157.373046875
 20
54.8125
 30
0.0
  0
VERTEX
  5
497
330
491
100
AcDbEntity
  8
STANDARDEBENE
 62
     7
100
AcDbVertex
100
AcDb2dVertex
 10
-157.373046875
 20
48.263671875
 30
0.0
  0
SEQEND
  5
498
330
491
100
AcDbEntity
  8
STANDARDEBENE
  0
POLYLINE
  5
499
330
1F
100
AcDbEntity
  8
STANDARDEBENE
 62
     7
100
AcDb2dPolyline
 66
     1
 10
0.0
 20
0.0
 30
0.0
  0
VERTEX
  5
49A
330
499
100
AcDbEntity
  8
STANDARDEBENE
 62
     7
100
AcDbVertex
100
AcDb2dVertex
 10
-155.6728515625
 20
49.30078125
 30
0.0
  0
VERTEX
  5
49B
330
499
100
AcDbEntity
  8
STANDARDEBENE
 62
     7
100
AcDbVertex
100
AcDb2dVertex
 10
-157.373046875
 20
48.263671875
 30
0.0
  0
VERTEX
  5
49C
330
499
100
AcDbEntity
  8
STANDARDEBENE
 62
     7
100
AcDbVertex
100
AcDb2dVertex
 10
-157.373046875
 20
45.060546875
 30
0.0
  0
SEQEND
  5
49D
330
499
100
AcDbEntity
  8
STANDARDEBENE
  0
POLYLINE
  5
49E
330
1F
100
AcDbEntity
  8
STANDARDEBENE
 62
     7
100
AcDb2dPolyline
 66
     1
 10
0.0
 20
0.0
 30
0.0
  0
VERTEX
  5
49F
330
49E
100
AcDbEntity
  8
STANDARDEBENE
 62
     7
100
AcDbVertex
100
AcDb2dVertex
 10
-157.373046875
 20
41.447265625
 30
0.0
  0
VERTEX
  5
4A0
330
49E
100
AcDbEntity
  8
STANDARDEBENE
 62
     7
100
AcDbVertex
100
AcDb2dVertex
 10
-174.951171875
 20
41.447265625
 30
0.0
  0
SEQEND
  5
4A1
330
49E
100
AcDbEntity
  8
STANDARDEBENE
  0
POLYLINE
  5
4A2
330
1F
100
AcDbEntity
  8
STANDARDEBENE
 62
     7
100
AcDb2dPolyline
 66
     1
 10
0.0
 20
0.0
 30
0.0
  0
VERTEX
  5
4A3
330
4A2
100
AcDbEntity
  8
STANDARDEBENE
 62
     7
100
AcDbVertex
100
AcDb2dVertex
 10
-174.951171875
 20
68.021484375
 30
0.0
  0
VERTEX
  5
4A4
330
4A2
100
AcDbEntity
  8
STANDARDEBENE
 62
     7
100
AcDbVertex
100
AcDb2dVertex
 10
-174.951171875
 20
66.9453125
 30
0.0
  0
VERTEX
  5
4A5
330
4A2
100
AcDbEntity
  8
STANDARDEBENE
 62
     7
100
AcDbVertex
100
AcDb2dVertex
 10
-174.951171875
 20
64.37890625
 30
0.0
  0
VERTEX
  5
4A6
330
4A2
100
AcDbEntity
  8
STANDARDEBENE
 62
     7
100
AcDbVertex
100
AcDb2dVertex
 10
-174.951171875
 20
60.38671875
 30
0.0
  0
VERTEX
  5
4A7
330
4A2
100
AcDbEntity
  8
STANDARDEBENE
 62
     7
100
AcDbVertex
100
AcDb2dVertex
 10
-174.951171875
 20
55.04296875
 30
0.0
  0
VERTEX
  5
4A8
330
4A2
100
AcDbEntity
  8
STANDARDEBENE
 62
     7
100
AcDbVertex
100
AcDb2dVertex
 10
-174.951171875
 20
48.46484375
 30
0.0
  0
SEQEND
  5
4A9
330
4A2
100
AcDbEntity
  8
STANDARDEBENE
  0
POLYLINE
  5
4AA
330
1F
100
AcDbEntity
  8
STANDARDEBENE
 62
     7
100
AcDb2dPolyline
 66
     1
 10
0.0
 20
0.0
 30
0.0
  0
VERTEX
  5
4AB
330
4AA
100
AcDbEntity
  8
STANDARDEBENE
 62
     7
100
AcDbVertex
100
AcDb2dVertex
 10
-174.951171875
 20
45.259765625
 30
0.0
  0
VERTEX
  5
4AC
330
4AA
100
AcDbEntity
  8
STANDARDEBENE
 62
     7
100
AcDbVertex
100
AcDb2dVertex
 10
-174.951171875
 20
48.46484375
 30
0.0
  0
SEQEND
  5
4AD
330
4AA
100
AcDbEntity
  8
STANDARDEBENE
  0
POLYLINE
  5
4AE
330
1F
100
AcDbEntity
  8
STANDARDEBENE
 62
     7
100
AcDb2dPolyline
 66
     1
 10
0.0
 20
0.0
 30
0.0
  0
VERTEX
  5
4AF
330
4AE
100
AcDbEntity
  8
STANDARDEBENE
 62
     7
100
AcDbVertex
100
AcDb2dVertex
 10
-175.80078125
 20
68.873046875
 30
0.0
  0
VERTEX
  5
4B0
330
4AE
100
AcDbEntity
  8
STANDARDEBENE
 62
     7
100
AcDbVertex
100
AcDb2dVertex
 10
-175.80078125
 20
67.783203125
 30
0.0
  0
VERTEX
  5
4B1
330
4AE
100
AcDbEntity
  8
STANDARDEBENE
 62
     7
100
AcDbVertex
100
AcDb2dVertex
 10
-175.80078125
 20
65.189453125
 30
0.0
  0
VERTEX
  5
4B2
330
4AE
100
AcDbEntity
  8
STANDARDEBENE
 62
     7
100
AcDbVertex
100
AcDb2dVertex
 10
-175.80078125
 20
61.14453125
 30
0.0
  0
VERTEX
  5
4B3
330
4AE
100
AcDbEntity
  8
STANDARDEBENE
 62
     7
100
AcDbVertex
100
AcDb2dVertex
 10
-175.80078125
 20
55.732421875
 30
0.0
  0
VERTEX
  5
4B4
330
4AE
100
AcDbEntity
  8
STANDARDEBENE
 62
     7
100
AcDbVertex
100
AcDb2dVertex
 10
-175.80078125
 20
49.068359375
 30
0.0
  0
SEQEND
  5
4B5
330
4AE
100
AcDbEntity
  8
STANDARDEBENE
  0
POLYLINE
  5
4B6
330
1F
100
AcDbEntity
  8
STANDARDEBENE
 62
     7
100
AcDb2dPolyline
 66
     1
 10
0.0
 20
0.0
 30
0.0
  0
VERTEX
  5
4B7
330
4B6
100
AcDbEntity
  8
STANDARDEBENE
 62
     7
100
AcDbVertex
100
AcDb2dVertex
 10
-174.951171875
 20
48.46484375
 30
0.0
  0
VERTEX
  5
4B8
330
4B6
100
AcDbEntity
  8
STANDARDEBENE
 62
     7
100
AcDbVertex
100
AcDb2dVertex
 10
-175.80078125
 20
49.068359375
 30
0.0
  0
SEQEND
  5
4B9
330
4B6
100
AcDbEntity
  8
STANDARDEBENE
  0
POLYLINE
  5
4BA
330
1F
100
AcDbEntity
  8
STANDARDEBENE
 62
     7
100
AcDb2dPolyline
 66
     1
 10
0.0
 20
0.0
 30
0.0
  0
VERTEX
  5
4BB
330
4BA
100
AcDbEntity
  8
STANDARDEBENE
 62
     7
100
AcDbVertex
100
AcDb2dVertex
 10
-176.9130859375
 20
68.873046875
 30
0.0
  0
VERTEX
  5
4BC
330
4BA
100
AcDbEntity
  8
STANDARDEBENE
 62
     7
100
AcDbVertex
100
AcDb2dVertex
 10
-176.9130859375
 20
67.783203125
 30
0.0
  0
VERTEX
  5
4BD
330
4BA
100
AcDbEntity
  8
STANDARDEBENE
 62
     7
100
AcDbVertex
100
AcDb2dVertex
 10
-176.9130859375
 20
65.189453125
 30
0.0
  0
VERTEX
  5
4BE
330
4BA
100
AcDbEntity
  8
STANDARDEBENE
 62
     7
100
AcDbVertex
100
AcDb2dVertex
 10
-176.9130859375
 20
61.14453125
 30
0.0
  0
VERTEX
  5
4BF
330
4BA
100
AcDbEntity
  8
STANDARDEBENE
 62
     7
100
AcDbVertex
100
AcDb2dVertex
 10
-176.9130859375
 20
55.732421875
 30
0.0
  0
VERTEX
  5
4C0
330
4BA
100
AcDbEntity
  8
STANDARDEBENE
 62
     7
100
AcDbVertex
100
AcDb2dVertex
 10
-176.9130859375
 20
49.068359375
 30
0.0
  0
SEQEND
  5
4C1
330
4BA
100
AcDbEntity
  8
STANDARDEBENE
  0
POLYLINE
  5
4C2
330
1F
100
AcDbEntity
  8
STANDARDEBENE
 62
     7
100
AcDb2dPolyline
 66
     1
 10
0.0
 20
0.0
 30
0.0
  0
VERTEX
  5
4C3
330
4C2
100
AcDbEntity
  8
STANDARDEBENE
 62
     7
100
AcDbVertex
100
AcDb2dVertex
 10
-175.80078125
 20
49.068359375
 30
0.0
  0
VERTEX
  5
4C4
330
4C2
100
AcDbEntity
  8
STANDARDEBENE
 62
     7
100
AcDbVertex
100
AcDb2dVertex
 10
-176.9130859375
 20
49.068359375
 30
0.0
  0
SEQEND
  5
4C5
330
4C2
100
AcDbEntity
  8
STANDARDEBENE
  0
POLYLINE
  5
4C6
330
1F
100
AcDbEntity
  8
STANDARDEBENE
 62
     7
100
AcDb2dPolyline
 66
     1
 10
0.0
 20
0.0
 30
0.0
  0
VERTEX
  5
4C7
330
4C6
100
AcDbEntity
  8
STANDARDEBENE
 62
     7
100
AcDbVertex
100
AcDb2dVertex
 10
-203.296875
 20
-61.099609375
 30
0.0
  0
VERTEX
  5
4C8
330
4C6
100
AcDbEntity
  8
STANDARDEBENE
 62
     7
100
AcDbVertex
100
AcDb2dVertex
 10
-203.296875
 20
-60.130859375
 30
0.0
  0
VERTEX
  5
4C9
330
4C6
100
AcDbEntity
  8
STANDARDEBENE
 62
     7
100
AcDbVertex
100
AcDb2dVertex
 10
-203.296875
 20
-57.921875
 30
0.0
  0
VERTEX
  5
4CA
330
4C6
100
AcDbEntity
  8
STANDARDEBENE
 62
     7
100
AcDbVertex
100
AcDb2dVertex
 10
-203.296875
 20
-54.5234375
 30
0.0
  0
VERTEX
  5
4CB
330
4C6
100
AcDbEntity
  8
STANDARDEBENE
 62
     7
100
AcDbVertex
100
AcDb2dVertex
 10
-203.296875
 20
-50.005859375
 30
0.0
  0
VERTEX
  5
4CC
330
4C6
100
AcDbEntity
  8
STANDARDEBENE
 62
     7
100
AcDbVertex
100
AcDb2dVertex
 10
-203.296875
 20
-44.470703125
 30
0.0
  0
VERTEX
  5
4CD
330
4C6
100
AcDbEntity
  8
STANDARDEBENE
 62
     7
100
AcDbVertex
100
AcDb2dVertex
 10
-203.296875
 20
-38.044921875
 30
0.0
  0
VERTEX
  5
4CE
330
4C6
100
AcDbEntity
  8
STANDARDEBENE
 62
     7
100
AcDbVertex
100
AcDb2dVertex
 10
-203.296875
 20
-30.87109375
 30
0.0
  0
VERTEX
  5
4CF
330
4C6
100
AcDbEntity
  8
STANDARDEBENE
 62
     7
100
AcDbVertex
100
AcDb2dVertex
 10
-203.296875
 20
-23.1015625
 30
0.0
  0
VERTEX
  5
4D0
330
4C6
100
AcDbEntity
  8
STANDARDEBENE
 62
     7
100
AcDbVertex
100
AcDb2dVertex
 10
-203.296875
 20
-14.916015625
 30
0.0
  0
VERTEX
  5
4D1
330
4C6
100
AcDbEntity
  8
STANDARDEBENE
 62
     7
100
AcDbVertex
100
AcDb2dVertex
 10
-203.296875
 20
-6.4921875
 30
0.0
  0
SEQEND
  5
4D2
330
4C6
100
AcDbEntity
  8
STANDARDEBENE
  0
POLYLINE
  5
4D3
330
1F
100
AcDbEntity
  8
STANDARDEBENE
 62
     7
100
AcDb2dPolyline
 66
     1
 10
0.0
 20
0.0
 30
0.0
  0
VERTEX
  5
4D4
330
4D3
100
AcDbEntity
  8
STANDARDEBENE
 62
     7
100
AcDbVertex
100
AcDb2dVertex
 10
-155.6728515625
 20
-57.74609375
 30
0.0
  0
VERTEX
  5
4D5
330
4D3
100
AcDbEntity
  8
STANDARDEBENE
 62
     7
100
AcDbVertex
100
AcDb2dVertex
 10
-155.6728515625
 20
-64.447265625
 30
0.0
  0
VERTEX
  5
4D6
330
4D3
100
AcDbEntity
  8
STANDARDEBENE
 62
     7
100
AcDbVertex
100
AcDb2dVertex
 10
-155.6728515625
 20
-69.8828125
 30
0.0
  0
VERTEX
  5
4D7
330
4D3
100
AcDbEntity
  8
STANDARDEBENE
 62
     7
100
AcDbVertex
100
AcDb2dVertex
 10
-155.6728515625
 20
-73.947265625
 30
0.0
  0
VERTEX
  5
4D8
330
4D3
100
AcDbEntity
  8
STANDARDEBENE
 62
     7
100
AcDbVertex
100
AcDb2dVertex
 10
-155.6728515625
 20
-76.5546875
 30
0.0
  0
VERTEX
  5
4D9
330
4D3
100
AcDbEntity
  8
STANDARDEBENE
 62
     7
100
AcDbVertex
100
AcDb2dVertex
 10
-155.6728515625
 20
-77.650390625
 30
0.0
  0
SEQEND
  5
4DA
330
4D3
100
AcDbEntity
  8
STANDARDEBENE
  0
POLYLINE
  5
4DB
330
1F
100
AcDbEntity
  8
STANDARDEBENE
 62
     7
100
AcDb2dPolyline
 66
     1
 10
0.0
 20
0.0
 30
0.0
  0
VERTEX
  5
4DC
330
4DB
100
AcDbEntity
  8
STANDARDEBENE
 62
     7
100
AcDbVertex
100
AcDb2dVertex
 10
-155.6728515625
 20
-57.74609375
 30
0.0
  0
VERTEX
  5
4DD
330
4DB
100
AcDbEntity
  8
STANDARDEBENE
 62
     7
100
AcDbVertex
100
AcDb2dVertex
 10
-157.373046875
 20
-56.71484375
 30
0.0
  0
VERTEX
  5
4DE
330
4DB
100
AcDbEntity
  8
STANDARDEBENE
 62
     7
100
AcDbVertex
100
AcDb2dVertex
 10
-157.373046875
 20
-63.263671875
 30
0.0
  0
VERTEX
  5
4DF
330
4DB
100
AcDbEntity
  8
STANDARDEBENE
 62
     7
100
AcDbVertex
100
AcDb2dVertex
 10
-157.373046875
 20
-68.58203125
 30
0.0
  0
VERTEX
  5
4E0
330
4DB
100
AcDbEntity
  8
STANDARDEBENE
 62
     7
100
AcDbVertex
100
AcDb2dVertex
 10
-157.373046875
 20
-72.55859375
 30
0.0
  0
VERTEX
  5
4E1
330
4DB
100
AcDbEntity
  8
STANDARDEBENE
 62
     7
100
AcDbVertex
100
AcDb2dVertex
 10
-157.373046875
 20
-75.111328125
 30
0.0
  0
VERTEX
  5
4E2
330
4DB
100
AcDbEntity
  8
STANDARDEBENE
 62
     7
100
AcDbVertex
100
AcDb2dVertex
 10
-157.373046875
 20
-76.189453125
 30
0.0
  0
SEQEND
  5
4E3
330
4DB
100
AcDbEntity
  8
STANDARDEBENE
  0
POLYLINE
  5
4E4
330
1F
100
AcDbEntity
  8
STANDARDEBENE
 62
     7
100
AcDb2dPolyline
 66
     1
 10
0.0
 20
0.0
 30
0.0
  0
VERTEX
  5
4E5
330
4E4
100
AcDbEntity
  8
STANDARDEBENE
 62
     7
100
AcDbVertex
100
AcDb2dVertex
 10
-157.373046875
 20
-56.71484375
 30
0.0
  0
VERTEX
  5
4E6
330
4E4
100
AcDbEntity
  8
STANDARDEBENE
 62
     7
100
AcDbVertex
100
AcDb2dVertex
 10
-157.373046875
 20
-53.505859375
 30
0.0
  0
SEQEND
  5
4E7
330
4E4
100
AcDbEntity
  8
STANDARDEBENE
  0
POLYLINE
  5
4E8
330
1F
100
AcDbEntity
  8
STANDARDEBENE
 62
     7
100
AcDb2dPolyline
 66
     1
 10
0.0
 20
0.0
 30
0.0
  0
VERTEX
  5
4E9
330
4E8
100
AcDbEntity
  8
STANDARDEBENE
 62
     7
100
AcDbVertex
100
AcDb2dVertex
 10
-157.373046875
 20
-49.89453125
 30
0.0
  0
VERTEX
  5
4EA
330
4E8
100
AcDbEntity
  8
STANDARDEBENE
 62
     7
100
AcDbVertex
100
AcDb2dVertex
 10
-174.951171875
 20
-49.89453125
 30
0.0
  0
SEQEND
  5
4EB
330
4E8
100
AcDbEntity
  8
STANDARDEBENE
  0
POLYLINE
  5
4EC
330
1F
100
AcDbEntity
  8
STANDARDEBENE
 62
     7
100
AcDb2dPolyline
 66
     1
 10
0.0
 20
0.0
 30
0.0
  0
VERTEX
  5
4ED
330
4EC
100
AcDbEntity
  8
STANDARDEBENE
 62
     7
100
AcDbVertex
100
AcDb2dVertex
 10
-174.951171875
 20
-53.70703125
 30
0.0
  0
VERTEX
  5
4EE
330
4EC
100
AcDbEntity
  8
STANDARDEBENE
 62
     7
100
AcDbVertex
100
AcDb2dVertex
 10
-174.951171875
 20
-56.912109375
 30
0.0
  0
VERTEX
  5
4EF
330
4EC
100
AcDbEntity
  8
STANDARDEBENE
 62
     7
100
AcDbVertex
100
AcDb2dVertex
 10
-174.951171875
 20
-63.4921875
 30
0.0
  0
VERTEX
  5
4F0
330
4EC
100
AcDbEntity
  8
STANDARDEBENE
 62
     7
100
AcDbVertex
100
AcDb2dVertex
 10
-174.951171875
 20
-68.83203125
 30
0.0
  0
VERTEX
  5
4F1
330
4EC
100
AcDbEntity
  8
STANDARDEBENE
 62
     7
100
AcDbVertex
100
AcDb2dVertex
 10
-174.951171875
 20
-72.830078125
 30
0.0
  0
VERTEX
  5
4F2
330
4EC
100
AcDbEntity
  8
STANDARDEBENE
 62
     7
100
AcDbVertex
100
AcDb2dVertex
 10
-174.951171875
 20
-75.392578125
 30
0.0
  0
VERTEX
  5
4F3
330
4EC
100
AcDbEntity
  8
STANDARDEBENE
 62
     7
100
AcDbVertex
100
AcDb2dVertex
 10
-174.951171875
 20
-76.470703125
 30
0.0
  0
SEQEND
  5
4F4
330
4EC
100
AcDbEntity
  8
STANDARDEBENE
  0
POLYLINE
  5
4F5
330
1F
100
AcDbEntity
  8
STANDARDEBENE
 62
     7
100
AcDb2dPolyline
 66
     1
 10
0.0
 20
0.0
 30
0.0
  0
VERTEX
  5
4F6
330
4F5
100
AcDbEntity
  8
STANDARDEBENE
 62
     7
100
AcDbVertex
100
AcDb2dVertex
 10
-174.951171875
 20
-56.912109375
 30
0.0
  0
VERTEX
  5
4F7
330
4F5
100
AcDbEntity
  8
STANDARDEBENE
 62
     7
100
AcDbVertex
100
AcDb2dVertex
 10
-175.80078125
 20
-57.515625
 30
0.0
  0
VERTEX
  5
4F8
330
4F5
100
AcDbEntity
  8
STANDARDEBENE
 62
     7
100
AcDbVertex
100
AcDb2dVertex
 10
-175.80078125
 20
-64.1796875
 30
0.0
  0
VERTEX
  5
4F9
330
4F5
100
AcDbEntity
  8
STANDARDEBENE
 62
     7
100
AcDbVertex
100
AcDb2dVertex
 10
-175.80078125
 20
-69.59375
 30
0.0
  0
VERTEX
  5
4FA
330
4F5
100
AcDbEntity
  8
STANDARDEBENE
 62
     7
100
AcDbVertex
100
AcDb2dVertex
 10
-175.80078125
 20
-73.638671875
 30
0.0
  0
VERTEX
  5
4FB
330
4F5
100
AcDbEntity
  8
STANDARDEBENE
 62
     7
100
AcDbVertex
100
AcDb2dVertex
 10
-175.80078125
 20
-76.234375
 30
0.0
  0
VERTEX
  5
4FC
330
4F5
100
AcDbEntity
  8
STANDARDEBENE
 62
     7
100
AcDbVertex
100
AcDb2dVertex
 10
-175.80078125
 20
-77.32421875
 30
0.0
  0
SEQEND
  5
4FD
330
4F5
100
AcDbEntity
  8
STANDARDEBENE
  0
POLYLINE
  5
4FE
330
1F
100
AcDbEntity
  8
STANDARDEBENE
 62
     7
100
AcDb2dPolyline
 66
     1
 10
0.0
 20
0.0
 30
0.0
  0
VERTEX
  5
4FF
330
4FE
100
AcDbEntity
  8
STANDARDEBENE
 62
     7
100
AcDbVertex
100
AcDb2dVertex
 10
-175.80078125
 20
-57.515625
 30
0.0
  0
VERTEX
  5
500
330
4FE
100
AcDbEntity
  8
STANDARDEBENE
 62
     7
100
AcDbVertex
100
AcDb2dVertex
 10
-176.9130859375
 20
-57.515625
 30
0.0
  0
VERTEX
  5
501
330
4FE
100
AcDbEntity
  8
STANDARDEBENE
 62
     7
100
AcDbVertex
100
AcDb2dVertex
 10
-176.9130859375
 20
-64.1796875
 30
0.0
  0
VERTEX
  5
502
330
4FE
100
AcDbEntity
  8
STANDARDEBENE
 62
     7
100
AcDbVertex
100
AcDb2dVertex
 10
-176.9130859375
 20
-69.59375
 30
0.0
  0
VERTEX
  5
503
330
4FE
100
AcDbEntity
  8
STANDARDEBENE
 62
     7
100
AcDbVertex
100
AcDb2dVertex
 10
-176.9130859375
 20
-73.638671875
 30
0.0
  0
VERTEX
  5
504
330
4FE
100
AcDbEntity
  8
STANDARDEBENE
 62
     7
100
AcDbVertex
100
AcDb2dVertex
 10
-176.9130859375
 20
-76.234375
 30
0.0
  0
VERTEX
  5
505
330
4FE
100
AcDbEntity
  8
STANDARDEBENE
 62
     7
100
AcDbVertex
100
AcDb2dVertex
 10
-176.9130859375
 20
-77.32421875
 30
0.0
  0
SEQEND
  5
506
330
4FE
100
AcDbEntity
  8
STANDARDEBENE
  0
POLYLINE
  5
507
330
1F
100
AcDbEntity
  8
STANDARDEBENE
 62
     7
100
AcDb2dPolyline
 66
     1
 10
0.0
 20
0.0
 30
0.0
  0
VERTEX
  5
508
330
507
100
AcDbEntity
  8
STANDARDEBENE
 62
     7
100
AcDbVertex
100
AcDb2dVertex
 10
-182.4072265625
 20
-6.4921875
 30
0.0
  0
VERTEX
  5
509
330
507
100
AcDbEntity
  8
STANDARDEBENE
 62
     7
100
AcDbVertex
100
AcDb2dVertex
 10
-183.4853515625
 20
-8.515625
 30
0.0
  0
VERTEX
  5
50A
330
507
100
AcDbEntity
  8
STANDARDEBENE
 62
     7
100
AcDbVertex
100
AcDb2dVertex
 10
-185.04296875
 20
-10.017578125
 30
0.0
  0
VERTEX
  5
50B
330
507
100
AcDbEntity
  8
STANDARDEBENE
 62
     7
100
AcDbVertex
100
AcDb2dVertex
 10
-187.1728515625
 20
-11.03515625
 30
0.0
  0
VERTEX
  5
50C
330
507
100
AcDbEntity
  8
STANDARDEBENE
 62
     7
100
AcDbVertex
100
AcDb2dVertex
 10
-189.123046875
 20
-11.3125
 30
0.0
  0
SEQEND
  5
50D
330
507
100
AcDbEntity
  8
STANDARDEBENE
  0
POLYLINE
  5
50E
330
1F
100
AcDbEntity
  8
STANDARDEBENE
 62
     7
100
AcDb2dPolyline
 66
     1
 10
0.0
 20
0.0
 30
0.0
  0
VERTEX
  5
50F
330
50E
100
AcDbEntity
  8
STANDARDEBENE
 62
     7
100
AcDbVertex
100
AcDb2dVertex
 10
-202.4453125
 20
-6.4921875
 30
0.0
  0
VERTEX
  5
510
330
50E
100
AcDbEntity
  8
STANDARDEBENE
 62
     7
100
AcDbVertex
100
AcDb2dVertex
 10
-198.7451171875
 20
-6.4921875
 30
0.0
  0
VERTEX
  5
511
330
50E
100
AcDbEntity
  8
STANDARDEBENE
 62
     7
100
AcDbVertex
100
AcDb2dVertex
 10
-195.8349609375
 20
-6.4921875
 30
0.0
  0
SEQEND
  5
512
330
50E
100
AcDbEntity
  8
STANDARDEBENE
  0
POLYLINE
  5
513
330
1F
100
AcDbEntity
  8
STANDARDEBENE
 62
     7
100
AcDb2dPolyline
 66
     1
 10
0.0
 20
0.0
 30
0.0
  0
VERTEX
  5
514
330
513
100
AcDbEntity
  8
STANDARDEBENE
 62
     7
100
AcDbVertex
100
AcDb2dVertex
 10
-202.4453125
 20
-62.57421875
 30
0.0
  0
VERTEX
  5
515
330
513
100
AcDbEntity
  8
STANDARDEBENE
 62
     7
100
AcDbVertex
100
AcDb2dVertex
 10
-198.7451171875
 20
-64.708984375
 30
0.0
  0
VERTEX
  5
516
330
513
100
AcDbEntity
  8
STANDARDEBENE
 62
     7
100
AcDbVertex
100
AcDb2dVertex
 10
-195.8349609375
 20
-66.392578125
 30
0.0
  0
VERTEX
  5
517
330
513
100
AcDbEntity
  8
STANDARDEBENE
 62
     7
100
AcDbVertex
100
AcDb2dVertex
 10
-194.763671875
 20
-66.90625
 30
0.0
  0
VERTEX
  5
518
330
513
100
AcDbEntity
  8
STANDARDEBENE
 62
     7
100
AcDbVertex
100
AcDb2dVertex
 10
-193.1708984375
 20
-67.70703125
 30
0.0
  0
VERTEX
  5
519
330
513
100
AcDbEntity
  8
STANDARDEBENE
 62
     7
100
AcDbVertex
100
AcDb2dVertex
 10
-191.1328125
 20
-68.791015625
 30
0.0
  0
VERTEX
  5
51A
330
513
100
AcDbEntity
  8
STANDARDEBENE
 62
     7
100
AcDbVertex
100
AcDb2dVertex
 10
-188.71484375
 20
-70.166015625
 30
0.0
  0
VERTEX
  5
51B
330
513
100
AcDbEntity
  8
STANDARDEBENE
 62
     7
100
AcDbVertex
100
AcDb2dVertex
 10
-186.1328125
 20
-71.728515625
 30
0.0
  0
VERTEX
  5
51C
330
513
100
AcDbEntity
  8
STANDARDEBENE
 62
     7
100
AcDbVertex
100
AcDb2dVertex
 10
-183.8515625
 20
-73.189453125
 30
0.0
  0
VERTEX
  5
51D
330
513
100
AcDbEntity
  8
STANDARDEBENE
 62
     7
100
AcDbVertex
100
AcDb2dVertex
 10
-182.6474609375
 20
-73.986328125
 30
0.0
  0
VERTEX
  5
51E
330
513
100
AcDbEntity
  8
STANDARDEBENE
 62
     7
100
AcDbVertex
100
AcDb2dVertex
 10
-182.4072265625
 20
-74.150390625
 30
0.0
  0
SEQEND
  5
51F
330
513
100
AcDbEntity
  8
STANDARDEBENE
  0
POLYLINE
  5
520
330
1F
100
AcDbEntity
  8
STANDARDEBENE
 62
     7
100
AcDb2dPolyline
 66
     1
 10
0.0
 20
0.0
 30
0.0
  0
VERTEX
  5
521
330
520
100
AcDbEntity
  8
STANDARDEBENE
 62
     7
100
AcDbVertex
100
AcDb2dVertex
 10
-176.9130859375
 20
-57.515625
 30
0.0
  0
VERTEX
  5
522
330
520
100
AcDbEntity
  8
STANDARDEBENE
 62
     7
100
AcDbVertex
100
AcDb2dVertex
 10
-183.7529296875
 20
-54.720703125
 30
0.0
  0
VERTEX
  5
523
330
520
100
AcDbEntity
  8
STANDARDEBENE
 62
     7
100
AcDbVertex
100
AcDb2dVertex
 10
-189.12890625
 20
-52.525390625
 30
0.0
  0
SEQEND
  5
524
330
520
100
AcDbEntity
  8
STANDARDEBENE
  0
POLYLINE
  5
525
330
1F
100
AcDbEntity
  8
STANDARDEBENE
 62
     7
100
AcDb2dPolyline
 66
     1
 10
0.0
 20
0.0
 30
0.0
  0
VERTEX
  5
526
330
525
100
AcDbEntity
  8
STANDARDEBENE
 62
     7
100
AcDbVertex
100
AcDb2dVertex
 10
-189.12890625
 20
-49.322265625
 30
0.0
  0
VERTEX
  5
527
330
525
100
AcDbEntity
  8
STANDARDEBENE
 62
     7
100
AcDbVertex
100
AcDb2dVertex
 10
-189.123046875
 20
-51.14453125
 30
0.0
  0
VERTEX
  5
528
330
525
100
AcDbEntity
  8
STANDARDEBENE
 62
     7
100
AcDbVertex
100
AcDb2dVertex
 10
-189.12890625
 20
-52.525390625
 30
0.0
  0
SEQEND
  5
529
330
525
100
AcDbEntity
  8
STANDARDEBENE
  0
POLYLINE
  5
52A
330
1F
100
AcDbEntity
  8
STANDARDEBENE
 62
     7
100
AcDb2dPolyline
 66
     1
 10
0.0
 20
0.0
 30
0.0
  0
VERTEX
  5
52B
330
52A
100
AcDbEntity
  8
STANDARDEBENE
 62
     7
100
AcDbVertex
100
AcDb2dVertex
 10
-176.9130859375
 20
-54.306640625
 30
0.0
  0
VERTEX
  5
52C
330
52A
100
AcDbEntity
  8
STANDARDEBENE
 62
     7
100
AcDbVertex
100
AcDb2dVertex
 10
-183.7529296875
 20
-51.515625
 30
0.0
  0
VERTEX
  5
52D
330
52A
100
AcDbEntity
  8
STANDARDEBENE
 62
     7
100
AcDbVertex
100
AcDb2dVertex
 10
-189.12890625
 20
-49.322265625
 30
0.0
  0
SEQEND
  5
52E
330
52A
100
AcDbEntity
  8
STANDARDEBENE
  0
POLYLINE
  5
52F
330
1F
100
AcDbEntity
  8
STANDARDEBENE
 62
     7
100
AcDb2dPolyline
 66
     1
 10
0.0
 20
0.0
 30
0.0
  0
VERTEX
  5
530
330
52F
100
AcDbEntity
  8
STANDARDEBENE
 62
     7
100
AcDbVertex
100
AcDb2dVertex
 10
-202.4453125
 20
-62.57421875
 30
0.0
  0
VERTEX
  5
531
330
52F
100
AcDbEntity
  8
STANDARDEBENE
 62
     7
100
AcDbVertex
100
AcDb2dVertex
 10
-202.8828125
 20
-62.20703125
 30
0.0
  0
VERTEX
  5
532
330
52F
100
AcDbEntity
  8
STANDARDEBENE
 62
     7
100
AcDbVertex
100
AcDb2dVertex
 10
-203.177734375
 20
-61.716796875
 30
0.0
  0
VERTEX
  5
533
330
52F
100
AcDbEntity
  8
STANDARDEBENE
 62
     7
100
AcDbVertex
100
AcDb2dVertex
 10
-203.296875
 20
-61.099609375
 30
0.0
  0
SEQEND
  5
534
330
52F
100
AcDbEntity
  8
STANDARDEBENE
  0
POLYLINE
  5
535
330
1F
100
AcDbEntity
  8
STANDARDEBENE
 62
     7
100
AcDb2dPolyline
 66
     1
 10
0.0
 20
0.0
 30
0.0
  0
VERTEX
  5
536
330
535
100
AcDbEntity
  8
STANDARDEBENE
 62
     7
100
AcDbVertex
100
AcDb2dVertex
 10
-202.4453125
 20
-6.4921875
 30
0.0
  0
VERTEX
  5
537
330
535
100
AcDbEntity
  8
STANDARDEBENE
 62
     7
100
AcDbVertex
100
AcDb2dVertex
 10
-202.8828125
 20
-6.4921875
 30
0.0
  0
VERTEX
  5
538
330
535
100
AcDbEntity
  8
STANDARDEBENE
 62
     7
100
AcDbVertex
100
AcDb2dVertex
 10
-203.177734375
 20
-6.4921875
 30
0.0
  0
VERTEX
  5
539
330
535
100
AcDbEntity
  8
STANDARDEBENE
 62
     7
100
AcDbVertex
100
AcDb2dVertex
 10
-203.296875
 20
-6.4921875
 30
0.0
  0
SEQEND
  5
53A
330
535
100
AcDbEntity
  8
STANDARDEBENE
  0
POLYLINE
  5
53B
330
1F
100
AcDbEntity
  8
STANDARDEBENE
 62
     7
100
AcDb2dPolyline
 66
     1
 10
0.0
 20
0.0
 30
0.0
  0
VERTEX
  5
53C
330
53B
100
AcDbEntity
  8
STANDARDEBENE
 62
     7
100
AcDbVertex
100
AcDb2dVertex
 10
-10.541015625
 20
-39.08984375
 30
0.0
  0
VERTEX
  5
53D
330
53B
100
AcDbEntity
  8
STANDARDEBENE
 62
     7
100
AcDbVertex
100
AcDb2dVertex
 10
-10.541015625
 20
-42.294921875
 30
0.0
  0
VERTEX
  5
53E
330
53B
100
AcDbEntity
  8
STANDARDEBENE
 62
     7
100
AcDbVertex
100
AcDb2dVertex
 10
-10.541015625
 20
-48.06640625
 30
0.0
  0
VERTEX
  5
53F
330
53B
100
AcDbEntity
  8
STANDARDEBENE
 62
     7
100
AcDbVertex
100
AcDb2dVertex
 10
-10.541015625
 20
-52.33984375
 30
0.0
  0
VERTEX
  5
540
330
53B
100
AcDbEntity
  8
STANDARDEBENE
 62
     7
100
AcDbVertex
100
AcDb2dVertex
 10
-10.541015625
 20
-54.9609375
 30
0.0
  0
VERTEX
  5
541
330
53B
100
AcDbEntity
  8
STANDARDEBENE
 62
     7
100
AcDbVertex
100
AcDb2dVertex
 10
-10.541015625
 20
-55.845703125
 30
0.0
  0
SEQEND
  5
542
330
53B
100
AcDbEntity
  8
STANDARDEBENE
  0
POLYLINE
  5
543
330
1F
100
AcDbEntity
  8
STANDARDEBENE
 62
     7
100
AcDb2dPolyline
 66
     1
 10
0.0
 20
0.0
 30
0.0
  0
VERTEX
  5
544
330
543
100
AcDbEntity
  8
STANDARDEBENE
 62
     7
100
AcDbVertex
100
AcDb2dVertex
 10
-203.296875
 20
-1.95703125
 30
0.0
  0
VERTEX
  5
545
330
543
100
AcDbEntity
  8
STANDARDEBENE
 62
     7
100
AcDbVertex
100
AcDb2dVertex
 10
-203.296875
 20
6.466796875
 30
0.0
  0
VERTEX
  5
546
330
543
100
AcDbEntity
  8
STANDARDEBENE
 62
     7
100
AcDbVertex
100
AcDb2dVertex
 10
-203.296875
 20
14.654296875
 30
0.0
  0
VERTEX
  5
547
330
543
100
AcDbEntity
  8
STANDARDEBENE
 62
     7
100
AcDbVertex
100
AcDb2dVertex
 10
-203.296875
 20
22.419921875
 30
0.0
  0
VERTEX
  5
548
330
543
100
AcDbEntity
  8
STANDARDEBENE
 62
     7
100
AcDbVertex
100
AcDb2dVertex
 10
-203.296875
 20
29.599609375
 30
0.0
  0
VERTEX
  5
549
330
543
100
AcDbEntity
  8
STANDARDEBENE
 62
     7
100
AcDbVertex
100
AcDb2dVertex
 10
-203.296875
 20
36.021484375
 30
0.0
  0
VERTEX
  5
54A
330
543
100
AcDbEntity
  8
STANDARDEBENE
 62
     7
100
AcDbVertex
100
AcDb2dVertex
 10
-203.296875
 20
41.55859375
 30
0.0
  0
VERTEX
  5
54B
330
543
100
AcDbEntity
  8
STANDARDEBENE
 62
     7
100
AcDbVertex
100
AcDb2dVertex
 10
-203.296875
 20
46.072265625
 30
0.0
  0
VERTEX
  5
54C
330
543
100
AcDbEntity
  8
STANDARDEBENE
 62
     7
100
AcDbVertex
100
AcDb2dVertex
 10
-203.296875
 20
49.474609375
 30
0.0
  0
VERTEX
  5
54D
330
543
100
AcDbEntity
  8
STANDARDEBENE
 62
     7
100
AcDbVertex
100
AcDb2dVertex
 10
-203.296875
 20
51.681640625
 30
0.0
  0
VERTEX
  5
54E
330
543
100
AcDbEntity
  8
STANDARDEBENE
 62
     7
100
AcDbVertex
100
AcDb2dVertex
 10
-203.296875
 20
52.650390625
 30
0.0
  0
SEQEND
  5
54F
330
543
100
AcDbEntity
  8
STANDARDEBENE
  0
POLYLINE
  5
550
330
1F
100
AcDbEntity
  8
STANDARDEBENE
 62
     7
100
AcDb2dPolyline
 66
     1
 10
0.0
 20
0.0
 30
0.0
  0
VERTEX
  5
551
330
550
100
AcDbEntity
  8
STANDARDEBENE
 62
     7
100
AcDbVertex
100
AcDb2dVertex
 10
-10.541015625
 20
-42.294921875
 30
0.0
  0
VERTEX
  5
552
330
550
100
AcDbEntity
  8
STANDARDEBENE
 62
     7
100
AcDbVertex
100
AcDb2dVertex
 10
-13.375
 20
-43.599609375
 30
0.0
  0
VERTEX
  5
553
330
550
100
AcDbEntity
  8
STANDARDEBENE
 62
     7
100
AcDbVertex
100
AcDb2dVertex
 10
-13.375
 20
-48.517578125
 30
0.0
  0
VERTEX
  5
554
330
550
100
AcDbEntity
  8
STANDARDEBENE
 62
     7
100
AcDbVertex
100
AcDb2dVertex
 10
-13.375
 20
-52.4609375
 30
0.0
  0
VERTEX
  5
555
330
550
100
AcDbEntity
  8
STANDARDEBENE
 62
     7
100
AcDbVertex
100
AcDb2dVertex
 10
-13.375
 20
-55.34375
 30
0.0
  0
VERTEX
  5
556
330
550
100
AcDbEntity
  8
STANDARDEBENE
 62
     7
100
AcDbVertex
100
AcDb2dVertex
 10
-13.375
 20
-57.099609375
 30
0.0
  0
VERTEX
  5
557
330
550
100
AcDbEntity
  8
STANDARDEBENE
 62
     7
100
AcDbVertex
100
AcDb2dVertex
 10
-13.375
 20
-57.6875
 30
0.0
  0
SEQEND
  5
558
330
550
100
AcDbEntity
  8
STANDARDEBENE
  0
POLYLINE
  5
559
330
1F
100
AcDbEntity
  8
STANDARDEBENE
 62
     7
100
AcDb2dPolyline
 66
     1
 10
0.0
 20
0.0
 30
0.0
  0
VERTEX
  5
55A
330
559
100
AcDbEntity
  8
STANDARDEBENE
 62
     7
100
AcDbVertex
100
AcDb2dVertex
 10
-13.375
 20
-43.599609375
 30
0.0
  0
VERTEX
  5
55B
330
559
100
AcDbEntity
  8
STANDARDEBENE
 62
     7
100
AcDbVertex
100
AcDb2dVertex
 10
-93.060546875
 20
-51.5234375
 30
0.0
  0
VERTEX
  5
55C
330
559
100
AcDbEntity
  8
STANDARDEBENE
 62
     7
100
AcDbVertex
100
AcDb2dVertex
 10
-155.6728515625
 20
-57.74609375
 30
0.0
  0
SEQEND
  5
55D
330
559
100
AcDbEntity
  8
STANDARDEBENE
  0
POLYLINE
  5
55E
330
1F
100
AcDbEntity
  8
STANDARDEBENE
 62
     7
100
AcDb2dPolyline
 66
     1
 10
0.0
 20
0.0
 30
0.0
  0
VERTEX
  5
55F
330
55E
100
AcDbEntity
  8
STANDARDEBENE
 62
     7
100
AcDbVertex
100
AcDb2dVertex
 10
-33.216796875
 20
-60.478515625
 30
0.0
  0
VERTEX
  5
560
330
55E
100
AcDbEntity
  8
STANDARDEBENE
 62
     7
100
AcDbVertex
100
AcDb2dVertex
 10
-33.216796875
 20
-60.458984375
 30
0.0
  0
VERTEX
  5
561
330
55E
100
AcDbEntity
  8
STANDARDEBENE
 62
     7
100
AcDbVertex
100
AcDb2dVertex
 10
-33.208984375
 20
-60.4296875
 30
0.0
  0
SEQEND
  5
562
330
55E
100
AcDbEntity
  8
STANDARDEBENE
  0
POLYLINE
  5
563
330
1F
100
AcDbEntity
  8
STANDARDEBENE
 62
     7
100
AcDb2dPolyline
 66
     1
 10
0.0
 20
0.0
 30
0.0
  0
VERTEX
  5
564
330
563
100
AcDbEntity
  8
STANDARDEBENE
 62
     7
100
AcDbVertex
100
AcDb2dVertex
 10
-155.6728515625
 20
46.091796875
 30
0.0
  0
VERTEX
  5
565
330
563
100
AcDbEntity
  8
STANDARDEBENE
 62
     7
100
AcDbVertex
100
AcDb2dVertex
 10
-157.373046875
 20
45.060546875
 30
0.0
  0
VERTEX
  5
566
330
563
100
AcDbEntity
  8
STANDARDEBENE
 62
     7
100
AcDbVertex
100
AcDb2dVertex
 10
-157.373046875
 20
36.986328125
 30
0.0
  0
VERTEX
  5
567
330
563
100
AcDbEntity
  8
STANDARDEBENE
 62
     7
100
AcDbVertex
100
AcDb2dVertex
 10
-157.373046875
 20
28.05859375
 30
0.0
  0
VERTEX
  5
568
330
563
100
AcDbEntity
  8
STANDARDEBENE
 62
     7
100
AcDbVertex
100
AcDb2dVertex
 10
-157.373046875
 20
18.455078125
 30
0.0
  0
VERTEX
  5
569
330
563
100
AcDbEntity
  8
STANDARDEBENE
 62
     7
100
AcDbVertex
100
AcDb2dVertex
 10
-157.373046875
 20
8.380859375
 30
0.0
  0
VERTEX
  5
56A
330
563
100
AcDbEntity
  8
STANDARDEBENE
 62
     7
100
AcDbVertex
100
AcDb2dVertex
 10
-157.373046875
 20
-1.95703125
 30
0.0
  0
SEQEND
  5
56B
330
563
100
AcDbEntity
  8
STANDARDEBENE
  0
POLYLINE
  5
56C
330
1F
100
AcDbEntity
  8
STANDARDEBENE
 62
     7
100
AcDb2dPolyline
 66
     1
 10
0.0
 20
0.0
 30
0.0
  0
VERTEX
  5
56D
330
56C
100
AcDbEntity
  8
STANDARDEBENE
 62
     7
100
AcDbVertex
100
AcDb2dVertex
 10
-157.373046875
 20
38.240234375
 30
0.0
  0
VERTEX
  5
56E
330
56C
100
AcDbEntity
  8
STANDARDEBENE
 62
     7
100
AcDbVertex
100
AcDb2dVertex
 10
-174.951171875
 20
38.240234375
 30
0.0
  0
SEQEND
  5
56F
330
56C
100
AcDbEntity
  8
STANDARDEBENE
  0
POLYLINE
  5
570
330
1F
100
AcDbEntity
  8
STANDARDEBENE
 62
     7
100
AcDb2dPolyline
 66
     1
 10
0.0
 20
0.0
 30
0.0
  0
VERTEX
  5
571
330
570
100
AcDbEntity
  8
STANDARDEBENE
 62
     7
100
AcDbVertex
100
AcDb2dVertex
 10
-174.951171875
 20
45.259765625
 30
0.0
  0
VERTEX
  5
572
330
570
100
AcDbEntity
  8
STANDARDEBENE
 62
     7
100
AcDbVertex
100
AcDb2dVertex
 10
-174.951171875
 20
37.15625
 30
0.0
  0
VERTEX
  5
573
330
570
100
AcDbEntity
  8
STANDARDEBENE
 62
     7
100
AcDbVertex
100
AcDb2dVertex
 10
-174.951171875
 20
28.185546875
 30
0.0
  0
VERTEX
  5
574
330
570
100
AcDbEntity
  8
STANDARDEBENE
 62
     7
100
AcDbVertex
100
AcDb2dVertex
 10
-174.951171875
 20
18.54296875
 30
0.0
  0
VERTEX
  5
575
330
570
100
AcDbEntity
  8
STANDARDEBENE
 62
     7
100
AcDbVertex
100
AcDb2dVertex
 10
-174.951171875
 20
8.427734375
 30
0.0
  0
VERTEX
  5
576
330
570
100
AcDbEntity
  8
STANDARDEBENE
 62
     7
100
AcDbVertex
100
AcDb2dVertex
 10
-174.951171875
 20
-1.95703125
 30
0.0
  0
SEQEND
  5
577
330
570
100
AcDbEntity
  8
STANDARDEBENE
  0
POLYLINE
  5
578
330
1F
100
AcDbEntity
  8
STANDARDEBENE
 62
     7
100
AcDb2dPolyline
 66
     1
 10
0.0
 20
0.0
 30
0.0
  0
VERTEX
  5
579
330
578
100
AcDbEntity
  8
STANDARDEBENE
 62
     7
100
AcDbVertex
100
AcDb2dVertex
 10
-174.951171875
 20
45.259765625
 30
0.0
  0
VERTEX
  5
57A
330
578
100
AcDbEntity
  8
STANDARDEBENE
 62
     7
100
AcDbVertex
100
AcDb2dVertex
 10
-175.80078125
 20
45.861328125
 30
0.0
  0
VERTEX
  5
57B
330
578
100
AcDbEntity
  8
STANDARDEBENE
 62
     7
100
AcDbVertex
100
AcDb2dVertex
 10
-175.80078125
 20
37.65625
 30
0.0
  0
VERTEX
  5
57C
330
578
100
AcDbEntity
  8
STANDARDEBENE
 62
     7
100
AcDbVertex
100
AcDb2dVertex
 10
-175.80078125
 20
28.572265625
 30
0.0
  0
VERTEX
  5
57D
330
578
100
AcDbEntity
  8
STANDARDEBENE
 62
     7
100
AcDbVertex
100
AcDb2dVertex
 10
-175.80078125
 20
18.8046875
 30
0.0
  0
VERTEX
  5
57E
330
578
100
AcDbEntity
  8
STANDARDEBENE
 62
     7
100
AcDbVertex
100
AcDb2dVertex
 10
-175.80078125
 20
8.560546875
 30
0.0
  0
VERTEX
  5
57F
330
578
100
AcDbEntity
  8
STANDARDEBENE
 62
     7
100
AcDbVertex
100
AcDb2dVertex
 10
-175.80078125
 20
-1.95703125
 30
0.0
  0
SEQEND
  5
580
330
578
100
AcDbEntity
  8
STANDARDEBENE
  0
POLYLINE
  5
581
330
1F
100
AcDbEntity
  8
STANDARDEBENE
 62
     7
100
AcDb2dPolyline
 66
     1
 10
0.0
 20
0.0
 30
0.0
  0
VERTEX
  5
582
330
581
100
AcDbEntity
  8
STANDARDEBENE
 62
     7
100
AcDbVertex
100
AcDb2dVertex
 10
-175.80078125
 20
45.861328125
 30
0.0
  0
VERTEX
  5
583
330
581
100
AcDbEntity
  8
STANDARDEBENE
 62
     7
100
AcDbVertex
100
AcDb2dVertex
 10
-176.9130859375
 20
45.861328125
 30
0.0
  0
VERTEX
  5
584
330
581
100
AcDbEntity
  8
STANDARDEBENE
 62
     7
100
AcDbVertex
100
AcDb2dVertex
 10
-176.9130859375
 20
37.65625
 30
0.0
  0
VERTEX
  5
585
330
581
100
AcDbEntity
  8
STANDARDEBENE
 62
     7
100
AcDbVertex
100
AcDb2dVertex
 10
-176.9130859375
 20
28.572265625
 30
0.0
  0
VERTEX
  5
586
330
581
100
AcDbEntity
  8
STANDARDEBENE
 62
     7
100
AcDbVertex
100
AcDb2dVertex
 10
-176.9130859375
 20
18.8046875
 30
0.0
  0
VERTEX
  5
587
330
581
100
AcDbEntity
  8
STANDARDEBENE
 62
     7
100
AcDbVertex
100
AcDb2dVertex
 10
-176.9130859375
 20
8.560546875
 30
0.0
  0
VERTEX
  5
588
330
581
100
AcDbEntity
  8
STANDARDEBENE
 62
     7
100
AcDbVertex
100
AcDb2dVertex
 10
-176.9130859375
 20
-1.95703125
 30
0.0
  0
SEQEND
  5
589
330
581
100
AcDbEntity
  8
STANDARDEBENE
  0
POLYLINE
  5
58A
330
1F
100
AcDbEntity
  8
STANDARDEBENE
 62
     7
100
AcDb2dPolyline
 66
     1
 10
0.0
 20
0.0
 30
0.0
  0
VERTEX
  5
58B
330
58A
100
AcDbEntity
  8
STANDARDEBENE
 62
     7
100
AcDbVertex
100
AcDb2dVertex
 10
-202.4453125
 20
-1.95703125
 30
0.0
  0
VERTEX
  5
58C
330
58A
100
AcDbEntity
  8
STANDARDEBENE
 62
     7
100
AcDbVertex
100
AcDb2dVertex
 10
-198.7451171875
 20
-1.95703125
 30
0.0
  0
VERTEX
  5
58D
330
58A
100
AcDbEntity
  8
STANDARDEBENE
 62
     7
100
AcDbVertex
100
AcDb2dVertex
 10
-195.8349609375
 20
-1.95703125
 30
0.0
  0
VERTEX
  5
58E
330
58A
100
AcDbEntity
  8
STANDARDEBENE
 62
     7
100
AcDbVertex
100
AcDb2dVertex
 10
-194.763671875
 20
0.068359375
 30
0.0
  0
VERTEX
  5
58F
330
58A
100
AcDbEntity
  8
STANDARDEBENE
 62
     7
100
AcDbVertex
100
AcDb2dVertex
 10
-193.1708984375
 20
1.591796875
 30
0.0
  0
VERTEX
  5
590
330
58A
100
AcDbEntity
  8
STANDARDEBENE
 62
     7
100
AcDbVertex
100
AcDb2dVertex
 10
-191.1328125
 20
2.5703125
 30
0.0
  0
VERTEX
  5
591
330
58A
100
AcDbEntity
  8
STANDARDEBENE
 62
     7
100
AcDbVertex
100
AcDb2dVertex
 10
-188.71484375
 20
2.849609375
 30
0.0
  0
VERTEX
  5
592
330
58A
100
AcDbEntity
  8
STANDARDEBENE
 62
     7
100
AcDbVertex
100
AcDb2dVertex
 10
-186.1328125
 20
2.19921875
 30
0.0
  0
VERTEX
  5
593
330
58A
100
AcDbEntity
  8
STANDARDEBENE
 62
     7
100
AcDbVertex
100
AcDb2dVertex
 10
-183.8515625
 20
0.513671875
 30
0.0
  0
VERTEX
  5
594
330
58A
100
AcDbEntity
  8
STANDARDEBENE
 62
     7
100
AcDbVertex
100
AcDb2dVertex
 10
-182.6474609375
 20
-1.341796875
 30
0.0
  0
VERTEX
  5
595
330
58A
100
AcDbEntity
  8
STANDARDEBENE
 62
     7
100
AcDbVertex
100
AcDb2dVertex
 10
-182.4072265625
 20
-1.95703125
 30
0.0
  0
SEQEND
  5
596
330
58A
100
AcDbEntity
  8
STANDARDEBENE
  0
POLYLINE
  5
597
330
1F
100
AcDbEntity
  8
STANDARDEBENE
 62
     7
100
AcDb2dPolyline
 66
     1
 10
0.0
 20
0.0
 30
0.0
  0
VERTEX
  5
598
330
597
100
AcDbEntity
  8
STANDARDEBENE
 62
     7
100
AcDbVertex
100
AcDb2dVertex
 10
-176.9130859375
 20
45.861328125
 30
0.0
  0
VERTEX
  5
599
330
597
100
AcDbEntity
  8
STANDARDEBENE
 62
     7
100
AcDbVertex
100
AcDb2dVertex
 10
-183.7529296875
 20
43.068359375
 30
0.0
  0
VERTEX
  5
59A
330
597
100
AcDbEntity
  8
STANDARDEBENE
 62
     7
100
AcDbVertex
100
AcDb2dVertex
 10
-189.12890625
 20
40.87109375
 30
0.0
  0
SEQEND
  5
59B
330
597
100
AcDbEntity
  8
STANDARDEBENE
  0
POLYLINE
  5
59C
330
1F
100
AcDbEntity
  8
STANDARDEBENE
 62
     7
100
AcDb2dPolyline
 66
     1
 10
0.0
 20
0.0
 30
0.0
  0
VERTEX
  5
59D
330
59C
100
AcDbEntity
  8
STANDARDEBENE
 62
     7
100
AcDbVertex
100
AcDb2dVertex
 10
-189.12890625
 20
44.078125
 30
0.0
  0
VERTEX
  5
59E
330
59C
100
AcDbEntity
  8
STANDARDEBENE
 62
     7
100
AcDbVertex
100
AcDb2dVertex
 10
-189.12890625
 20
40.87109375
 30
0.0
  0
SEQEND
  5
59F
330
59C
100
AcDbEntity
  8
STANDARDEBENE
  0
POLYLINE
  5
5A0
330
1F
100
AcDbEntity
  8
STANDARDEBENE
 62
     7
100
AcDb2dPolyline
 66
     1
 10
0.0
 20
0.0
 30
0.0
  0
VERTEX
  5
5A1
330
5A0
100
AcDbEntity
  8
STANDARDEBENE
 62
     7
100
AcDbVertex
100
AcDb2dVertex
 10
-176.9130859375
 20
49.068359375
 30
0.0
  0
VERTEX
  5
5A2
330
5A0
100
AcDbEntity
  8
STANDARDEBENE
 62
     7
100
AcDbVertex
100
AcDb2dVertex
 10
-183.7529296875
 20
46.2734375
 30
0.0
  0
VERTEX
  5
5A3
330
5A0
100
AcDbEntity
  8
STANDARDEBENE
 62
     7
100
AcDbVertex
100
AcDb2dVertex
 10
-189.12890625
 20
44.078125
 30
0.0
  0
SEQEND
  5
5A4
330
5A0
100
AcDbEntity
  8
STANDARDEBENE
  0
POLYLINE
  5
5A5
330
1F
100
AcDbEntity
  8
STANDARDEBENE
 62
     7
100
AcDb2dPolyline
 66
     1
 10
0.0
 20
0.0
 30
0.0
  0
VERTEX
  5
5A6
330
5A5
100
AcDbEntity
  8
STANDARDEBENE
 62
     7
100
AcDbVertex
100
AcDb2dVertex
 10
-182.4072265625
 20
65.69921875
 30
0.0
  0
VERTEX
  5
5A7
330
5A5
100
AcDbEntity
  8
STANDARDEBENE
 62
     7
100
AcDbVertex
100
AcDb2dVertex
 10
-183.4853515625
 20
64.984375
 30
0.0
  0
VERTEX
  5
5A8
330
5A5
100
AcDbEntity
  8
STANDARDEBENE
 62
     7
100
AcDbVertex
100
AcDb2dVertex
 10
-185.04296875
 20
63.96875
 30
0.0
  0
VERTEX
  5
5A9
330
5A5
100
AcDbEntity
  8
STANDARDEBENE
 62
     7
100
AcDbVertex
100
AcDb2dVertex
 10
-187.1728515625
 20
62.638671875
 30
0.0
  0
VERTEX
  5
5AA
330
5A5
100
AcDbEntity
  8
STANDARDEBENE
 62
     7
100
AcDbVertex
100
AcDb2dVertex
 10
-189.8173828125
 20
61.080078125
 30
0.0
  0
VERTEX
  5
5AB
330
5A5
100
AcDbEntity
  8
STANDARDEBENE
 62
     7
100
AcDbVertex
100
AcDb2dVertex
 10
-192.513671875
 20
59.599609375
 30
0.0
  0
VERTEX
  5
5AC
330
5A5
100
AcDbEntity
  8
STANDARDEBENE
 62
     7
100
AcDbVertex
100
AcDb2dVertex
 10
-194.62890625
 20
58.521484375
 30
0.0
  0
VERTEX
  5
5AD
330
5A5
100
AcDbEntity
  8
STANDARDEBENE
 62
     7
100
AcDbVertex
100
AcDb2dVertex
 10
-195.8349609375
 20
57.9453125
 30
0.0
  0
VERTEX
  5
5AE
330
5A5
100
AcDbEntity
  8
STANDARDEBENE
 62
     7
100
AcDbVertex
100
AcDb2dVertex
 10
-199.537109375
 20
55.8046875
 30
0.0
  0
VERTEX
  5
5AF
330
5A5
100
AcDbEntity
  8
STANDARDEBENE
 62
     7
100
AcDbVertex
100
AcDb2dVertex
 10
-202.4453125
 20
54.126953125
 30
0.0
  0
SEQEND
  5
5B0
330
5A5
100
AcDbEntity
  8
STANDARDEBENE
  0
POLYLINE
  5
5B1
330
1F
100
AcDbEntity
  8
STANDARDEBENE
 62
     7
100
AcDb2dPolyline
 66
     1
 10
0.0
 20
0.0
 30
0.0
  0
VERTEX
  5
5B2
330
5B1
100
AcDbEntity
  8
STANDARDEBENE
 62
     7
100
AcDbVertex
100
AcDb2dVertex
 10
-203.296875
 20
52.650390625
 30
0.0
  0
VERTEX
  5
5B3
330
5B1
100
AcDbEntity
  8
STANDARDEBENE
 62
     7
100
AcDbVertex
100
AcDb2dVertex
 10
-203.201171875
 20
53.21484375
 30
0.0
  0
VERTEX
  5
5B4
330
5B1
100
AcDbEntity
  8
STANDARDEBENE
 62
     7
100
AcDbVertex
100
AcDb2dVertex
 10
-202.9208984375
 20
53.71484375
 30
0.0
  0
VERTEX
  5
5B5
330
5B1
100
AcDbEntity
  8
STANDARDEBENE
 62
     7
100
AcDbVertex
100
AcDb2dVertex
 10
-202.4453125
 20
54.126953125
 30
0.0
  0
SEQEND
  5
5B6
330
5B1
100
AcDbEntity
  8
STANDARDEBENE
  0
POLYLINE
  5
5B7
330
1F
100
AcDbEntity
  8
STANDARDEBENE
 62
     7
100
AcDb2dPolyline
 66
     1
 10
0.0
 20
0.0
 30
0.0
  0
VERTEX
  5
5B8
330
5B7
100
AcDbEntity
  8
STANDARDEBENE
 62
     7
100
AcDbVertex
100
AcDb2dVertex
 10
-202.4453125
 20
-1.95703125
 30
0.0
  0
VERTEX
  5
5B9
330
5B7
100
AcDbEntity
  8
STANDARDEBENE
 62
     7
100
AcDbVertex
100
AcDb2dVertex
 10
-202.8828125
 20
-1.95703125
 30
0.0
  0
VERTEX
  5
5BA
330
5B7
100
AcDbEntity
  8
STANDARDEBENE
 62
     7
100
AcDbVertex
100
AcDb2dVertex
 10
-203.177734375
 20
-1.95703125
 30
0.0
  0
VERTEX
  5
5BB
330
5B7
100
AcDbEntity
  8
STANDARDEBENE
 62
     7
100
AcDbVertex
100
AcDb2dVertex
 10
-203.296875
 20
-1.95703125
 30
0.0
  0
SEQEND
  5
5BC
330
5B7
100
AcDbEntity
  8
STANDARDEBENE
  0
POLYLINE
  5
5BE
330
1F
100
AcDbEntity
  8
BEMAßUNG
 62
     7
100
AcDb2dPolyline
 66
     1
 10
0.0
 20
0.0
 30
0.0
  0
VERTEX
  5
5BF
330
5BE
100
AcDbEntity
  8
BEMAßUNG
 62
     7
100
AcDbVertex
100
AcDb2dVertex
 10
-182.4072265625
 20
-21.080078125
 30
0.0
  0
VERTEX
  5
5C0
330
5BE
100
AcDbEntity
  8
BEMAßUNG
 62
     7
100
AcDbVertex
100
AcDb2dVertex
 10
-273.1865234375
 20
-21.080078125
 30
0.0
  0
SEQEND
  5
5C1
330
5BE
100
AcDbEntity
  8
BEMAßUNG
  0
POLYLINE
  5
5C2
330
1F
100
AcDbEntity
  8
BEMAßUNG
 62
     7
100
AcDb2dPolyline
 66
     1
 10
0.0
 20
0.0
 30
0.0
  0
VERTEX
  5
5C3
330
5C2
100
AcDbEntity
  8
BEMAßUNG
 62
     7
100
AcDbVertex
100
AcDb2dVertex
 10
-182.4072265625
 20
12.630859375
 30
0.0
  0
VERTEX
  5
5C4
330
5C2
100
AcDbEntity
  8
BEMAßUNG
 62
     7
100
AcDbVertex
100
AcDb2dVertex
 10
-273.1865234375
 20
12.630859375
 30
0.0
  0
SEQEND
  5
5C5
330
5C2
100
AcDbEntity
  8
BEMAßUNG
  0
POLYLINE
  5
5C6
330
1F
100
AcDbEntity
  8
BEMAßUNG
 62
     7
100
AcDb2dPolyline
 66
     1
 10
0.0
 20
0.0
 30
0.0
  0
VERTEX
  5
5C7
330
5C6
100
AcDbEntity
  8
BEMAßUNG
 62
     7
100
AcDbVertex
100
AcDb2dVertex
 10
-261.8486328125
 20
51.384765625
 30
0.0
  0
VERTEX
  5
5C8
330
5C6
100
AcDbEntity
  8
BEMAßUNG
 62
     7
100
AcDbVertex
100
AcDb2dVertex
 10
-261.8486328125
 20
-70.6875
 30
0.0
  0
SEQEND
  5
5C9
330
5C6
100
AcDbEntity
  8
BEMAßUNG
  0
POLYLINE
  5
5CA
330
1F
100
AcDbEntity
  8
BEMAßUNG
 62
     7
100
AcDb2dPolyline
 66
     1
 10
0.0
 20
0.0
 30
0.0
  0
VERTEX
  5
5CB
330
5CA
100
AcDbEntity
  8
BEMAßUNG
 62
     7
100
AcDbVertex
100
AcDb2dVertex
 10
-261.8486328125
 20
-21.080078125
 30
0.0
  0
VERTEX
  5
5CC
330
5CA
100
AcDbEntity
  8
BEMAßUNG
 62
     7
100
AcDbVertex
100
AcDb2dVertex
 10
-264.4599609375
 20
-40.921875
 30
0.0
  0
VERTEX
  5
5CD
330
5CA
100
AcDbEntity
  8
BEMAßUNG
 62
     7
100
AcDbVertex
100
AcDb2dVertex
 10
-259.234375
 20
-40.921875
 30
0.0
  0
VERTEX
  5
5CE
330
5CA
100
AcDbEntity
  8
BEMAßUNG
 62
     7
100
AcDbVertex
100
AcDb2dVertex
 10
-261.8486328125
 20
-21.080078125
 30
0.0
  0
SEQEND
  5
5CF
330
5CA
100
AcDbEntity
  8
BEMAßUNG
  0
POLYLINE
  5
5D0
330
1F
100
AcDbEntity
  8
BEMAßUNG
 62
     7
100
AcDb2dPolyline
 66
     1
 10
0.0
 20
0.0
 30
0.0
  0
VERTEX
  5
5D1
330
5D0
100
AcDbEntity
  8
BEMAßUNG
 62
     7
100
AcDbVertex
100
AcDb2dVertex
 10
-264.4404296875
 20
-40.921875
 30
0.0
  0
VERTEX
  5
5D2
330
5D0
100
AcDbEntity
  8
BEMAßUNG
 62
     7
100
AcDbVertex
100
AcDb2dVertex
 10
-264.4404296875
 20
-40.767578125
 30
0.0
  0
SEQEND
  5
5D3
330
5D0
100
AcDbEntity
  8
BEMAßUNG
  0
POLYLINE
  5
5D4
330
1F
100
AcDbEntity
  8
BEMAßUNG
 62
     7
100
AcDb2dPolyline
 66
     1
 10
0.0
 20
0.0
 30
0.0
  0
VERTEX
  5
5D5
330
5D4
100
AcDbEntity
  8
BEMAßUNG
 62
     7
100
AcDbVertex
100
AcDb2dVertex
 10
-264.4404296875
 20
-40.921875
 30
0.0
  0
VERTEX
  5
5D6
330
5D4
100
AcDbEntity
  8
BEMAßUNG
 62
     7
100
AcDbVertex
100
AcDb2dVertex
 10
-264.4404296875
 20
-40.767578125
 30
0.0
  0
SEQEND
  5
5D7
330
5D4
100
AcDbEntity
  8
BEMAßUNG
  0
POLYLINE
  5
5D8
330
1F
100
AcDbEntity
  8
BEMAßUNG
 62
     7
100
AcDb2dPolyline
 66
     1
 10
0.0
 20
0.0
 30
0.0
  0
VERTEX
  5
5D9
330
5D8
100
AcDbEntity
  8
BEMAßUNG
 62
     7
100
AcDbVertex
100
AcDb2dVertex
 10
-264.15234375
 20
-40.921875
 30
0.0
  0
VERTEX
  5
5DA
330
5D8
100
AcDbEntity
  8
BEMAßUNG
 62
     7
100
AcDbVertex
100
AcDb2dVertex
 10
-264.15234375
 20
-38.580078125
 30
0.0
  0
SEQEND
  5
5DB
330
5D8
100
AcDbEntity
  8
BEMAßUNG
  0
POLYLINE
  5
5DC
330
1F
100
AcDbEntity
  8
BEMAßUNG
 62
     7
100
AcDb2dPolyline
 66
     1
 10
0.0
 20
0.0
 30
0.0
  0
VERTEX
  5
5DD
330
5DC
100
AcDbEntity
  8
BEMAßUNG
 62
     7
100
AcDbVertex
100
AcDb2dVertex
 10
-263.8623046875
 20
-40.921875
 30
0.0
  0
VERTEX
  5
5DE
330
5DC
100
AcDbEntity
  8
BEMAßUNG
 62
     7
100
AcDbVertex
100
AcDb2dVertex
 10
-263.8623046875
 20
-36.390625
 30
0.0
  0
SEQEND
  5
5DF
330
5DC
100
AcDbEntity
  8
BEMAßUNG
  0
POLYLINE
  5
5E0
330
1F
100
AcDbEntity
  8
BEMAßUNG
 62
     7
100
AcDb2dPolyline
 66
     1
 10
0.0
 20
0.0
 30
0.0
  0
VERTEX
  5
5E1
330
5E0
100
AcDbEntity
  8
BEMAßUNG
 62
     7
100
AcDbVertex
100
AcDb2dVertex
 10
-263.57421875
 20
-40.921875
 30
0.0
  0
VERTEX
  5
5E2
330
5E0
100
AcDbEntity
  8
BEMAßUNG
 62
     7
100
AcDbVertex
100
AcDb2dVertex
 10
-263.57421875
 20
-34.20703125
 30
0.0
  0
SEQEND
  5
5E3
330
5E0
100
AcDbEntity
  8
BEMAßUNG
  0
POLYLINE
  5
5E4
330
1F
100
AcDbEntity
  8
BEMAßUNG
 62
     7
100
AcDb2dPolyline
 66
     1
 10
0.0
 20
0.0
 30
0.0
  0
VERTEX
  5
5E5
330
5E4
100
AcDbEntity
  8
BEMAßUNG
 62
     7
100
AcDbVertex
100
AcDb2dVertex
 10
-263.2861328125
 20
-40.921875
 30
0.0
  0
VERTEX
  5
5E6
330
5E4
100
AcDbEntity
  8
BEMAßUNG
 62
     7
100
AcDbVertex
100
AcDb2dVertex
 10
-263.2861328125
 20
-32.017578125
 30
0.0
  0
SEQEND
  5
5E7
330
5E4
100
AcDbEntity
  8
BEMAßUNG
  0
POLYLINE
  5
5E8
330
1F
100
AcDbEntity
  8
BEMAßUNG
 62
     7
100
AcDb2dPolyline
 66
     1
 10
0.0
 20
0.0
 30
0.0
  0
VERTEX
  5
5E9
330
5E8
100
AcDbEntity
  8
BEMAßUNG
 62
     7
100
AcDbVertex
100
AcDb2dVertex
 10
-262.998046875
 20
-40.921875
 30
0.0
  0
VERTEX
  5
5EA
330
5E8
100
AcDbEntity
  8
BEMAßUNG
 62
     7
100
AcDbVertex
100
AcDb2dVertex
 10
-262.998046875
 20
-29.830078125
 30
0.0
  0
SEQEND
  5
5EB
330
5E8
100
AcDbEntity
  8
BEMAßUNG
  0
POLYLINE
  5
5EC
330
1F
100
AcDbEntity
  8
BEMAßUNG
 62
     7
100
AcDb2dPolyline
 66
     1
 10
0.0
 20
0.0
 30
0.0
  0
VERTEX
  5
5ED
330
5EC
100
AcDbEntity
  8
BEMAßUNG
 62
     7
100
AcDbVertex
100
AcDb2dVertex
 10
-262.7099609375
 20
-40.921875
 30
0.0
  0
VERTEX
  5
5EE
330
5EC
100
AcDbEntity
  8
BEMAßUNG
 62
     7
100
AcDbVertex
100
AcDb2dVertex
 10
-262.7099609375
 20
-27.640625
 30
0.0
  0
SEQEND
  5
5EF
330
5EC
100
AcDbEntity
  8
BEMAßUNG
  0
POLYLINE
  5
5F0
330
1F
100
AcDbEntity
  8
BEMAßUNG
 62
     7
100
AcDb2dPolyline
 66
     1
 10
0.0
 20
0.0
 30
0.0
  0
VERTEX
  5
5F1
330
5F0
100
AcDbEntity
  8
BEMAßUNG
 62
     7
100
AcDbVertex
100
AcDb2dVertex
 10
-262.421875
 20
-40.921875
 30
0.0
  0
VERTEX
  5
5F2
330
5F0
100
AcDbEntity
  8
BEMAßUNG
 62
     7
100
AcDbVertex
100
AcDb2dVertex
 10
-262.421875
 20
-25.455078125
 30
0.0
  0
SEQEND
  5
5F3
330
5F0
100
AcDbEntity
  8
BEMAßUNG
  0
POLYLINE
  5
5F4
330
1F
100
AcDbEntity
  8
BEMAßUNG
 62
     7
100
AcDb2dPolyline
 66
     1
 10
0.0
 20
0.0
 30
0.0
  0
VERTEX
  5
5F5
330
5F4
100
AcDbEntity
  8
BEMAßUNG
 62
     7
100
AcDbVertex
100
AcDb2dVertex
 10
-262.13671875
 20
-40.921875
 30
0.0
  0
VERTEX
  5
5F6
330
5F4
100
AcDbEntity
  8
BEMAßUNG
 62
     7
100
AcDbVertex
100
AcDb2dVertex
 10
-262.13671875
 20
-23.267578125
 30
0.0
  0
SEQEND
  5
5F7
330
5F4
100
AcDbEntity
  8
BEMAßUNG
  0
POLYLINE
  5
5F8
330
1F
100
AcDbEntity
  8
BEMAßUNG
 62
     7
100
AcDb2dPolyline
 66
     1
 10
0.0
 20
0.0
 30
0.0
  0
VERTEX
  5
5F9
330
5F8
100
AcDbEntity
  8
BEMAßUNG
 62
     7
100
AcDbVertex
100
AcDb2dVertex
 10
-261.8486328125
 20
-40.921875
 30
0.0
  0
VERTEX
  5
5FA
330
5F8
100
AcDbEntity
  8
BEMAßUNG
 62
     7
100
AcDbVertex
100
AcDb2dVertex
 10
-261.8486328125
 20
-21.080078125
 30
0.0
  0
SEQEND
  5
5FB
330
5F8
100
AcDbEntity
  8
BEMAßUNG
  0
POLYLINE
  5
5FC
330
1F
100
AcDbEntity
  8
BEMAßUNG
 62
     7
100
AcDb2dPolyline
 66
     1
 10
0.0
 20
0.0
 30
0.0
  0
VERTEX
  5
5FD
330
5FC
100
AcDbEntity
  8
BEMAßUNG
 62
     7
100
AcDbVertex
100
AcDb2dVertex
 10
-259.255859375
 20
-40.921875
 30
0.0
  0
VERTEX
  5
5FE
330
5FC
100
AcDbEntity
  8
BEMAßUNG
 62
     7
100
AcDbVertex
100
AcDb2dVertex
 10
-259.255859375
 20
-40.767578125
 30
0.0
  0
SEQEND
  5
5FF
330
5FC
100
AcDbEntity
  8
BEMAßUNG
  0
POLYLINE
  5
600
330
1F
100
AcDbEntity
  8
BEMAßUNG
 62
     7
100
AcDb2dPolyline
 66
     1
 10
0.0
 20
0.0
 30
0.0
  0
VERTEX
  5
601
330
600
100
AcDbEntity
  8
BEMAßUNG
 62
     7
100
AcDbVertex
100
AcDb2dVertex
 10
-259.255859375
 20
-40.921875
 30
0.0
  0
VERTEX
  5
602
330
600
100
AcDbEntity
  8
BEMAßUNG
 62
     7
100
AcDbVertex
100
AcDb2dVertex
 10
-259.255859375
 20
-40.767578125
 30
0.0
  0
SEQEND
  5
603
330
600
100
AcDbEntity
  8
BEMAßUNG
  0
POLYLINE
  5
604
330
1F
100
AcDbEntity
  8
BEMAßUNG
 62
     7
100
AcDb2dPolyline
 66
     1
 10
0.0
 20
0.0
 30
0.0
  0
VERTEX
  5
605
330
604
100
AcDbEntity
  8
BEMAßUNG
 62
     7
100
AcDbVertex
100
AcDb2dVertex
 10
-259.5419921875
 20
-40.921875
 30
0.0
  0
VERTEX
  5
606
330
604
100
AcDbEntity
  8
BEMAßUNG
 62
     7
100
AcDbVertex
100
AcDb2dVertex
 10
-259.5419921875
 20
-38.580078125
 30
0.0
  0
SEQEND
  5
607
330
604
100
AcDbEntity
  8
BEMAßUNG
  0
POLYLINE
  5
608
330
1F
100
AcDbEntity
  8
BEMAßUNG
 62
     7
100
AcDb2dPolyline
 66
     1
 10
0.0
 20
0.0
 30
0.0
  0
VERTEX
  5
609
330
608
100
AcDbEntity
  8
BEMAßUNG
 62
     7
100
AcDbVertex
100
AcDb2dVertex
 10
-259.830078125
 20
-40.921875
 30
0.0
  0
VERTEX
  5
60A
330
608
100
AcDbEntity
  8
BEMAßUNG
 62
     7
100
AcDbVertex
100
AcDb2dVertex
 10
-259.830078125
 20
-36.390625
 30
0.0
  0
SEQEND
  5
60B
330
608
100
AcDbEntity
  8
BEMAßUNG
  0
POLYLINE
  5
60C
330
1F
100
AcDbEntity
  8
BEMAßUNG
 62
     7
100
AcDb2dPolyline
 66
     1
 10
0.0
 20
0.0
 30
0.0
  0
VERTEX
  5
60D
330
60C
100
AcDbEntity
  8
BEMAßUNG
 62
     7
100
AcDbVertex
100
AcDb2dVertex
 10
-260.1181640625
 20
-40.921875
 30
0.0
  0
VERTEX
  5
60E
330
60C
100
AcDbEntity
  8
BEMAßUNG
 62
     7
100
AcDbVertex
100
AcDb2dVertex
 10
-260.1181640625
 20
-34.20703125
 30
0.0
  0
SEQEND
  5
60F
330
60C
100
AcDbEntity
  8
BEMAßUNG
  0
POLYLINE
  5
610
330
1F
100
AcDbEntity
  8
BEMAßUNG
 62
     7
100
AcDb2dPolyline
 66
     1
 10
0.0
 20
0.0
 30
0.0
  0
VERTEX
  5
611
330
610
100
AcDbEntity
  8
BEMAßUNG
 62
     7
100
AcDbVertex
100
AcDb2dVertex
 10
-260.40625
 20
-40.921875
 30
0.0
  0
VERTEX
  5
612
330
610
100
AcDbEntity
  8
BEMAßUNG
 62
     7
100
AcDbVertex
100
AcDb2dVertex
 10
-260.40625
 20
-32.017578125
 30
0.0
  0
SEQEND
  5
613
330
610
100
AcDbEntity
  8
BEMAßUNG
  0
POLYLINE
  5
614
330
1F
100
AcDbEntity
  8
BEMAßUNG
 62
     7
100
AcDb2dPolyline
 66
     1
 10
0.0
 20
0.0
 30
0.0
  0
VERTEX
  5
615
330
614
100
AcDbEntity
  8
BEMAßUNG
 62
     7
100
AcDbVertex
100
AcDb2dVertex
 10
-260.6943359375
 20
-40.921875
 30
0.0
  0
VERTEX
  5
616
330
614
100
AcDbEntity
  8
BEMAßUNG
 62
     7
100
AcDbVertex
100
AcDb2dVertex
 10
-260.6943359375
 20
-29.830078125
 30
0.0
  0
SEQEND
  5
617
330
614
100
AcDbEntity
  8
BEMAßUNG
  0
POLYLINE
  5
618
330
1F
100
AcDbEntity
  8
BEMAßUNG
 62
     7
100
AcDb2dPolyline
 66
     1
 10
0.0
 20
0.0
 30
0.0
  0
VERTEX
  5
619
330
618
100
AcDbEntity
  8
BEMAßUNG
 62
     7
100
AcDbVertex
100
AcDb2dVertex
 10
-260.984375
 20
-40.921875
 30
0.0
  0
VERTEX
  5
61A
330
618
100
AcDbEntity
  8
BEMAßUNG
 62
     7
100
AcDbVertex
100
AcDb2dVertex
 10
-260.984375
 20
-27.640625
 30
0.0
  0
SEQEND
  5
61B
330
618
100
AcDbEntity
  8
BEMAßUNG
  0
POLYLINE
  5
61C
330
1F
100
AcDbEntity
  8
BEMAßUNG
 62
     7
100
AcDb2dPolyline
 66
     1
 10
0.0
 20
0.0
 30
0.0
  0
VERTEX
  5
61D
330
61C
100
AcDbEntity
  8
BEMAßUNG
 62
     7
100
AcDbVertex
100
AcDb2dVertex
 10
-261.2724609375
 20
-40.921875
 30
0.0
  0
VERTEX
  5
61E
330
61C
100
AcDbEntity
  8
BEMAßUNG
 62
     7
100
AcDbVertex
100
AcDb2dVertex
 10
-261.2724609375
 20
-25.455078125
 30
0.0
  0
SEQEND
  5
61F
330
61C
100
AcDbEntity
  8
BEMAßUNG
  0
POLYLINE
  5
620
330
1F
100
AcDbEntity
  8
BEMAßUNG
 62
     7
100
AcDb2dPolyline
 66
     1
 10
0.0
 20
0.0
 30
0.0
  0
VERTEX
  5
621
330
620
100
AcDbEntity
  8
BEMAßUNG
 62
     7
100
AcDbVertex
100
AcDb2dVertex
 10
-261.560546875
 20
-40.921875
 30
0.0
  0
VERTEX
  5
622
330
620
100
AcDbEntity
  8
BEMAßUNG
 62
     7
100
AcDbVertex
100
AcDb2dVertex
 10
-261.560546875
 20
-23.267578125
 30
0.0
  0
SEQEND
  5
623
330
620
100
AcDbEntity
  8
BEMAßUNG
  0
POLYLINE
  5
624
330
1F
100
AcDbEntity
  8
BEMAßUNG
 62
     7
100
AcDb2dPolyline
 66
     1
 10
0.0
 20
0.0
 30
0.0
  0
VERTEX
  5
625
330
624
100
AcDbEntity
  8
BEMAßUNG
 62
     7
100
AcDbVertex
100
AcDb2dVertex
 10
-261.8486328125
 20
-40.921875
 30
0.0
  0
VERTEX
  5
626
330
624
100
AcDbEntity
  8
BEMAßUNG
 62
     7
100
AcDbVertex
100
AcDb2dVertex
 10
-261.8486328125
 20
-21.080078125
 30
0.0
  0
SEQEND
  5
627
330
624
100
AcDbEntity
  8
BEMAßUNG
  0
POLYLINE
  5
628
330
1F
100
AcDbEntity
  8
BEMAßUNG
 62
     7
100
AcDb2dPolyline
 66
     1
 10
0.0
 20
0.0
 30
0.0
  0
VERTEX
  5
629
330
628
100
AcDbEntity
  8
BEMAßUNG
 62
     7
100
AcDbVertex
100
AcDb2dVertex
 10
-261.8486328125
 20
12.630859375
 30
0.0
  0
VERTEX
  5
62A
330
628
100
AcDbEntity
  8
BEMAßUNG
 62
     7
100
AcDbVertex
100
AcDb2dVertex
 10
-259.234375
 20
32.474609375
 30
0.0
  0
VERTEX
  5
62B
330
628
100
AcDbEntity
  8
BEMAßUNG
 62
     7
100
AcDbVertex
100
AcDb2dVertex
 10
-264.4599609375
 20
32.474609375
 30
0.0
  0
VERTEX
  5
62C
330
628
100
AcDbEntity
  8
BEMAßUNG
 62
     7
100
AcDbVertex
100
AcDb2dVertex
 10
-261.8486328125
 20
12.630859375
 30
0.0
  0
SEQEND
  5
62D
330
628
100
AcDbEntity
  8
BEMAßUNG
  0
POLYLINE
  5
62E
330
1F
100
AcDbEntity
  8
BEMAßUNG
 62
     7
100
AcDb2dPolyline
 66
     1
 10
0.0
 20
0.0
 30
0.0
  0
VERTEX
  5
62F
330
62E
100
AcDbEntity
  8
BEMAßUNG
 62
     7
100
AcDbVertex
100
AcDb2dVertex
 10
-259.255859375
 20
32.474609375
 30
0.0
  0
VERTEX
  5
630
330
62E
100
AcDbEntity
  8
BEMAßUNG
 62
     7
100
AcDbVertex
100
AcDb2dVertex
 10
-259.255859375
 20
32.3203125
 30
0.0
  0
SEQEND
  5
631
330
62E
100
AcDbEntity
  8
BEMAßUNG
  0
POLYLINE
  5
632
330
1F
100
AcDbEntity
  8
BEMAßUNG
 62
     7
100
AcDb2dPolyline
 66
     1
 10
0.0
 20
0.0
 30
0.0
  0
VERTEX
  5
633
330
632
100
AcDbEntity
  8
BEMAßUNG
 62
     7
100
AcDbVertex
100
AcDb2dVertex
 10
-259.255859375
 20
32.474609375
 30
0.0
  0
VERTEX
  5
634
330
632
100
AcDbEntity
  8
BEMAßUNG
 62
     7
100
AcDbVertex
100
AcDb2dVertex
 10
-259.255859375
 20
32.3203125
 30
0.0
  0
SEQEND
  5
635
330
632
100
AcDbEntity
  8
BEMAßUNG
  0
POLYLINE
  5
636
330
1F
100
AcDbEntity
  8
BEMAßUNG
 62
     7
100
AcDb2dPolyline
 66
     1
 10
0.0
 20
0.0
 30
0.0
  0
VERTEX
  5
637
330
636
100
AcDbEntity
  8
BEMAßUNG
 62
     7
100
AcDbVertex
100
AcDb2dVertex
 10
-259.5419921875
 20
32.474609375
 30
0.0
  0
VERTEX
  5
638
330
636
100
AcDbEntity
  8
BEMAßUNG
 62
     7
100
AcDbVertex
100
AcDb2dVertex
 10
-259.5419921875
 20
30.130859375
 30
0.0
  0
SEQEND
  5
639
330
636
100
AcDbEntity
  8
BEMAßUNG
  0
POLYLINE
  5
63A
330
1F
100
AcDbEntity
  8
BEMAßUNG
 62
     7
100
AcDb2dPolyline
 66
     1
 10
0.0
 20
0.0
 30
0.0
  0
VERTEX
  5
63B
330
63A
100
AcDbEntity
  8
BEMAßUNG
 62
     7
100
AcDbVertex
100
AcDb2dVertex
 10
-259.830078125
 20
32.474609375
 30
0.0
  0
VERTEX
  5
63C
330
63A
100
AcDbEntity
  8
BEMAßUNG
 62
     7
100
AcDbVertex
100
AcDb2dVertex
 10
-259.830078125
 20
27.947265625
 30
0.0
  0
SEQEND
  5
63D
330
63A
100
AcDbEntity
  8
BEMAßUNG
  0
POLYLINE
  5
63E
330
1F
100
AcDbEntity
  8
BEMAßUNG
 62
     7
100
AcDb2dPolyline
 66
     1
 10
0.0
 20
0.0
 30
0.0
  0
VERTEX
  5
63F
330
63E
100
AcDbEntity
  8
BEMAßUNG
 62
     7
100
AcDbVertex
100
AcDb2dVertex
 10
-260.1181640625
 20
32.474609375
 30
0.0
  0
VERTEX
  5
640
330
63E
100
AcDbEntity
  8
BEMAßUNG
 62
     7
100
AcDbVertex
100
AcDb2dVertex
 10
-260.1181640625
 20
25.755859375
 30
0.0
  0
SEQEND
  5
641
330
63E
100
AcDbEntity
  8
BEMAßUNG
  0
POLYLINE
  5
642
330
1F
100
AcDbEntity
  8
BEMAßUNG
 62
     7
100
AcDb2dPolyline
 66
     1
 10
0.0
 20
0.0
 30
0.0
  0
VERTEX
  5
643
330
642
100
AcDbEntity
  8
BEMAßUNG
 62
     7
100
AcDbVertex
100
AcDb2dVertex
 10
-260.40625
 20
32.474609375
 30
0.0
  0
VERTEX
  5
644
330
642
100
AcDbEntity
  8
BEMAßUNG
 62
     7
100
AcDbVertex
100
AcDb2dVertex
 10
-260.40625
 20
23.5703125
 30
0.0
  0
SEQEND
  5
645
330
642
100
AcDbEntity
  8
BEMAßUNG
  0
POLYLINE
  5
646
330
1F
100
AcDbEntity
  8
BEMAßUNG
 62
     7
100
AcDb2dPolyline
 66
     1
 10
0.0
 20
0.0
 30
0.0
  0
VERTEX
  5
647
330
646
100
AcDbEntity
  8
BEMAßUNG
 62
     7
100
AcDbVertex
100
AcDb2dVertex
 10
-260.6943359375
 20
32.474609375
 30
0.0
  0
VERTEX
  5
648
330
646
100
AcDbEntity
  8
BEMAßUNG
 62
     7
100
AcDbVertex
100
AcDb2dVertex
 10
-260.6943359375
 20
21.380859375
 30
0.0
  0
SEQEND
  5
649
330
646
100
AcDbEntity
  8
BEMAßUNG
  0
POLYLINE
  5
64A
330
1F
100
AcDbEntity
  8
BEMAßUNG
 62
     7
100
AcDb2dPolyline
 66
     1
 10
0.0
 20
0.0
 30
0.0
  0
VERTEX
  5
64B
330
64A
100
AcDbEntity
  8
BEMAßUNG
 62
     7
100
AcDbVertex
100
AcDb2dVertex
 10
-260.984375
 20
32.474609375
 30
0.0
  0
VERTEX
  5
64C
330
64A
100
AcDbEntity
  8
BEMAßUNG
 62
     7
100
AcDbVertex
100
AcDb2dVertex
 10
-260.984375
 20
19.197265625
 30
0.0
  0
SEQEND
  5
64D
330
64A
100
AcDbEntity
  8
BEMAßUNG
  0
POLYLINE
  5
64E
330
1F
100
AcDbEntity
  8
BEMAßUNG
 62
     7
100
AcDb2dPolyline
 66
     1
 10
0.0
 20
0.0
 30
0.0
  0
VERTEX
  5
64F
330
64E
100
AcDbEntity
  8
BEMAßUNG
 62
     7
100
AcDbVertex
100
AcDb2dVertex
 10
-261.2724609375
 20
32.474609375
 30
0.0
  0
VERTEX
  5
650
330
64E
100
AcDbEntity
  8
BEMAßUNG
 62
     7
100
AcDbVertex
100
AcDb2dVertex
 10
-261.2724609375
 20
17.005859375
 30
0.0
  0
SEQEND
  5
651
330
64E
100
AcDbEntity
  8
BEMAßUNG
  0
POLYLINE
  5
652
330
1F
100
AcDbEntity
  8
BEMAßUNG
 62
     7
100
AcDb2dPolyline
 66
     1
 10
0.0
 20
0.0
 30
0.0
  0
VERTEX
  5
653
330
652
100
AcDbEntity
  8
BEMAßUNG
 62
     7
100
AcDbVertex
100
AcDb2dVertex
 10
-261.560546875
 20
32.474609375
 30
0.0
  0
VERTEX
  5
654
330
652
100
AcDbEntity
  8
BEMAßUNG
 62
     7
100
AcDbVertex
100
AcDb2dVertex
 10
-261.560546875
 20
14.8203125
 30
0.0
  0
SEQEND
  5
655
330
652
100
AcDbEntity
  8
BEMAßUNG
  0
POLYLINE
  5
656
330
1F
100
AcDbEntity
  8
BEMAßUNG
 62
     7
100
AcDb2dPolyline
 66
     1
 10
0.0
 20
0.0
 30
0.0
  0
VERTEX
  5
657
330
656
100
AcDbEntity
  8
BEMAßUNG
 62
     7
100
AcDbVertex
100
AcDb2dVertex
 10
-261.8486328125
 20
32.474609375
 30
0.0
  0
VERTEX
  5
658
330
656
100
AcDbEntity
  8
BEMAßUNG
 62
     7
100
AcDbVertex
100
AcDb2dVertex
 10
-261.8486328125
 20
12.630859375
 30
0.0
  0
SEQEND
  5
659
330
656
100
AcDbEntity
  8
BEMAßUNG
  0
POLYLINE
  5
65A
330
1F
100
AcDbEntity
  8
BEMAßUNG
 62
     7
100
AcDb2dPolyline
 66
     1
 10
0.0
 20
0.0
 30
0.0
  0
VERTEX
  5
65B
330
65A
100
AcDbEntity
  8
BEMAßUNG
 62
     7
100
AcDbVertex
100
AcDb2dVertex
 10
-264.4404296875
 20
32.474609375
 30
0.0
  0
VERTEX
  5
65C
330
65A
100
AcDbEntity
  8
BEMAßUNG
 62
     7
100
AcDbVertex
100
AcDb2dVertex
 10
-264.4404296875
 20
32.3203125
 30
0.0
  0
SEQEND
  5
65D
330
65A
100
AcDbEntity
  8
BEMAßUNG
  0
POLYLINE
  5
65E
330
1F
100
AcDbEntity
  8
BEMAßUNG
 62
     7
100
AcDb2dPolyline
 66
     1
 10
0.0
 20
0.0
 30
0.0
  0
VERTEX
  5
65F
330
65E
100
AcDbEntity
  8
BEMAßUNG
 62
     7
100
AcDbVertex
100
AcDb2dVertex
 10
-264.4404296875
 20
32.474609375
 30
0.0
  0
VERTEX
  5
660
330
65E
100
AcDbEntity
  8
BEMAßUNG
 62
     7
100
AcDbVertex
100
AcDb2dVertex
 10
-264.4404296875
 20
32.3203125
 30
0.0
  0
SEQEND
  5
661
330
65E
100
AcDbEntity
  8
BEMAßUNG
  0
POLYLINE
  5
662
330
1F
100
AcDbEntity
  8
BEMAßUNG
 62
     7
100
AcDb2dPolyline
 66
     1
 10
0.0
 20
0.0
 30
0.0
  0
VERTEX
  5
663
330
662
100
AcDbEntity
  8
BEMAßUNG
 62
     7
100
AcDbVertex
100
AcDb2dVertex
 10
-264.15234375
 20
32.474609375
 30
0.0
  0
VERTEX
  5
664
330
662
100
AcDbEntity
  8
BEMAßUNG
 62
     7
100
AcDbVertex
100
AcDb2dVertex
 10
-264.15234375
 20
30.130859375
 30
0.0
  0
SEQEND
  5
665
330
662
100
AcDbEntity
  8
BEMAßUNG
  0
POLYLINE
  5
666
330
1F
100
AcDbEntity
  8
BEMAßUNG
 62
     7
100
AcDb2dPolyline
 66
     1
 10
0.0
 20
0.0
 30
0.0
  0
VERTEX
  5
667
330
666
100
AcDbEntity
  8
BEMAßUNG
 62
     7
100
AcDbVertex
100
AcDb2dVertex
 10
-263.8623046875
 20
32.474609375
 30
0.0
  0
VERTEX
  5
668
330
666
100
AcDbEntity
  8
BEMAßUNG
 62
     7
100
AcDbVertex
100
AcDb2dVertex
 10
-263.8623046875
 20
27.947265625
 30
0.0
  0
SEQEND
  5
669
330
666
100
AcDbEntity
  8
BEMAßUNG
  0
POLYLINE
  5
66A
330
1F
100
AcDbEntity
  8
BEMAßUNG
 62
     7
100
AcDb2dPolyline
 66
     1
 10
0.0
 20
0.0
 30
0.0
  0
VERTEX
  5
66B
330
66A
100
AcDbEntity
  8
BEMAßUNG
 62
     7
100
AcDbVertex
100
AcDb2dVertex
 10
-263.57421875
 20
32.474609375
 30
0.0
  0
VERTEX
  5
66C
330
66A
100
AcDbEntity
  8
BEMAßUNG
 62
     7
100
AcDbVertex
100
AcDb2dVertex
 10
-263.57421875
 20
25.755859375
 30
0.0
  0
SEQEND
  5
66D
330
66A
100
AcDbEntity
  8
BEMAßUNG
  0
POLYLINE
  5
66E
330
1F
100
AcDbEntity
  8
BEMAßUNG
 62
     7
100
AcDb2dPolyline
 66
     1
 10
0.0
 20
0.0
 30
0.0
  0
VERTEX
  5
66F
330
66E
100
AcDbEntity
  8
BEMAßUNG
 62
     7
100
AcDbVertex
100
AcDb2dVertex
 10
-263.2861328125
 20
32.474609375
 30
0.0
  0
VERTEX
  5
670
330
66E
100
AcDbEntity
  8
BEMAßUNG
 62
     7
100
AcDbVertex
100
AcDb2dVertex
 10
-263.2861328125
 20
23.5703125
 30
0.0
  0
SEQEND
  5
671
330
66E
100
AcDbEntity
  8
BEMAßUNG
  0
POLYLINE
  5
672
330
1F
100
AcDbEntity
  8
BEMAßUNG
 62
     7
100
AcDb2dPolyline
 66
     1
 10
0.0
 20
0.0
 30
0.0
  0
VERTEX
  5
673
330
672
100
AcDbEntity
  8
BEMAßUNG
 62
     7
100
AcDbVertex
100
AcDb2dVertex
 10
-262.998046875
 20
32.474609375
 30
0.0
  0
VERTEX
  5
674
330
672
100
AcDbEntity
  8
BEMAßUNG
 62
     7
100
AcDbVertex
100
AcDb2dVertex
 10
-262.998046875
 20
21.380859375
 30
0.0
  0
SEQEND
  5
675
330
672
100
AcDbEntity
  8
BEMAßUNG
  0
POLYLINE
  5
676
330
1F
100
AcDbEntity
  8
BEMAßUNG
 62
     7
100
AcDb2dPolyline
 66
     1
 10
0.0
 20
0.0
 30
0.0
  0
VERTEX
  5
677
330
676
100
AcDbEntity
  8
BEMAßUNG
 62
     7
100
AcDbVertex
100
AcDb2dVertex
 10
-262.7099609375
 20
32.474609375
 30
0.0
  0
VERTEX
  5
678
330
676
100
AcDbEntity
  8
BEMAßUNG
 62
     7
100
AcDbVertex
100
AcDb2dVertex
 10
-262.7099609375
 20
19.197265625
 30
0.0
  0
SEQEND
  5
679
330
676
100
AcDbEntity
  8
BEMAßUNG
  0
POLYLINE
  5
67A
330
1F
100
AcDbEntity
  8
BEMAßUNG
 62
     7
100
AcDb2dPolyline
 66
     1
 10
0.0
 20
0.0
 30
0.0
  0
VERTEX
  5
67B
330
67A
100
AcDbEntity
  8
BEMAßUNG
 62
     7
100
AcDbVertex
100
AcDb2dVertex
 10
-262.421875
 20
32.474609375
 30
0.0
  0
VERTEX
  5
67C
330
67A
100
AcDbEntity
  8
BEMAßUNG
 62
     7
100
AcDbVertex
100
AcDb2dVertex
 10
-262.421875
 20
17.005859375
 30
0.0
  0
SEQEND
  5
67D
330
67A
100
AcDbEntity
  8
BEMAßUNG
  0
POLYLINE
  5
67E
330
1F
100
AcDbEntity
  8
BEMAßUNG
 62
     7
100
AcDb2dPolyline
 66
     1
 10
0.0
 20
0.0
 30
0.0
  0
VERTEX
  5
67F
330
67E
100
AcDbEntity
  8
BEMAßUNG
 62
     7
100
AcDbVertex
100
AcDb2dVertex
 10
-262.13671875
 20
32.474609375
 30
0.0
  0
VERTEX
  5
680
330
67E
100
AcDbEntity
  8
BEMAßUNG
 62
     7
100
AcDbVertex
100
AcDb2dVertex
 10
-262.13671875
 20
14.8203125
 30
0.0
  0
SEQEND
  5
681
330
67E
100
AcDbEntity
  8
BEMAßUNG
  0
POLYLINE
  5
682
330
1F
100
AcDbEntity
  8
BEMAßUNG
 62
     7
100
AcDb2dPolyline
 66
     1
 10
0.0
 20
0.0
 30
0.0
  0
VERTEX
  5
683
330
682
100
AcDbEntity
  8
BEMAßUNG
 62
     7
100
AcDbVertex
100
AcDb2dVertex
 10
-261.8486328125
 20
32.474609375
 30
0.0
  0
VERTEX
  5
684
330
682
100
AcDbEntity
  8
BEMAßUNG
 62
     7
100
AcDbVertex
100
AcDb2dVertex
 10
-261.8486328125
 20
12.630859375
 30
0.0
  0
SEQEND
  5
685
330
682
100
AcDbEntity
  8
BEMAßUNG
  0
MTEXT
  5
687
330
1F
100
AcDbEntity
  8
TEXT
 62
     7
100
AcDbMText
 10
-266.201171875
 20
-11.580078125
 30
0.0
 40
17.0
 41
0.0
 71
     7
 72
     1
  1
\fINDEX Univers 45 Light|b0|i0|c0|p34;\W1;D
 11
-4.371139000186241E-8
 21
0.999999999999999
 31
0.0
  0
ENDSEC
  0
SECTION
  2
OBJECTS
  0
DICTIONARY
  5
C
330
0
100
AcDbDictionary
  3
ACAD_GROUP
350
D
  3
ACAD_LAYOUT
350
1A
  3
ACAD_MLINESTYLE
350
17
  3
ACAD_PLOTSETTINGS
350
19
  3
ACAD_TABLESTYLE
350
6A8
  3
ACAD_VISUALSTYLE
350
2A
  3
ACDBHEADERROUNDTRIPXREC
350
688
  0
DICTIONARY
  5
D
102
{ACAD_REACTORS
330
C
102
}
330
C
100
AcDbDictionary
  0
DICTIONARY
  5
1A
102
{ACAD_REACTORS
330
C
102
}
330
C
100
AcDbDictionary
  0
DICTIONARY
  5
17
102
{ACAD_REACTORS
330
C
102
}
330
C
100
AcDbDictionary
  3
STANDARD
350
18
  0
DICTIONARY
  5
19
102
{ACAD_REACTORS
330
C
102
}
330
C
100
AcDbDictionary
  0
DICTIONARY
  5
6A8
102
{ACAD_REACTORS
330
C
102
}
330
C
100
AcDbDictionary
  0
DICTIONARY
  5
2A
102
{ACAD_REACTORS
330
C
102
}
330
C
100
AcDbDictionary
  3
2DWIREFRAME
350
2F
  3
3D_HIDDEN
350
31
  3
3DWIREFRAME
350
30
  3
BASIC
350
32
  3
BRIGHTEN
350
36
  3
COLORCHANGE
350
3A
  3
CONCEPTUAL
350
34
  3
DIM
350
35
  3
FACEPATTERN
350
39
  3
FLAT
350
2B
  3
FLATWITHEDGES
350
2C
  3
GOURAUD
350
2D
  3
GOURAUDWITHEDGES
350
2E
  3
LINEPATTERN
350
38
  3
REALISTIC
350
33
  3
THICKEN
350
37
  0
DICTIONARY
  5
688
102
{ACAD_REACTORS
330
C
102
}
330
C
100
AcDbDictionary
  3
CEPSNTYPE
350
691
  3
DIMSTYLEDATA
350
6A7
  3
FINGERPRINTGUID
350
692
  3
HYPERLINKBASE
350
68B
  3
INSUNITS
350
690
  3
LAYOUTDICT
350
68D
  3
LWETCUNION
350
68F
  3
PLOTSETDICT
350
68E
  3
PSVPSCALE
350
694
  3
PUCSBASE
350
697
  3
PUCSORGBACK
350
69D
  3
PUCSORGBOTTOM
350
699
  3
PUCSORGFRONT
350
69C
  3
PUCSORGLEFT
350
69A
  3
PUCSORGRIGHT
350
69B
  3
PUCSORGTOP
350
698
  3
PUCSORTHOREF
350
695
  3
PUCSORTHOVIEW
350
696
  3
STYLESHEET
350
68C
  3
TSTACKALIGN
350
689
  3
TSTACKSIZE
350
68A
  3
UCSBASE
350
6A0
  3
UCSORGBACK
350
6A6
  3
UCSORGBOTTOM
350
6A2
  3
UCSORGFRONT
350
6A5
  3
UCSORGLEFT
350
6A3
  3
UCSORGRIGHT
350
6A4
  3
UCSORGTOP
350
6A1
  3
UCSORTHOREF
350
69E
  3
UCSORTHOVIEW
350
69F
  3
VERSIONGUID
350
693
  0
MLINESTYLE
  5
18
102
{ACAD_REACTORS
330
17
102
}
330
17
100
AcDbMlineStyle
  2
Standard
 70
     0
  3

 62
   256
 51
90.0
 52
90.0
 71
     2
 49
0.5
 62
   256
  6
BYLAYER
 49
-0.5
 62
   256
  6
BYLAYER
  0
VISUALSTYLE
  5
2F
102
{ACAD_REACTORS
330
2A
102
}
330
2A
100
AcDbVisualStyle
  2
2dWireframe
 70
     4
 71
     0
 72
     2
 73
     0
 90
        0
 40
-0.6
 41
-30.0
 62
     5
 63
     7
 74
     1
 91
        4
 64
     7
 65
   257
 75
     1
175
     1
 42
1.0
 92
        0
 66
   257
 43
1.0
 76
     1
 77
     6
 78
     2
 67
     7
 79
     5
170
     0
171
     0
290
     0
174
     0
 93
        1
 44
0.0
173
     0
291
     0
 45
0.0
1001
ACAD
1000
AcDbSavedByObjectVersion
1070
     0
  0
VISUALSTYLE
  5
31
102
{ACAD_REACTORS
330
2A
102
}
330
2A
100
AcDbVisualStyle
  2
3D Hidden
 70
     6
 71
     1
 72
     2
 73
     2
 90
        0
 40
-0.6
 41
-30.0
 62
     5
 63
     7
 74
     2
 91
        2
 64
     7
 65
   257
 75
     2
175
     1
 42
40.0
 92
        0
 66
   257
 43
1.0
 76
     1
 77
     6
 78
     2
 67
     7
 79
     3
170
     0
171
     0
290
     0
174
     0
 93
        1
 44
0.0
173
     0
291
     0
 45
0.0
1001
ACAD
1000
AcDbSavedByObjectVersion
1070
     0
  0
VISUALSTYLE
  5
30
102
{ACAD_REACTORS
330
2A
102
}
330
2A
100
AcDbVisualStyle
  2
3dWireframe
 70
     5
 71
     0
 72
     2
 73
     0
 90
        0
 40
-0.6
 41
-30.0
 62
     5
 63
     7
 74
     1
 91
        4
 64
     7
 65
   257
 75
     1
175
     1
 42
1.0
 92
        0
 66
   257
 43
1.0
 76
     1
 77
     6
 78
     2
 67
     7
 79
     5
170
     0
171
     0
290
     0
174
     0
 93
        1
 44
0.0
173
     0
291
     0
 45
0.0
1001
ACAD
1000
AcDbSavedByObjectVersion
1070
     0
  0
VISUALSTYLE
  5
32
102
{ACAD_REACTORS
330
2A
102
}
330
2A
100
AcDbVisualStyle
  2
Basic
 70
     7
 71
     1
 72
     0
 73
     1
 90
        0
 40
-0.6
 41
-30.0
 62
     5
 63
     7
 74
     0
 91
        4
 64
     7
 65
   257
 75
     1
175
     1
 42
1.0
 92
        8
 66
     7
 43
1.0
 76
     1
 77
     6
 78
     2
 67
     7
 79
     5
170
     0
171
     0
290
     0
174
     0
 93
        1
 44
0.0
173
     0
291
     1
 45
0.0
1001
ACAD
1000
AcDbSavedByObjectVersion
1070
     0
  0
VISUALSTYLE
  5
36
102
{ACAD_REACTORS
330
2A
102
}
330
2A
100
AcDbVisualStyle
  2
Brighten
 70
    12
 71
     2
 72
     2
 73
     0
 90
        0
 40
-0.6
 41
-30.0
 62
     5
 63
     7
 74
     1
 91
        4
 64
     7
 65
   257
 75
     1
175
     1
 42
1.0
 92
        8
 66
     7
 43
1.0
 76
     1
 77
     6
 78
     2
 67
     7
 79
     5
170
     0
171
     0
290
     0
174
     0
 93
        1
 44
50.0
173
     0
291
     1
 45
0.0
1001
ACAD
1000
AcDbSavedByObjectVersion
1070
     0
  0
VISUALSTYLE
  5
3A
102
{ACAD_REACTORS
330
2A
102
}
330
2A
100
AcDbVisualStyle
  2
ColorChange
 70
    16
 71
     2
 72
     2
 73
     3
 90
        0
 40
-0.6
 41
-30.0
 62
     5
 63
     8
 74
     1
 91
        4
 64
     7
 65
   257
 75
     1
175
     1
 42
1.0
 92
        8
 66
     8
 43
1.0
 76
     1
 77
     6
 78
     2
 67
     7
 79
     5
170
     0
171
     0
290
     0
174
     0
 93
        1
 44
0.0
173
     0
291
     1
 45
0.0
1001
ACAD
1000
AcDbSavedByObjectVersion
1070
     0
  0
VISUALSTYLE
  5
34
102
{ACAD_REACTORS
330
2A
102
}
330
2A
100
AcDbVisualStyle
  2
Conceptual
 70
     9
 71
     3
 72
     2
 73
     0
 90
        0
 40
-0.6
 41
-30.0
 62
     5
 63
     7
 74
     2
 91
        2
 64
     7
 65
   257
 75
     1
175
     1
 42
40.0
 92
        8
 66
     7
 43
1.0
 76
     1
 77
     6
 78
     2
 67
     7
 79
     3
170
     0
171
     0
290
     0
174
     0
 93
        1
 44
0.0
173
     0
291
     0
 45
0.0
1001
ACAD
1000
AcDbSavedByObjectVersion
1070
     0
  0
VISUALSTYLE
  5
35
102
{ACAD_REACTORS
330
2A
102
}
330
2A
100
AcDbVisualStyle
  2
Dim
 70
    11
 71
     2
 72
     2
 73
     0
 90
        0
 40
-0.6
 41
-30.0
 62
     5
 63
     7
 74
     1
 91
        4
 64
     7
 65
   257
 75
     1
175
     1
 42
1.0
 92
        8
 66
     7
 43
1.0
 76
     1
 77
     6
 78
     2
 67
     7
 79
     5
170
     0
171
     0
290
     0
174
     0
 93
        1
 44
-50.0
173
     0
291
     1
 45
0.0
1001
ACAD
1000
AcDbSavedByObjectVersion
1070
     0
  0
VISUALSTYLE
  5
39
102
{ACAD_REACTORS
330
2A
102
}
330
2A
100
AcDbVisualStyle
  2
Facepattern
 70
    15
 71
     2
 72
     2
 73
     0
 90
        0
 40
-0.6
 41
-30.0
 62
     5
 63
     7
 74
     1
 91
        4
 64
     7
 65
   257
 75
     1
175
     1
 42
1.0
 92
        8
 66
     7
 43
1.0
 76
     1
 77
     6
 78
     2
 67
     7
 79
     5
170
     0
171
     0
290
     0
174
     0
 93
        1
 44
0.0
173
     0
291
     1
 45
0.0
1001
ACAD
1000
AcDbSavedByObjectVersion
1070
     0
  0
VISUALSTYLE
  5
2B
102
{ACAD_REACTORS
330
2A
102
}
330
2A
100
AcDbVisualStyle
  2
Flat
 70
     0
 71
     2
 72
     1
 73
     1
 90
        2
 40
-0.6
 41
30.0
 62
     5
 63
     7
 74
     0
 91
        4
 64
     7
 65
   257
 75
     1
175
     1
 42
1.0
 92
        8
 66
     7
 43
1.0
 76
     1
 77
     6
 78
     2
 67
     7
 79
     5
170
     0
171
     0
290
     0
174
     0
 93
       13
 44
0.0
173
     0
291
     1
 45
0.0
1001
ACAD
1000
AcDbSavedByObjectVersion
1070
     0
  0
VISUALSTYLE
  5
2C
102
{ACAD_REACTORS
330
2A
102
}
330
2A
100
AcDbVisualStyle
  2
FlatWithEdges
 70
     1
 71
     2
 72
     1
 73
     1
 90
        2
 40
-0.6
 41
30.0
 62
     5
 63
     7
 74
     1
 91
        4
 64
     7
 65
   257
 75
     1
175
     1
 42
1.0
 92
        0
 66
   257
 43
1.0
 76
     1
 77
     6
 78
     2
 67
     7
 79
     5
170
     0
171
     0
290
     0
174
     0
 93
       13
 44
0.0
173
     0
291
     1
 45
0.0
1001
ACAD
1000
AcDbSavedByObjectVersion
1070
     0
  0
VISUALSTYLE
  5
2D
102
{ACAD_REACTORS
330
2A
102
}
330
2A
100
AcDbVisualStyle
  2
Gouraud
 70
     2
 71
     2
 72
     2
 73
     1
 90
        2
 40
-0.6
 41
30.0
 62
     5
 63
     7
 74
     0
 91
        4
 64
     7
 65
   257
 75
     1
175
     1
 42
1.0
 92
        0
 66
     7
 43
1.0
 76
     1
 77
     6
 78
     2
 67
     7
 79
     5
170
     0
171
     0
290
     0
174
     0
 93
       13
 44
0.0
173
     0
291
     1
 45
0.0
1001
ACAD
1000
AcDbSavedByObjectVersion
1070
     0
  0
VISUALSTYLE
  5
2E
102
{ACAD_REACTORS
330
2A
102
}
330
2A
100
AcDbVisualStyle
  2
GouraudWithEdges
 70
     3
 71
     2
 72
     2
 73
     1
 90
        2
 40
-0.6
 41
30.0
 62
     5
 63
     7
 74
     1
 91
        4
 64
     7
 65
   257
 75
     1
175
     1
 42
1.0
 92
        0
 66
   257
 43
1.0
 76
     1
 77
     6
 78
     2
 67
     7
 79
     5
170
     0
171
     0
290
     0
174
     0
 93
       13
 44
0.0
173
     0
291
     1
 45
0.0
1001
ACAD
1000
AcDbSavedByObjectVersion
1070
     0
  0
VISUALSTYLE
  5
38
102
{ACAD_REACTORS
330
2A
102
}
330
2A
100
AcDbVisualStyle
  2
Linepattern
 70
    14
 71
     2
 72
     2
 73
     0
 90
        0
 40
-0.6
 41
-30.0
 62
     5
 63
     7
 74
     1
 91
        4
 64
     7
 65
   257
 75
     7
175
     7
 42
1.0
 92
        8
 66
     7
 43
1.0
 76
     1
 77
     6
 78
     2
 67
     7
 79
     5
170
     0
171
     0
290
     0
174
     0
 93
        1
 44
0.0
173
     0
291
     1
 45
0.0
1001
ACAD
1000
AcDbSavedByObjectVersion
1070
     0
  0
VISUALSTYLE
  5
33
102
{ACAD_REACTORS
330
2A
102
}
330
2A
100
AcDbVisualStyle
  2
Realistic
 70
     8
 71
     2
 72
     2
 73
     0
 90
        0
 40
-0.6
 41
-30.0
 62
     5
 63
     7
 74
     1
 91
        0
 64
     7
 65
   257
 75
     1
175
     1
 42
1.0
 92
        8
 66
     8
 43
1.0
 76
     1
 77
     6
 78
     2
 67
     7
 79
     5
170
     0
171
     0
290
     0
174
     0
 93
       13
 44
0.0
173
     0
291
     0
 45
0.0
1001
ACAD
1000
AcDbSavedByObjectVersion
1070
     0
  0
VISUALSTYLE
  5
37
102
{ACAD_REACTORS
330
2A
102
}
330
2A
100
AcDbVisualStyle
  2
Thicken
 70
    13
 71
     2
 72
     2
 73
     0
 90
        0
 40
-0.6
 41
-30.0
 62
     5
 63
     7
 74
     1
 91
        4
 64
     7
 65
   257
 75
     1
175
     1
 42
1.0
 92
       12
 66
     7
 43
1.0
 76
     1
 77
     6
 78
     2
 67
     7
 79
     5
170
     0
171
     0
290
     0
174
     0
 93
        1
 44
0.0
173
     0
291
     1
 45
0.0
1001
ACAD
1000
AcDbSavedByObjectVersion
1070
     0
  0
XRECORD
  5
691
102
{ACAD_REACTORS
330
688
102
}
330
688
100
AcDbXrecord
 90
        0
  0
XRECORD
  5
6A7
102
{ACAD_REACTORS
330
688
102
}
330
688
100
AcDbXrecord
1000
DSTYLE
1002
{
1070
   340
340
11
1002
}
  0
XRECORD
  5
692
102
{ACAD_REACTORS
330
688
102
}
330
688
100
AcDbXrecord
  1
{0FAEA3E1-30E7-4726-BB71-7700860048AD}
  0
XRECORD
  5
68B
102
{ACAD_REACTORS
330
688
102
}
330
688
100
AcDbXrecord
  1

  0
XRECORD
  5
690
102
{ACAD_REACTORS
330
688
102
}
330
688
100
AcDbXrecord
 90
        1
  0
XRECORD
  5
68D
102
{ACAD_REACTORS
330
688
102
}
330
688
100
AcDbXrecord
340
1A
  0
XRECORD
  5
68F
102
{ACAD_REACTORS
330
688
102
}
330
688
100
AcDbXrecord
 90
    10269
  0
XRECORD
  5
68E
102
{ACAD_REACTORS
330
688
102
}
330
688
100
AcDbXrecord
340
19
  0
XRECORD
  5
694
102
{ACAD_REACTORS
330
688
102
}
330
688
100
AcDbXrecord
 40
0.0
  0
XRECORD
  5
697
102
{ACAD_REACTORS
330
688
102
}
330
688
100
AcDbXrecord
340
0
  0
XRECORD
  5
69D
102
{ACAD_REACTORS
330
688
102
}
330
688
100
AcDbXrecord
 10
0.0
 20
0.0
 30
0.0
  0
XRECORD
  5
699
102
{ACAD_REACTORS
330
688
102
}
330
688
100
AcDbXrecord
 10
0.0
 20
0.0
 30
0.0
  0
XRECORD
  5
69C
102
{ACAD_REACTORS
330
688
102
}
330
688
100
AcDbXrecord
 10
0.0
 20
0.0
 30
0.0
  0
XRECORD
  5
69A
102
{ACAD_REACTORS
330
688
102
}
330
688
100
AcDbXrecord
 10
0.0
 20
0.0
 30
0.0
  0
XRECORD
  5
69B
102
{ACAD_REACTORS
330
688
102
}
330
688
100
AcDbXrecord
 10
0.0
 20
0.0
 30
0.0
  0
XRECORD
  5
698
102
{ACAD_REACTORS
330
688
102
}
330
688
100
AcDbXrecord
 10
0.0
 20
0.0
 30
0.0
  0
XRECORD
  5
695
102
{ACAD_REACTORS
330
688
102
}
330
688
100
AcDbXrecord
340
0
  0
XRECORD
  5
696
102
{ACAD_REACTORS
330
688
102
}
330
688
100
AcDbXrecord
 70
     0
  0
XRECORD
  5
68C
102
{ACAD_REACTORS
330
688
102
}
330
688
100
AcDbXrecord
  1

  0
XRECORD
  5
689
102
{ACAD_REACTORS
330
688
102
}
330
688
100
AcDbXrecord
 90
        1
  0
XRECORD
  5
68A
102
{ACAD_REACTORS
330
688
102
}
330
688
100
AcDbXrecord
 90
       70
  0
XRECORD
  5
6A0
102
{ACAD_REACTORS
330
688
102
}
330
688
100
AcDbXrecord
340
0
  0
XRECORD
  5
6A6
102
{ACAD_REACTORS
330
688
102
}
330
688
100
AcDbXrecord
 10
0.0
 20
0.0
 30
0.0
  0
XRECORD
  5
6A2
102
{ACAD_REACTORS
330
688
102
}
330
688
100
AcDbXrecord
 10
0.0
 20
0.0
 30
0.0
  0
XRECORD
  5
6A5
102
{ACAD_REACTORS
330
688
102
}
330
688
100
AcDbXrecord
 10
0.0
 20
0.0
 30
0.0
  0
XRECORD
  5
6A3
102
{ACAD_REACTORS
330
688
102
}
330
688
100
AcDbXrecord
 10
0.0
 20
0.0
 30
0.0
  0
XRECORD
  5
6A4
102
{ACAD_REACTORS
330
688
102
}
330
688
100
AcDbXrecord
 10
0.0
 20
0.0
 30
0.0
  0
XRECORD
  5
6A1
102
{ACAD_REACTORS
330
688
102
}
330
688
100
AcDbXrecord
 10
0.0
 20
0.0
 30
0.0
  0
XRECORD
  5
69E
102
{ACAD_REACTORS
330
688
102
}
330
688
100
AcDbXrecord
340
0
  0
XRECORD
  5
69F
102
{ACAD_REACTORS
330
688
102
}
330
688
100
AcDbXrecord
 70
     0
  0
XRECORD
  5
693
102
{ACAD_REACTORS
330
688
102
}
330
688
100
AcDbXrecord
  1
{FAEB1C32-E019-11D5-929B-00C0DF256EC4}
  0
ENDSEC
  0
EOF
