ISO-10303-21;
HEADER;
/* Generated by software containing ST-Developer
 * from STEP Tools, Inc. (www.steptools.com) 
 */
/* OPTION: using custom schema-name function */

FILE_DESCRIPTION(
/* description */ (''),
/* implementation_level */ '2;1');

FILE_NAME(
/* name */ '836267_stp.stp',
/* time_stamp */ '2017-05-15T11:17:07+02:00',
/* author */ (''),
/* organization */ (''),
/* preprocessor_version */ 'ST-DEVELOPER v15',
/* originating_system */ 'SIEMENS PLM Software NX 9.0',
/* authorisation */ '');

FILE_SCHEMA (('AUTOMOTIVE_DESIGN { 1 0 10303 214 3 1 1 1 }'));
ENDSEC;

DATA;
#10=PROPERTY_DEFINITION_REPRESENTATION(#14,#12);
#11=PROPERTY_DEFINITION_REPRESENTATION(#15,#13);
#12=REPRESENTATION('',(#16),#313);
#13=REPRESENTATION('',(#17),#313);
#14=PROPERTY_DEFINITION('pmi validation property','',#21);
#15=PROPERTY_DEFINITION('pmi validation property','',#21);
#16=VALUE_REPRESENTATION_ITEM('number of annotations',COUNT_MEASURE(0.));
#17=VALUE_REPRESENTATION_ITEM('number of views',COUNT_MEASURE(0.));
#18=SHAPE_REPRESENTATION_RELATIONSHIP('None',
'relationship between reic1F4CA23Dza6p-None and reic1F4CA23Dza6p-None',
#30,#19);
#19=ADVANCED_BREP_SHAPE_REPRESENTATION('reic1F4CA23Dza6p-None',(#40),#313);
#20=SHAPE_DEFINITION_REPRESENTATION(#21,#30);
#21=PRODUCT_DEFINITION_SHAPE('','',#22);
#22=PRODUCT_DEFINITION(' ','',#24,#23);
#23=PRODUCT_DEFINITION_CONTEXT('part definition',#29,'design');
#24=PRODUCT_DEFINITION_FORMATION_WITH_SPECIFIED_SOURCE(' ',' ',#26,
 .NOT_KNOWN.);
#25=PRODUCT_RELATED_PRODUCT_CATEGORY('part','',(#26));
#26=PRODUCT('reic1F4CA23Dza6p','reic1F4CA23Dza6p',' ',(#27));
#27=PRODUCT_CONTEXT(' ',#29,'mechanical');
#28=APPLICATION_PROTOCOL_DEFINITION('international standard',
'automotive_design',2010,#29);
#29=APPLICATION_CONTEXT(
'core data for automotive mechanical design processes');
#30=SHAPE_REPRESENTATION('reic1F4CA23Dza6p-None',(#187),#313);
#31=PRESENTATION_LAYER_ASSIGNMENT('10','Layer 10',(#40));
#32=STYLED_ITEM('',(#33),#40);
#33=PRESENTATION_STYLE_ASSIGNMENT((#34));
#34=SURFACE_STYLE_USAGE(.BOTH.,#35);
#35=SURFACE_SIDE_STYLE('',(#36));
#36=SURFACE_STYLE_FILL_AREA(#37);
#37=FILL_AREA_STYLE('',(#38));
#38=FILL_AREA_STYLE_COLOUR('',#39);
#39=COLOUR_RGB('RAL 7035',0.8,0.8,0.8);
#40=MANIFOLD_SOLID_BREP('',#41);
#41=CLOSED_SHELL('',(#74,#75,#76,#77,#78,#79,#80,#81,#82,#83,#84,#85,#86,
#87));
#42=TOROIDAL_SURFACE('',#210,11.6800303720244,2.);
#43=TOROIDAL_SURFACE('',#211,17.7489935220523,3.);
#44=CONICAL_SURFACE('',#193,10.0723145172501,8.00000000000004);
#45=CONICAL_SURFACE('',#206,13.5126927200593,4.99999999999999);
#46=CYLINDRICAL_SURFACE('',#191,8.);
#47=CYLINDRICAL_SURFACE('',#197,16.);
#48=CYLINDRICAL_SURFACE('',#201,25.);
#49=CYLINDRICAL_SURFACE('',#214,8.);
#50=FACE_BOUND('',#97,.T.);
#51=FACE_BOUND('',#98,.T.);
#52=FACE_BOUND('',#99,.T.);
#53=FACE_BOUND('',#100,.T.);
#54=FACE_BOUND('',#101,.T.);
#55=FACE_BOUND('',#102,.T.);
#56=FACE_BOUND('',#103,.T.);
#57=FACE_BOUND('',#104,.T.);
#58=FACE_BOUND('',#105,.T.);
#59=FACE_BOUND('',#106,.T.);
#60=FACE_BOUND('',#107,.T.);
#61=FACE_BOUND('',#108,.T.);
#62=FACE_BOUND('',#109,.T.);
#63=FACE_BOUND('',#110,.T.);
#64=FACE_BOUND('',#111,.T.);
#65=FACE_BOUND('',#112,.T.);
#66=FACE_BOUND('',#113,.T.);
#67=FACE_BOUND('',#114,.T.);
#68=FACE_BOUND('',#115,.T.);
#69=FACE_BOUND('',#116,.T.);
#70=FACE_BOUND('',#117,.T.);
#71=FACE_BOUND('',#118,.T.);
#72=FACE_BOUND('',#120,.T.);
#73=FACE_BOUND('',#121,.T.);
#74=ADVANCED_FACE('',(#94),#88,.F.);
#75=ADVANCED_FACE('',(#50,#51),#46,.T.);
#76=ADVANCED_FACE('',(#52,#53),#44,.T.);
#77=ADVANCED_FACE('',(#54,#55),#89,.F.);
#78=ADVANCED_FACE('',(#56,#57),#47,.T.);
#79=ADVANCED_FACE('',(#58,#59),#90,.T.);
#80=ADVANCED_FACE('',(#60,#61),#48,.T.);
#81=ADVANCED_FACE('',(#62,#63),#91,.T.);
#82=ADVANCED_FACE('',(#64,#65),#45,.T.);
#83=ADVANCED_FACE('',(#66,#67),#92,.T.);
#84=ADVANCED_FACE('',(#68,#69),#42,.T.);
#85=ADVANCED_FACE('',(#70,#71),#43,.F.);
#86=ADVANCED_FACE('',(#95),#93,.F.);
#87=ADVANCED_FACE('',(#72,#73),#49,.F.);
#88=PLANE('',#189);
#89=PLANE('',#195);
#90=PLANE('',#199);
#91=PLANE('',#203);
#92=PLANE('',#209);
#93=PLANE('',#213);
#94=FACE_OUTER_BOUND('',#96,.T.);
#95=FACE_OUTER_BOUND('',#119,.T.);
#96=EDGE_LOOP('',(#122));
#97=EDGE_LOOP('',(#123));
#98=EDGE_LOOP('',(#124));
#99=EDGE_LOOP('',(#125));
#100=EDGE_LOOP('',(#126));
#101=EDGE_LOOP('',(#127));
#102=EDGE_LOOP('',(#128));
#103=EDGE_LOOP('',(#129));
#104=EDGE_LOOP('',(#130));
#105=EDGE_LOOP('',(#131));
#106=EDGE_LOOP('',(#132));
#107=EDGE_LOOP('',(#133));
#108=EDGE_LOOP('',(#134));
#109=EDGE_LOOP('',(#135));
#110=EDGE_LOOP('',(#136));
#111=EDGE_LOOP('',(#137));
#112=EDGE_LOOP('',(#138));
#113=EDGE_LOOP('',(#139));
#114=EDGE_LOOP('',(#140));
#115=EDGE_LOOP('',(#141));
#116=EDGE_LOOP('',(#142));
#117=EDGE_LOOP('',(#143));
#118=EDGE_LOOP('',(#144));
#119=EDGE_LOOP('',(#145));
#120=EDGE_LOOP('',(#146));
#121=EDGE_LOOP('',(#147));
#122=ORIENTED_EDGE('',*,*,#161,.F.);
#123=ORIENTED_EDGE('',*,*,#162,.T.);
#124=ORIENTED_EDGE('',*,*,#161,.T.);
#125=ORIENTED_EDGE('',*,*,#162,.F.);
#126=ORIENTED_EDGE('',*,*,#163,.F.);
#127=ORIENTED_EDGE('',*,*,#164,.F.);
#128=ORIENTED_EDGE('',*,*,#163,.T.);
#129=ORIENTED_EDGE('',*,*,#164,.T.);
#130=ORIENTED_EDGE('',*,*,#165,.F.);
#131=ORIENTED_EDGE('',*,*,#165,.T.);
#132=ORIENTED_EDGE('',*,*,#166,.F.);
#133=ORIENTED_EDGE('',*,*,#166,.T.);
#134=ORIENTED_EDGE('',*,*,#167,.F.);
#135=ORIENTED_EDGE('',*,*,#168,.T.);
#136=ORIENTED_EDGE('',*,*,#167,.T.);
#137=ORIENTED_EDGE('',*,*,#169,.T.);
#138=ORIENTED_EDGE('',*,*,#170,.T.);
#139=ORIENTED_EDGE('',*,*,#171,.T.);
#140=ORIENTED_EDGE('',*,*,#172,.T.);
#141=ORIENTED_EDGE('',*,*,#170,.F.);
#142=ORIENTED_EDGE('',*,*,#172,.F.);
#143=ORIENTED_EDGE('',*,*,#168,.F.);
#144=ORIENTED_EDGE('',*,*,#169,.F.);
#145=ORIENTED_EDGE('',*,*,#173,.T.);
#146=ORIENTED_EDGE('',*,*,#173,.F.);
#147=ORIENTED_EDGE('',*,*,#171,.F.);
#148=VERTEX_POINT('',#273);
#149=VERTEX_POINT('',#276);
#150=VERTEX_POINT('',#279);
#151=VERTEX_POINT('',#282);
#152=VERTEX_POINT('',#285);
#153=VERTEX_POINT('',#288);
#154=VERTEX_POINT('',#291);
#155=VERTEX_POINT('',#294);
#156=VERTEX_POINT('',#297);
#157=VERTEX_POINT('',#299);
#158=VERTEX_POINT('',#302);
#159=VERTEX_POINT('',#304);
#160=VERTEX_POINT('',#309);
#161=EDGE_CURVE('',#148,#148,#174,.T.);
#162=EDGE_CURVE('',#149,#149,#175,.T.);
#163=EDGE_CURVE('',#150,#150,#176,.T.);
#164=EDGE_CURVE('',#151,#151,#177,.T.);
#165=EDGE_CURVE('',#152,#152,#178,.T.);
#166=EDGE_CURVE('',#153,#153,#179,.T.);
#167=EDGE_CURVE('',#154,#154,#180,.T.);
#168=EDGE_CURVE('',#155,#155,#181,.T.);
#169=EDGE_CURVE('',#156,#156,#182,.T.);
#170=EDGE_CURVE('',#157,#157,#183,.T.);
#171=EDGE_CURVE('',#158,#158,#184,.T.);
#172=EDGE_CURVE('',#159,#159,#185,.T.);
#173=EDGE_CURVE('',#160,#160,#186,.T.);
#174=CIRCLE('',#188,8.);
#175=CIRCLE('',#190,8.);
#176=CIRCLE('',#192,10.0723145172501);
#177=CIRCLE('',#194,16.);
#178=CIRCLE('',#196,16.);
#179=CIRCLE('',#198,25.);
#180=CIRCLE('',#200,25.);
#181=CIRCLE('',#202,17.7489935220523);
#182=CIRCLE('',#204,14.760409427777);
#183=CIRCLE('',#205,13.6724197682079);
#184=CIRCLE('',#207,8.);
#185=CIRCLE('',#208,11.6800303720244);
#186=CIRCLE('',#212,8.);
#187=AXIS2_PLACEMENT_3D('',#271,#215,#216);
#188=AXIS2_PLACEMENT_3D('',#272,#217,#218);
#189=AXIS2_PLACEMENT_3D('',#274,#219,#220);
#190=AXIS2_PLACEMENT_3D('',#275,#221,#222);
#191=AXIS2_PLACEMENT_3D('',#277,#223,#224);
#192=AXIS2_PLACEMENT_3D('',#278,#225,#226);
#193=AXIS2_PLACEMENT_3D('',#280,#227,#228);
#194=AXIS2_PLACEMENT_3D('',#281,#229,#230);
#195=AXIS2_PLACEMENT_3D('',#283,#231,#232);
#196=AXIS2_PLACEMENT_3D('',#284,#233,#234);
#197=AXIS2_PLACEMENT_3D('',#286,#235,#236);
#198=AXIS2_PLACEMENT_3D('',#287,#237,#238);
#199=AXIS2_PLACEMENT_3D('',#289,#239,#240);
#200=AXIS2_PLACEMENT_3D('',#290,#241,#242);
#201=AXIS2_PLACEMENT_3D('',#292,#243,#244);
#202=AXIS2_PLACEMENT_3D('',#293,#245,#246);
#203=AXIS2_PLACEMENT_3D('',#295,#247,#248);
#204=AXIS2_PLACEMENT_3D('',#296,#249,#250);
#205=AXIS2_PLACEMENT_3D('',#298,#251,#252);
#206=AXIS2_PLACEMENT_3D('',#300,#253,#254);
#207=AXIS2_PLACEMENT_3D('',#301,#255,#256);
#208=AXIS2_PLACEMENT_3D('',#303,#257,#258);
#209=AXIS2_PLACEMENT_3D('',#305,#259,#260);
#210=AXIS2_PLACEMENT_3D('',#306,#261,#262);
#211=AXIS2_PLACEMENT_3D('',#307,#263,#264);
#212=AXIS2_PLACEMENT_3D('',#308,#265,#266);
#213=AXIS2_PLACEMENT_3D('',#310,#267,#268);
#214=AXIS2_PLACEMENT_3D('',#311,#269,#270);
#215=DIRECTION('',(0.,0.,1.));
#216=DIRECTION('',(1.,0.,0.));
#217=DIRECTION('',(0.,0.,1.));
#218=DIRECTION('',(1.,0.,0.));
#219=DIRECTION('',(0.,0.,1.));
#220=DIRECTION('',(-1.,0.,0.));
#221=DIRECTION('',(0.,0.,-1.));
#222=DIRECTION('',(1.,0.,0.));
#223=DIRECTION('',(0.,0.,-1.));
#224=DIRECTION('',(1.,0.,0.));
#225=DIRECTION('',(0.,0.,1.));
#226=DIRECTION('',(1.,0.,0.));
#227=DIRECTION('',(0.,0.,1.));
#228=DIRECTION('',(-1.,0.,2.53390335898458E-016));
#229=DIRECTION('',(0.,0.,1.));
#230=DIRECTION('',(1.,0.,0.));
#231=DIRECTION('',(0.,0.,1.));
#232=DIRECTION('',(-1.,0.,0.));
#233=DIRECTION('',(0.,0.,1.));
#234=DIRECTION('',(1.,0.,0.));
#235=DIRECTION('',(0.,0.,-1.));
#236=DIRECTION('',(1.,0.,0.));
#237=DIRECTION('',(0.,-2.45632700057098E-016,1.));
#238=DIRECTION('',(0.,-1.,-2.45632700057098E-016));
#239=DIRECTION('',(0.,2.45632700057098E-016,-1.));
#240=DIRECTION('',(0.,1.,2.45632700057098E-016));
#241=DIRECTION('',(0.,-2.45632700057098E-016,1.));
#242=DIRECTION('',(0.,-1.,-2.77555756156289E-016));
#243=DIRECTION('',(0.,-2.45632700057098E-016,1.));
#244=DIRECTION('',(0.,-1.,-2.77555756156289E-016));
#245=DIRECTION('',(0.,2.45632700057098E-016,-1.));
#246=DIRECTION('',(0.,-1.,-2.93209326008514E-016));
#247=DIRECTION('',(0.,-2.45632700057098E-016,1.));
#248=DIRECTION('',(0.,-1.,-2.46330733588707E-016));
#249=DIRECTION('',(0.,-2.45632700057098E-016,1.));
#250=DIRECTION('',(0.,1.,2.35050861490644E-016));
#251=DIRECTION('',(0.,2.45632700057098E-016,-1.));
#252=DIRECTION('',(0.,-1.,-2.53755151668252E-016));
#253=DIRECTION('',(0.,2.45632700057098E-016,-1.));
#254=DIRECTION('',(0.,1.,2.40453490590045E-016));
#255=DIRECTION('',(0.,1.25592554515194E-016,-1.));
#256=DIRECTION('',(0.,1.,0.));
#257=DIRECTION('',(0.,-2.45632700057098E-016,1.));
#258=DIRECTION('',(0.,-1.,-2.97040918683183E-016));
#259=DIRECTION('',(0.,-2.45632700057098E-016,1.));
#260=DIRECTION('',(0.,-1.,-2.46330733588707E-016));
#261=DIRECTION('',(0.,-2.45632700057098E-016,1.));
#262=DIRECTION('',(0.,-1.,-2.5361398020348E-016));
#263=DIRECTION('',(0.,-2.45632700057098E-016,1.));
#264=DIRECTION('',(0.,-1.,-2.50815559916165E-016));
#265=DIRECTION('',(0.,-1.25592554515194E-016,1.));
#266=DIRECTION('',(0.,1.,2.16840434497101E-016));
#267=DIRECTION('',(0.,1.25592554515194E-016,-1.));
#268=DIRECTION('',(0.,1.,1.2490009027033E-016));
#269=DIRECTION('',(0.,1.25592554515194E-016,-1.));
#270=DIRECTION('',(0.,1.,0.));
#271=CARTESIAN_POINT('',(0.,0.,0.));
#272=CARTESIAN_POINT('',(0.,0.,-41.));
#273=CARTESIAN_POINT('',(8.,0.,-41.));
#274=CARTESIAN_POINT('',(0.,0.,-41.));
#275=CARTESIAN_POINT('',(0.,0.,-33.2452839712988));
#276=CARTESIAN_POINT('',(8.,0.,-33.2452839712988));
#277=CARTESIAN_POINT('',(0.,0.,-41.));
#278=CARTESIAN_POINT('',(0.,0.,-18.5));
#279=CARTESIAN_POINT('',(10.0723145172501,0.,-18.5));
#280=CARTESIAN_POINT('',(0.,0.,-18.5));
#281=CARTESIAN_POINT('',(0.,0.,-18.5));
#282=CARTESIAN_POINT('',(16.,0.,-18.5));
#283=CARTESIAN_POINT('',(0.,16.,-18.5));
#284=CARTESIAN_POINT('',(0.,0.,0.));
#285=CARTESIAN_POINT('',(16.,0.,0.));
#286=CARTESIAN_POINT('',(0.,0.,-41.));
#287=CARTESIAN_POINT('',(0.,4.9161707022801E-015,-6.93889390390723E-015));
#288=CARTESIAN_POINT('',(0.,-25.,-1.30797114053347E-014));
#289=CARTESIAN_POINT('',(0.,25.,3.07040875071372E-015));
#290=CARTESIAN_POINT('',(0.,2.95110910182331E-015,7.99999999999999));
#291=CARTESIAN_POINT('',(0.,-25.,7.99999999999999));
#292=CARTESIAN_POINT('',(0.,-1.22464679914735E-015,25.));
#293=CARTESIAN_POINT('',(0.,2.95110910182331E-015,7.99999999999999));
#294=CARTESIAN_POINT('',(0.,-17.7489935220523,7.99999999999999));
#295=CARTESIAN_POINT('',(0.,15.,8.));
#296=CARTESIAN_POINT('',(0.,2.27843590290179E-015,10.738532771757));
#297=CARTESIAN_POINT('',(0.,14.760409427777,10.738532771757));
#298=CARTESIAN_POINT('',(0.,-7.76197999866333E-016,23.1743114854953));
#299=CARTESIAN_POINT('',(0.,-13.6724197682079,23.1743114854953));
#300=CARTESIAN_POINT('',(0.,-1.22464679914735E-015,25.));
#301=CARTESIAN_POINT('',(0.,1.77635683940025E-015,25.));
#302=CARTESIAN_POINT('',(0.,8.,25.));
#303=CARTESIAN_POINT('',(0.,-1.22464679914735E-015,25.));
#304=CARTESIAN_POINT('',(0.,-11.6800303720244,25.));
#305=CARTESIAN_POINT('',(0.,-1.77635683940025E-015,25.));
#306=CARTESIAN_POINT('',(0.,-7.33381399033157E-016,23.));
#307=CARTESIAN_POINT('',(0.,2.21421100165202E-015,11.));
#308=CARTESIAN_POINT('',(0.,6.80005902000801E-015,-15.));
#309=CARTESIAN_POINT('',(0.,8.00000000000001,-15.));
#310=CARTESIAN_POINT('',(0.,6.80005902000801E-015,-15.));
#311=CARTESIAN_POINT('',(0.,1.77635683940025E-015,25.));
#312=MECHANICAL_DESIGN_GEOMETRIC_PRESENTATION_REPRESENTATION('',(#32),#313);
#313=(
GEOMETRIC_REPRESENTATION_CONTEXT(3)
GLOBAL_UNCERTAINTY_ASSIGNED_CONTEXT((#314))
GLOBAL_UNIT_ASSIGNED_CONTEXT((#320,#316,#315))
REPRESENTATION_CONTEXT('836267_stp','TOP_LEVEL_ASSEMBLY_PART')
);
#314=UNCERTAINTY_MEASURE_WITH_UNIT(LENGTH_MEASURE(2.E-005),#320,
'DISTANCE_ACCURACY_VALUE','Maximum Tolerance applied to model');
#315=(
NAMED_UNIT(*)
SI_UNIT($,.STERADIAN.)
SOLID_ANGLE_UNIT()
);
#316=(
CONVERSION_BASED_UNIT('DEGREE',#318)
NAMED_UNIT(#317)
PLANE_ANGLE_UNIT()
);
#317=DIMENSIONAL_EXPONENTS(0.,0.,0.,0.,0.,0.,0.);
#318=PLANE_ANGLE_MEASURE_WITH_UNIT(PLANE_ANGLE_MEASURE(0.0174532925),#319);
#319=(
NAMED_UNIT(*)
PLANE_ANGLE_UNIT()
SI_UNIT($,.RADIAN.)
);
#320=(
LENGTH_UNIT()
NAMED_UNIT(*)
SI_UNIT(.MILLI.,.METRE.)
);
ENDSEC;
END-ISO-10303-21;
