ISO-10303-21;
HEADER;
/* Generated by software containing ST-Developer
 * from STEP Tools, Inc. (www.steptools.com) 
 */
/* OPTION: using custom schema-name function */

FILE_DESCRIPTION(
/* description */ (''),
/* implementation_level */ '2;1');

FILE_NAME(
/* name */ '836604_stp.stp',
/* time_stamp */ '2017-05-04T14:52:12+02:00',
/* author */ (''),
/* organization */ (''),
/* preprocessor_version */ 'ST-DEVELOPER v15',
/* originating_system */ 'SIEMENS PLM Software NX 9.0',
/* authorisation */ '');

FILE_SCHEMA (('AUTOMOTIVE_DESIGN { 1 0 10303 214 3 1 1 1 }'));
ENDSEC;

DATA;
#10=PROPERTY_DEFINITION_REPRESENTATION(#14,#12);
#11=PROPERTY_DEFINITION_REPRESENTATION(#15,#13);
#12=REPRESENTATION('',(#16),#373);
#13=REPRESENTATION('',(#17),#373);
#14=PROPERTY_DEFINITION('pmi validation property','',#21);
#15=PROPERTY_DEFINITION('pmi validation property','',#21);
#16=VALUE_REPRESENTATION_ITEM('number of annotations',COUNT_MEASURE(0.));
#17=VALUE_REPRESENTATION_ITEM('number of views',COUNT_MEASURE(0.));
#18=SHAPE_REPRESENTATION_RELATIONSHIP('None',
'relationship between reic08DC0832exjp-None and reic08DC0832exjp-None',
#30,#19);
#19=ADVANCED_BREP_SHAPE_REPRESENTATION('reic08DC0832exjp-None',(#40),#373);
#20=SHAPE_DEFINITION_REPRESENTATION(#21,#30);
#21=PRODUCT_DEFINITION_SHAPE('','',#22);
#22=PRODUCT_DEFINITION(' ','',#24,#23);
#23=PRODUCT_DEFINITION_CONTEXT('part definition',#29,'design');
#24=PRODUCT_DEFINITION_FORMATION_WITH_SPECIFIED_SOURCE(' ',' ',#26,
 .NOT_KNOWN.);
#25=PRODUCT_RELATED_PRODUCT_CATEGORY('part','',(#26));
#26=PRODUCT('reic08DC0832exjp','reic08DC0832exjp',' ',(#27));
#27=PRODUCT_CONTEXT(' ',#29,'mechanical');
#28=APPLICATION_PROTOCOL_DEFINITION('international standard',
'automotive_design',2010,#29);
#29=APPLICATION_CONTEXT(
'core data for automotive mechanical design processes');
#30=SHAPE_REPRESENTATION('reic08DC0832exjp-None',(#220),#373);
#31=PRESENTATION_LAYER_ASSIGNMENT('210','Layer 210',(#40));
#32=STYLED_ITEM('',(#33),#40);
#33=PRESENTATION_STYLE_ASSIGNMENT((#34));
#34=SURFACE_STYLE_USAGE(.BOTH.,#35);
#35=SURFACE_SIDE_STYLE('',(#36));
#36=SURFACE_STYLE_FILL_AREA(#37);
#37=FILL_AREA_STYLE('',(#38));
#38=FILL_AREA_STYLE_COLOUR('',#39);
#39=COLOUR_RGB('Orange',1.,0.499992370489052,0.);
#40=MANIFOLD_SOLID_BREP('',#41);
#41=CLOSED_SHELL('',(#56,#57,#58,#59,#60,#61,#62,#63,#64,#65,#66,#67,#68,
#69,#70,#71,#72));
#42=FACE_OUTER_BOUND('',#126,.T.);
#43=FACE_OUTER_BOUND('',#139,.T.);
#44=TOROIDAL_SURFACE('',#236,8.49999999999999,2.);
#45=TOROIDAL_SURFACE('',#237,3.81862245038585,2.);
#46=TOROIDAL_SURFACE('',#245,4.3,0.8);
#47=CONICAL_SURFACE('',#228,5.74999999999999,1.99999999999998);
#48=CONICAL_SURFACE('',#233,6.49999999999999,75.);
#49=CONICAL_SURFACE('',#249,4.3135099835713,8.00000000000003);
#50=PLANE('',#225);
#51=PLANE('',#239);
#52=PLANE('',#241);
#53=PLANE('',#247);
#54=PLANE('',#251);
#55=PLANE('',#253);
#56=ADVANCED_FACE('',(#78,#79),#73,.F.);
#57=ADVANCED_FACE('',(#80,#81),#50,.T.);
#58=ADVANCED_FACE('',(#82,#83),#47,.T.);
#59=ADVANCED_FACE('',(#84,#85),#74,.T.);
#60=ADVANCED_FACE('',(#86,#87),#48,.T.);
#61=ADVANCED_FACE('',(#88,#89),#75,.T.);
#62=ADVANCED_FACE('',(#90,#91),#44,.F.);
#63=ADVANCED_FACE('',(#92,#93),#45,.T.);
#64=ADVANCED_FACE('',(#94,#95),#51,.F.);
#65=ADVANCED_FACE('',(#42),#52,.T.);
#66=ADVANCED_FACE('',(#96,#97),#76,.T.);
#67=ADVANCED_FACE('',(#98,#99),#46,.F.);
#68=ADVANCED_FACE('',(#100,#101),#53,.T.);
#69=ADVANCED_FACE('',(#102,#103),#49,.T.);
#70=ADVANCED_FACE('',(#104,#105),#54,.T.);
#71=ADVANCED_FACE('',(#106,#107),#77,.T.);
#72=ADVANCED_FACE('',(#43),#55,.T.);
#73=CYLINDRICAL_SURFACE('',#223,1.5);
#74=CYLINDRICAL_SURFACE('',#230,6.49999999999999);
#75=CYLINDRICAL_SURFACE('',#235,15.);
#76=CYLINDRICAL_SURFACE('',#243,4.);
#77=CYLINDRICAL_SURFACE('',#252,10.);
#78=FACE_BOUND('',#108,.T.);
#79=FACE_BOUND('',#109,.T.);
#80=FACE_BOUND('',#110,.T.);
#81=FACE_BOUND('',#111,.T.);
#82=FACE_BOUND('',#112,.T.);
#83=FACE_BOUND('',#113,.T.);
#84=FACE_BOUND('',#114,.T.);
#85=FACE_BOUND('',#115,.T.);
#86=FACE_BOUND('',#116,.T.);
#87=FACE_BOUND('',#117,.T.);
#88=FACE_BOUND('',#118,.T.);
#89=FACE_BOUND('',#119,.T.);
#90=FACE_BOUND('',#120,.T.);
#91=FACE_BOUND('',#121,.T.);
#92=FACE_BOUND('',#122,.T.);
#93=FACE_BOUND('',#123,.T.);
#94=FACE_BOUND('',#124,.T.);
#95=FACE_BOUND('',#125,.T.);
#96=FACE_BOUND('',#127,.T.);
#97=FACE_BOUND('',#128,.T.);
#98=FACE_BOUND('',#129,.T.);
#99=FACE_BOUND('',#130,.T.);
#100=FACE_BOUND('',#131,.T.);
#101=FACE_BOUND('',#132,.T.);
#102=FACE_BOUND('',#133,.T.);
#103=FACE_BOUND('',#134,.T.);
#104=FACE_BOUND('',#135,.T.);
#105=FACE_BOUND('',#136,.T.);
#106=FACE_BOUND('',#137,.T.);
#107=FACE_BOUND('',#138,.T.);
#108=EDGE_LOOP('',(#140));
#109=EDGE_LOOP('',(#141));
#110=EDGE_LOOP('',(#142));
#111=EDGE_LOOP('',(#143));
#112=EDGE_LOOP('',(#144));
#113=EDGE_LOOP('',(#145));
#114=EDGE_LOOP('',(#146));
#115=EDGE_LOOP('',(#147));
#116=EDGE_LOOP('',(#148));
#117=EDGE_LOOP('',(#149));
#118=EDGE_LOOP('',(#150));
#119=EDGE_LOOP('',(#151));
#120=EDGE_LOOP('',(#152));
#121=EDGE_LOOP('',(#153));
#122=EDGE_LOOP('',(#154));
#123=EDGE_LOOP('',(#155));
#124=EDGE_LOOP('',(#156));
#125=EDGE_LOOP('',(#157));
#126=EDGE_LOOP('',(#158));
#127=EDGE_LOOP('',(#159));
#128=EDGE_LOOP('',(#160));
#129=EDGE_LOOP('',(#161));
#130=EDGE_LOOP('',(#162));
#131=EDGE_LOOP('',(#163));
#132=EDGE_LOOP('',(#164));
#133=EDGE_LOOP('',(#165));
#134=EDGE_LOOP('',(#166));
#135=EDGE_LOOP('',(#167));
#136=EDGE_LOOP('',(#168));
#137=EDGE_LOOP('',(#169));
#138=EDGE_LOOP('',(#170));
#139=EDGE_LOOP('',(#171));
#140=ORIENTED_EDGE('',*,*,#188,.T.);
#141=ORIENTED_EDGE('',*,*,#189,.F.);
#142=ORIENTED_EDGE('',*,*,#188,.F.);
#143=ORIENTED_EDGE('',*,*,#190,.T.);
#144=ORIENTED_EDGE('',*,*,#191,.T.);
#145=ORIENTED_EDGE('',*,*,#192,.T.);
#146=ORIENTED_EDGE('',*,*,#193,.T.);
#147=ORIENTED_EDGE('',*,*,#192,.F.);
#148=ORIENTED_EDGE('',*,*,#194,.T.);
#149=ORIENTED_EDGE('',*,*,#195,.F.);
#150=ORIENTED_EDGE('',*,*,#195,.T.);
#151=ORIENTED_EDGE('',*,*,#196,.F.);
#152=ORIENTED_EDGE('',*,*,#193,.F.);
#153=ORIENTED_EDGE('',*,*,#194,.F.);
#154=ORIENTED_EDGE('',*,*,#190,.F.);
#155=ORIENTED_EDGE('',*,*,#191,.F.);
#156=ORIENTED_EDGE('',*,*,#197,.F.);
#157=ORIENTED_EDGE('',*,*,#196,.T.);
#158=ORIENTED_EDGE('',*,*,#198,.T.);
#159=ORIENTED_EDGE('',*,*,#198,.F.);
#160=ORIENTED_EDGE('',*,*,#199,.F.);
#161=ORIENTED_EDGE('',*,*,#199,.T.);
#162=ORIENTED_EDGE('',*,*,#200,.F.);
#163=ORIENTED_EDGE('',*,*,#200,.T.);
#164=ORIENTED_EDGE('',*,*,#201,.F.);
#165=ORIENTED_EDGE('',*,*,#201,.T.);
#166=ORIENTED_EDGE('',*,*,#202,.F.);
#167=ORIENTED_EDGE('',*,*,#203,.F.);
#168=ORIENTED_EDGE('',*,*,#202,.T.);
#169=ORIENTED_EDGE('',*,*,#203,.T.);
#170=ORIENTED_EDGE('',*,*,#197,.T.);
#171=ORIENTED_EDGE('',*,*,#189,.T.);
#172=VERTEX_POINT('',#324);
#173=VERTEX_POINT('',#326);
#174=VERTEX_POINT('',#329);
#175=VERTEX_POINT('',#332);
#176=VERTEX_POINT('',#334);
#177=VERTEX_POINT('',#337);
#178=VERTEX_POINT('',#340);
#179=VERTEX_POINT('',#342);
#180=VERTEX_POINT('',#345);
#181=VERTEX_POINT('',#350);
#182=VERTEX_POINT('',#353);
#183=VERTEX_POINT('',#356);
#184=VERTEX_POINT('',#359);
#185=VERTEX_POINT('',#362);
#186=VERTEX_POINT('',#365);
#187=VERTEX_POINT('',#368);
#188=EDGE_CURVE('',#172,#172,#204,.T.);
#189=EDGE_CURVE('',#173,#173,#205,.T.);
#190=EDGE_CURVE('',#174,#174,#206,.T.);
#191=EDGE_CURVE('',#175,#175,#207,.T.);
#192=EDGE_CURVE('',#176,#176,#208,.T.);
#193=EDGE_CURVE('',#177,#177,#209,.T.);
#194=EDGE_CURVE('',#178,#178,#210,.T.);
#195=EDGE_CURVE('',#179,#179,#211,.T.);
#196=EDGE_CURVE('',#180,#180,#212,.T.);
#197=EDGE_CURVE('',#181,#181,#213,.T.);
#198=EDGE_CURVE('',#182,#182,#214,.T.);
#199=EDGE_CURVE('',#183,#183,#215,.T.);
#200=EDGE_CURVE('',#184,#184,#216,.T.);
#201=EDGE_CURVE('',#185,#185,#217,.T.);
#202=EDGE_CURVE('',#186,#186,#218,.T.);
#203=EDGE_CURVE('',#187,#187,#219,.T.);
#204=CIRCLE('',#221,1.5);
#205=CIRCLE('',#222,1.5);
#206=CIRCLE('',#224,3.81862245038585);
#207=CIRCLE('',#226,5.81740410442404);
#208=CIRCLE('',#227,6.49999999999999);
#209=CIRCLE('',#229,6.49999999999999);
#210=CIRCLE('',#231,7.98236190979495);
#211=CIRCLE('',#232,15.);
#212=CIRCLE('',#234,15.);
#213=CIRCLE('',#238,10.);
#214=CIRCLE('',#240,4.);
#215=CIRCLE('',#242,4.);
#216=CIRCLE('',#244,4.3);
#217=CIRCLE('',#246,4.3135099835713);
#218=CIRCLE('',#248,6.);
#219=CIRCLE('',#250,10.);
#220=AXIS2_PLACEMENT_3D('',#322,#254,#255);
#221=AXIS2_PLACEMENT_3D('',#323,#256,#257);
#222=AXIS2_PLACEMENT_3D('',#325,#258,#259);
#223=AXIS2_PLACEMENT_3D('',#327,#260,#261);
#224=AXIS2_PLACEMENT_3D('',#328,#262,#263);
#225=AXIS2_PLACEMENT_3D('',#330,#264,#265);
#226=AXIS2_PLACEMENT_3D('',#331,#266,#267);
#227=AXIS2_PLACEMENT_3D('',#333,#268,#269);
#228=AXIS2_PLACEMENT_3D('',#335,#270,#271);
#229=AXIS2_PLACEMENT_3D('',#336,#272,#273);
#230=AXIS2_PLACEMENT_3D('',#338,#274,#275);
#231=AXIS2_PLACEMENT_3D('',#339,#276,#277);
#232=AXIS2_PLACEMENT_3D('',#341,#278,#279);
#233=AXIS2_PLACEMENT_3D('',#343,#280,#281);
#234=AXIS2_PLACEMENT_3D('',#344,#282,#283);
#235=AXIS2_PLACEMENT_3D('',#346,#284,#285);
#236=AXIS2_PLACEMENT_3D('',#347,#286,#287);
#237=AXIS2_PLACEMENT_3D('',#348,#288,#289);
#238=AXIS2_PLACEMENT_3D('',#349,#290,#291);
#239=AXIS2_PLACEMENT_3D('',#351,#292,#293);
#240=AXIS2_PLACEMENT_3D('',#352,#294,#295);
#241=AXIS2_PLACEMENT_3D('',#354,#296,#297);
#242=AXIS2_PLACEMENT_3D('',#355,#298,#299);
#243=AXIS2_PLACEMENT_3D('',#357,#300,#301);
#244=AXIS2_PLACEMENT_3D('',#358,#302,#303);
#245=AXIS2_PLACEMENT_3D('',#360,#304,#305);
#246=AXIS2_PLACEMENT_3D('',#361,#306,#307);
#247=AXIS2_PLACEMENT_3D('',#363,#308,#309);
#248=AXIS2_PLACEMENT_3D('',#364,#310,#311);
#249=AXIS2_PLACEMENT_3D('',#366,#312,#313);
#250=AXIS2_PLACEMENT_3D('',#367,#314,#315);
#251=AXIS2_PLACEMENT_3D('',#369,#316,#317);
#252=AXIS2_PLACEMENT_3D('',#370,#318,#319);
#253=AXIS2_PLACEMENT_3D('',#371,#320,#321);
#254=DIRECTION('',(0.,0.,1.));
#255=DIRECTION('',(1.,0.,0.));
#256=DIRECTION('',(0.,0.,1.));
#257=DIRECTION('',(1.,0.,0.));
#258=DIRECTION('',(0.,0.,1.));
#259=DIRECTION('',(1.,0.,0.));
#260=DIRECTION('',(0.,0.,1.));
#261=DIRECTION('',(0.,-1.,0.));
#262=DIRECTION('',(0.,0.,1.));
#263=DIRECTION('',(0.,-1.,0.));
#264=DIRECTION('',(0.,0.,1.));
#265=DIRECTION('',(0.,-1.,0.));
#266=DIRECTION('',(0.,0.,-1.));
#267=DIRECTION('',(0.,1.,0.));
#268=DIRECTION('',(0.,0.,1.));
#269=DIRECTION('',(0.,1.,0.));
#270=DIRECTION('',(0.,0.,-1.));
#271=DIRECTION('',(0.,1.,-6.82445303162039E-016));
#272=DIRECTION('',(0.,0.,1.));
#273=DIRECTION('',(0.,1.,0.));
#274=DIRECTION('',(0.,0.,-1.));
#275=DIRECTION('',(0.,1.,0.));
#276=DIRECTION('',(0.,0.,-1.));
#277=DIRECTION('',(0.,1.,0.));
#278=DIRECTION('',(0.,0.,-1.));
#279=DIRECTION('',(0.,1.,0.));
#280=DIRECTION('',(0.,0.,-1.));
#281=DIRECTION('',(0.,1.,0.));
#282=DIRECTION('',(0.,0.,-1.));
#283=DIRECTION('',(1.,0.,0.));
#284=DIRECTION('',(0.,0.,1.));
#285=DIRECTION('',(0.,-1.,0.));
#286=DIRECTION('',(0.,0.,-1.));
#287=DIRECTION('',(0.,1.,0.));
#288=DIRECTION('',(0.,0.,1.));
#289=DIRECTION('',(0.,-1.,0.));
#290=DIRECTION('',(0.,0.,-1.));
#291=DIRECTION('',(1.,0.,0.));
#292=DIRECTION('',(0.,0.,1.));
#293=DIRECTION('',(0.,-1.,0.));
#294=DIRECTION('',(0.,0.,-1.));
#295=DIRECTION('',(-1.,0.,0.));
#296=DIRECTION('',(0.,0.,-1.));
#297=DIRECTION('',(0.,1.,0.));
#298=DIRECTION('',(0.,0.,1.));
#299=DIRECTION('',(-1.,0.,0.));
#300=DIRECTION('',(0.,0.,-1.));
#301=DIRECTION('',(0.,1.,0.));
#302=DIRECTION('',(0.,0.,1.));
#303=DIRECTION('',(0.,1.,0.));
#304=DIRECTION('',(0.,0.,-1.));
#305=DIRECTION('',(0.,1.,0.));
#306=DIRECTION('',(0.,0.,1.));
#307=DIRECTION('',(0.,1.,0.));
#308=DIRECTION('',(0.,0.,-1.));
#309=DIRECTION('',(0.,1.,0.));
#310=DIRECTION('',(0.,0.,1.));
#311=DIRECTION('',(-1.,0.,0.));
#312=DIRECTION('',(0.,0.,1.));
#313=DIRECTION('',(0.,-1.,-1.91610239070161E-016));
#314=DIRECTION('',(0.,0.,1.));
#315=DIRECTION('',(0.,-1.,0.));
#316=DIRECTION('',(0.,0.,-1.));
#317=DIRECTION('',(0.,1.,0.));
#318=DIRECTION('',(0.,0.,1.));
#319=DIRECTION('',(0.,-1.,0.));
#320=DIRECTION('',(0.,0.,1.));
#321=DIRECTION('',(1.,0.,0.));
#322=CARTESIAN_POINT('',(0.,0.,0.));
#323=CARTESIAN_POINT('',(1.0842021724855E-016,0.,37.));
#324=CARTESIAN_POINT('',(1.5,0.,37.));
#325=CARTESIAN_POINT('',(1.0842021724855E-016,0.,11.));
#326=CARTESIAN_POINT('',(1.5,0.,11.));
#327=CARTESIAN_POINT('',(1.0842021724855E-016,0.,-28.));
#328=CARTESIAN_POINT('',(0.,0.,37.));
#329=CARTESIAN_POINT('',(0.,-3.81862245038585,37.));
#330=CARTESIAN_POINT('',(0.,0.,37.));
#331=CARTESIAN_POINT('',(0.,0.,35.069798993405));
#332=CARTESIAN_POINT('',(0.,5.81740410442404,35.069798993405));
#333=CARTESIAN_POINT('',(0.,0.,15.5228100378133));
#334=CARTESIAN_POINT('',(0.,6.49999999999999,15.5228100378133));
#335=CARTESIAN_POINT('',(0.,0.,37.0000000000001));
#336=CARTESIAN_POINT('',(0.,0.,8.81265397595793));
#337=CARTESIAN_POINT('',(0.,6.49999999999999,8.81265397595793));
#338=CARTESIAN_POINT('',(0.,0.,-100.81126254777));
#339=CARTESIAN_POINT('',(0.,0.,6.88080232337979));
#340=CARTESIAN_POINT('',(0.,7.98236190979495,6.88080232337979));
#341=CARTESIAN_POINT('',(0.,0.,5.00043186433546));
#342=CARTESIAN_POINT('',(0.,15.,5.00043186433546));
#343=CARTESIAN_POINT('',(0.,0.,7.27800000000001));
#344=CARTESIAN_POINT('',(0.,0.,0.));
#345=CARTESIAN_POINT('',(15.,0.,0.));
#346=CARTESIAN_POINT('',(0.,0.,-28.));
#347=CARTESIAN_POINT('',(0.,0.,8.81265397595793));
#348=CARTESIAN_POINT('',(0.,0.,35.));
#349=CARTESIAN_POINT('',(-9.34807244633295E-015,-6.73533494602307E-016,
0.));
#350=CARTESIAN_POINT('',(9.99999999999999,-6.73533494602307E-016,0.));
#351=CARTESIAN_POINT('',(0.,0.,1.30104260698261E-015));
#352=CARTESIAN_POINT('',(0.,0.,-28.));
#353=CARTESIAN_POINT('',(-4.,0.,-28.));
#354=CARTESIAN_POINT('',(0.,0.,-28.));
#355=CARTESIAN_POINT('',(0.,0.,-23.0583801512904));
#356=CARTESIAN_POINT('',(-4.,0.,-23.0583801512904));
#357=CARTESIAN_POINT('',(0.,0.,-100.81126254777));
#358=CARTESIAN_POINT('',(0.,0.,-23.));
#359=CARTESIAN_POINT('',(0.,4.3,-23.));
#360=CARTESIAN_POINT('',(0.,0.,-23.8));
#361=CARTESIAN_POINT('',(0.,0.,-23.));
#362=CARTESIAN_POINT('',(0.,4.3135099835713,-23.));
#363=CARTESIAN_POINT('',(-3.5,0.,-23.));
#364=CARTESIAN_POINT('',(0.,0.,-11.));
#365=CARTESIAN_POINT('',(-6.,0.,-11.));
#366=CARTESIAN_POINT('',(0.,0.,-23.));
#367=CARTESIAN_POINT('',(0.,0.,-11.));
#368=CARTESIAN_POINT('',(0.,-10.,-11.));
#369=CARTESIAN_POINT('',(-6.,0.,-11.));
#370=CARTESIAN_POINT('',(0.,0.,-5.5));
#371=CARTESIAN_POINT('',(1.0842021724855E-016,0.,11.));
#372=MECHANICAL_DESIGN_GEOMETRIC_PRESENTATION_REPRESENTATION('',(#32),#373);
#373=(
GEOMETRIC_REPRESENTATION_CONTEXT(3)
GLOBAL_UNCERTAINTY_ASSIGNED_CONTEXT((#374))
GLOBAL_UNIT_ASSIGNED_CONTEXT((#380,#376,#375))
REPRESENTATION_CONTEXT('836604_stp','TOP_LEVEL_ASSEMBLY_PART')
);
#374=UNCERTAINTY_MEASURE_WITH_UNIT(LENGTH_MEASURE(2.E-005),#380,
'DISTANCE_ACCURACY_VALUE','Maximum Tolerance applied to model');
#375=(
NAMED_UNIT(*)
SI_UNIT($,.STERADIAN.)
SOLID_ANGLE_UNIT()
);
#376=(
CONVERSION_BASED_UNIT('DEGREE',#378)
NAMED_UNIT(#377)
PLANE_ANGLE_UNIT()
);
#377=DIMENSIONAL_EXPONENTS(0.,0.,0.,0.,0.,0.,0.);
#378=PLANE_ANGLE_MEASURE_WITH_UNIT(PLANE_ANGLE_MEASURE(0.0174532925),#379);
#379=(
NAMED_UNIT(*)
PLANE_ANGLE_UNIT()
SI_UNIT($,.RADIAN.)
);
#380=(
LENGTH_UNIT()
NAMED_UNIT(*)
SI_UNIT(.MILLI.,.METRE.)
);
ENDSEC;
END-ISO-10303-21;
