  0
SECTION
  2
HEADER
  9
$ACADVER
  1
AC1014
  9
$ACADMAINTVER
 70
     9
  9
$DWGCODEPAGE
  3
ANSI_1252
  9
$INSBASE
 10
0.0
 20
0.0
 30
0.0
  9
$EXTMIN
 10
1.000000000000000E+20
 20
1.000000000000000E+20
 30
1.000000000000000E+20
  9
$EXTMAX
 10
-1.000000000000000E+20
 20
-1.000000000000000E+20
 30
-1.000000000000000E+20
  9
$LIMMIN
 10
0.0
 20
0.0
  9
$LIMMAX
 10
12.0
 20
9.0
  9
$ORTHOMODE
 70
     0
  9
$REGENMODE
 70
     1
  9
$FILLMODE
 70
     1
  9
$QTEXTMODE
 70
     0
  9
$MIRRTEXT
 70
     1
  9
$DRAGMODE
 70
     2
  9
$LTSCALE
 40
1.0
  9
$OSMODE
 70
    37
  9
$ATTMODE
 70
     1
  9
$TEXTSIZE
 40
0.2
  9
$TRACEWID
 40
0.05
  9
$TEXTSTYLE
  7
STANDARD
  9
$CLAYER
  8
0
  9
$CELTYPE
  6
BYLAYER
  9
$CECOLOR
 62
   256
  9
$CELTSCALE
 40
1.0
  9
$DELOBJ
 70
     1
  9
$DISPSILH
 70
     0
  9
$DIMSCALE
 40
1.0
  9
$DIMASZ
 40
0.18
  9
$DIMEXO
 40
0.0625
  9
$DIMDLI
 40
0.38
  9
$DIMRND
 40
0.0
  9
$DIMDLE
 40
0.0
  9
$DIMEXE
 40
0.18
  9
$DIMTP
 40
0.0
  9
$DIMTM
 40
0.0
  9
$DIMTXT
 40
0.18
  9
$DIMCEN
 40
0.09
  9
$DIMTSZ
 40
0.0
  9
$DIMTOL
 70
     0
  9
$DIMLIM
 70
     0
  9
$DIMTIH
 70
     1
  9
$DIMTOH
 70
     1
  9
$DIMSE1
 70
     0
  9
$DIMSE2
 70
     0
  9
$DIMTAD
 70
     0
  9
$DIMZIN
 70
     0
  9
$DIMBLK
  1

  9
$DIMASO
 70
     1
  9
$DIMSHO
 70
     1
  9
$DIMPOST
  1

  9
$DIMAPOST
  1

  9
$DIMALT
 70
     0
  9
$DIMALTD
 70
     2
  9
$DIMALTF
 40
25.4
  9
$DIMLFAC
 40
1.0
  9
$DIMTOFL
 70
     0
  9
$DIMTVP
 40
0.0
  9
$DIMTIX
 70
     0
  9
$DIMSOXD
 70
     0
  9
$DIMSAH
 70
     0
  9
$DIMBLK1
  1

  9
$DIMBLK2
  1

  9
$DIMSTYLE
  2
STANDARD
  9
$DIMCLRD
 70
     0
  9
$DIMCLRE
 70
     0
  9
$DIMCLRT
 70
     0
  9
$DIMTFAC
 40
1.0
  9
$DIMGAP
 40
0.09
  9
$DIMJUST
 70
     0
  9
$DIMSD1
 70
     0
  9
$DIMSD2
 70
     0
  9
$DIMTOLJ
 70
     1
  9
$DIMTZIN
 70
     0
  9
$DIMALTZ
 70
     0
  9
$DIMALTTZ
 70
     0
  9
$DIMFIT
 70
     3
  9
$DIMUPT
 70
     0
  9
$DIMUNIT
 70
     2
  9
$DIMDEC
 70
     4
  9
$DIMTDEC
 70
     4
  9
$DIMALTU
 70
     2
  9
$DIMALTTD
 70
     2
  9
$DIMTXSTY
  7
STANDARD
  9
$DIMAUNIT
 70
     0
  9
$LUNITS
 70
     2
  9
$LUPREC
 70
     4
  9
$SKETCHINC
 40
0.1
  9
$FILLETRAD
 40
0.5
  9
$AUNITS
 70
     0
  9
$AUPREC
 70
     0
  9
$MENU
  1
.
  9
$ELEVATION
 40
0.0
  9
$PELEVATION
 40
0.0
  9
$THICKNESS
 40
0.0
  9
$LIMCHECK
 70
     0
  9
$CHAMFERA
 40
0.5
  9
$CHAMFERB
 40
0.5
  9
$CHAMFERC
 40
1.0
  9
$CHAMFERD
 40
0.0
  9
$SKPOLY
 70
     0
  9
$TDCREATE
 40
2458417.406256701
  9
$TDUPDATE
 40
2458417.406256713
  9
$TDINDWG
 40
0.0000000116
  9
$TDUSRTIMER
 40
0.0000000116
  9
$USRTIMER
 70
     1
  9
$ANGBASE
 50
0.0
  9
$ANGDIR
 70
     0
  9
$PDMODE
 70
     0
  9
$PDSIZE
 40
0.0
  9
$PLINEWID
 40
0.0
  9
$COORDS
 70
     1
  9
$SPLFRAME
 70
     0
  9
$SPLINETYPE
 70
     6
  9
$SPLINESEGS
 70
     8
  9
$ATTDIA
 70
     0
  9
$ATTREQ
 70
     1
  9
$HANDLING
 70
     1
  9
$HANDSEED
  5
428
  9
$SURFTAB1
 70
     6
  9
$SURFTAB2
 70
     6
  9
$SURFTYPE
 70
     6
  9
$SURFU
 70
     6
  9
$SURFV
 70
     6
  9
$UCSNAME
  2

  9
$UCSORG
 10
0.0
 20
0.0
 30
0.0
  9
$UCSXDIR
 10
1.0
 20
0.0
 30
0.0
  9
$UCSYDIR
 10
0.0
 20
1.0
 30
0.0
  9
$PUCSNAME
  2

  9
$PUCSORG
 10
0.0
 20
0.0
 30
0.0
  9
$PUCSXDIR
 10
1.0
 20
0.0
 30
0.0
  9
$PUCSYDIR
 10
0.0
 20
1.0
 30
0.0
  9
$USERI1
 70
     0
  9
$USERI2
 70
     0
  9
$USERI3
 70
     0
  9
$USERI4
 70
     0
  9
$USERI5
 70
     0
  9
$USERR1
 40
0.0
  9
$USERR2
 40
0.0
  9
$USERR3
 40
0.0
  9
$USERR4
 40
0.0
  9
$USERR5
 40
0.0
  9
$WORLDVIEW
 70
     1
  9
$SHADEDGE
 70
     3
  9
$SHADEDIF
 70
    70
  9
$TILEMODE
 70
     1
  9
$MAXACTVP
 70
    64
  9
$PINSBASE
 10
0.0
 20
0.0
 30
0.0
  9
$PLIMCHECK
 70
     0
  9
$PEXTMIN
 10
1.000000000000000E+20
 20
1.000000000000000E+20
 30
1.000000000000000E+20
  9
$PEXTMAX
 10
-1.000000000000000E+20
 20
-1.000000000000000E+20
 30
-1.000000000000000E+20
  9
$PLIMMIN
 10
0.0
 20
0.0
  9
$PLIMMAX
 10
12.0
 20
9.0
  9
$UNITMODE
 70
     0
  9
$VISRETAIN
 70
     1
  9
$PLINEGEN
 70
     0
  9
$PSLTSCALE
 70
     1
  9
$TREEDEPTH
 70
  3020
  9
$PICKSTYLE
 70
     1
  9
$CMLSTYLE
  2
STANDARD
  9
$CMLJUST
 70
     0
  9
$CMLSCALE
 40
1.0
  9
$PROXYGRAPHICS
 70
     1
  9
$MEASUREMENT
 70
     0
  0
ENDSEC
  0
SECTION
  2
CLASSES
  0
CLASS
  1
ACDBDICTIONARYWDFLT
  2
AcDbDictionaryWithDefault
  3
ObjectDBX Classes
 90
        0
280
     0
281
     0
  0
CLASS
  1
VISUALSTYLE
  2
AcDbVisualStyle
  3
ObjectDBX Classes
 90
     4095
280
     0
281
     0
  0
CLASS
  1
XRECORD
  2
AcDbXrecord
  3
AutoCAD 2000
 90
        0
280
     0
281
     0
  0
CLASS
  1
LWPOLYLINE
  2
AcDbPolyline
  3
AutoCAD 2000
 90
        0
280
     0
281
     1
  0
CLASS
  1
HATCH
  2
AcDbHatch
  3
AutoCAD 2000
 90
        0
280
     0
281
     1
  0
CLASS
  1
ACDBPLACEHOLDER
  2
AcDbPlaceHolder
  3
ObjectDBX Classes
 90
        0
280
     0
281
     0
  0
CLASS
  1
LAYOUT
  2
AcDbLayout
  3
ObjectDBX Classes
 90
        0
280
     0
281
     0
  0
ENDSEC
  0
SECTION
  2
TABLES
  0
TABLE
  2
VPORT
  5
8
330
0
100
AcDbSymbolTable
 70
     1
  0
VPORT
  5
29
330
8
100
AcDbSymbolTableRecord
100
AcDbViewportTableRecord
  2
*ACTIVE
 70
     0
 10
0.0
 20
0.0
 11
1.0
 21
1.0
 12
0.0
 22
0.0
 13
0.0
 23
0.0
 14
0.5
 24
0.5
 15
0.5
 25
0.5
 16
0.0
 26
0.0
 36
1.0
 17
99.99303518550522
 27
127.3042018995976
 37
0.0
 40
209.9999294179862
 41
1.414285995518093
 42
50.0
 43
0.0
 44
0.0
 50
0.0
 51
0.0
 71
     0
 72
   100
 73
     1
 74
     3
 75
     0
 76
     0
 77
     0
 78
     0
  0
ENDTAB
  0
TABLE
  2
LTYPE
  5
5
330
0
100
AcDbSymbolTable
 70
     1
  0
LTYPE
  5
14
330
5
100
AcDbSymbolTableRecord
100
AcDbLinetypeTableRecord
  2
BYBLOCK
 70
     0
  3

 72
    65
 73
     0
 40
0.0
  0
LTYPE
  5
15
330
5
100
AcDbSymbolTableRecord
100
AcDbLinetypeTableRecord
  2
BYLAYER
 70
     0
  3

 72
    65
 73
     0
 40
0.0
  0
LTYPE
  5
16
330
5
100
AcDbSymbolTableRecord
100
AcDbLinetypeTableRecord
  2
CONTINUOUS
 70
     0
  3
Solid line
 72
    65
 73
     0
 40
0.0
  0
ENDTAB
  0
TABLE
  2
LAYER
  5
2
330
0
100
AcDbSymbolTable
 70
     5
  0
LAYER
  5
10
330
2
100
AcDbSymbolTableRecord
100
AcDbLayerTableRecord
  2
0
 70
     0
 62
     7
  6
CONTINUOUS
  0
LAYER
  5
3B
330
2
100
AcDbSymbolTableRecord
100
AcDbLayerTableRecord
  2
GRAU_10_
 70
     1
 62
     7
  6
CONTINUOUS
  0
LAYER
  5
4C
330
2
100
AcDbSymbolTableRecord
100
AcDbLayerTableRecord
  2
EBENE_3
 70
     1
 62
     7
  6
CONTINUOUS
  0
LAYER
  5
E5
330
2
100
AcDbSymbolTableRecord
100
AcDbLayerTableRecord
  2
STANDARDEBENE
 70
     0
 62
     7
  6
CONTINUOUS
  0
LAYER
  5
365
330
2
100
AcDbSymbolTableRecord
100
AcDbLayerTableRecord
  2
EBENE_2
 70
     1
 62
     7
  6
CONTINUOUS
  0
ENDTAB
  0
TABLE
  2
STYLE
  5
3
330
0
100
AcDbSymbolTable
 70
     1
  0
STYLE
  5
11
330
3
100
AcDbSymbolTableRecord
100
AcDbTextStyleTableRecord
  2
STANDARD
 70
     0
 40
0.0
 41
1.0
 50
0.0
 71
     0
 42
0.2
  3
txt
  4

  0
ENDTAB
  0
TABLE
  2
VIEW
  5
6
330
0
100
AcDbSymbolTable
 70
     0
  0
ENDTAB
  0
TABLE
  2
UCS
  5
7
330
0
100
AcDbSymbolTable
 70
     0
  0
ENDTAB
  0
TABLE
  2
APPID
  5
9
330
0
100
AcDbSymbolTable
 70
     1
  0
APPID
  5
12
330
9
100
AcDbSymbolTableRecord
100
AcDbRegAppTableRecord
  2
ACAD
 70
     0
  0
ENDTAB
  0
TABLE
  2
DIMSTYLE
  5
A
330
0
100
AcDbSymbolTable
 70
     1
  0
DIMSTYLE
105
27
330
A
100
AcDbSymbolTableRecord
100
AcDbDimStyleTableRecord
  2
STANDARD
 70
     0
  3

  4

  5

  6

  7

 40
1.0
 41
0.18
 42
0.0625
 43
0.38
 44
0.18
 45
0.0
 46
0.0
 47
0.0
 48
0.0
140
0.18
141
0.09
142
0.0
143
25.4
144
1.0
145
0.0
146
1.0
147
0.09
 71
     0
 72
     0
 73
     1
 74
     1
 75
     0
 76
     0
 77
     0
 78
     0
170
     0
171
     2
172
     0
173
     0
174
     0
175
     0
176
     0
177
     0
178
     0
270
     2
271
     4
272
     4
273
     2
274
     2
340
11
275
     0
280
     0
281
     0
282
     0
283
     1
284
     0
285
     0
286
     0
287
     3
288
     0
  0
ENDTAB
  0
TABLE
  2
BLOCK_RECORD
  5
1
330
0
100
AcDbSymbolTable
 70
     1
  0
BLOCK_RECORD
  5
1F
330
1
100
AcDbSymbolTableRecord
100
AcDbBlockTableRecord
  2
*MODEL_SPACE
  0
BLOCK_RECORD
  5
1B
330
1
100
AcDbSymbolTableRecord
100
AcDbBlockTableRecord
  2
*PAPER_SPACE
  0
ENDTAB
  0
ENDSEC
  0
SECTION
  2
BLOCKS
  0
BLOCK
  5
20
330
1F
100
AcDbEntity
  8
0
100
AcDbBlockBegin
  2
*MODEL_SPACE
 70
     0
 71
     0
 10
0.0
 20
0.0
 30
0.0
  3
*MODEL_SPACE
  1

  0
ENDBLK
  5
21
330
1F
100
AcDbEntity
  8
0
100
AcDbBlockEnd
  0
BLOCK
  5
1C
330
1B
100
AcDbEntity
 67
     1
  8
0
100
AcDbBlockBegin
  2
*PAPER_SPACE
 70
     0
 71
     0
 10
0.0
 20
0.0
 30
0.0
  3
*PAPER_SPACE
  1

  0
ENDBLK
  5
1D
330
1B
100
AcDbEntity
 67
     1
  8
0
100
AcDbBlockEnd
  0
ENDSEC
  0
SECTION
  2
ENTITIES
  0
POLYLINE
  5
3C
330
1F
100
AcDbEntity
  8
GRAU_10_
100
AcDb2dPolyline
 66
     1
 10
0.0
 20
0.0
 30
0.0
  0
VERTEX
  5
3D
330
3C
100
AcDbEntity
  8
GRAU_10_
100
AcDbVertex
100
AcDb2dVertex
 10
86.37285018456998
 20
157.7343858112609
 30
0.0
  0
VERTEX
  5
3E
330
3C
100
AcDbEntity
  8
GRAU_10_
100
AcDbVertex
100
AcDb2dVertex
 10
89.48446042684763
 20
159.377696357725
 30
0.0
  0
VERTEX
  5
3F
330
3C
100
AcDbEntity
  8
GRAU_10_
100
AcDbVertex
100
AcDb2dVertex
 10
89.4625840705163
 20
158.1507256006533
 30
0.0
  0
VERTEX
  5
40
330
3C
100
AcDbEntity
  8
GRAU_10_
100
AcDbVertex
100
AcDb2dVertex
 10
92.04795597742205
 20
158.1507256006533
 30
0.0
  0
VERTEX
  5
41
330
3C
100
AcDbEntity
  8
GRAU_10_
100
AcDbVertex
100
AcDb2dVertex
 10
92.13563365752165
 20
159.2681423212941
 30
0.0
  0
VERTEX
  5
42
330
3C
100
AcDbEntity
  8
GRAU_10_
100
AcDbVertex
100
AcDb2dVertex
 10
108.0433620606628
 20
157.0770615926752
 30
0.0
  0
VERTEX
  5
43
330
3C
100
AcDbEntity
  8
GRAU_10_
100
AcDbVertex
100
AcDb2dVertex
 10
107.9996093480001
 20
148.3780232376451
 30
0.0
  0
VERTEX
  5
44
330
3C
100
AcDbEntity
  8
GRAU_10_
100
AcDbVertex
100
AcDb2dVertex
 10
92.0260796210907
 20
146.077216217821
 30
0.0
  0
VERTEX
  5
45
330
3C
100
AcDbEntity
  8
GRAU_10_
100
AcDbVertex
100
AcDb2dVertex
 10
91.87277287199709
 20
147.1072997679107
 30
0.0
  0
VERTEX
  5
46
330
3C
100
AcDbEntity
  8
GRAU_10_
100
AcDbVertex
100
AcDb2dVertex
 10
89.3749063904167
 20
147.1510524805734
 30
0.0
  0
VERTEX
  5
47
330
3C
100
AcDbEntity
  8
GRAU_10_
100
AcDbVertex
100
AcDb2dVertex
 10
89.39678274674803
 20
145.8799845012904
 30
0.0
  0
VERTEX
  5
48
330
3C
100
AcDbEntity
  8
GRAU_10_
100
AcDbVertex
100
AcDb2dVertex
 10
86.37285018456998
 20
147.5455159136345
 30
0.0
  0
VERTEX
  5
49
330
3C
100
AcDbEntity
  8
GRAU_10_
100
AcDbVertex
100
AcDb2dVertex
 10
86.37285018456998
 20
157.7343858112609
 30
0.0
  0
SEQEND
  5
4A
330
3C
100
AcDbEntity
  8
GRAU_10_
  0
HATCH
  5
4B
330
1F
100
AcDbEntity
  8
GRAU_10_
 62
   255
100
AcDbHatch
 10
0.0
 20
0.0
 30
0.0
210
0.0
220
0.0
230
1.0
  2
SOLID
 70
     1
 71
     0
 91
        1
 92
        1
 93
       12
 72
     1
 10
86.37285018456998
 20
157.7343858112609
 11
89.48446042684763
 21
159.377696357725
 72
     1
 10
89.48446042684763
 20
159.377696357725
 11
89.4625840705163
 21
158.1507256006533
 72
     1
 10
89.4625840705163
 20
158.1507256006533
 11
92.04795597742205
 21
158.1507256006533
 72
     1
 10
92.04795597742205
 20
158.1507256006533
 11
92.13563365752165
 21
159.2681423212941
 72
     1
 10
92.13563365752165
 20
159.2681423212941
 11
108.0433620606628
 21
157.0770615926752
 72
     1
 10
108.0433620606628
 20
157.0770615926752
 11
107.9996093480001
 21
148.3780232376451
 72
     1
 10
107.9996093480001
 20
148.3780232376451
 11
92.0260796210907
 21
146.077216217821
 72
     1
 10
92.0260796210907
 20
146.077216217821
 11
91.87277287199709
 21
147.1072997679107
 72
     1
 10
91.87277287199709
 20
147.1072997679107
 11
89.3749063904167
 21
147.1510524805734
 72
     1
 10
89.3749063904167
 20
147.1510524805734
 11
89.39678274674803
 21
145.8799845012904
 72
     1
 10
89.39678274674803
 20
145.8799845012904
 11
86.37285018456998
 21
147.5455159136345
 72
     1
 10
86.37285018456998
 20
147.5455159136345
 11
86.37285018456998
 21
157.7343858112609
 97
        0
 75
     2
 76
     1
 98
        0
  0
POLYLINE
  5
4D
330
1F
100
AcDbEntity
  8
EBENE_3
 62
     7
100
AcDb2dPolyline
 66
     1
 10
0.0
 20
0.0
 30
0.0
  0
VERTEX
  5
4E
330
4D
100
AcDbEntity
  8
EBENE_3
 62
     7
100
AcDbVertex
100
AcDb2dVertex
 10
99.45904538529149
 20
154.0226399354527
 30
0.0
  0
VERTEX
  5
4F
330
4D
100
AcDbEntity
  8
EBENE_3
 62
     7
100
AcDbVertex
100
AcDb2dVertex
 10
98.99688582594523
 20
154.0226399354527
 30
0.0
  0
SEQEND
  5
50
330
4D
100
AcDbEntity
  8
EBENE_3
  0
POLYLINE
  5
51
330
1F
100
AcDbEntity
  8
EBENE_3
 62
     7
100
AcDb2dPolyline
 66
     1
 10
0.0
 20
0.0
 30
0.0
  0
VERTEX
  5
52
330
51
100
AcDbEntity
  8
EBENE_3
 62
     7
100
AcDbVertex
100
AcDb2dVertex
 10
98.07222219770416
 20
154.0226399354527
 30
0.0
  0
VERTEX
  5
53
330
51
100
AcDbEntity
  8
EBENE_3
 62
     7
100
AcDbVertex
100
AcDb2dVertex
 10
97.14721405991459
 20
154.0226399354527
 30
0.0
  0
SEQEND
  5
54
330
51
100
AcDbEntity
  8
EBENE_3
  0
POLYLINE
  5
55
330
1F
100
AcDbEntity
  8
EBENE_3
 62
     7
100
AcDb2dPolyline
 66
     1
 10
0.0
 20
0.0
 30
0.0
  0
VERTEX
  5
56
330
55
100
AcDbEntity
  8
EBENE_3
 62
     7
100
AcDbVertex
100
AcDb2dVertex
 10
96.22255043167354
 20
154.0226399354527
 30
0.0
  0
VERTEX
  5
57
330
55
100
AcDbEntity
  8
EBENE_3
 62
     7
100
AcDbVertex
100
AcDb2dVertex
 10
95.29754229388395
 20
154.0226399354527
 30
0.0
  0
SEQEND
  5
58
330
55
100
AcDbEntity
  8
EBENE_3
  0
POLYLINE
  5
59
330
1F
100
AcDbEntity
  8
EBENE_3
 62
     7
100
AcDb2dPolyline
 66
     1
 10
0.0
 20
0.0
 30
0.0
  0
VERTEX
  5
5A
330
59
100
AcDbEntity
  8
EBENE_3
 62
     7
100
AcDbVertex
100
AcDb2dVertex
 10
94.37253415609437
 20
154.0226399354527
 30
0.0
  0
VERTEX
  5
5B
330
59
100
AcDbEntity
  8
EBENE_3
 62
     7
100
AcDbVertex
100
AcDb2dVertex
 10
93.44804278262758
 20
154.0226399354527
 30
0.0
  0
SEQEND
  5
5C
330
59
100
AcDbEntity
  8
EBENE_3
  0
POLYLINE
  5
5D
330
1F
100
AcDbEntity
  8
EBENE_3
 62
     7
100
AcDb2dPolyline
 66
     1
 10
0.0
 20
0.0
 30
0.0
  0
VERTEX
  5
5E
330
5D
100
AcDbEntity
  8
EBENE_3
 62
     7
100
AcDbVertex
100
AcDb2dVertex
 10
92.52372366393504
 20
154.0226399354527
 30
0.0
  0
VERTEX
  5
5F
330
5D
100
AcDbEntity
  8
EBENE_3
 62
     7
100
AcDbVertex
100
AcDb2dVertex
 10
91.59871552614547
 20
154.0226399354527
 30
0.0
  0
SEQEND
  5
60
330
5D
100
AcDbEntity
  8
EBENE_3
  0
POLYLINE
  5
61
330
1F
100
AcDbEntity
  8
EBENE_3
 62
     7
100
AcDb2dPolyline
 66
     1
 10
0.0
 20
0.0
 30
0.0
  0
VERTEX
  5
62
330
61
100
AcDbEntity
  8
EBENE_3
 62
     7
100
AcDbVertex
100
AcDb2dVertex
 10
90.6740518979044
 20
154.0226399354527
 30
0.0
  0
VERTEX
  5
63
330
61
100
AcDbEntity
  8
EBENE_3
 62
     7
100
AcDbVertex
100
AcDb2dVertex
 10
90.21120331946109
 20
154.0226399354527
 30
0.0
  0
SEQEND
  5
64
330
61
100
AcDbEntity
  8
EBENE_3
  0
POLYLINE
  5
65
330
1F
100
AcDbEntity
  8
EBENE_3
 62
     7
100
AcDb2dPolyline
 66
     1
 10
0.0
 20
0.0
 30
0.0
  0
VERTEX
  5
66
330
65
100
AcDbEntity
  8
EBENE_3
 62
     7
100
AcDbVertex
100
AcDb2dVertex
 10
91.20924748153797
 20
154.6785861158442
 30
0.0
  0
VERTEX
  5
67
330
65
100
AcDbEntity
  8
EBENE_3
 62
     7
100
AcDbVertex
100
AcDb2dVertex
 10
90.1092284930977
 20
154.6785861158442
 30
0.0
  0
SEQEND
  5
68
330
65
100
AcDbEntity
  8
EBENE_3
  0
POLYLINE
  5
69
330
1F
100
AcDbEntity
  8
EBENE_3
 62
     7
100
AcDb2dPolyline
 66
     1
 10
0.0
 20
0.0
 30
0.0
  0
VERTEX
  5
6A
330
69
100
AcDbEntity
  8
EBENE_3
 62
     7
100
AcDbVertex
100
AcDb2dVertex
 10
89.00938175943169
 20
154.6785861158442
 30
0.0
  0
VERTEX
  5
6B
330
69
100
AcDbEntity
  8
EBENE_3
 62
     7
100
AcDbVertex
100
AcDb2dVertex
 10
88.45902775566303
 20
154.6785861158442
 30
0.0
  0
SEQEND
  5
6C
330
69
100
AcDbEntity
  8
EBENE_3
  0
POLYLINE
  5
6D
330
1F
100
AcDbEntity
  8
EBENE_3
 62
     7
100
AcDb2dPolyline
 66
     1
 10
0.0
 20
0.0
 30
0.0
  0
VERTEX
  5
6E
330
6D
100
AcDbEntity
  8
EBENE_3
 62
     7
100
AcDbVertex
100
AcDb2dVertex
 10
99.45904538529149
 20
154.1638888503479
 30
0.0
  0
VERTEX
  5
6F
330
6D
100
AcDbEntity
  8
EBENE_3
 62
     7
100
AcDbVertex
100
AcDb2dVertex
 10
98.99688582594523
 20
154.1638888503479
 30
0.0
  0
SEQEND
  5
70
330
6D
100
AcDbEntity
  8
EBENE_3
  0
POLYLINE
  5
71
330
1F
100
AcDbEntity
  8
EBENE_3
 62
     7
100
AcDb2dPolyline
 66
     1
 10
0.0
 20
0.0
 30
0.0
  0
VERTEX
  5
72
330
71
100
AcDbEntity
  8
EBENE_3
 62
     7
100
AcDbVertex
100
AcDb2dVertex
 10
98.07222219770416
 20
154.1638888503479
 30
0.0
  0
VERTEX
  5
73
330
71
100
AcDbEntity
  8
EBENE_3
 62
     7
100
AcDbVertex
100
AcDb2dVertex
 10
97.14721405991459
 20
154.1638888503479
 30
0.0
  0
SEQEND
  5
74
330
71
100
AcDbEntity
  8
EBENE_3
  0
POLYLINE
  5
75
330
1F
100
AcDbEntity
  8
EBENE_3
 62
     7
100
AcDb2dPolyline
 66
     1
 10
0.0
 20
0.0
 30
0.0
  0
VERTEX
  5
76
330
75
100
AcDbEntity
  8
EBENE_3
 62
     7
100
AcDbVertex
100
AcDb2dVertex
 10
96.22255043167354
 20
154.1638888503479
 30
0.0
  0
VERTEX
  5
77
330
75
100
AcDbEntity
  8
EBENE_3
 62
     7
100
AcDbVertex
100
AcDb2dVertex
 10
95.29754229388395
 20
154.1638888503479
 30
0.0
  0
SEQEND
  5
78
330
75
100
AcDbEntity
  8
EBENE_3
  0
POLYLINE
  5
79
330
1F
100
AcDbEntity
  8
EBENE_3
 62
     7
100
AcDb2dPolyline
 66
     1
 10
0.0
 20
0.0
 30
0.0
  0
VERTEX
  5
7A
330
79
100
AcDbEntity
  8
EBENE_3
 62
     7
100
AcDbVertex
100
AcDb2dVertex
 10
94.37253415609437
 20
154.1638888503479
 30
0.0
  0
VERTEX
  5
7B
330
79
100
AcDbEntity
  8
EBENE_3
 62
     7
100
AcDbVertex
100
AcDb2dVertex
 10
93.44804278262758
 20
154.1638888503479
 30
0.0
  0
SEQEND
  5
7C
330
79
100
AcDbEntity
  8
EBENE_3
  0
POLYLINE
  5
7D
330
1F
100
AcDbEntity
  8
EBENE_3
 62
     7
100
AcDb2dPolyline
 66
     1
 10
0.0
 20
0.0
 30
0.0
  0
VERTEX
  5
7E
330
7D
100
AcDbEntity
  8
EBENE_3
 62
     7
100
AcDbVertex
100
AcDb2dVertex
 10
92.52372366393504
 20
154.1638888503479
 30
0.0
  0
VERTEX
  5
7F
330
7D
100
AcDbEntity
  8
EBENE_3
 62
     7
100
AcDbVertex
100
AcDb2dVertex
 10
91.59871552614547
 20
154.1638888503479
 30
0.0
  0
SEQEND
  5
80
330
7D
100
AcDbEntity
  8
EBENE_3
  0
POLYLINE
  5
81
330
1F
100
AcDbEntity
  8
EBENE_3
 62
     7
100
AcDb2dPolyline
 66
     1
 10
0.0
 20
0.0
 30
0.0
  0
VERTEX
  5
82
330
81
100
AcDbEntity
  8
EBENE_3
 62
     7
100
AcDbVertex
100
AcDb2dVertex
 10
90.6740518979044
 20
154.1638888503479
 30
0.0
  0
VERTEX
  5
83
330
81
100
AcDbEntity
  8
EBENE_3
 62
     7
100
AcDbVertex
100
AcDb2dVertex
 10
90.21120331946109
 20
154.1638888503479
 30
0.0
  0
SEQEND
  5
84
330
81
100
AcDbEntity
  8
EBENE_3
  0
POLYLINE
  5
85
330
1F
100
AcDbEntity
  8
EBENE_3
 62
     7
100
AcDb2dPolyline
 66
     1
 10
0.0
 20
0.0
 30
0.0
  0
VERTEX
  5
86
330
85
100
AcDbEntity
  8
EBENE_3
 62
     7
100
AcDbVertex
100
AcDb2dVertex
 10
90.21120331946109
 20
154.0226399354527
 30
0.0
  0
VERTEX
  5
87
330
85
100
AcDbEntity
  8
EBENE_3
 62
     7
100
AcDbVertex
100
AcDb2dVertex
 10
90.20706920487879
 20
154.0581244189507
 30
0.0
  0
SEQEND
  5
88
330
85
100
AcDbEntity
  8
EBENE_3
  0
POLYLINE
  5
89
330
1F
100
AcDbEntity
  8
EBENE_3
 62
     7
100
AcDb2dPolyline
 66
     1
 10
0.0
 20
0.0
 30
0.0
  0
VERTEX
  5
8A
330
89
100
AcDbEntity
  8
EBENE_3
 62
     7
100
AcDbVertex
100
AcDb2dVertex
 10
90.20638018578174
 20
154.1285766216241
 30
0.0
  0
VERTEX
  5
8B
330
89
100
AcDbEntity
  8
EBENE_3
 62
     7
100
AcDbVertex
100
AcDb2dVertex
 10
90.21120331946109
 20
154.1638888503479
 30
0.0
  0
SEQEND
  5
8C
330
89
100
AcDbEntity
  8
EBENE_3
  0
POLYLINE
  5
8D
330
1F
100
AcDbEntity
  8
EBENE_3
 62
     7
100
AcDb2dPolyline
 66
     1
 10
0.0
 20
0.0
 30
0.0
  0
VERTEX
  5
8E
330
8D
100
AcDbEntity
  8
EBENE_3
 62
     7
100
AcDbVertex
100
AcDb2dVertex
 10
99.45904538529149
 20
151.1973171279993
 30
0.0
  0
VERTEX
  5
8F
330
8D
100
AcDbEntity
  8
EBENE_3
 62
     7
100
AcDbVertex
100
AcDb2dVertex
 10
98.99688582594523
 20
151.1973171279993
 30
0.0
  0
SEQEND
  5
90
330
8D
100
AcDbEntity
  8
EBENE_3
  0
POLYLINE
  5
91
330
1F
100
AcDbEntity
  8
EBENE_3
 62
     7
100
AcDb2dPolyline
 66
     1
 10
0.0
 20
0.0
 30
0.0
  0
VERTEX
  5
92
330
91
100
AcDbEntity
  8
EBENE_3
 62
     7
100
AcDbVertex
100
AcDb2dVertex
 10
98.07222219770416
 20
151.1973171279993
 30
0.0
  0
VERTEX
  5
93
330
91
100
AcDbEntity
  8
EBENE_3
 62
     7
100
AcDbVertex
100
AcDb2dVertex
 10
97.14721405991459
 20
151.1973171279993
 30
0.0
  0
SEQEND
  5
94
330
91
100
AcDbEntity
  8
EBENE_3
  0
POLYLINE
  5
95
330
1F
100
AcDbEntity
  8
EBENE_3
 62
     7
100
AcDb2dPolyline
 66
     1
 10
0.0
 20
0.0
 30
0.0
  0
VERTEX
  5
96
330
95
100
AcDbEntity
  8
EBENE_3
 62
     7
100
AcDbVertex
100
AcDb2dVertex
 10
96.22255043167354
 20
151.1973171279993
 30
0.0
  0
VERTEX
  5
97
330
95
100
AcDbEntity
  8
EBENE_3
 62
     7
100
AcDbVertex
100
AcDb2dVertex
 10
95.29754229388395
 20
151.1973171279993
 30
0.0
  0
SEQEND
  5
98
330
95
100
AcDbEntity
  8
EBENE_3
  0
POLYLINE
  5
99
330
1F
100
AcDbEntity
  8
EBENE_3
 62
     7
100
AcDb2dPolyline
 66
     1
 10
0.0
 20
0.0
 30
0.0
  0
VERTEX
  5
9A
330
99
100
AcDbEntity
  8
EBENE_3
 62
     7
100
AcDbVertex
100
AcDb2dVertex
 10
94.37253415609437
 20
151.1973171279993
 30
0.0
  0
VERTEX
  5
9B
330
99
100
AcDbEntity
  8
EBENE_3
 62
     7
100
AcDbVertex
100
AcDb2dVertex
 10
93.44804278262758
 20
151.1973171279993
 30
0.0
  0
SEQEND
  5
9C
330
99
100
AcDbEntity
  8
EBENE_3
  0
POLYLINE
  5
9D
330
1F
100
AcDbEntity
  8
EBENE_3
 62
     7
100
AcDb2dPolyline
 66
     1
 10
0.0
 20
0.0
 30
0.0
  0
VERTEX
  5
9E
330
9D
100
AcDbEntity
  8
EBENE_3
 62
     7
100
AcDbVertex
100
AcDb2dVertex
 10
92.52372366393504
 20
151.1973171279993
 30
0.0
  0
VERTEX
  5
9F
330
9D
100
AcDbEntity
  8
EBENE_3
 62
     7
100
AcDbVertex
100
AcDb2dVertex
 10
91.59871552614547
 20
151.1973171279993
 30
0.0
  0
SEQEND
  5
A0
330
9D
100
AcDbEntity
  8
EBENE_3
  0
POLYLINE
  5
A1
330
1F
100
AcDbEntity
  8
EBENE_3
 62
     7
100
AcDb2dPolyline
 66
     1
 10
0.0
 20
0.0
 30
0.0
  0
VERTEX
  5
A2
330
A1
100
AcDbEntity
  8
EBENE_3
 62
     7
100
AcDbVertex
100
AcDb2dVertex
 10
90.6740518979044
 20
151.1973171279993
 30
0.0
  0
VERTEX
  5
A3
330
A1
100
AcDbEntity
  8
EBENE_3
 62
     7
100
AcDbVertex
100
AcDb2dVertex
 10
90.21120331946109
 20
151.1973171279993
 30
0.0
  0
SEQEND
  5
A4
330
A1
100
AcDbEntity
  8
EBENE_3
  0
POLYLINE
  5
A5
330
1F
100
AcDbEntity
  8
EBENE_3
 62
     7
100
AcDb2dPolyline
 66
     1
 10
0.0
 20
0.0
 30
0.0
  0
VERTEX
  5
A6
330
A5
100
AcDbEntity
  8
EBENE_3
 62
     7
100
AcDbVertex
100
AcDb2dVertex
 10
99.45904538529149
 20
151.3392550619916
 30
0.0
  0
VERTEX
  5
A7
330
A5
100
AcDbEntity
  8
EBENE_3
 62
     7
100
AcDbVertex
100
AcDb2dVertex
 10
98.99688582594523
 20
151.3392550619916
 30
0.0
  0
SEQEND
  5
A8
330
A5
100
AcDbEntity
  8
EBENE_3
  0
POLYLINE
  5
A9
330
1F
100
AcDbEntity
  8
EBENE_3
 62
     7
100
AcDb2dPolyline
 66
     1
 10
0.0
 20
0.0
 30
0.0
  0
VERTEX
  5
AA
330
A9
100
AcDbEntity
  8
EBENE_3
 62
     7
100
AcDbVertex
100
AcDb2dVertex
 10
98.07222219770416
 20
151.3392550619916
 30
0.0
  0
VERTEX
  5
AB
330
A9
100
AcDbEntity
  8
EBENE_3
 62
     7
100
AcDbVertex
100
AcDb2dVertex
 10
97.14721405991459
 20
151.3392550619916
 30
0.0
  0
SEQEND
  5
AC
330
A9
100
AcDbEntity
  8
EBENE_3
  0
POLYLINE
  5
AD
330
1F
100
AcDbEntity
  8
EBENE_3
 62
     7
100
AcDb2dPolyline
 66
     1
 10
0.0
 20
0.0
 30
0.0
  0
VERTEX
  5
AE
330
AD
100
AcDbEntity
  8
EBENE_3
 62
     7
100
AcDbVertex
100
AcDb2dVertex
 10
96.22255043167354
 20
151.3392550619916
 30
0.0
  0
VERTEX
  5
AF
330
AD
100
AcDbEntity
  8
EBENE_3
 62
     7
100
AcDbVertex
100
AcDb2dVertex
 10
95.29754229388395
 20
151.3392550619916
 30
0.0
  0
SEQEND
  5
B0
330
AD
100
AcDbEntity
  8
EBENE_3
  0
POLYLINE
  5
B1
330
1F
100
AcDbEntity
  8
EBENE_3
 62
     7
100
AcDb2dPolyline
 66
     1
 10
0.0
 20
0.0
 30
0.0
  0
VERTEX
  5
B2
330
B1
100
AcDbEntity
  8
EBENE_3
 62
     7
100
AcDbVertex
100
AcDb2dVertex
 10
94.37253415609437
 20
151.3392550619916
 30
0.0
  0
VERTEX
  5
B3
330
B1
100
AcDbEntity
  8
EBENE_3
 62
     7
100
AcDbVertex
100
AcDb2dVertex
 10
93.44804278262758
 20
151.3392550619916
 30
0.0
  0
SEQEND
  5
B4
330
B1
100
AcDbEntity
  8
EBENE_3
  0
POLYLINE
  5
B5
330
1F
100
AcDbEntity
  8
EBENE_3
 62
     7
100
AcDb2dPolyline
 66
     1
 10
0.0
 20
0.0
 30
0.0
  0
VERTEX
  5
B6
330
B5
100
AcDbEntity
  8
EBENE_3
 62
     7
100
AcDbVertex
100
AcDb2dVertex
 10
92.52372366393504
 20
151.3392550619916
 30
0.0
  0
VERTEX
  5
B7
330
B5
100
AcDbEntity
  8
EBENE_3
 62
     7
100
AcDbVertex
100
AcDb2dVertex
 10
91.59871552614547
 20
151.3392550619916
 30
0.0
  0
SEQEND
  5
B8
330
B5
100
AcDbEntity
  8
EBENE_3
  0
POLYLINE
  5
B9
330
1F
100
AcDbEntity
  8
EBENE_3
 62
     7
100
AcDb2dPolyline
 66
     1
 10
0.0
 20
0.0
 30
0.0
  0
VERTEX
  5
BA
330
B9
100
AcDbEntity
  8
EBENE_3
 62
     7
100
AcDbVertex
100
AcDb2dVertex
 10
90.6740518979044
 20
151.3392550619916
 30
0.0
  0
VERTEX
  5
BB
330
B9
100
AcDbEntity
  8
EBENE_3
 62
     7
100
AcDbVertex
100
AcDb2dVertex
 10
90.21120331946109
 20
151.3392550619916
 30
0.0
  0
SEQEND
  5
BC
330
B9
100
AcDbEntity
  8
EBENE_3
  0
POLYLINE
  5
BD
330
1F
100
AcDbEntity
  8
EBENE_3
 62
     7
100
AcDb2dPolyline
 66
     1
 10
0.0
 20
0.0
 30
0.0
  0
VERTEX
  5
BE
330
BD
100
AcDbEntity
  8
EBENE_3
 62
     7
100
AcDbVertex
100
AcDb2dVertex
 10
90.21120331946109
 20
151.1973171279993
 30
0.0
  0
VERTEX
  5
BF
330
BD
100
AcDbEntity
  8
EBENE_3
 62
     7
100
AcDbVertex
100
AcDb2dVertex
 10
90.20638018578174
 20
151.2329738662716
 30
0.0
  0
SEQEND
  5
C0
330
BD
100
AcDbEntity
  8
EBENE_3
  0
POLYLINE
  5
C1
330
1F
100
AcDbEntity
  8
EBENE_3
 62
     7
100
AcDb2dPolyline
 66
     1
 10
0.0
 20
0.0
 30
0.0
  0
VERTEX
  5
C2
330
C1
100
AcDbEntity
  8
EBENE_3
 62
     7
100
AcDbVertex
100
AcDb2dVertex
 10
90.20706920487879
 20
151.3039428332678
 30
0.0
  0
VERTEX
  5
C3
330
C1
100
AcDbEntity
  8
EBENE_3
 62
     7
100
AcDbVertex
100
AcDb2dVertex
 10
90.21120331946109
 20
151.3392550619916
 30
0.0
  0
SEQEND
  5
C4
330
C1
100
AcDbEntity
  8
EBENE_3
  0
POLYLINE
  5
C5
330
1F
100
AcDbEntity
  8
EBENE_3
 62
     7
100
AcDb2dPolyline
 66
     1
 10
0.0
 20
0.0
 30
0.0
  0
VERTEX
  5
C6
330
C5
100
AcDbEntity
  8
EBENE_3
 62
     7
100
AcDbVertex
100
AcDb2dVertex
 10
89.74559866462958
 20
151.0502115507791
 30
0.0
  0
VERTEX
  5
C7
330
C5
100
AcDbEntity
  8
EBENE_3
 62
     7
100
AcDbVertex
100
AcDb2dVertex
 10
90.21120331946109
 20
151.1973171279993
 30
0.0
  0
SEQEND
  5
C8
330
C5
100
AcDbEntity
  8
EBENE_3
  0
POLYLINE
  5
C9
330
1F
100
AcDbEntity
  8
EBENE_3
 62
     7
100
AcDb2dPolyline
 66
     1
 10
0.0
 20
0.0
 30
0.0
  0
VERTEX
  5
CA
330
C9
100
AcDbEntity
  8
EBENE_3
 62
     7
100
AcDbVertex
100
AcDb2dVertex
 10
89.74559866462958
 20
151.1921494847714
 30
0.0
  0
VERTEX
  5
CB
330
C9
100
AcDbEntity
  8
EBENE_3
 62
     7
100
AcDbVertex
100
AcDb2dVertex
 10
90.21120331946109
 20
151.3392550619916
 30
0.0
  0
SEQEND
  5
CC
330
C9
100
AcDbEntity
  8
EBENE_3
  0
POLYLINE
  5
CD
330
1F
100
AcDbEntity
  8
EBENE_3
 62
     7
100
AcDb2dPolyline
 66
     1
 10
0.0
 20
0.0
 30
0.0
  0
VERTEX
  5
CE
330
CD
100
AcDbEntity
  8
EBENE_3
 62
     7
100
AcDbVertex
100
AcDb2dVertex
 10
88.45902775566303
 20
154.8439506991362
 30
0.0
  0
VERTEX
  5
CF
330
CD
100
AcDbEntity
  8
EBENE_3
 62
     7
100
AcDbVertex
100
AcDb2dVertex
 10
88.86709931589087
 20
154.5752332512868
 30
0.0
  0
SEQEND
  5
D0
330
CD
100
AcDbEntity
  8
EBENE_3
  0
POLYLINE
  5
D1
330
1F
100
AcDbEntity
  8
EBENE_3
 62
     7
100
AcDb2dPolyline
 66
     1
 10
0.0
 20
0.0
 30
0.0
  0
VERTEX
  5
D2
330
D1
100
AcDbEntity
  8
EBENE_3
 62
     7
100
AcDbVertex
100
AcDb2dVertex
 10
89.74559866462958
 20
154.1697455126728
 30
0.0
  0
VERTEX
  5
D3
330
D1
100
AcDbEntity
  8
EBENE_3
 62
     7
100
AcDbVertex
100
AcDb2dVertex
 10
90.21120331946109
 20
154.0226399354527
 30
0.0
  0
SEQEND
  5
D4
330
D1
100
AcDbEntity
  8
EBENE_3
  0
POLYLINE
  5
D5
330
1F
100
AcDbEntity
  8
EBENE_3
 62
     7
100
AcDb2dPolyline
 66
     1
 10
0.0
 20
0.0
 30
0.0
  0
VERTEX
  5
D6
330
D5
100
AcDbEntity
  8
EBENE_3
 62
     7
100
AcDbVertex
100
AcDb2dVertex
 10
88.45902775566303
 20
154.9858886331285
 30
0.0
  0
VERTEX
  5
D7
330
D5
100
AcDbEntity
  8
EBENE_3
 62
     7
100
AcDbVertex
100
AcDb2dVertex
 10
88.86709931589087
 20
154.7166544209562
 30
0.0
  0
SEQEND
  5
D8
330
D5
100
AcDbEntity
  8
EBENE_3
  0
POLYLINE
  5
D9
330
1F
100
AcDbEntity
  8
EBENE_3
 62
     7
100
AcDb2dPolyline
 66
     1
 10
0.0
 20
0.0
 30
0.0
  0
VERTEX
  5
DA
330
D9
100
AcDbEntity
  8
EBENE_3
 62
     7
100
AcDbVertex
100
AcDb2dVertex
 10
89.74559866462958
 20
154.3109944275681
 30
0.0
  0
VERTEX
  5
DB
330
D9
100
AcDbEntity
  8
EBENE_3
 62
     7
100
AcDbVertex
100
AcDb2dVertex
 10
90.21120331946109
 20
154.1638888503479
 30
0.0
  0
SEQEND
  5
DC
330
D9
100
AcDbEntity
  8
EBENE_3
  0
POLYLINE
  5
DD
330
1F
100
AcDbEntity
  8
EBENE_3
 62
     7
100
AcDb2dPolyline
 66
     1
 10
0.0
 20
0.0
 30
0.0
  0
VERTEX
  5
DE
330
DD
100
AcDbEntity
  8
EBENE_3
 62
     7
100
AcDbVertex
100
AcDb2dVertex
 10
88.45902775566303
 20
150.3760063643157
 30
0.0
  0
VERTEX
  5
DF
330
DD
100
AcDbEntity
  8
EBENE_3
 62
     7
100
AcDbVertex
100
AcDb2dVertex
 10
88.86709931589087
 20
150.6448960669395
 30
0.0
  0
SEQEND
  5
E0
330
DD
100
AcDbEntity
  8
EBENE_3
  0
POLYLINE
  5
E1
330
1F
100
AcDbEntity
  8
EBENE_3
 62
     7
100
AcDb2dPolyline
 66
     1
 10
0.0
 20
0.0
 30
0.0
  0
VERTEX
  5
E2
330
E1
100
AcDbEntity
  8
EBENE_3
 62
     7
100
AcDbVertex
100
AcDb2dVertex
 10
88.45902775566303
 20
150.517255279211
 30
0.0
  0
VERTEX
  5
E3
330
E1
100
AcDbEntity
  8
EBENE_3
 62
     7
100
AcDbVertex
100
AcDb2dVertex
 10
88.86709931589087
 20
150.7866617461575
 30
0.0
  0
SEQEND
  5
E4
330
E1
100
AcDbEntity
  8
EBENE_3
  0
POLYLINE
  5
E6
330
1F
100
AcDbEntity
  8
STANDARDEBENE
 62
     7
100
AcDb2dPolyline
 66
     1
 10
0.0
 20
0.0
 30
0.0
  0
VERTEX
  5
E7
330
E6
100
AcDbEntity
  8
STANDARDEBENE
 62
     7
100
AcDbVertex
100
AcDb2dVertex
 10
106.4710204811948
 20
150.882779910196
 30
0.0
  0
VERTEX
  5
E8
330
E6
100
AcDbEntity
  8
STANDARDEBENE
 62
     7
100
AcDbVertex
100
AcDb2dVertex
 10
106.860316271028
 20
150.6578151750092
 30
0.0
  0
SEQEND
  5
E9
330
E6
100
AcDbEntity
  8
STANDARDEBENE
  0
POLYLINE
  5
EA
330
1F
100
AcDbEntity
  8
STANDARDEBENE
 62
     7
100
AcDb2dPolyline
 66
     1
 10
0.0
 20
0.0
 30
0.0
  0
VERTEX
  5
EB
330
EA
100
AcDbEntity
  8
STANDARDEBENE
 62
     7
100
AcDbVertex
100
AcDb2dVertex
 10
107.63994137934
 20
150.2080579594098
 30
0.0
  0
VERTEX
  5
EC
330
EA
100
AcDbEntity
  8
STANDARDEBENE
 62
     7
100
AcDbVertex
100
AcDb2dVertex
 10
108.0302706978188
 20
149.9827487146745
 30
0.0
  0
SEQEND
  5
ED
330
EA
100
AcDbEntity
  8
STANDARDEBENE
  0
POLYLINE
  5
EE
330
1F
100
AcDbEntity
  8
STANDARDEBENE
 62
     7
100
AcDb2dPolyline
 66
     1
 10
0.0
 20
0.0
 30
0.0
  0
VERTEX
  5
EF
330
EE
100
AcDbEntity
  8
STANDARDEBENE
 62
     7
100
AcDbVertex
100
AcDb2dVertex
 10
108.0302706978188
 20
155.3827636330293
 30
0.0
  0
VERTEX
  5
F0
330
EE
100
AcDbEntity
  8
STANDARDEBENE
 62
     7
100
AcDbVertex
100
AcDb2dVertex
 10
107.63994137934
 20
155.1579711526168
 30
0.0
  0
SEQEND
  5
F1
330
EE
100
AcDbEntity
  8
STANDARDEBENE
  0
POLYLINE
  5
F2
330
1F
100
AcDbEntity
  8
STANDARDEBENE
 62
     7
100
AcDb2dPolyline
 66
     1
 10
0.0
 20
0.0
 30
0.0
  0
VERTEX
  5
F3
330
F2
100
AcDbEntity
  8
STANDARDEBENE
 62
     7
100
AcDbVertex
100
AcDb2dVertex
 10
106.860316271028
 20
154.7080416822431
 30
0.0
  0
VERTEX
  5
F4
330
F2
100
AcDbEntity
  8
STANDARDEBENE
 62
     7
100
AcDbVertex
100
AcDb2dVertex
 10
106.4710204811948
 20
154.4827324375078
 30
0.0
  0
SEQEND
  5
F5
330
F2
100
AcDbEntity
  8
STANDARDEBENE
  0
POLYLINE
  5
F6
330
1F
100
AcDbEntity
  8
STANDARDEBENE
 62
     7
100
AcDb2dPolyline
 66
     1
 10
0.0
 20
0.0
 30
0.0
  0
VERTEX
  5
F7
330
F6
100
AcDbEntity
  8
STANDARDEBENE
 62
     7
100
AcDbVertex
100
AcDb2dVertex
 10
99.62957761181136
 20
155.0801119946501
 30
0.0
  0
VERTEX
  5
F8
330
F6
100
AcDbEntity
  8
STANDARDEBENE
 62
     7
100
AcDbVertex
100
AcDb2dVertex
 10
98.97001408116027
 20
155.0801119946501
 30
0.0
  0
SEQEND
  5
F9
330
F6
100
AcDbEntity
  8
STANDARDEBENE
  0
POLYLINE
  5
FA
330
1F
100
AcDbEntity
  8
STANDARDEBENE
 62
     7
100
AcDb2dPolyline
 66
     1
 10
0.0
 20
0.0
 30
0.0
  0
VERTEX
  5
FB
330
FA
100
AcDbEntity
  8
STANDARDEBENE
 62
     7
100
AcDbVertex
100
AcDb2dVertex
 10
97.64985349121254
 20
155.0801119946501
 30
0.0
  0
VERTEX
  5
FC
330
FA
100
AcDbEntity
  8
STANDARDEBENE
 62
     7
100
AcDbVertex
100
AcDb2dVertex
 10
96.32986515603906
 20
155.0801119946501
 30
0.0
  0
SEQEND
  5
FD
330
FA
100
AcDbEntity
  8
STANDARDEBENE
  0
POLYLINE
  5
FE
330
1F
100
AcDbEntity
  8
STANDARDEBENE
 62
     7
100
AcDb2dPolyline
 66
     1
 10
0.0
 20
0.0
 30
0.0
  0
VERTEX
  5
FF
330
FE
100
AcDbEntity
  8
STANDARDEBENE
 62
     7
100
AcDbVertex
100
AcDb2dVertex
 10
95.01004907563986
 20
155.0801119946501
 30
0.0
  0
VERTEX
  5
100
330
FE
100
AcDbEntity
  8
STANDARDEBENE
 62
     7
100
AcDbVertex
100
AcDb2dVertex
 10
93.68971623091785
 20
155.0801119946501
 30
0.0
  0
SEQEND
  5
101
330
FE
100
AcDbEntity
  8
STANDARDEBENE
  0
POLYLINE
  5
102
330
1F
100
AcDbEntity
  8
STANDARDEBENE
 62
     7
100
AcDb2dPolyline
 66
     1
 10
0.0
 20
0.0
 30
0.0
  0
VERTEX
  5
103
330
102
100
AcDbEntity
  8
STANDARDEBENE
 62
     7
100
AcDbVertex
100
AcDb2dVertex
 10
92.36955564097012
 20
155.0801119946501
 30
0.0
  0
VERTEX
  5
104
330
102
100
AcDbEntity
  8
STANDARDEBENE
 62
     7
100
AcDbVertex
100
AcDb2dVertex
 10
91.0497395605709
 20
155.0801119946501
 30
0.0
  0
SEQEND
  5
105
330
102
100
AcDbEntity
  8
STANDARDEBENE
  0
POLYLINE
  5
106
330
1F
100
AcDbEntity
  8
STANDARDEBENE
 62
     7
100
AcDb2dPolyline
 66
     1
 10
0.0
 20
0.0
 30
0.0
  0
VERTEX
  5
107
330
106
100
AcDbEntity
  8
STANDARDEBENE
 62
     7
100
AcDbVertex
100
AcDb2dVertex
 10
92.36955564097012
 20
150.2857448626022
 30
0.0
  0
VERTEX
  5
108
330
106
100
AcDbEntity
  8
STANDARDEBENE
 62
     7
100
AcDbVertex
100
AcDb2dVertex
 10
91.0497395605709
 20
150.2857448626022
 30
0.0
  0
SEQEND
  5
109
330
106
100
AcDbEntity
  8
STANDARDEBENE
  0
POLYLINE
  5
10A
330
1F
100
AcDbEntity
  8
STANDARDEBENE
 62
     7
100
AcDb2dPolyline
 66
     1
 10
0.0
 20
0.0
 30
0.0
  0
VERTEX
  5
10B
330
10A
100
AcDbEntity
  8
STANDARDEBENE
 62
     7
100
AcDbVertex
100
AcDb2dVertex
 10
89.72975122539742
 20
150.2857448626022
 30
0.0
  0
VERTEX
  5
10C
330
10A
100
AcDbEntity
  8
STANDARDEBENE
 62
     7
100
AcDbVertex
100
AcDb2dVertex
 10
88.40976289022396
 20
150.2857448626022
 30
0.0
  0
SEQEND
  5
10D
330
10A
100
AcDbEntity
  8
STANDARDEBENE
  0
POLYLINE
  5
10E
330
1F
100
AcDbEntity
  8
STANDARDEBENE
 62
     7
100
AcDb2dPolyline
 66
     1
 10
0.0
 20
0.0
 30
0.0
  0
VERTEX
  5
10F
330
10E
100
AcDbEntity
  8
STANDARDEBENE
 62
     7
100
AcDbVertex
100
AcDb2dVertex
 10
103.2298746486717
 20
154.4827324375078
 30
0.0
  0
VERTEX
  5
110
330
10E
100
AcDbEntity
  8
STANDARDEBENE
 62
     7
100
AcDbVertex
100
AcDb2dVertex
 10
103.2298746486717
 20
154.5094319275185
 30
0.0
  0
SEQEND
  5
111
330
10E
100
AcDbEntity
  8
STANDARDEBENE
  0
POLYLINE
  5
112
330
1F
100
AcDbEntity
  8
STANDARDEBENE
 62
     7
100
AcDb2dPolyline
 66
     1
 10
0.0
 20
0.0
 30
0.0
  0
VERTEX
  5
113
330
112
100
AcDbEntity
  8
STANDARDEBENE
 62
     7
100
AcDbVertex
100
AcDb2dVertex
 10
103.2298746486717
 20
154.5636921814112
 30
0.0
  0
VERTEX
  5
114
330
112
100
AcDbEntity
  8
STANDARDEBENE
 62
     7
100
AcDbVertex
100
AcDb2dVertex
 10
103.2298746486717
 20
154.5902194166476
 30
0.0
  0
SEQEND
  5
115
330
112
100
AcDbEntity
  8
STANDARDEBENE
  0
POLYLINE
  5
116
330
1F
100
AcDbEntity
  8
STANDARDEBENE
 62
     7
100
AcDb2dPolyline
 66
     1
 10
0.0
 20
0.0
 30
0.0
  0
VERTEX
  5
117
330
116
100
AcDbEntity
  8
STANDARDEBENE
 62
     7
100
AcDbVertex
100
AcDb2dVertex
 10
103.2298746486717
 20
155.2623575458198
 30
0.0
  0
VERTEX
  5
118
330
116
100
AcDbEntity
  8
STANDARDEBENE
 62
     7
100
AcDbVertex
100
AcDb2dVertex
 10
103.2298746486717
 20
155.0949259052367
 30
0.0
  0
SEQEND
  5
119
330
116
100
AcDbEntity
  8
STANDARDEBENE
  0
POLYLINE
  5
11A
330
1F
100
AcDbEntity
  8
STANDARDEBENE
 62
     7
100
AcDb2dPolyline
 66
     1
 10
0.0
 20
0.0
 30
0.0
  0
VERTEX
  5
11B
330
11A
100
AcDbEntity
  8
STANDARDEBENE
 62
     7
100
AcDbVertex
100
AcDb2dVertex
 10
103.2298746486717
 20
154.7579955667793
 30
0.0
  0
VERTEX
  5
11C
330
11A
100
AcDbEntity
  8
STANDARDEBENE
 62
     7
100
AcDbVertex
100
AcDb2dVertex
 10
103.2298746486717
 20
154.5902194166476
 30
0.0
  0
SEQEND
  5
11D
330
11A
100
AcDbEntity
  8
STANDARDEBENE
  0
POLYLINE
  5
11E
330
1F
100
AcDbEntity
  8
STANDARDEBENE
 62
     7
100
AcDb2dPolyline
 66
     1
 10
0.0
 20
0.0
 30
0.0
  0
VERTEX
  5
11F
330
11E
100
AcDbEntity
  8
STANDARDEBENE
 62
     7
100
AcDbVertex
100
AcDb2dVertex
 10
108.0302706978188
 20
154.6753132751332
 30
0.0
  0
VERTEX
  5
120
330
11E
100
AcDbEntity
  8
STANDARDEBENE
 62
     7
100
AcDbVertex
100
AcDb2dVertex
 10
107.9121039226748
 20
154.6269096835655
 30
0.0
  0
SEQEND
  5
121
330
11E
100
AcDbEntity
  8
STANDARDEBENE
  0
POLYLINE
  5
122
330
1F
100
AcDbEntity
  8
STANDARDEBENE
 62
     7
100
AcDb2dPolyline
 66
     1
 10
0.0
 20
0.0
 30
0.0
  0
VERTEX
  5
123
330
122
100
AcDbEntity
  8
STANDARDEBENE
 62
     7
100
AcDbVertex
100
AcDb2dVertex
 10
107.6768039010322
 20
154.5311360290756
 30
0.0
  0
VERTEX
  5
124
330
122
100
AcDbEntity
  8
STANDARDEBENE
 62
     7
100
AcDbVertex
100
AcDb2dVertex
 10
107.5596706545337
 20
154.4827324375078
 30
0.0
  0
SEQEND
  5
125
330
122
100
AcDbEntity
  8
STANDARDEBENE
  0
POLYLINE
  5
126
330
1F
100
AcDbEntity
  8
STANDARDEBENE
 62
     7
100
AcDb2dPolyline
 66
     1
 10
0.0
 20
0.0
 30
0.0
  0
VERTEX
  5
127
330
126
100
AcDbEntity
  8
STANDARDEBENE
 62
     7
100
AcDbVertex
100
AcDb2dVertex
 10
99.62957761181136
 20
154.5902194166476
 30
0.0
  0
VERTEX
  5
128
330
126
100
AcDbEntity
  8
STANDARDEBENE
 62
     7
100
AcDbVertex
100
AcDb2dVertex
 10
99.62957761181136
 20
154.5581800286348
 30
0.0
  0
SEQEND
  5
129
330
126
100
AcDbEntity
  8
STANDARDEBENE
  0
POLYLINE
  5
12A
330
1F
100
AcDbEntity
  8
STANDARDEBENE
 62
     7
100
AcDb2dPolyline
 66
     1
 10
0.0
 20
0.0
 30
0.0
  0
VERTEX
  5
12B
330
12A
100
AcDbEntity
  8
STANDARDEBENE
 62
     7
100
AcDbVertex
100
AcDb2dVertex
 10
99.62957761181136
 20
154.4946180169319
 30
0.0
  0
VERTEX
  5
12C
330
12A
100
AcDbEntity
  8
STANDARDEBENE
 62
     7
100
AcDbVertex
100
AcDb2dVertex
 10
99.62957761181136
 20
154.4624063741448
 30
0.0
  0
SEQEND
  5
12D
330
12A
100
AcDbEntity
  8
STANDARDEBENE
  0
POLYLINE
  5
12E
330
1F
100
AcDbEntity
  8
STANDARDEBENE
 62
     7
100
AcDb2dPolyline
 66
     1
 10
0.0
 20
0.0
 30
0.0
  0
VERTEX
  5
12F
330
12E
100
AcDbEntity
  8
STANDARDEBENE
 62
     7
100
AcDbVertex
100
AcDb2dVertex
 10
103.2298746486717
 20
154.5902194166476
 30
0.0
  0
VERTEX
  5
130
330
12E
100
AcDbEntity
  8
STANDARDEBENE
 62
     7
100
AcDbVertex
100
AcDb2dVertex
 10
102.7799451782981
 20
154.5902194166476
 30
0.0
  0
SEQEND
  5
131
330
12E
100
AcDbEntity
  8
STANDARDEBENE
  0
POLYLINE
  5
132
330
1F
100
AcDbEntity
  8
STANDARDEBENE
 62
     7
100
AcDb2dPolyline
 66
     1
 10
0.0
 20
0.0
 30
0.0
  0
VERTEX
  5
133
330
132
100
AcDbEntity
  8
STANDARDEBENE
 62
     7
100
AcDbVertex
100
AcDb2dVertex
 10
101.8793972184538
 20
154.5902194166476
 30
0.0
  0
VERTEX
  5
134
330
132
100
AcDbEntity
  8
STANDARDEBENE
 62
     7
100
AcDbVertex
100
AcDb2dVertex
 10
100.979882787255
 20
154.5902194166476
 30
0.0
  0
SEQEND
  5
135
330
132
100
AcDbEntity
  8
STANDARDEBENE
  0
POLYLINE
  5
136
330
1F
100
AcDbEntity
  8
STANDARDEBENE
 62
     7
100
AcDb2dPolyline
 66
     1
 10
0.0
 20
0.0
 30
0.0
  0
VERTEX
  5
137
330
136
100
AcDbEntity
  8
STANDARDEBENE
 62
     7
100
AcDbVertex
100
AcDb2dVertex
 10
100.0800238465078
 20
154.5902194166476
 30
0.0
  0
VERTEX
  5
138
330
136
100
AcDbEntity
  8
STANDARDEBENE
 62
     7
100
AcDbVertex
100
AcDb2dVertex
 10
99.62957761181136
 20
154.5902194166476
 30
0.0
  0
SEQEND
  5
139
330
136
100
AcDbEntity
  8
STANDARDEBENE
  0
POLYLINE
  5
13A
330
1F
100
AcDbEntity
  8
STANDARDEBENE
 62
     7
100
AcDb2dPolyline
 66
     1
 10
0.0
 20
0.0
 30
0.0
  0
VERTEX
  5
13B
330
13A
100
AcDbEntity
  8
STANDARDEBENE
 62
     7
100
AcDbVertex
100
AcDb2dVertex
 10
103.2074815280176
 20
155.2599459789802
 30
0.0
  0
VERTEX
  5
13C
330
13A
100
AcDbEntity
  8
STANDARDEBENE
 62
     7
100
AcDbVertex
100
AcDb2dVertex
 10
102.3127902304982
 20
155.2599459789802
 30
0.0
  0
SEQEND
  5
13D
330
13A
100
AcDbEntity
  8
STANDARDEBENE
  0
POLYLINE
  5
13E
330
1F
100
AcDbEntity
  8
STANDARDEBENE
 62
     7
100
AcDb2dPolyline
 66
     1
 10
0.0
 20
0.0
 30
0.0
  0
VERTEX
  5
13F
330
13E
100
AcDbEntity
  8
STANDARDEBENE
 62
     7
100
AcDbVertex
100
AcDb2dVertex
 10
100.5240966545565
 20
155.2599459789802
 30
0.0
  0
VERTEX
  5
140
330
13E
100
AcDbEntity
  8
STANDARDEBENE
 62
     7
100
AcDbVertex
100
AcDb2dVertex
 10
99.62957761181136
 20
155.2599459789802
 30
0.0
  0
SEQEND
  5
141
330
13E
100
AcDbEntity
  8
STANDARDEBENE
  0
POLYLINE
  5
142
330
1F
100
AcDbEntity
  8
STANDARDEBENE
 62
     7
100
AcDb2dPolyline
 66
     1
 10
0.0
 20
0.0
 30
0.0
  0
VERTEX
  5
143
330
142
100
AcDbEntity
  8
STANDARDEBENE
 62
     7
100
AcDbVertex
100
AcDb2dVertex
 10
103.2298746486717
 20
154.4827324375078
 30
0.0
  0
VERTEX
  5
144
330
142
100
AcDbEntity
  8
STANDARDEBENE
 62
     7
100
AcDbVertex
100
AcDb2dVertex
 10
103.7707546398559
 20
154.4827324375078
 30
0.0
  0
SEQEND
  5
145
330
142
100
AcDbEntity
  8
STANDARDEBENE
  0
POLYLINE
  5
146
330
1F
100
AcDbEntity
  8
STANDARDEBENE
 62
     7
100
AcDb2dPolyline
 66
     1
 10
0.0
 20
0.0
 30
0.0
  0
VERTEX
  5
147
330
146
100
AcDbEntity
  8
STANDARDEBENE
 62
     7
100
AcDbVertex
100
AcDb2dVertex
 10
104.8538926604185
 20
154.4827324375078
 30
0.0
  0
VERTEX
  5
148
330
146
100
AcDbEntity
  8
STANDARDEBENE
 62
     7
100
AcDbVertex
100
AcDb2dVertex
 10
105.9359971523354
 20
154.4827324375078
 30
0.0
  0
SEQEND
  5
149
330
146
100
AcDbEntity
  8
STANDARDEBENE
  0
POLYLINE
  5
14A
330
1F
100
AcDbEntity
  8
STANDARDEBENE
 62
     7
100
AcDb2dPolyline
 66
     1
 10
0.0
 20
0.0
 30
0.0
  0
VERTEX
  5
14B
330
14A
100
AcDbEntity
  8
STANDARDEBENE
 62
     7
100
AcDbVertex
100
AcDb2dVertex
 10
107.0181016442524
 20
154.4827324375078
 30
0.0
  0
VERTEX
  5
14C
330
14A
100
AcDbEntity
  8
STANDARDEBENE
 62
     7
100
AcDbVertex
100
AcDb2dVertex
 10
107.5596706545337
 20
154.4827324375078
 30
0.0
  0
SEQEND
  5
14D
330
14A
100
AcDbEntity
  8
STANDARDEBENE
  0
POLYLINE
  5
14E
330
1F
100
AcDbEntity
  8
STANDARDEBENE
 62
     7
100
AcDb2dPolyline
 66
     1
 10
0.0
 20
0.0
 30
0.0
  0
VERTEX
  5
14F
330
14E
100
AcDbEntity
  8
STANDARDEBENE
 62
     7
100
AcDbVertex
100
AcDb2dVertex
 10
99.62957761181136
 20
155.2599459789802
 30
0.0
  0
VERTEX
  5
150
330
14E
100
AcDbEntity
  8
STANDARDEBENE
 62
     7
100
AcDbVertex
100
AcDb2dVertex
 10
99.62957761181136
 20
155.0928588479455
 30
0.0
  0
SEQEND
  5
151
330
14E
100
AcDbEntity
  8
STANDARDEBENE
  0
POLYLINE
  5
152
330
1F
100
AcDbEntity
  8
STANDARDEBENE
 62
     7
100
AcDb2dPolyline
 66
     1
 10
0.0
 20
0.0
 30
0.0
  0
VERTEX
  5
153
330
152
100
AcDbEntity
  8
STANDARDEBENE
 62
     7
100
AcDbVertex
100
AcDb2dVertex
 10
99.62957761181136
 20
154.7569620381337
 30
0.0
  0
VERTEX
  5
154
330
152
100
AcDbEntity
  8
STANDARDEBENE
 62
     7
100
AcDbVertex
100
AcDb2dVertex
 10
99.62957761181136
 20
154.5902194166476
 30
0.0
  0
SEQEND
  5
155
330
152
100
AcDbEntity
  8
STANDARDEBENE
  0
POLYLINE
  5
156
330
1F
100
AcDbEntity
  8
STANDARDEBENE
 62
     7
100
AcDb2dPolyline
 66
     1
 10
0.0
 20
0.0
 30
0.0
  0
VERTEX
  5
157
330
156
100
AcDbEntity
  8
STANDARDEBENE
 62
     7
100
AcDbVertex
100
AcDb2dVertex
 10
103.2298746486717
 20
152.5627807235781
 30
0.0
  0
VERTEX
  5
158
330
156
100
AcDbEntity
  8
STANDARDEBENE
 62
     7
100
AcDbVertex
100
AcDb2dVertex
 10
103.2298746486717
 20
152.1581542588355
 30
0.0
  0
SEQEND
  5
159
330
156
100
AcDbEntity
  8
STANDARDEBENE
  0
POLYLINE
  5
15A
330
1F
100
AcDbEntity
  8
STANDARDEBENE
 62
     7
100
AcDb2dPolyline
 66
     1
 10
0.0
 20
0.0
 30
0.0
  0
VERTEX
  5
15B
330
15A
100
AcDbEntity
  8
STANDARDEBENE
 62
     7
100
AcDbVertex
100
AcDb2dVertex
 10
103.2298746486717
 20
151.3501071127701
 30
0.0
  0
VERTEX
  5
15C
330
15A
100
AcDbEntity
  8
STANDARDEBENE
 62
     7
100
AcDbVertex
100
AcDb2dVertex
 10
103.2298746486717
 20
150.9453083932533
 30
0.0
  0
SEQEND
  5
15D
330
15A
100
AcDbEntity
  8
STANDARDEBENE
  0
POLYLINE
  5
15E
330
1F
100
AcDbEntity
  8
STANDARDEBENE
 62
     7
100
AcDb2dPolyline
 66
     1
 10
0.0
 20
0.0
 30
0.0
  0
VERTEX
  5
15F
330
15E
100
AcDbEntity
  8
STANDARDEBENE
 62
     7
100
AcDbVertex
100
AcDb2dVertex
 10
103.2298746486717
 20
154.4200316996763
 30
0.0
  0
VERTEX
  5
160
330
15E
100
AcDbEntity
  8
STANDARDEBENE
 62
     7
100
AcDbVertex
100
AcDb2dVertex
 10
103.2298746486717
 20
154.0160942540307
 30
0.0
  0
SEQEND
  5
161
330
15E
100
AcDbEntity
  8
STANDARDEBENE
  0
POLYLINE
  5
162
330
1F
100
AcDbEntity
  8
STANDARDEBENE
 62
     7
100
AcDb2dPolyline
 66
     1
 10
0.0
 20
0.0
 30
0.0
  0
VERTEX
  5
163
330
162
100
AcDbEntity
  8
STANDARDEBENE
 62
     7
100
AcDbVertex
100
AcDb2dVertex
 10
103.2298746486717
 20
153.2068413245455
 30
0.0
  0
VERTEX
  5
164
330
162
100
AcDbEntity
  8
STANDARDEBENE
 62
     7
100
AcDbVertex
100
AcDb2dVertex
 10
103.2298746486717
 20
152.8030761336742
 30
0.0
  0
SEQEND
  5
165
330
162
100
AcDbEntity
  8
STANDARDEBENE
  0
POLYLINE
  5
166
330
1F
100
AcDbEntity
  8
STANDARDEBENE
 62
     7
100
AcDb2dPolyline
 66
     1
 10
0.0
 20
0.0
 30
0.0
  0
VERTEX
  5
167
330
166
100
AcDbEntity
  8
STANDARDEBENE
 62
     7
100
AcDbVertex
100
AcDb2dVertex
 10
108.0302706978188
 20
154.5052978129362
 30
0.0
  0
VERTEX
  5
168
330
166
100
AcDbEntity
  8
STANDARDEBENE
 62
     7
100
AcDbVertex
100
AcDb2dVertex
 10
107.9121039226748
 20
154.4572387309169
 30
0.0
  0
SEQEND
  5
169
330
166
100
AcDbEntity
  8
STANDARDEBENE
  0
POLYLINE
  5
16A
330
1F
100
AcDbEntity
  8
STANDARDEBENE
 62
     7
100
AcDb2dPolyline
 66
     1
 10
0.0
 20
0.0
 30
0.0
  0
VERTEX
  5
16B
330
16A
100
AcDbEntity
  8
STANDARDEBENE
 62
     7
100
AcDbVertex
100
AcDb2dVertex
 10
107.6768039010322
 20
154.36077605733
 30
0.0
  0
VERTEX
  5
16C
330
16A
100
AcDbEntity
  8
STANDARDEBENE
 62
     7
100
AcDbVertex
100
AcDb2dVertex
 10
107.5596706545337
 20
154.3134059944078
 30
0.0
  0
SEQEND
  5
16D
330
16A
100
AcDbEntity
  8
STANDARDEBENE
  0
POLYLINE
  5
16E
330
1F
100
AcDbEntity
  8
STANDARDEBENE
 62
     7
100
AcDb2dPolyline
 66
     1
 10
0.0
 20
0.0
 30
0.0
  0
VERTEX
  5
16F
330
16E
100
AcDbEntity
  8
STANDARDEBENE
 62
     7
100
AcDbVertex
100
AcDb2dVertex
 10
108.0302706978188
 20
150.8603867895418
 30
0.0
  0
VERTEX
  5
170
330
16E
100
AcDbEntity
  8
STANDARDEBENE
 62
     7
100
AcDbVertex
100
AcDb2dVertex
 10
107.9121039226748
 20
150.9086181263353
 30
0.0
  0
SEQEND
  5
171
330
16E
100
AcDbEntity
  8
STANDARDEBENE
  0
POLYLINE
  5
172
330
1F
100
AcDbEntity
  8
STANDARDEBENE
 62
     7
100
AcDb2dPolyline
 66
     1
 10
0.0
 20
0.0
 30
0.0
  0
VERTEX
  5
173
330
172
100
AcDbEntity
  8
STANDARDEBENE
 62
     7
100
AcDbVertex
100
AcDb2dVertex
 10
107.6768039010322
 20
151.004219526051
 30
0.0
  0
VERTEX
  5
174
330
172
100
AcDbEntity
  8
STANDARDEBENE
 62
     7
100
AcDbVertex
100
AcDb2dVertex
 10
107.5596706545337
 20
151.0527953723931
 30
0.0
  0
SEQEND
  5
175
330
172
100
AcDbEntity
  8
STANDARDEBENE
  0
POLYLINE
  5
176
330
1F
100
AcDbEntity
  8
STANDARDEBENE
 62
     7
100
AcDb2dPolyline
 66
     1
 10
0.0
 20
0.0
 30
0.0
  0
VERTEX
  5
177
330
176
100
AcDbEntity
  8
STANDARDEBENE
 62
     7
100
AcDbVertex
100
AcDb2dVertex
 10
107.5596706545337
 20
154.3134059944078
 30
0.0
  0
VERTEX
  5
178
330
176
100
AcDbEntity
  8
STANDARDEBENE
 62
     7
100
AcDbVertex
100
AcDb2dVertex
 10
107.4232448733178
 20
154.1936889262953
 30
0.0
  0
VERTEX
  5
179
330
176
100
AcDbEntity
  8
STANDARDEBENE
 62
     7
100
AcDbVertex
100
AcDb2dVertex
 10
107.2017252336162
 20
153.9599391976211
 30
0.0
  0
SEQEND
  5
17A
330
176
100
AcDbEntity
  8
STANDARDEBENE
  0
POLYLINE
  5
17B
330
1F
100
AcDbEntity
  8
STANDARDEBENE
 62
     7
100
AcDb2dPolyline
 66
     1
 10
0.0
 20
0.0
 30
0.0
  0
VERTEX
  5
17C
330
17B
100
AcDbEntity
  8
STANDARDEBENE
 62
     7
100
AcDbVertex
100
AcDb2dVertex
 10
106.5898762754359
 20
153.1679117455622
 30
0.0
  0
VERTEX
  5
17D
330
17B
100
AcDbEntity
  8
STANDARDEBENE
 62
     7
100
AcDbVertex
100
AcDb2dVertex
 10
106.5619710020054
 20
153.12054168264
 30
0.0
  0
VERTEX
  5
17E
330
17B
100
AcDbEntity
  8
STANDARDEBENE
 62
     7
100
AcDbVertex
100
AcDb2dVertex
 10
106.4734320480344
 20
152.748471370233
 30
0.0
  0
VERTEX
  5
17F
330
17B
100
AcDbEntity
  8
STANDARDEBENE
 62
     7
100
AcDbVertex
100
AcDb2dVertex
 10
106.5189073084397
 20
152.3672715547901
 30
0.0
  0
VERTEX
  5
180
330
17B
100
AcDbEntity
  8
STANDARDEBENE
 62
     7
100
AcDbVertex
100
AcDb2dVertex
 10
106.6015896000857
 20
152.2015624619496
 30
0.0
  0
SEQEND
  5
181
330
17B
100
AcDbEntity
  8
STANDARDEBENE
  0
POLYLINE
  5
182
330
1F
100
AcDbEntity
  8
STANDARDEBENE
 62
     7
100
AcDb2dPolyline
 66
     1
 10
0.0
 20
0.0
 30
0.0
  0
VERTEX
  5
183
330
182
100
AcDbEntity
  8
STANDARDEBENE
 62
     7
100
AcDbVertex
100
AcDb2dVertex
 10
107.1903564185149
 20
151.3945488445299
 30
0.0
  0
VERTEX
  5
184
330
182
100
AcDbEntity
  8
STANDARDEBENE
 62
     7
100
AcDbVertex
100
AcDb2dVertex
 10
107.5596706545337
 20
151.0527953723931
 30
0.0
  0
SEQEND
  5
185
330
182
100
AcDbEntity
  8
STANDARDEBENE
  0
POLYLINE
  5
186
330
1F
100
AcDbEntity
  8
STANDARDEBENE
 62
     7
100
AcDb2dPolyline
 66
     1
 10
0.0
 20
0.0
 30
0.0
  0
VERTEX
  5
187
330
186
100
AcDbEntity
  8
STANDARDEBENE
 62
     7
100
AcDbVertex
100
AcDb2dVertex
 10
103.2298746486717
 20
150.9453083932533
 30
0.0
  0
VERTEX
  5
188
330
186
100
AcDbEntity
  8
STANDARDEBENE
 62
     7
100
AcDbVertex
100
AcDb2dVertex
 10
102.7799451782981
 20
150.9453083932533
 30
0.0
  0
SEQEND
  5
189
330
186
100
AcDbEntity
  8
STANDARDEBENE
  0
POLYLINE
  5
18A
330
1F
100
AcDbEntity
  8
STANDARDEBENE
 62
     7
100
AcDb2dPolyline
 66
     1
 10
0.0
 20
0.0
 30
0.0
  0
VERTEX
  5
18B
330
18A
100
AcDbEntity
  8
STANDARDEBENE
 62
     7
100
AcDbVertex
100
AcDb2dVertex
 10
101.8793972184538
 20
150.9453083932533
 30
0.0
  0
VERTEX
  5
18C
330
18A
100
AcDbEntity
  8
STANDARDEBENE
 62
     7
100
AcDbVertex
100
AcDb2dVertex
 10
100.979882787255
 20
150.9453083932533
 30
0.0
  0
SEQEND
  5
18D
330
18A
100
AcDbEntity
  8
STANDARDEBENE
  0
POLYLINE
  5
18E
330
1F
100
AcDbEntity
  8
STANDARDEBENE
 62
     7
100
AcDb2dPolyline
 66
     1
 10
0.0
 20
0.0
 30
0.0
  0
VERTEX
  5
18F
330
18E
100
AcDbEntity
  8
STANDARDEBENE
 62
     7
100
AcDbVertex
100
AcDb2dVertex
 10
100.0800238465078
 20
150.9453083932533
 30
0.0
  0
VERTEX
  5
190
330
18E
100
AcDbEntity
  8
STANDARDEBENE
 62
     7
100
AcDbVertex
100
AcDb2dVertex
 10
99.62957761181136
 20
150.9453083932533
 30
0.0
  0
SEQEND
  5
191
330
18E
100
AcDbEntity
  8
STANDARDEBENE
  0
POLYLINE
  5
192
330
1F
100
AcDbEntity
  8
STANDARDEBENE
 62
     7
100
AcDb2dPolyline
 66
     1
 10
0.0
 20
0.0
 30
0.0
  0
VERTEX
  5
193
330
192
100
AcDbEntity
  8
STANDARDEBENE
 62
     7
100
AcDbVertex
100
AcDb2dVertex
 10
103.2298746486717
 20
154.3134059944078
 30
0.0
  0
VERTEX
  5
194
330
192
100
AcDbEntity
  8
STANDARDEBENE
 62
     7
100
AcDbVertex
100
AcDb2dVertex
 10
103.7707546398559
 20
154.3134059944078
 30
0.0
  0
SEQEND
  5
195
330
192
100
AcDbEntity
  8
STANDARDEBENE
  0
POLYLINE
  5
196
330
1F
100
AcDbEntity
  8
STANDARDEBENE
 62
     7
100
AcDb2dPolyline
 66
     1
 10
0.0
 20
0.0
 30
0.0
  0
VERTEX
  5
197
330
196
100
AcDbEntity
  8
STANDARDEBENE
 62
     7
100
AcDbVertex
100
AcDb2dVertex
 10
104.8538926604185
 20
154.3134059944078
 30
0.0
  0
VERTEX
  5
198
330
196
100
AcDbEntity
  8
STANDARDEBENE
 62
     7
100
AcDbVertex
100
AcDb2dVertex
 10
105.9359971523354
 20
154.3134059944078
 30
0.0
  0
SEQEND
  5
199
330
196
100
AcDbEntity
  8
STANDARDEBENE
  0
POLYLINE
  5
19A
330
1F
100
AcDbEntity
  8
STANDARDEBENE
 62
     7
100
AcDb2dPolyline
 66
     1
 10
0.0
 20
0.0
 30
0.0
  0
VERTEX
  5
19B
330
19A
100
AcDbEntity
  8
STANDARDEBENE
 62
     7
100
AcDbVertex
100
AcDb2dVertex
 10
107.0181016442524
 20
154.3134059944078
 30
0.0
  0
VERTEX
  5
19C
330
19A
100
AcDbEntity
  8
STANDARDEBENE
 62
     7
100
AcDbVertex
100
AcDb2dVertex
 10
107.5596706545337
 20
154.3134059944078
 30
0.0
  0
SEQEND
  5
19D
330
19A
100
AcDbEntity
  8
STANDARDEBENE
  0
POLYLINE
  5
19E
330
1F
100
AcDbEntity
  8
STANDARDEBENE
 62
     7
100
AcDb2dPolyline
 66
     1
 10
0.0
 20
0.0
 30
0.0
  0
VERTEX
  5
19F
330
19E
100
AcDbEntity
  8
STANDARDEBENE
 62
     7
100
AcDbVertex
100
AcDb2dVertex
 10
103.2298746486717
 20
151.0527953723931
 30
0.0
  0
VERTEX
  5
1A0
330
19E
100
AcDbEntity
  8
STANDARDEBENE
 62
     7
100
AcDbVertex
100
AcDb2dVertex
 10
103.7707546398559
 20
151.0527953723931
 30
0.0
  0
SEQEND
  5
1A1
330
19E
100
AcDbEntity
  8
STANDARDEBENE
  0
POLYLINE
  5
1A2
330
1F
100
AcDbEntity
  8
STANDARDEBENE
 62
     7
100
AcDb2dPolyline
 66
     1
 10
0.0
 20
0.0
 30
0.0
  0
VERTEX
  5
1A3
330
1A2
100
AcDbEntity
  8
STANDARDEBENE
 62
     7
100
AcDbVertex
100
AcDb2dVertex
 10
104.8538926604185
 20
151.0527953723931
 30
0.0
  0
VERTEX
  5
1A4
330
1A2
100
AcDbEntity
  8
STANDARDEBENE
 62
     7
100
AcDbVertex
100
AcDb2dVertex
 10
105.9359971523354
 20
151.0527953723931
 30
0.0
  0
SEQEND
  5
1A5
330
1A2
100
AcDbEntity
  8
STANDARDEBENE
  0
POLYLINE
  5
1A6
330
1F
100
AcDbEntity
  8
STANDARDEBENE
 62
     7
100
AcDb2dPolyline
 66
     1
 10
0.0
 20
0.0
 30
0.0
  0
VERTEX
  5
1A7
330
1A6
100
AcDbEntity
  8
STANDARDEBENE
 62
     7
100
AcDbVertex
100
AcDb2dVertex
 10
107.0181016442524
 20
151.0527953723931
 30
0.0
  0
VERTEX
  5
1A8
330
1A6
100
AcDbEntity
  8
STANDARDEBENE
 62
     7
100
AcDbVertex
100
AcDb2dVertex
 10
107.5596706545337
 20
151.0527953723931
 30
0.0
  0
SEQEND
  5
1A9
330
1A6
100
AcDbEntity
  8
STANDARDEBENE
  0
POLYLINE
  5
1AA
330
1F
100
AcDbEntity
  8
STANDARDEBENE
 62
     7
100
AcDb2dPolyline
 66
     1
 10
0.0
 20
0.0
 30
0.0
  0
VERTEX
  5
1AB
330
1AA
100
AcDbEntity
  8
STANDARDEBENE
 62
     7
100
AcDbVertex
100
AcDb2dVertex
 10
99.62957761181136
 20
152.5627807235781
 30
0.0
  0
VERTEX
  5
1AC
330
1AA
100
AcDbEntity
  8
STANDARDEBENE
 62
     7
100
AcDbVertex
100
AcDb2dVertex
 10
99.62957761181136
 20
152.1581542588355
 30
0.0
  0
SEQEND
  5
1AD
330
1AA
100
AcDbEntity
  8
STANDARDEBENE
  0
POLYLINE
  5
1AE
330
1F
100
AcDbEntity
  8
STANDARDEBENE
 62
     7
100
AcDb2dPolyline
 66
     1
 10
0.0
 20
0.0
 30
0.0
  0
VERTEX
  5
1AF
330
1AE
100
AcDbEntity
  8
STANDARDEBENE
 62
     7
100
AcDbVertex
100
AcDb2dVertex
 10
99.62957761181136
 20
151.3501071127701
 30
0.0
  0
VERTEX
  5
1B0
330
1AE
100
AcDbEntity
  8
STANDARDEBENE
 62
     7
100
AcDbVertex
100
AcDb2dVertex
 10
99.62957761181136
 20
150.9453083932533
 30
0.0
  0
SEQEND
  5
1B1
330
1AE
100
AcDbEntity
  8
STANDARDEBENE
  0
POLYLINE
  5
1B2
330
1F
100
AcDbEntity
  8
STANDARDEBENE
 62
     7
100
AcDb2dPolyline
 66
     1
 10
0.0
 20
0.0
 30
0.0
  0
VERTEX
  5
1B3
330
1B2
100
AcDbEntity
  8
STANDARDEBENE
 62
     7
100
AcDbVertex
100
AcDb2dVertex
 10
103.2298746486717
 20
150.882779910196
 30
0.0
  0
VERTEX
  5
1B4
330
1B2
100
AcDbEntity
  8
STANDARDEBENE
 62
     7
100
AcDbVertex
100
AcDb2dVertex
 10
103.2298746486717
 20
150.8555636558625
 30
0.0
  0
SEQEND
  5
1B5
330
1B2
100
AcDbEntity
  8
STANDARDEBENE
  0
POLYLINE
  5
1B6
330
1F
100
AcDbEntity
  8
STANDARDEBENE
 62
     7
100
AcDb2dPolyline
 66
     1
 10
0.0
 20
0.0
 30
0.0
  0
VERTEX
  5
1B7
330
1B6
100
AcDbEntity
  8
STANDARDEBENE
 62
     7
100
AcDbVertex
100
AcDb2dVertex
 10
103.2298746486717
 20
150.8026814401639
 30
0.0
  0
VERTEX
  5
1B8
330
1B6
100
AcDbEntity
  8
STANDARDEBENE
 62
     7
100
AcDbVertex
100
AcDb2dVertex
 10
103.2298746486717
 20
150.7756374406047
 30
0.0
  0
VERTEX
  5
1B9
330
1B6
100
AcDbEntity
  8
STANDARDEBENE
 62
     7
100
AcDbVertex
100
AcDb2dVertex
 10
103.2298746486717
 20
150.607172271376
 30
0.0
  0
SEQEND
  5
1BA
330
1B6
100
AcDbEntity
  8
STANDARDEBENE
  0
POLYLINE
  5
1BB
330
1F
100
AcDbEntity
  8
STANDARDEBENE
 62
     7
100
AcDb2dPolyline
 66
     1
 10
0.0
 20
0.0
 30
0.0
  0
VERTEX
  5
1BC
330
1BB
100
AcDbEntity
  8
STANDARDEBENE
 62
     7
100
AcDbVertex
100
AcDb2dVertex
 10
103.2298746486717
 20
150.2709309520156
 30
0.0
  0
VERTEX
  5
1BD
330
1BB
100
AcDbEntity
  8
STANDARDEBENE
 62
     7
100
AcDbVertex
100
AcDb2dVertex
 10
103.2298746486717
 20
150.1026380375611
 30
0.0
  0
SEQEND
  5
1BE
330
1BB
100
AcDbEntity
  8
STANDARDEBENE
  0
POLYLINE
  5
1BF
330
1F
100
AcDbEntity
  8
STANDARDEBENE
 62
     7
100
AcDb2dPolyline
 66
     1
 10
0.0
 20
0.0
 30
0.0
  0
VERTEX
  5
1C0
330
1BF
100
AcDbEntity
  8
STANDARDEBENE
 62
     7
100
AcDbVertex
100
AcDb2dVertex
 10
108.0302706978188
 20
150.6908880916676
 30
0.0
  0
VERTEX
  5
1C1
330
1BF
100
AcDbEntity
  8
STANDARDEBENE
 62
     7
100
AcDbVertex
100
AcDb2dVertex
 10
107.9121039226748
 20
150.738430409364
 30
0.0
  0
SEQEND
  5
1C2
330
1BF
100
AcDbEntity
  8
STANDARDEBENE
  0
POLYLINE
  5
1C3
330
1F
100
AcDbEntity
  8
STANDARDEBENE
 62
     7
100
AcDb2dPolyline
 66
     1
 10
0.0
 20
0.0
 30
0.0
  0
VERTEX
  5
1C4
330
1C3
100
AcDbEntity
  8
STANDARDEBENE
 62
     7
100
AcDbVertex
100
AcDb2dVertex
 10
107.6768039010322
 20
150.8347208281768
 30
0.0
  0
VERTEX
  5
1C5
330
1C3
100
AcDbEntity
  8
STANDARDEBENE
 62
     7
100
AcDbVertex
100
AcDb2dVertex
 10
107.5596706545337
 20
150.882779910196
 30
0.0
  0
SEQEND
  5
1C6
330
1C3
100
AcDbEntity
  8
STANDARDEBENE
  0
POLYLINE
  5
1C7
330
1F
100
AcDbEntity
  8
STANDARDEBENE
 62
     7
100
AcDb2dPolyline
 66
     1
 10
0.0
 20
0.0
 30
0.0
  0
VERTEX
  5
1C8
330
1C7
100
AcDbEntity
  8
STANDARDEBENE
 62
     7
100
AcDbVertex
100
AcDb2dVertex
 10
103.2298746486717
 20
150.882779910196
 30
0.0
  0
VERTEX
  5
1C9
330
1C7
100
AcDbEntity
  8
STANDARDEBENE
 62
     7
100
AcDbVertex
100
AcDb2dVertex
 10
103.7707546398559
 20
150.882779910196
 30
0.0
  0
SEQEND
  5
1CA
330
1C7
100
AcDbEntity
  8
STANDARDEBENE
  0
POLYLINE
  5
1CB
330
1F
100
AcDbEntity
  8
STANDARDEBENE
 62
     7
100
AcDb2dPolyline
 66
     1
 10
0.0
 20
0.0
 30
0.0
  0
VERTEX
  5
1CC
330
1CB
100
AcDbEntity
  8
STANDARDEBENE
 62
     7
100
AcDbVertex
100
AcDb2dVertex
 10
104.8538926604185
 20
150.882779910196
 30
0.0
  0
VERTEX
  5
1CD
330
1CB
100
AcDbEntity
  8
STANDARDEBENE
 62
     7
100
AcDbVertex
100
AcDb2dVertex
 10
105.9359971523354
 20
150.882779910196
 30
0.0
  0
SEQEND
  5
1CE
330
1CB
100
AcDbEntity
  8
STANDARDEBENE
  0
POLYLINE
  5
1CF
330
1F
100
AcDbEntity
  8
STANDARDEBENE
 62
     7
100
AcDb2dPolyline
 66
     1
 10
0.0
 20
0.0
 30
0.0
  0
VERTEX
  5
1D0
330
1CF
100
AcDbEntity
  8
STANDARDEBENE
 62
     7
100
AcDbVertex
100
AcDb2dVertex
 10
107.0181016442524
 20
150.882779910196
 30
0.0
  0
VERTEX
  5
1D1
330
1CF
100
AcDbEntity
  8
STANDARDEBENE
 62
     7
100
AcDbVertex
100
AcDb2dVertex
 10
107.5596706545337
 20
150.882779910196
 30
0.0
  0
SEQEND
  5
1D2
330
1CF
100
AcDbEntity
  8
STANDARDEBENE
  0
POLYLINE
  5
1D3
330
1F
100
AcDbEntity
  8
STANDARDEBENE
 62
     7
100
AcDb2dPolyline
 66
     1
 10
0.0
 20
0.0
 30
0.0
  0
VERTEX
  5
1D4
330
1D3
100
AcDbEntity
  8
STANDARDEBENE
 62
     7
100
AcDbVertex
100
AcDb2dVertex
 10
99.62957761181136
 20
154.4200316996763
 30
0.0
  0
VERTEX
  5
1D5
330
1D3
100
AcDbEntity
  8
STANDARDEBENE
 62
     7
100
AcDbVertex
100
AcDb2dVertex
 10
99.62957761181136
 20
154.0160942540307
 30
0.0
  0
SEQEND
  5
1D6
330
1D3
100
AcDbEntity
  8
STANDARDEBENE
  0
POLYLINE
  5
1D7
330
1F
100
AcDbEntity
  8
STANDARDEBENE
 62
     7
100
AcDb2dPolyline
 66
     1
 10
0.0
 20
0.0
 30
0.0
  0
VERTEX
  5
1D8
330
1D7
100
AcDbEntity
  8
STANDARDEBENE
 62
     7
100
AcDbVertex
100
AcDb2dVertex
 10
99.62957761181136
 20
153.2068413245455
 30
0.0
  0
VERTEX
  5
1D9
330
1D7
100
AcDbEntity
  8
STANDARDEBENE
 62
     7
100
AcDbVertex
100
AcDb2dVertex
 10
99.62957761181136
 20
152.8030761336742
 30
0.0
  0
SEQEND
  5
1DA
330
1D7
100
AcDbEntity
  8
STANDARDEBENE
  0
POLYLINE
  5
1DB
330
1F
100
AcDbEntity
  8
STANDARDEBENE
 62
     7
100
AcDb2dPolyline
 66
     1
 10
0.0
 20
0.0
 30
0.0
  0
VERTEX
  5
1DC
330
1DB
100
AcDbEntity
  8
STANDARDEBENE
 62
     7
100
AcDbVertex
100
AcDb2dVertex
 10
99.62957761181136
 20
150.7756374406047
 30
0.0
  0
VERTEX
  5
1DD
330
1DB
100
AcDbEntity
  8
STANDARDEBENE
 62
     7
100
AcDbVertex
100
AcDb2dVertex
 10
99.62957761181136
 20
150.8075045738433
 30
0.0
  0
SEQEND
  5
1DE
330
1DB
100
AcDbEntity
  8
STANDARDEBENE
  0
POLYLINE
  5
1DF
330
1F
100
AcDbEntity
  8
STANDARDEBENE
 62
     7
100
AcDb2dPolyline
 66
     1
 10
0.0
 20
0.0
 30
0.0
  0
VERTEX
  5
1E0
330
1DF
100
AcDbEntity
  8
STANDARDEBENE
 62
     7
100
AcDbVertex
100
AcDb2dVertex
 10
99.62957761181136
 20
150.8710665855461
 30
0.0
  0
VERTEX
  5
1E1
330
1DF
100
AcDbEntity
  8
STANDARDEBENE
 62
     7
100
AcDbVertex
100
AcDb2dVertex
 10
99.62957761181136
 20
150.9025892092362
 30
0.0
  0
SEQEND
  5
1E2
330
1DF
100
AcDbEntity
  8
STANDARDEBENE
  0
POLYLINE
  5
1E3
330
1F
100
AcDbEntity
  8
STANDARDEBENE
 62
     7
100
AcDb2dPolyline
 66
     1
 10
0.0
 20
0.0
 30
0.0
  0
VERTEX
  5
1E4
330
1E3
100
AcDbEntity
  8
STANDARDEBENE
 62
     7
100
AcDbVertex
100
AcDb2dVertex
 10
103.2298746486717
 20
154.4200316996763
 30
0.0
  0
VERTEX
  5
1E5
330
1E3
100
AcDbEntity
  8
STANDARDEBENE
 62
     7
100
AcDbVertex
100
AcDb2dVertex
 10
102.7799451782981
 20
154.4200316996763
 30
0.0
  0
SEQEND
  5
1E6
330
1E3
100
AcDbEntity
  8
STANDARDEBENE
  0
POLYLINE
  5
1E7
330
1F
100
AcDbEntity
  8
STANDARDEBENE
 62
     7
100
AcDb2dPolyline
 66
     1
 10
0.0
 20
0.0
 30
0.0
  0
VERTEX
  5
1E8
330
1E7
100
AcDbEntity
  8
STANDARDEBENE
 62
     7
100
AcDbVertex
100
AcDb2dVertex
 10
101.8793972184538
 20
154.4200316996763
 30
0.0
  0
VERTEX
  5
1E9
330
1E7
100
AcDbEntity
  8
STANDARDEBENE
 62
     7
100
AcDbVertex
100
AcDb2dVertex
 10
100.979882787255
 20
154.4200316996763
 30
0.0
  0
SEQEND
  5
1EA
330
1E7
100
AcDbEntity
  8
STANDARDEBENE
  0
POLYLINE
  5
1EB
330
1F
100
AcDbEntity
  8
STANDARDEBENE
 62
     7
100
AcDb2dPolyline
 66
     1
 10
0.0
 20
0.0
 30
0.0
  0
VERTEX
  5
1EC
330
1EB
100
AcDbEntity
  8
STANDARDEBENE
 62
     7
100
AcDbVertex
100
AcDb2dVertex
 10
100.0800238465078
 20
154.4200316996763
 30
0.0
  0
VERTEX
  5
1ED
330
1EB
100
AcDbEntity
  8
STANDARDEBENE
 62
     7
100
AcDbVertex
100
AcDb2dVertex
 10
99.62957761181136
 20
154.4200316996763
 30
0.0
  0
SEQEND
  5
1EE
330
1EB
100
AcDbEntity
  8
STANDARDEBENE
  0
POLYLINE
  5
1EF
330
1F
100
AcDbEntity
  8
STANDARDEBENE
 62
     7
100
AcDb2dPolyline
 66
     1
 10
0.0
 20
0.0
 30
0.0
  0
VERTEX
  5
1F0
330
1EF
100
AcDbEntity
  8
STANDARDEBENE
 62
     7
100
AcDbVertex
100
AcDb2dVertex
 10
99.62957761181136
 20
150.7756374406047
 30
0.0
  0
VERTEX
  5
1F1
330
1EF
100
AcDbEntity
  8
STANDARDEBENE
 62
     7
100
AcDbVertex
100
AcDb2dVertex
 10
99.62957761181136
 20
150.6080335452473
 30
0.0
  0
SEQEND
  5
1F2
330
1EF
100
AcDbEntity
  8
STANDARDEBENE
  0
POLYLINE
  5
1F3
330
1F
100
AcDbEntity
  8
STANDARDEBENE
 62
     7
100
AcDb2dPolyline
 66
     1
 10
0.0
 20
0.0
 30
0.0
  0
VERTEX
  5
1F4
330
1F3
100
AcDbEntity
  8
STANDARDEBENE
 62
     7
100
AcDbVertex
100
AcDb2dVertex
 10
99.62957761181136
 20
150.273170264081
 30
0.0
  0
VERTEX
  5
1F5
330
1F3
100
AcDbEntity
  8
STANDARDEBENE
 62
     7
100
AcDbVertex
100
AcDb2dVertex
 10
99.62957761181136
 20
150.1059108782721
 30
0.0
  0
SEQEND
  5
1F6
330
1F3
100
AcDbEntity
  8
STANDARDEBENE
  0
POLYLINE
  5
1F7
330
1F
100
AcDbEntity
  8
STANDARDEBENE
 62
     7
100
AcDb2dPolyline
 66
     1
 10
0.0
 20
0.0
 30
0.0
  0
VERTEX
  5
1F8
330
1F7
100
AcDbEntity
  8
STANDARDEBENE
 62
     7
100
AcDbVertex
100
AcDb2dVertex
 10
103.2298746486717
 20
150.7756374406047
 30
0.0
  0
VERTEX
  5
1F9
330
1F7
100
AcDbEntity
  8
STANDARDEBENE
 62
     7
100
AcDbVertex
100
AcDb2dVertex
 10
102.7799451782981
 20
150.7756374406047
 30
0.0
  0
SEQEND
  5
1FA
330
1F7
100
AcDbEntity
  8
STANDARDEBENE
  0
POLYLINE
  5
1FB
330
1F
100
AcDbEntity
  8
STANDARDEBENE
 62
     7
100
AcDb2dPolyline
 66
     1
 10
0.0
 20
0.0
 30
0.0
  0
VERTEX
  5
1FC
330
1FB
100
AcDbEntity
  8
STANDARDEBENE
 62
     7
100
AcDbVertex
100
AcDb2dVertex
 10
101.8793972184538
 20
150.7756374406047
 30
0.0
  0
VERTEX
  5
1FD
330
1FB
100
AcDbEntity
  8
STANDARDEBENE
 62
     7
100
AcDbVertex
100
AcDb2dVertex
 10
100.979882787255
 20
150.7756374406047
 30
0.0
  0
SEQEND
  5
1FE
330
1FB
100
AcDbEntity
  8
STANDARDEBENE
  0
POLYLINE
  5
1FF
330
1F
100
AcDbEntity
  8
STANDARDEBENE
 62
     7
100
AcDb2dPolyline
 66
     1
 10
0.0
 20
0.0
 30
0.0
  0
VERTEX
  5
200
330
1FF
100
AcDbEntity
  8
STANDARDEBENE
 62
     7
100
AcDbVertex
100
AcDb2dVertex
 10
100.0800238465078
 20
150.7756374406047
 30
0.0
  0
VERTEX
  5
201
330
1FF
100
AcDbEntity
  8
STANDARDEBENE
 62
     7
100
AcDbVertex
100
AcDb2dVertex
 10
99.62957761181136
 20
150.7756374406047
 30
0.0
  0
SEQEND
  5
202
330
1FF
100
AcDbEntity
  8
STANDARDEBENE
  0
POLYLINE
  5
203
330
1F
100
AcDbEntity
  8
STANDARDEBENE
 62
     7
100
AcDb2dPolyline
 66
     1
 10
0.0
 20
0.0
 30
0.0
  0
VERTEX
  5
204
330
203
100
AcDbEntity
  8
STANDARDEBENE
 62
     7
100
AcDbVertex
100
AcDb2dVertex
 10
103.2074815280176
 20
150.1059108782721
 30
0.0
  0
VERTEX
  5
205
330
203
100
AcDbEntity
  8
STANDARDEBENE
 62
     7
100
AcDbVertex
100
AcDb2dVertex
 10
102.3127902304982
 20
150.1059108782721
 30
0.0
  0
SEQEND
  5
206
330
203
100
AcDbEntity
  8
STANDARDEBENE
  0
POLYLINE
  5
207
330
1F
100
AcDbEntity
  8
STANDARDEBENE
 62
     7
100
AcDb2dPolyline
 66
     1
 10
0.0
 20
0.0
 30
0.0
  0
VERTEX
  5
208
330
207
100
AcDbEntity
  8
STANDARDEBENE
 62
     7
100
AcDbVertex
100
AcDb2dVertex
 10
100.5240966545565
 20
150.1059108782721
 30
0.0
  0
VERTEX
  5
209
330
207
100
AcDbEntity
  8
STANDARDEBENE
 62
     7
100
AcDbVertex
100
AcDb2dVertex
 10
99.62957761181136
 20
150.1059108782721
 30
0.0
  0
SEQEND
  5
20A
330
207
100
AcDbEntity
  8
STANDARDEBENE
  0
POLYLINE
  5
20B
330
1F
100
AcDbEntity
  8
STANDARDEBENE
 62
     7
100
AcDb2dPolyline
 66
     1
 10
0.0
 20
0.0
 30
0.0
  0
VERTEX
  5
20C
330
20B
100
AcDbEntity
  8
STANDARDEBENE
 62
     7
100
AcDbVertex
100
AcDb2dVertex
 10
103.2298746486717
 20
150.1026380375611
 30
0.0
  0
VERTEX
  5
20D
330
20B
100
AcDbEntity
  8
STANDARDEBENE
 62
     7
100
AcDbVertex
100
AcDb2dVertex
 10
103.8472357596285
 20
150.0695651209028
 30
0.0
  0
SEQEND
  5
20E
330
20B
100
AcDbEntity
  8
STANDARDEBENE
  0
POLYLINE
  5
20F
330
1F
100
AcDbEntity
  8
STANDARDEBENE
 62
     7
100
AcDb2dPolyline
 66
     1
 10
0.0
 20
0.0
 30
0.0
  0
VERTEX
  5
210
330
20F
100
AcDbEntity
  8
STANDARDEBENE
 62
     7
100
AcDbVertex
100
AcDb2dVertex
 10
105.0595648608879
 20
149.8628593917878
 30
0.0
  0
VERTEX
  5
211
330
20F
100
AcDbEntity
  8
STANDARDEBENE
 62
     7
100
AcDbVertex
100
AcDb2dVertex
 10
105.653499322545
 20
149.689743343654
 30
0.0
  0
VERTEX
  5
212
330
20F
100
AcDbEntity
  8
STANDARDEBENE
 62
     7
100
AcDbVertex
100
AcDb2dVertex
 10
106.1930012755351
 20
149.3862304314034
 30
0.0
  0
SEQEND
  5
213
330
20F
100
AcDbEntity
  8
STANDARDEBENE
  0
POLYLINE
  5
214
330
1F
100
AcDbEntity
  8
STANDARDEBENE
 62
     7
100
AcDb2dPolyline
 66
     1
 10
0.0
 20
0.0
 30
0.0
  0
VERTEX
  5
215
330
214
100
AcDbEntity
  8
STANDARDEBENE
 62
     7
100
AcDbVertex
100
AcDb2dVertex
 10
107.1882893612238
 20
148.6651719463406
 30
0.0
  0
VERTEX
  5
216
330
214
100
AcDbEntity
  8
STANDARDEBENE
 62
     7
100
AcDbVertex
100
AcDb2dVertex
 10
107.6440754939223
 20
148.2465928448828
 30
0.0
  0
SEQEND
  5
217
330
214
100
AcDbEntity
  8
STANDARDEBENE
  0
POLYLINE
  5
218
330
1F
100
AcDbEntity
  8
STANDARDEBENE
 62
     7
100
AcDb2dPolyline
 66
     1
 10
0.0
 20
0.0
 30
0.0
  0
VERTEX
  5
219
330
218
100
AcDbEntity
  8
STANDARDEBENE
 62
     7
100
AcDbVertex
100
AcDb2dVertex
 10
103.2074815280176
 20
155.2599459789802
 30
0.0
  0
VERTEX
  5
21A
330
218
100
AcDbEntity
  8
STANDARDEBENE
 62
     7
100
AcDbVertex
100
AcDb2dVertex
 10
103.2123046616969
 20
155.2602904885287
 30
0.0
  0
VERTEX
  5
21B
330
218
100
AcDbEntity
  8
STANDARDEBENE
 62
     7
100
AcDbVertex
100
AcDb2dVertex
 10
103.2298746486717
 20
155.2623575458198
 30
0.0
  0
VERTEX
  5
21C
330
218
100
AcDbEntity
  8
STANDARDEBENE
 62
     7
100
AcDbVertex
100
AcDb2dVertex
 10
103.8472357596285
 20
155.2962917363496
 30
0.0
  0
SEQEND
  5
21D
330
218
100
AcDbEntity
  8
STANDARDEBENE
  0
POLYLINE
  5
21E
330
1F
100
AcDbEntity
  8
STANDARDEBENE
 62
     7
100
AcDb2dPolyline
 66
     1
 10
0.0
 20
0.0
 30
0.0
  0
VERTEX
  5
21F
330
21E
100
AcDbEntity
  8
STANDARDEBENE
 62
     7
100
AcDbVertex
100
AcDb2dVertex
 10
105.0595648608879
 20
155.502652955916
 30
0.0
  0
VERTEX
  5
220
330
21E
100
AcDbEntity
  8
STANDARDEBENE
 62
     7
100
AcDbVertex
100
AcDb2dVertex
 10
105.653499322545
 20
155.6754244945013
 30
0.0
  0
VERTEX
  5
221
330
21E
100
AcDbEntity
  8
STANDARDEBENE
 62
     7
100
AcDbVertex
100
AcDb2dVertex
 10
106.1930012755351
 20
155.9787651519775
 30
0.0
  0
SEQEND
  5
222
330
21E
100
AcDbEntity
  8
STANDARDEBENE
  0
POLYLINE
  5
223
330
1F
100
AcDbEntity
  8
STANDARDEBENE
 62
     7
100
AcDb2dPolyline
 66
     1
 10
0.0
 20
0.0
 30
0.0
  0
VERTEX
  5
224
330
223
100
AcDbEntity
  8
STANDARDEBENE
 62
     7
100
AcDbVertex
100
AcDb2dVertex
 10
107.1882893612238
 20
156.7006849109116
 30
0.0
  0
VERTEX
  5
225
330
223
100
AcDbEntity
  8
STANDARDEBENE
 62
     7
100
AcDbVertex
100
AcDb2dVertex
 10
107.6440754939223
 20
157.1184027384982
 30
0.0
  0
SEQEND
  5
226
330
223
100
AcDbEntity
  8
STANDARDEBENE
  0
POLYLINE
  5
227
330
1F
100
AcDbEntity
  8
STANDARDEBENE
 62
     7
100
AcDb2dPolyline
 66
     1
 10
0.0
 20
0.0
 30
0.0
  0
VERTEX
  5
228
330
227
100
AcDbEntity
  8
STANDARDEBENE
 62
     7
100
AcDbVertex
100
AcDb2dVertex
 10
103.2074815280176
 20
150.1059108782721
 30
0.0
  0
VERTEX
  5
229
330
227
100
AcDbEntity
  8
STANDARDEBENE
 62
     7
100
AcDbVertex
100
AcDb2dVertex
 10
103.2123046616969
 20
150.1047050948523
 30
0.0
  0
VERTEX
  5
22A
330
227
100
AcDbEntity
  8
STANDARDEBENE
 62
     7
100
AcDbVertex
100
AcDb2dVertex
 10
103.2298746486717
 20
150.1026380375611
 30
0.0
  0
SEQEND
  5
22B
330
227
100
AcDbEntity
  8
STANDARDEBENE
  0
POLYLINE
  5
22C
330
1F
100
AcDbEntity
  8
STANDARDEBENE
 62
     7
100
AcDb2dPolyline
 66
     1
 10
0.0
 20
0.0
 30
0.0
  0
VERTEX
  5
22D
330
22C
100
AcDbEntity
  8
STANDARDEBENE
 62
     7
100
AcDbVertex
100
AcDb2dVertex
 10
107.6451090225679
 20
148.2457315710115
 30
0.0
  0
VERTEX
  5
22E
330
22C
100
AcDbEntity
  8
STANDARDEBENE
 62
     7
100
AcDbVertex
100
AcDb2dVertex
 10
108.0302706978188
 20
148.2994750605814
 30
0.0
  0
SEQEND
  5
22F
330
22C
100
AcDbEntity
  8
STANDARDEBENE
  0
POLYLINE
  5
230
330
1F
100
AcDbEntity
  8
STANDARDEBENE
 62
     7
100
AcDb2dPolyline
 66
     1
 10
0.0
 20
0.0
 30
0.0
  0
VERTEX
  5
231
330
230
100
AcDbEntity
  8
STANDARDEBENE
 62
     7
100
AcDbVertex
100
AcDb2dVertex
 10
108.0302706978188
 20
157.0658650323481
 30
0.0
  0
VERTEX
  5
232
330
230
100
AcDbEntity
  8
STANDARDEBENE
 62
     7
100
AcDbVertex
100
AcDb2dVertex
 10
107.6451090225679
 20
157.1201252862408
 30
0.0
  0
SEQEND
  5
233
330
230
100
AcDbEntity
  8
STANDARDEBENE
  0
POLYLINE
  5
234
330
1F
100
AcDbEntity
  8
STANDARDEBENE
 62
     7
100
AcDb2dPolyline
 66
     1
 10
0.0
 20
0.0
 30
0.0
  0
VERTEX
  5
235
330
234
100
AcDbEntity
  8
STANDARDEBENE
 62
     7
100
AcDbVertex
100
AcDb2dVertex
 10
86.42952200530235
 20
156.1658338368266
 30
0.0
  0
VERTEX
  5
236
330
234
100
AcDbEntity
  8
STANDARDEBENE
 62
     7
100
AcDbVertex
100
AcDb2dVertex
 10
86.42952200530235
 20
156.3360215537979
 30
0.0
  0
SEQEND
  5
237
330
234
100
AcDbEntity
  8
STANDARDEBENE
  0
POLYLINE
  5
238
330
1F
100
AcDbEntity
  8
STANDARDEBENE
 62
     7
100
AcDb2dPolyline
 66
     1
 10
0.0
 20
0.0
 30
0.0
  0
VERTEX
  5
239
330
238
100
AcDbEntity
  8
STANDARDEBENE
 62
     7
100
AcDbVertex
100
AcDb2dVertex
 10
86.42952200530235
 20
157.729218168033
 30
0.0
  0
VERTEX
  5
23A
330
238
100
AcDbEntity
  8
STANDARDEBENE
 62
     7
100
AcDbVertex
100
AcDb2dVertex
 10
86.42952200530235
 20
157.5481784002831
 30
0.0
  0
VERTEX
  5
23B
330
238
100
AcDbEntity
  8
STANDARDEBENE
 62
     7
100
AcDbVertex
100
AcDb2dVertex
 10
86.42952200530235
 20
157.0739610067385
 30
0.0
  0
VERTEX
  5
23C
330
238
100
AcDbEntity
  8
STANDARDEBENE
 62
     7
100
AcDbVertex
100
AcDb2dVertex
 10
86.42952200530235
 20
156.3360215537979
 30
0.0
  0
SEQEND
  5
23D
330
238
100
AcDbEntity
  8
STANDARDEBENE
  0
POLYLINE
  5
23E
330
1F
100
AcDbEntity
  8
STANDARDEBENE
 62
     7
100
AcDb2dPolyline
 66
     1
 10
0.0
 20
0.0
 30
0.0
  0
VERTEX
  5
23F
330
23E
100
AcDbEntity
  8
STANDARDEBENE
 62
     7
100
AcDbVertex
100
AcDb2dVertex
 10
86.42952200530235
 20
156.1663506011494
 30
0.0
  0
VERTEX
  5
240
330
23E
100
AcDbEntity
  8
STANDARDEBENE
 62
     7
100
AcDbVertex
100
AcDb2dVertex
 10
86.42952200530235
 20
155.1722682988805
 30
0.0
  0
VERTEX
  5
241
330
23E
100
AcDbEntity
  8
STANDARDEBENE
 62
     7
100
AcDbVertex
100
AcDb2dVertex
 10
86.42952200530235
 20
154.0279798334548
 30
0.0
  0
VERTEX
  5
242
330
23E
100
AcDbEntity
  8
STANDARDEBENE
 62
     7
100
AcDbVertex
100
AcDb2dVertex
 10
86.42952200530235
 20
152.8030761336742
 30
0.0
  0
SEQEND
  5
243
330
23E
100
AcDbEntity
  8
STANDARDEBENE
  0
POLYLINE
  5
244
330
1F
100
AcDbEntity
  8
STANDARDEBENE
 62
     7
100
AcDb2dPolyline
 66
     1
 10
0.0
 20
0.0
 30
0.0
  0
VERTEX
  5
245
330
244
100
AcDbEntity
  8
STANDARDEBENE
 62
     7
100
AcDbVertex
100
AcDb2dVertex
 10
86.42952200530235
 20
149.1991617465544
 30
0.0
  0
VERTEX
  5
246
330
244
100
AcDbEntity
  8
STANDARDEBENE
 62
     7
100
AcDbVertex
100
AcDb2dVertex
 10
86.42952200530235
 20
149.0298353034543
 30
0.0
  0
SEQEND
  5
247
330
244
100
AcDbEntity
  8
STANDARDEBENE
  0
POLYLINE
  5
248
330
1F
100
AcDbEntity
  8
STANDARDEBENE
 62
     7
100
AcDb2dPolyline
 66
     1
 10
0.0
 20
0.0
 30
0.0
  0
VERTEX
  5
249
330
248
100
AcDbEntity
  8
STANDARDEBENE
 62
     7
100
AcDbVertex
100
AcDb2dVertex
 10
86.42952200530235
 20
152.5627807235781
 30
0.0
  0
VERTEX
  5
24A
330
248
100
AcDbEntity
  8
STANDARDEBENE
 62
     7
100
AcDbVertex
100
AcDb2dVertex
 10
86.42952200530235
 20
151.3378770237975
 30
0.0
  0
VERTEX
  5
24B
330
248
100
AcDbEntity
  8
STANDARDEBENE
 62
     7
100
AcDbVertex
100
AcDb2dVertex
 10
86.42952200530235
 20
150.1935885583717
 30
0.0
  0
VERTEX
  5
24C
330
248
100
AcDbEntity
  8
STANDARDEBENE
 62
     7
100
AcDbVertex
100
AcDb2dVertex
 10
86.42952200530235
 20
149.1991617465544
 30
0.0
  0
SEQEND
  5
24D
330
248
100
AcDbEntity
  8
STANDARDEBENE
  0
POLYLINE
  5
24E
330
1F
100
AcDbEntity
  8
STANDARDEBENE
 62
     7
100
AcDb2dPolyline
 66
     1
 10
0.0
 20
0.0
 30
0.0
  0
VERTEX
  5
24F
330
24E
100
AcDbEntity
  8
STANDARDEBENE
 62
     7
100
AcDbVertex
100
AcDb2dVertex
 10
86.42952200530235
 20
149.0298353034543
 30
0.0
  0
VERTEX
  5
250
330
24E
100
AcDbEntity
  8
STANDARDEBENE
 62
     7
100
AcDbVertex
100
AcDb2dVertex
 10
86.42952200530235
 20
148.2910345766425
 30
0.0
  0
VERTEX
  5
251
330
24E
100
AcDbEntity
  8
STANDARDEBENE
 62
     7
100
AcDbVertex
100
AcDb2dVertex
 10
86.42952200530235
 20
147.8168171830979
 30
0.0
  0
VERTEX
  5
252
330
24E
100
AcDbEntity
  8
STANDARDEBENE
 62
     7
100
AcDbVertex
100
AcDb2dVertex
 10
86.42952200530235
 20
147.6361219248965
 30
0.0
  0
SEQEND
  5
253
330
24E
100
AcDbEntity
  8
STANDARDEBENE
  0
POLYLINE
  5
254
330
1F
100
AcDbEntity
  8
STANDARDEBENE
 62
     7
100
AcDb2dPolyline
 66
     1
 10
0.0
 20
0.0
 30
0.0
  0
VERTEX
  5
255
330
254
100
AcDbEntity
  8
STANDARDEBENE
 62
     7
100
AcDbVertex
100
AcDb2dVertex
 10
108.0302706978188
 20
155.8661105296099
 30
0.0
  0
VERTEX
  5
256
330
254
100
AcDbEntity
  8
STANDARDEBENE
 62
     7
100
AcDbVertex
100
AcDb2dVertex
 10
108.0302706978188
 20
155.6960950674128
 30
0.0
  0
SEQEND
  5
257
330
254
100
AcDbEntity
  8
STANDARDEBENE
  0
POLYLINE
  5
258
330
1F
100
AcDbEntity
  8
STANDARDEBENE
 62
     7
100
AcDb2dPolyline
 66
     1
 10
0.0
 20
0.0
 30
0.0
  0
VERTEX
  5
259
330
258
100
AcDbEntity
  8
STANDARDEBENE
 62
     7
100
AcDbVertex
100
AcDb2dVertex
 10
108.0302706978188
 20
157.0658650323481
 30
0.0
  0
VERTEX
  5
25A
330
258
100
AcDbEntity
  8
STANDARDEBENE
 62
     7
100
AcDbVertex
100
AcDb2dVertex
 10
108.0302706978188
 20
156.9265109199698
 30
0.0
  0
VERTEX
  5
25B
330
258
100
AcDbEntity
  8
STANDARDEBENE
 62
     7
100
AcDbVertex
100
AcDb2dVertex
 10
108.0302706978188
 20
156.5180948501934
 30
0.0
  0
VERTEX
  5
25C
330
258
100
AcDbEntity
  8
STANDARDEBENE
 62
     7
100
AcDbVertex
100
AcDb2dVertex
 10
108.0302706978188
 20
155.8661105296099
 30
0.0
  0
SEQEND
  5
25D
330
258
100
AcDbEntity
  8
STANDARDEBENE
  0
POLYLINE
  5
25E
330
1F
100
AcDbEntity
  8
STANDARDEBENE
 62
     7
100
AcDb2dPolyline
 66
     1
 10
0.0
 20
0.0
 30
0.0
  0
VERTEX
  5
25F
330
25E
100
AcDbEntity
  8
STANDARDEBENE
 62
     7
100
AcDbVertex
100
AcDb2dVertex
 10
92.19954017877303
 20
159.2896741680769
 30
0.0
  0
VERTEX
  5
260
330
25E
100
AcDbEntity
  8
STANDARDEBENE
 62
     7
100
AcDbVertex
100
AcDb2dVertex
 10
92.19954017877303
 20
159.0550631655314
 30
0.0
  0
VERTEX
  5
261
330
25E
100
AcDbEntity
  8
STANDARDEBENE
 62
     7
100
AcDbVertex
100
AcDb2dVertex
 10
92.19954017877303
 20
158.4251274560534
 30
0.0
  0
VERTEX
  5
262
330
25E
100
AcDbEntity
  8
STANDARDEBENE
 62
     7
100
AcDbVertex
100
AcDb2dVertex
 10
92.19954017877303
 20
157.439830147272
 30
0.0
  0
VERTEX
  5
263
330
25E
100
AcDbEntity
  8
STANDARDEBENE
 62
     7
100
AcDbVertex
100
AcDb2dVertex
 10
103.6880723482099
 20
156.2976087391374
 30
0.0
  0
VERTEX
  5
264
330
25E
100
AcDbEntity
  8
STANDARDEBENE
 62
     7
100
AcDbVertex
100
AcDb2dVertex
 10
108.0302706978188
 20
155.8661105296099
 30
0.0
  0
SEQEND
  5
265
330
25E
100
AcDbEntity
  8
STANDARDEBENE
  0
POLYLINE
  5
266
330
1F
100
AcDbEntity
  8
STANDARDEBENE
 62
     7
100
AcDb2dPolyline
 66
     1
 10
0.0
 20
0.0
 30
0.0
  0
VERTEX
  5
267
330
266
100
AcDbEntity
  8
STANDARDEBENE
 62
     7
100
AcDbVertex
100
AcDb2dVertex
 10
107.6451090225679
 20
157.1201252862408
 30
0.0
  0
VERTEX
  5
268
330
266
100
AcDbEntity
  8
STANDARDEBENE
 62
     7
100
AcDbVertex
100
AcDb2dVertex
 10
107.6440754939223
 20
157.1184027384982
 30
0.0
  0
SEQEND
  5
269
330
266
100
AcDbEntity
  8
STANDARDEBENE
  0
POLYLINE
  5
26A
330
1F
100
AcDbEntity
  8
STANDARDEBENE
 62
     7
100
AcDb2dPolyline
 66
     1
 10
0.0
 20
0.0
 30
0.0
  0
VERTEX
  5
26B
330
26A
100
AcDbEntity
  8
STANDARDEBENE
 62
     7
100
AcDbVertex
100
AcDb2dVertex
 10
92.19954017877303
 20
159.2896741680769
 30
0.0
  0
VERTEX
  5
26C
330
26A
100
AcDbEntity
  8
STANDARDEBENE
 62
     7
100
AcDbVertex
100
AcDb2dVertex
 10
98.87716875783279
 20
158.3512301578948
 30
0.0
  0
VERTEX
  5
26D
330
26A
100
AcDbEntity
  8
STANDARDEBENE
 62
     7
100
AcDbVertex
100
AcDb2dVertex
 10
106.7983045522935
 20
157.2376030422878
 30
0.0
  0
VERTEX
  5
26E
330
26A
100
AcDbEntity
  8
STANDARDEBENE
 62
     7
100
AcDbVertex
100
AcDb2dVertex
 10
107.6440754939223
 20
157.1184027384982
 30
0.0
  0
SEQEND
  5
26F
330
26A
100
AcDbEntity
  8
STANDARDEBENE
  0
POLYLINE
  5
270
330
1F
100
AcDbEntity
  8
STANDARDEBENE
 62
     7
100
AcDb2dPolyline
 66
     1
 10
0.0
 20
0.0
 30
0.0
  0
VERTEX
  5
271
330
270
100
AcDbEntity
  8
STANDARDEBENE
 62
     7
100
AcDbVertex
100
AcDb2dVertex
 10
91.82988143320573
 20
158.9191541486383
 30
0.0
  0
VERTEX
  5
272
330
270
100
AcDbEntity
  8
STANDARDEBENE
 62
     7
100
AcDbVertex
100
AcDb2dVertex
 10
91.82988143320573
 20
158.6974622541624
 30
0.0
  0
VERTEX
  5
273
330
270
100
AcDbEntity
  8
STANDARDEBENE
 62
     7
100
AcDbVertex
100
AcDb2dVertex
 10
91.82988143320573
 20
158.105250340248
 30
0.0
  0
VERTEX
  5
274
330
270
100
AcDbEntity
  8
STANDARDEBENE
 62
     7
100
AcDbVertex
100
AcDb2dVertex
 10
91.82988143320573
 20
157.177313871296
 30
0.0
  0
SEQEND
  5
275
330
270
100
AcDbEntity
  8
STANDARDEBENE
  0
POLYLINE
  5
276
330
1F
100
AcDbEntity
  8
STANDARDEBENE
 62
     7
100
AcDb2dPolyline
 66
     1
 10
0.0
 20
0.0
 30
0.0
  0
VERTEX
  5
277
330
276
100
AcDbEntity
  8
STANDARDEBENE
 62
     7
100
AcDbVertex
100
AcDb2dVertex
 10
91.82988143320573
 20
157.0081596829702
 30
0.0
  0
VERTEX
  5
278
330
276
100
AcDbEntity
  8
STANDARDEBENE
 62
     7
100
AcDbVertex
100
AcDb2dVertex
 10
91.82988143320573
 20
157.177313871296
 30
0.0
  0
VERTEX
  5
279
330
276
100
AcDbEntity
  8
STANDARDEBENE
 62
     7
100
AcDbVertex
100
AcDb2dVertex
 10
92.19954017877303
 20
157.439830147272
 30
0.0
  0
SEQEND
  5
27A
330
276
100
AcDbEntity
  8
STANDARDEBENE
  0
POLYLINE
  5
27B
330
1F
100
AcDbEntity
  8
STANDARDEBENE
 62
     7
100
AcDb2dPolyline
 66
     1
 10
0.0
 20
0.0
 30
0.0
  0
VERTEX
  5
27C
330
27B
100
AcDbEntity
  8
STANDARDEBENE
 62
     7
100
AcDbVertex
100
AcDb2dVertex
 10
89.42968340863217
 20
156.6278211413986
 30
0.0
  0
VERTEX
  5
27D
330
27B
100
AcDbEntity
  8
STANDARDEBENE
 62
     7
100
AcDbVertex
100
AcDb2dVertex
 10
91.82988143320573
 20
156.6278211413986
 30
0.0
  0
SEQEND
  5
27E
330
27B
100
AcDbEntity
  8
STANDARDEBENE
  0
POLYLINE
  5
27F
330
1F
100
AcDbEntity
  8
STANDARDEBENE
 62
     7
100
AcDb2dPolyline
 66
     1
 10
0.0
 20
0.0
 30
0.0
  0
VERTEX
  5
280
330
27F
100
AcDbEntity
  8
STANDARDEBENE
 62
     7
100
AcDbVertex
100
AcDb2dVertex
 10
89.42968340863217
 20
158.1415960976174
 30
0.0
  0
VERTEX
  5
281
330
27F
100
AcDbEntity
  8
STANDARDEBENE
 62
     7
100
AcDbVertex
100
AcDb2dVertex
 10
91.82988143320573
 20
158.1415960976174
 30
0.0
  0
SEQEND
  5
282
330
27F
100
AcDbEntity
  8
STANDARDEBENE
  0
POLYLINE
  5
283
330
1F
100
AcDbEntity
  8
STANDARDEBENE
 62
     7
100
AcDb2dPolyline
 66
     1
 10
0.0
 20
0.0
 30
0.0
  0
VERTEX
  5
284
330
283
100
AcDbEntity
  8
STANDARDEBENE
 62
     7
100
AcDbVertex
100
AcDb2dVertex
 10
91.82988143320573
 20
158.9191541486383
 30
0.0
  0
VERTEX
  5
285
330
283
100
AcDbEntity
  8
STANDARDEBENE
 62
     7
100
AcDbVertex
100
AcDb2dVertex
 10
92.19954017877303
 20
159.2896741680769
 30
0.0
  0
SEQEND
  5
286
330
283
100
AcDbEntity
  8
STANDARDEBENE
  0
POLYLINE
  5
287
330
1F
100
AcDbEntity
  8
STANDARDEBENE
 62
     7
100
AcDb2dPolyline
 66
     1
 10
0.0
 20
0.0
 30
0.0
  0
VERTEX
  5
288
330
287
100
AcDbEntity
  8
STANDARDEBENE
 62
     7
100
AcDbVertex
100
AcDb2dVertex
 10
89.42968340863217
 20
157.5610975083528
 30
0.0
  0
VERTEX
  5
289
330
287
100
AcDbEntity
  8
STANDARDEBENE
 62
     7
100
AcDbVertex
100
AcDb2dVertex
 10
89.42968340863217
 20
157.3910820461557
 30
0.0
  0
SEQEND
  5
28A
330
287
100
AcDbEntity
  8
STANDARDEBENE
  0
POLYLINE
  5
28B
330
1F
100
AcDbEntity
  8
STANDARDEBENE
 62
     7
100
AcDb2dPolyline
 66
     1
 10
0.0
 20
0.0
 30
0.0
  0
VERTEX
  5
28C
330
28B
100
AcDbEntity
  8
STANDARDEBENE
 62
     7
100
AcDbVertex
100
AcDb2dVertex
 10
89.42968340863217
 20
159.4621011971136
 30
0.0
  0
VERTEX
  5
28D
330
28B
100
AcDbEntity
  8
STANDARDEBENE
 62
     7
100
AcDbVertex
100
AcDb2dVertex
 10
89.42968340863217
 20
159.2212890226947
 30
0.0
  0
VERTEX
  5
28E
330
28B
100
AcDbEntity
  8
STANDARDEBENE
 62
     7
100
AcDbVertex
100
AcDb2dVertex
 10
89.42968340863217
 20
158.5746446001133
 30
0.0
  0
VERTEX
  5
28F
330
28B
100
AcDbEntity
  8
STANDARDEBENE
 62
     7
100
AcDbVertex
100
AcDb2dVertex
 10
89.42968340863217
 20
157.5610975083528
 30
0.0
  0
SEQEND
  5
290
330
28B
100
AcDbEntity
  8
STANDARDEBENE
  0
POLYLINE
  5
291
330
1F
100
AcDbEntity
  8
STANDARDEBENE
 62
     7
100
AcDb2dPolyline
 66
     1
 10
0.0
 20
0.0
 30
0.0
  0
VERTEX
  5
292
330
291
100
AcDbEntity
  8
STANDARDEBENE
 62
     7
100
AcDbVertex
100
AcDb2dVertex
 10
86.42952200530235
 20
157.729218168033
 30
0.0
  0
VERTEX
  5
293
330
291
100
AcDbEntity
  8
STANDARDEBENE
 62
     7
100
AcDbVertex
100
AcDb2dVertex
 10
88.52207300304309
 20
158.9374131547101
 30
0.0
  0
VERTEX
  5
294
330
291
100
AcDbEntity
  8
STANDARDEBENE
 62
     7
100
AcDbVertex
100
AcDb2dVertex
 10
89.42968340863217
 20
159.4621011971136
 30
0.0
  0
SEQEND
  5
295
330
291
100
AcDbEntity
  8
STANDARDEBENE
  0
POLYLINE
  5
296
330
1F
100
AcDbEntity
  8
STANDARDEBENE
 62
     7
100
AcDb2dPolyline
 66
     1
 10
0.0
 20
0.0
 30
0.0
  0
VERTEX
  5
297
330
296
100
AcDbEntity
  8
STANDARDEBENE
 62
     7
100
AcDbVertex
100
AcDb2dVertex
 10
86.42952200530235
 20
156.3360215537979
 30
0.0
  0
VERTEX
  5
298
330
296
100
AcDbEntity
  8
STANDARDEBENE
 62
     7
100
AcDbVertex
100
AcDb2dVertex
 10
89.42968340863217
 20
157.5610975083528
 30
0.0
  0
SEQEND
  5
299
330
296
100
AcDbEntity
  8
STANDARDEBENE
  0
POLYLINE
  5
29A
330
1F
100
AcDbEntity
  8
STANDARDEBENE
 62
     7
100
AcDb2dPolyline
 66
     1
 10
0.0
 20
0.0
 30
0.0
  0
VERTEX
  5
29B
330
29A
100
AcDbEntity
  8
STANDARDEBENE
 62
     7
100
AcDbVertex
100
AcDb2dVertex
 10
108.0302706978188
 20
155.6960950674128
 30
0.0
  0
VERTEX
  5
29C
330
29A
100
AcDbEntity
  8
STANDARDEBENE
 62
     7
100
AcDbVertex
100
AcDb2dVertex
 10
108.0302706978188
 20
154.8043321010559
 30
0.0
  0
VERTEX
  5
29D
330
29A
100
AcDbEntity
  8
STANDARDEBENE
 62
     7
100
AcDbVertex
100
AcDb2dVertex
 10
108.0302706978188
 20
153.7782104107742
 30
0.0
  0
VERTEX
  5
29E
330
29A
100
AcDbEntity
  8
STANDARDEBENE
 62
     7
100
AcDbVertex
100
AcDb2dVertex
 10
108.0302706978188
 20
152.6831868107875
 30
0.0
  0
VERTEX
  5
29F
330
29A
100
AcDbEntity
  8
STANDARDEBENE
 62
     7
100
AcDbVertex
100
AcDb2dVertex
 10
108.0302706978188
 20
151.5867851726068
 30
0.0
  0
VERTEX
  5
2A0
330
29A
100
AcDbEntity
  8
STANDARDEBENE
 62
     7
100
AcDbVertex
100
AcDb2dVertex
 10
108.0302706978188
 20
150.5606634823251
 30
0.0
  0
VERTEX
  5
2A1
330
29A
100
AcDbEntity
  8
STANDARDEBENE
 62
     7
100
AcDbVertex
100
AcDb2dVertex
 10
108.0302706978188
 20
149.6689005159682
 30
0.0
  0
SEQEND
  5
2A2
330
29A
100
AcDbEntity
  8
STANDARDEBENE
  0
POLYLINE
  5
2A3
330
1F
100
AcDbEntity
  8
STANDARDEBENE
 62
     7
100
AcDb2dPolyline
 66
     1
 10
0.0
 20
0.0
 30
0.0
  0
VERTEX
  5
2A4
330
2A3
100
AcDbEntity
  8
STANDARDEBENE
 62
     7
100
AcDbVertex
100
AcDb2dVertex
 10
92.19954017877303
 20
157.2699869398492
 30
0.0
  0
VERTEX
  5
2A5
330
2A3
100
AcDbEntity
  8
STANDARDEBENE
 62
     7
100
AcDbVertex
100
AcDb2dVertex
 10
103.6880723482099
 20
156.1272487673918
 30
0.0
  0
VERTEX
  5
2A6
330
2A3
100
AcDbEntity
  8
STANDARDEBENE
 62
     7
100
AcDbVertex
100
AcDb2dVertex
 10
108.0302706978188
 20
155.6960950674128
 30
0.0
  0
SEQEND
  5
2A7
330
2A3
100
AcDbEntity
  8
STANDARDEBENE
  0
POLYLINE
  5
2A8
330
1F
100
AcDbEntity
  8
STANDARDEBENE
 62
     7
100
AcDb2dPolyline
 66
     1
 10
0.0
 20
0.0
 30
0.0
  0
VERTEX
  5
2A9
330
2A8
100
AcDbEntity
  8
STANDARDEBENE
 62
     7
100
AcDbVertex
100
AcDb2dVertex
 10
92.19954017877303
 20
157.2699869398492
 30
0.0
  0
VERTEX
  5
2AA
330
2A8
100
AcDbEntity
  8
STANDARDEBENE
 62
     7
100
AcDbVertex
100
AcDb2dVertex
 10
92.19954017877303
 20
155.9517211524183
 30
0.0
  0
VERTEX
  5
2AB
330
2A8
100
AcDbEntity
  8
STANDARDEBENE
 62
     7
100
AcDbVertex
100
AcDb2dVertex
 10
92.19954017877303
 20
154.4314005147776
 30
0.0
  0
VERTEX
  5
2AC
330
2A8
100
AcDbEntity
  8
STANDARDEBENE
 62
     7
100
AcDbVertex
100
AcDb2dVertex
 10
92.19954017877303
 20
152.8030761336742
 30
0.0
  0
VERTEX
  5
2AD
330
2A8
100
AcDbEntity
  8
STANDARDEBENE
 62
     7
100
AcDbVertex
100
AcDb2dVertex
 10
98.87716875783279
 20
152.8030761336742
 30
0.0
  0
VERTEX
  5
2AE
330
2A8
100
AcDbEntity
  8
STANDARDEBENE
 62
     7
100
AcDbVertex
100
AcDb2dVertex
 10
106.7983045522935
 20
152.8030761336742
 30
0.0
  0
VERTEX
  5
2AF
330
2A8
100
AcDbEntity
  8
STANDARDEBENE
 62
     7
100
AcDbVertex
100
AcDb2dVertex
 10
107.6440754939223
 20
152.8030761336742
 30
0.0
  0
VERTEX
  5
2B0
330
2A8
100
AcDbEntity
  8
STANDARDEBENE
 62
     7
100
AcDbVertex
100
AcDb2dVertex
 10
107.6451090225679
 20
152.6831868107875
 30
0.0
  0
VERTEX
  5
2B1
330
2A8
100
AcDbEntity
  8
STANDARDEBENE
 62
     7
100
AcDbVertex
100
AcDb2dVertex
 10
107.6440754939223
 20
152.5627807235781
 30
0.0
  0
SEQEND
  5
2B2
330
2A8
100
AcDbEntity
  8
STANDARDEBENE
  0
POLYLINE
  5
2B3
330
1F
100
AcDbEntity
  8
STANDARDEBENE
 62
     7
100
AcDb2dPolyline
 66
     1
 10
0.0
 20
0.0
 30
0.0
  0
VERTEX
  5
2B4
330
2B3
100
AcDbEntity
  8
STANDARDEBENE
 62
     7
100
AcDbVertex
100
AcDb2dVertex
 10
92.19954017877303
 20
152.5627807235781
 30
0.0
  0
VERTEX
  5
2B5
330
2B3
100
AcDbEntity
  8
STANDARDEBENE
 62
     7
100
AcDbVertex
100
AcDb2dVertex
 10
98.87716875783279
 20
152.5627807235781
 30
0.0
  0
VERTEX
  5
2B6
330
2B3
100
AcDbEntity
  8
STANDARDEBENE
 62
     7
100
AcDbVertex
100
AcDb2dVertex
 10
106.7983045522935
 20
152.5627807235781
 30
0.0
  0
VERTEX
  5
2B7
330
2B3
100
AcDbEntity
  8
STANDARDEBENE
 62
     7
100
AcDbVertex
100
AcDb2dVertex
 10
107.6440754939223
 20
152.5627807235781
 30
0.0
  0
SEQEND
  5
2B8
330
2B3
100
AcDbEntity
  8
STANDARDEBENE
  0
POLYLINE
  5
2B9
330
1F
100
AcDbEntity
  8
STANDARDEBENE
 62
     7
100
AcDb2dPolyline
 66
     1
 10
0.0
 20
0.0
 30
0.0
  0
VERTEX
  5
2BA
330
2B9
100
AcDbEntity
  8
STANDARDEBENE
 62
     7
100
AcDbVertex
100
AcDb2dVertex
 10
92.19954017877303
 20
152.5627807235781
 30
0.0
  0
VERTEX
  5
2BB
330
2B9
100
AcDbEntity
  8
STANDARDEBENE
 62
     7
100
AcDbVertex
100
AcDb2dVertex
 10
92.19954017877303
 20
150.9335950686034
 30
0.0
  0
VERTEX
  5
2BC
330
2B9
100
AcDbEntity
  8
STANDARDEBENE
 62
     7
100
AcDbVertex
100
AcDb2dVertex
 10
92.19954017877303
 20
149.4134466857369
 30
0.0
  0
VERTEX
  5
2BD
330
2B9
100
AcDbEntity
  8
STANDARDEBENE
 62
     7
100
AcDbVertex
100
AcDb2dVertex
 10
92.19954017877303
 20
148.0958699174031
 30
0.0
  0
VERTEX
  5
2BE
330
2B9
100
AcDbEntity
  8
STANDARDEBENE
 62
     7
100
AcDbVertex
100
AcDb2dVertex
 10
103.6880723482099
 20
149.2377468159892
 30
0.0
  0
VERTEX
  5
2BF
330
2B9
100
AcDbEntity
  8
STANDARDEBENE
 62
     7
100
AcDbVertex
100
AcDb2dVertex
 10
108.0302706978188
 20
149.6689005159682
 30
0.0
  0
SEQEND
  5
2C0
330
2B9
100
AcDbEntity
  8
STANDARDEBENE
  0
POLYLINE
  5
2C1
330
1F
100
AcDbEntity
  8
STANDARDEBENE
 62
     7
100
AcDb2dPolyline
 66
     1
 10
0.0
 20
0.0
 30
0.0
  0
VERTEX
  5
2C2
330
2C1
100
AcDbEntity
  8
STANDARDEBENE
 62
     7
100
AcDbVertex
100
AcDb2dVertex
 10
91.82988143320573
 20
152.5627807235781
 30
0.0
  0
VERTEX
  5
2C3
330
2C1
100
AcDbEntity
  8
STANDARDEBENE
 62
     7
100
AcDbVertex
100
AcDb2dVertex
 10
91.82988143320573
 20
151.0298854874162
 30
0.0
  0
VERTEX
  5
2C4
330
2C1
100
AcDbEntity
  8
STANDARDEBENE
 62
     7
100
AcDbVertex
100
AcDb2dVertex
 10
91.82988143320573
 20
149.5982760585206
 30
0.0
  0
VERTEX
  5
2C5
330
2C1
100
AcDbEntity
  8
STANDARDEBENE
 62
     7
100
AcDbVertex
100
AcDb2dVertex
 10
91.82988143320573
 20
148.3580416838306
 30
0.0
  0
VERTEX
  5
2C6
330
2C1
100
AcDbEntity
  8
STANDARDEBENE
 62
     7
100
AcDbVertex
100
AcDb2dVertex
 10
92.19954017877303
 20
148.0958699174031
 30
0.0
  0
SEQEND
  5
2C7
330
2C1
100
AcDbEntity
  8
STANDARDEBENE
  0
POLYLINE
  5
2C8
330
1F
100
AcDbEntity
  8
STANDARDEBENE
 62
     7
100
AcDb2dPolyline
 66
     1
 10
0.0
 20
0.0
 30
0.0
  0
VERTEX
  5
2C9
330
2C8
100
AcDbEntity
  8
STANDARDEBENE
 62
     7
100
AcDbVertex
100
AcDb2dVertex
 10
89.42968340863217
 20
148.9078789232765
 30
0.0
  0
VERTEX
  5
2CA
330
2C8
100
AcDbEntity
  8
STANDARDEBENE
 62
     7
100
AcDbVertex
100
AcDb2dVertex
 10
91.82988143320573
 20
148.9078789232765
 30
0.0
  0
SEQEND
  5
2CB
330
2C8
100
AcDbEntity
  8
STANDARDEBENE
  0
POLYLINE
  5
2CC
330
1F
100
AcDbEntity
  8
STANDARDEBENE
 62
     7
100
AcDb2dPolyline
 66
     1
 10
0.0
 20
0.0
 30
0.0
  0
VERTEX
  5
2CD
330
2CC
100
AcDbEntity
  8
STANDARDEBENE
 62
     7
100
AcDbVertex
100
AcDb2dVertex
 10
89.42968340863217
 20
152.5627807235781
 30
0.0
  0
VERTEX
  5
2CE
330
2CC
100
AcDbEntity
  8
STANDARDEBENE
 62
     7
100
AcDbVertex
100
AcDb2dVertex
 10
91.82988143320573
 20
152.5627807235781
 30
0.0
  0
VERTEX
  5
2CF
330
2CC
100
AcDbEntity
  8
STANDARDEBENE
 62
     7
100
AcDbVertex
100
AcDb2dVertex
 10
92.19954017877303
 20
152.5627807235781
 30
0.0
  0
SEQEND
  5
2D0
330
2CC
100
AcDbEntity
  8
STANDARDEBENE
  0
POLYLINE
  5
2D1
330
1F
100
AcDbEntity
  8
STANDARDEBENE
 62
     7
100
AcDb2dPolyline
 66
     1
 10
0.0
 20
0.0
 30
0.0
  0
VERTEX
  5
2D2
330
2D1
100
AcDbEntity
  8
STANDARDEBENE
 62
     7
100
AcDbVertex
100
AcDb2dVertex
 10
89.42968340863217
 20
152.5627807235781
 30
0.0
  0
VERTEX
  5
2D3
330
2D1
100
AcDbEntity
  8
STANDARDEBENE
 62
     7
100
AcDbVertex
100
AcDb2dVertex
 10
89.42968340863217
 20
150.8894978463922
 30
0.0
  0
VERTEX
  5
2D4
330
2D1
100
AcDbEntity
  8
STANDARDEBENE
 62
     7
100
AcDbVertex
100
AcDb2dVertex
 10
89.42968340863217
 20
149.3274915533799
 30
0.0
  0
VERTEX
  5
2D5
330
2D1
100
AcDbEntity
  8
STANDARDEBENE
 62
     7
100
AcDbVertex
100
AcDb2dVertex
 10
89.42968340863217
 20
147.9739135372253
 30
0.0
  0
SEQEND
  5
2D6
330
2D1
100
AcDbEntity
  8
STANDARDEBENE
  0
POLYLINE
  5
2D7
330
1F
100
AcDbEntity
  8
STANDARDEBENE
 62
     7
100
AcDb2dPolyline
 66
     1
 10
0.0
 20
0.0
 30
0.0
  0
VERTEX
  5
2D8
330
2D7
100
AcDbEntity
  8
STANDARDEBENE
 62
     7
100
AcDbVertex
100
AcDb2dVertex
 10
86.42952200530235
 20
149.1991617465544
 30
0.0
  0
VERTEX
  5
2D9
330
2D7
100
AcDbEntity
  8
STANDARDEBENE
 62
     7
100
AcDbVertex
100
AcDb2dVertex
 10
89.42968340863217
 20
147.9739135372253
 30
0.0
  0
SEQEND
  5
2DA
330
2D7
100
AcDbEntity
  8
STANDARDEBENE
  0
POLYLINE
  5
2DB
330
1F
100
AcDbEntity
  8
STANDARDEBENE
 62
     7
100
AcDb2dPolyline
 66
     1
 10
0.0
 20
0.0
 30
0.0
  0
VERTEX
  5
2DC
330
2DB
100
AcDbEntity
  8
STANDARDEBENE
 62
     7
100
AcDbVertex
100
AcDb2dVertex
 10
108.0302706978188
 20
149.4995740728682
 30
0.0
  0
VERTEX
  5
2DD
330
2DB
100
AcDbEntity
  8
STANDARDEBENE
 62
     7
100
AcDbVertex
100
AcDb2dVertex
 10
108.0302706978188
 20
149.6689005159682
 30
0.0
  0
SEQEND
  5
2DE
330
2DB
100
AcDbEntity
  8
STANDARDEBENE
  0
POLYLINE
  5
2DF
330
1F
100
AcDbEntity
  8
STANDARDEBENE
 62
     7
100
AcDb2dPolyline
 66
     1
 10
0.0
 20
0.0
 30
0.0
  0
VERTEX
  5
2E0
330
2DF
100
AcDbEntity
  8
STANDARDEBENE
 62
     7
100
AcDbVertex
100
AcDb2dVertex
 10
86.42952200530235
 20
152.5627807235781
 30
0.0
  0
VERTEX
  5
2E1
330
2DF
100
AcDbEntity
  8
STANDARDEBENE
 62
     7
100
AcDbVertex
100
AcDb2dVertex
 10
88.52207300304309
 20
152.5627807235781
 30
0.0
  0
VERTEX
  5
2E2
330
2DF
100
AcDbEntity
  8
STANDARDEBENE
 62
     7
100
AcDbVertex
100
AcDb2dVertex
 10
89.42968340863217
 20
152.5627807235781
 30
0.0
  0
SEQEND
  5
2E3
330
2DF
100
AcDbEntity
  8
STANDARDEBENE
  0
POLYLINE
  5
2E4
330
1F
100
AcDbEntity
  8
STANDARDEBENE
 62
     7
100
AcDb2dPolyline
 66
     1
 10
0.0
 20
0.0
 30
0.0
  0
VERTEX
  5
2E5
330
2E4
100
AcDbEntity
  8
STANDARDEBENE
 62
     7
100
AcDbVertex
100
AcDb2dVertex
 10
103.2074815280176
 20
152.5627807235781
 30
0.0
  0
VERTEX
  5
2E6
330
2E4
100
AcDbEntity
  8
STANDARDEBENE
 62
     7
100
AcDbVertex
100
AcDb2dVertex
 10
103.2298746486717
 20
152.6831868107875
 30
0.0
  0
SEQEND
  5
2E7
330
2E4
100
AcDbEntity
  8
STANDARDEBENE
  0
POLYLINE
  5
2E8
330
1F
100
AcDbEntity
  8
STANDARDEBENE
 62
     7
100
AcDb2dPolyline
 66
     1
 10
0.0
 20
0.0
 30
0.0
  0
VERTEX
  5
2E9
330
2E8
100
AcDbEntity
  8
STANDARDEBENE
 62
     7
100
AcDbVertex
100
AcDb2dVertex
 10
108.0302706978188
 20
149.4995740728682
 30
0.0
  0
VERTEX
  5
2EA
330
2E8
100
AcDbEntity
  8
STANDARDEBENE
 62
     7
100
AcDbVertex
100
AcDb2dVertex
 10
108.0302706978188
 20
148.8472452427361
 30
0.0
  0
VERTEX
  5
2EB
330
2E8
100
AcDbEntity
  8
STANDARDEBENE
 62
     7
100
AcDbVertex
100
AcDb2dVertex
 10
108.0302706978188
 20
148.4384846634112
 30
0.0
  0
VERTEX
  5
2EC
330
2E8
100
AcDbEntity
  8
STANDARDEBENE
 62
     7
100
AcDbVertex
100
AcDb2dVertex
 10
108.0302706978188
 20
148.2994750605814
 30
0.0
  0
SEQEND
  5
2ED
330
2E8
100
AcDbEntity
  8
STANDARDEBENE
  0
POLYLINE
  5
2EE
330
1F
100
AcDbEntity
  8
STANDARDEBENE
 62
     7
100
AcDb2dPolyline
 66
     1
 10
0.0
 20
0.0
 30
0.0
  0
VERTEX
  5
2EF
330
2EE
100
AcDbEntity
  8
STANDARDEBENE
 62
     7
100
AcDbVertex
100
AcDb2dVertex
 10
92.19954017877303
 20
147.9261989647546
 30
0.0
  0
VERTEX
  5
2F0
330
2EE
100
AcDbEntity
  8
STANDARDEBENE
 62
     7
100
AcDbVertex
100
AcDb2dVertex
 10
103.6880723482099
 20
149.0682481181149
 30
0.0
  0
VERTEX
  5
2F1
330
2EE
100
AcDbEntity
  8
STANDARDEBENE
 62
     7
100
AcDbVertex
100
AcDb2dVertex
 10
108.0302706978188
 20
149.4995740728682
 30
0.0
  0
SEQEND
  5
2F2
330
2EE
100
AcDbEntity
  8
STANDARDEBENE
  0
POLYLINE
  5
2F3
330
1F
100
AcDbEntity
  8
STANDARDEBENE
 62
     7
100
AcDb2dPolyline
 66
     1
 10
0.0
 20
0.0
 30
0.0
  0
VERTEX
  5
2F4
330
2F3
100
AcDbEntity
  8
STANDARDEBENE
 62
     7
100
AcDbVertex
100
AcDb2dVertex
 10
92.19954017877303
 20
147.9261989647546
 30
0.0
  0
VERTEX
  5
2F5
330
2F3
100
AcDbEntity
  8
STANDARDEBENE
 62
     7
100
AcDbVertex
100
AcDb2dVertex
 10
92.19954017877303
 20
146.9398681273275
 30
0.0
  0
VERTEX
  5
2F6
330
2F3
100
AcDbEntity
  8
STANDARDEBENE
 62
     7
100
AcDbVertex
100
AcDb2dVertex
 10
92.19954017877303
 20
146.3107936917209
 30
0.0
  0
VERTEX
  5
2F7
330
2F3
100
AcDbEntity
  8
STANDARDEBENE
 62
     7
100
AcDbVertex
100
AcDb2dVertex
 10
92.19954017877303
 20
146.0761826891754
 30
0.0
  0
VERTEX
  5
2F8
330
2F3
100
AcDbEntity
  8
STANDARDEBENE
 62
     7
100
AcDbVertex
100
AcDb2dVertex
 10
98.87716875783279
 20
147.0147989541317
 30
0.0
  0
VERTEX
  5
2F9
330
2F3
100
AcDbEntity
  8
STANDARDEBENE
 62
     7
100
AcDbVertex
100
AcDb2dVertex
 10
106.7983045522935
 20
148.128598324513
 30
0.0
  0
VERTEX
  5
2FA
330
2F3
100
AcDbEntity
  8
STANDARDEBENE
 62
     7
100
AcDbVertex
100
AcDb2dVertex
 10
107.6440754939223
 20
148.2465928448828
 30
0.0
  0
VERTEX
  5
2FB
330
2F3
100
AcDbEntity
  8
STANDARDEBENE
 62
     7
100
AcDbVertex
100
AcDb2dVertex
 10
107.6451090225679
 20
148.2457315710115
 30
0.0
  0
SEQEND
  5
2FC
330
2F3
100
AcDbEntity
  8
STANDARDEBENE
  0
POLYLINE
  5
2FD
330
1F
100
AcDbEntity
  8
STANDARDEBENE
 62
     7
100
AcDb2dPolyline
 66
     1
 10
0.0
 20
0.0
 30
0.0
  0
VERTEX
  5
2FE
330
2FD
100
AcDbEntity
  8
STANDARDEBENE
 62
     7
100
AcDbVertex
100
AcDb2dVertex
 10
91.82988143320573
 20
157.0081596829702
 30
0.0
  0
VERTEX
  5
2FF
330
2FD
100
AcDbEntity
  8
STANDARDEBENE
 62
     7
100
AcDbVertex
100
AcDb2dVertex
 10
92.19954017877303
 20
157.2699869398492
 30
0.0
  0
SEQEND
  5
300
330
2FD
100
AcDbEntity
  8
STANDARDEBENE
  0
POLYLINE
  5
301
330
1F
100
AcDbEntity
  8
STANDARDEBENE
 62
     7
100
AcDb2dPolyline
 66
     1
 10
0.0
 20
0.0
 30
0.0
  0
VERTEX
  5
302
330
301
100
AcDbEntity
  8
STANDARDEBENE
 62
     7
100
AcDbVertex
100
AcDb2dVertex
 10
91.82988143320573
 20
157.0081596829702
 30
0.0
  0
VERTEX
  5
303
330
301
100
AcDbEntity
  8
STANDARDEBENE
 62
     7
100
AcDbVertex
100
AcDb2dVertex
 10
91.82988143320573
 20
155.7667195248604
 30
0.0
  0
VERTEX
  5
304
330
301
100
AcDbEntity
  8
STANDARDEBENE
 62
     7
100
AcDbVertex
100
AcDb2dVertex
 10
91.82988143320573
 20
154.3359713698362
 30
0.0
  0
VERTEX
  5
305
330
301
100
AcDbEntity
  8
STANDARDEBENE
 62
     7
100
AcDbVertex
100
AcDb2dVertex
 10
91.82988143320573
 20
152.8030761336742
 30
0.0
  0
SEQEND
  5
306
330
301
100
AcDbEntity
  8
STANDARDEBENE
  0
POLYLINE
  5
307
330
1F
100
AcDbEntity
  8
STANDARDEBENE
 62
     7
100
AcDb2dPolyline
 66
     1
 10
0.0
 20
0.0
 30
0.0
  0
VERTEX
  5
308
330
307
100
AcDbEntity
  8
STANDARDEBENE
 62
     7
100
AcDbVertex
100
AcDb2dVertex
 10
89.42968340863217
 20
156.4579779339758
 30
0.0
  0
VERTEX
  5
309
330
307
100
AcDbEntity
  8
STANDARDEBENE
 62
     7
100
AcDbVertex
100
AcDb2dVertex
 10
91.82988143320573
 20
156.4579779339758
 30
0.0
  0
SEQEND
  5
30A
330
307
100
AcDbEntity
  8
STANDARDEBENE
  0
POLYLINE
  5
30B
330
1F
100
AcDbEntity
  8
STANDARDEBENE
 62
     7
100
AcDb2dPolyline
 66
     1
 10
0.0
 20
0.0
 30
0.0
  0
VERTEX
  5
30C
330
30B
100
AcDbEntity
  8
STANDARDEBENE
 62
     7
100
AcDbVertex
100
AcDb2dVertex
 10
89.42968340863217
 20
152.8030761336742
 30
0.0
  0
VERTEX
  5
30D
330
30B
100
AcDbEntity
  8
STANDARDEBENE
 62
     7
100
AcDbVertex
100
AcDb2dVertex
 10
91.82988143320573
 20
152.8030761336742
 30
0.0
  0
VERTEX
  5
30E
330
30B
100
AcDbEntity
  8
STANDARDEBENE
 62
     7
100
AcDbVertex
100
AcDb2dVertex
 10
92.19954017877303
 20
152.8030761336742
 30
0.0
  0
SEQEND
  5
30F
330
30B
100
AcDbEntity
  8
STANDARDEBENE
  0
POLYLINE
  5
310
330
1F
100
AcDbEntity
  8
STANDARDEBENE
 62
     7
100
AcDb2dPolyline
 66
     1
 10
0.0
 20
0.0
 30
0.0
  0
VERTEX
  5
311
330
310
100
AcDbEntity
  8
STANDARDEBENE
 62
     7
100
AcDbVertex
100
AcDb2dVertex
 10
89.42968340863217
 20
157.3910820461557
 30
0.0
  0
VERTEX
  5
312
330
310
100
AcDbEntity
  8
STANDARDEBENE
 62
     7
100
AcDbVertex
100
AcDb2dVertex
 10
89.42968340863217
 20
156.0380207943238
 30
0.0
  0
VERTEX
  5
313
330
310
100
AcDbEntity
  8
STANDARDEBENE
 62
     7
100
AcDbVertex
100
AcDb2dVertex
 10
89.42968340863217
 20
154.4765312656343
 30
0.0
  0
VERTEX
  5
314
330
310
100
AcDbEntity
  8
STANDARDEBENE
 62
     7
100
AcDbVertex
100
AcDb2dVertex
 10
89.42968340863217
 20
152.8030761336742
 30
0.0
  0
SEQEND
  5
315
330
310
100
AcDbEntity
  8
STANDARDEBENE
  0
POLYLINE
  5
316
330
1F
100
AcDbEntity
  8
STANDARDEBENE
 62
     7
100
AcDb2dPolyline
 66
     1
 10
0.0
 20
0.0
 30
0.0
  0
VERTEX
  5
317
330
316
100
AcDbEntity
  8
STANDARDEBENE
 62
     7
100
AcDbVertex
100
AcDb2dVertex
 10
86.42952200530235
 20
156.1663506011494
 30
0.0
  0
VERTEX
  5
318
330
316
100
AcDbEntity
  8
STANDARDEBENE
 62
     7
100
AcDbVertex
100
AcDb2dVertex
 10
89.42968340863217
 20
157.3910820461557
 30
0.0
  0
SEQEND
  5
319
330
316
100
AcDbEntity
  8
STANDARDEBENE
  0
POLYLINE
  5
31A
330
1F
100
AcDbEntity
  8
STANDARDEBENE
 62
     7
100
AcDb2dPolyline
 66
     1
 10
0.0
 20
0.0
 30
0.0
  0
VERTEX
  5
31B
330
31A
100
AcDbEntity
  8
STANDARDEBENE
 62
     7
100
AcDbVertex
100
AcDb2dVertex
 10
86.42952200530235
 20
152.8030761336742
 30
0.0
  0
VERTEX
  5
31C
330
31A
100
AcDbEntity
  8
STANDARDEBENE
 62
     7
100
AcDbVertex
100
AcDb2dVertex
 10
88.52207300304309
 20
152.8030761336742
 30
0.0
  0
VERTEX
  5
31D
330
31A
100
AcDbEntity
  8
STANDARDEBENE
 62
     7
100
AcDbVertex
100
AcDb2dVertex
 10
89.42968340863217
 20
152.8030761336742
 30
0.0
  0
SEQEND
  5
31E
330
31A
100
AcDbEntity
  8
STANDARDEBENE
  0
POLYLINE
  5
31F
330
1F
100
AcDbEntity
  8
STANDARDEBENE
 62
     7
100
AcDb2dPolyline
 66
     1
 10
0.0
 20
0.0
 30
0.0
  0
VERTEX
  5
320
330
31F
100
AcDbEntity
  8
STANDARDEBENE
 62
     7
100
AcDbVertex
100
AcDb2dVertex
 10
91.82988143320573
 20
148.3580416838306
 30
0.0
  0
VERTEX
  5
321
330
31F
100
AcDbEntity
  8
STANDARDEBENE
 62
     7
100
AcDbVertex
100
AcDb2dVertex
 10
91.82988143320573
 20
148.187681712085
 30
0.0
  0
VERTEX
  5
322
330
31F
100
AcDbEntity
  8
STANDARDEBENE
 62
     7
100
AcDbVertex
100
AcDb2dVertex
 10
92.19954017877303
 20
147.9261989647546
 30
0.0
  0
SEQEND
  5
323
330
31F
100
AcDbEntity
  8
STANDARDEBENE
  0
POLYLINE
  5
324
330
1F
100
AcDbEntity
  8
STANDARDEBENE
 62
     7
100
AcDb2dPolyline
 66
     1
 10
0.0
 20
0.0
 30
0.0
  0
VERTEX
  5
325
330
324
100
AcDbEntity
  8
STANDARDEBENE
 62
     7
100
AcDbVertex
100
AcDb2dVertex
 10
89.42968340863217
 20
148.7376912063052
 30
0.0
  0
VERTEX
  5
326
330
324
100
AcDbEntity
  8
STANDARDEBENE
 62
     7
100
AcDbVertex
100
AcDb2dVertex
 10
91.82988143320573
 20
148.7376912063052
 30
0.0
  0
SEQEND
  5
327
330
324
100
AcDbEntity
  8
STANDARDEBENE
  0
POLYLINE
  5
328
330
1F
100
AcDbEntity
  8
STANDARDEBENE
 62
     7
100
AcDb2dPolyline
 66
     1
 10
0.0
 20
0.0
 30
0.0
  0
VERTEX
  5
329
330
328
100
AcDbEntity
  8
STANDARDEBENE
 62
     7
100
AcDbVertex
100
AcDb2dVertex
 10
91.82988143320573
 20
148.187681712085
 30
0.0
  0
VERTEX
  5
32A
330
328
100
AcDbEntity
  8
STANDARDEBENE
 62
     7
100
AcDbVertex
100
AcDb2dVertex
 10
91.82988143320573
 20
147.2612955361014
 30
0.0
  0
VERTEX
  5
32B
330
328
100
AcDbEntity
  8
STANDARDEBENE
 62
     7
100
AcDbVertex
100
AcDb2dVertex
 10
91.82988143320573
 20
146.6675333292185
 30
0.0
  0
VERTEX
  5
32C
330
328
100
AcDbEntity
  8
STANDARDEBENE
 62
     7
100
AcDbVertex
100
AcDb2dVertex
 10
91.82988143320573
 20
146.4458414347427
 30
0.0
  0
SEQEND
  5
32D
330
328
100
AcDbEntity
  8
STANDARDEBENE
  0
POLYLINE
  5
32E
330
1F
100
AcDbEntity
  8
STANDARDEBENE
 62
     7
100
AcDb2dPolyline
 66
     1
 10
0.0
 20
0.0
 30
0.0
  0
VERTEX
  5
32F
330
32E
100
AcDbEntity
  8
STANDARDEBENE
 62
     7
100
AcDbVertex
100
AcDb2dVertex
 10
89.42968340863217
 20
147.2242607596349
 30
0.0
  0
VERTEX
  5
330
330
32E
100
AcDbEntity
  8
STANDARDEBENE
 62
     7
100
AcDbVertex
100
AcDb2dVertex
 10
91.82988143320573
 20
147.2242607596349
 30
0.0
  0
SEQEND
  5
331
330
32E
100
AcDbEntity
  8
STANDARDEBENE
  0
POLYLINE
  5
332
330
1F
100
AcDbEntity
  8
STANDARDEBENE
 62
     7
100
AcDb2dPolyline
 66
     1
 10
0.0
 20
0.0
 30
0.0
  0
VERTEX
  5
333
330
332
100
AcDbEntity
  8
STANDARDEBENE
 62
     7
100
AcDbVertex
100
AcDb2dVertex
 10
89.42968340863217
 20
147.8045870941253
 30
0.0
  0
VERTEX
  5
334
330
332
100
AcDbEntity
  8
STANDARDEBENE
 62
     7
100
AcDbVertex
100
AcDb2dVertex
 10
89.42968340863217
 20
147.9739135372253
 30
0.0
  0
SEQEND
  5
335
330
332
100
AcDbEntity
  8
STANDARDEBENE
  0
POLYLINE
  5
336
330
1F
100
AcDbEntity
  8
STANDARDEBENE
 62
     7
100
AcDb2dPolyline
 66
     1
 10
0.0
 20
0.0
 30
0.0
  0
VERTEX
  5
337
330
336
100
AcDbEntity
  8
STANDARDEBENE
 62
     7
100
AcDbVertex
100
AcDb2dVertex
 10
91.82988143320573
 20
146.4458414347427
 30
0.0
  0
VERTEX
  5
338
330
336
100
AcDbEntity
  8
STANDARDEBENE
 62
     7
100
AcDbVertex
100
AcDb2dVertex
 10
92.19954017877303
 20
146.0761826891754
 30
0.0
  0
SEQEND
  5
339
330
336
100
AcDbEntity
  8
STANDARDEBENE
  0
POLYLINE
  5
33A
330
1F
100
AcDbEntity
  8
STANDARDEBENE
 62
     7
100
AcDb2dPolyline
 66
     1
 10
0.0
 20
0.0
 30
0.0
  0
VERTEX
  5
33B
330
33A
100
AcDbEntity
  8
STANDARDEBENE
 62
     7
100
AcDbVertex
100
AcDb2dVertex
 10
89.42968340863217
 20
147.8045870941253
 30
0.0
  0
VERTEX
  5
33C
330
33A
100
AcDbEntity
  8
STANDARDEBENE
 62
     7
100
AcDbVertex
100
AcDb2dVertex
 10
89.42968340863217
 20
146.791212257139
 30
0.0
  0
VERTEX
  5
33D
330
33A
100
AcDbEntity
  8
STANDARDEBENE
 62
     7
100
AcDbVertex
100
AcDb2dVertex
 10
89.42968340863217
 20
146.1437065606863
 30
0.0
  0
VERTEX
  5
33E
330
33A
100
AcDbEntity
  8
STANDARDEBENE
 62
     7
100
AcDbVertex
100
AcDb2dVertex
 10
89.42968340863217
 20
145.9039279149129
 30
0.0
  0
SEQEND
  5
33F
330
33A
100
AcDbEntity
  8
STANDARDEBENE
  0
POLYLINE
  5
340
330
1F
100
AcDbEntity
  8
STANDARDEBENE
 62
     7
100
AcDb2dPolyline
 66
     1
 10
0.0
 20
0.0
 30
0.0
  0
VERTEX
  5
341
330
340
100
AcDbEntity
  8
STANDARDEBENE
 62
     7
100
AcDbVertex
100
AcDb2dVertex
 10
86.42952200530235
 20
149.0298353034543
 30
0.0
  0
VERTEX
  5
342
330
340
100
AcDbEntity
  8
STANDARDEBENE
 62
     7
100
AcDbVertex
100
AcDb2dVertex
 10
89.42968340863217
 20
147.8045870941253
 30
0.0
  0
SEQEND
  5
343
330
340
100
AcDbEntity
  8
STANDARDEBENE
  0
POLYLINE
  5
344
330
1F
100
AcDbEntity
  8
STANDARDEBENE
 62
     7
100
AcDb2dPolyline
 66
     1
 10
0.0
 20
0.0
 30
0.0
  0
VERTEX
  5
345
330
344
100
AcDbEntity
  8
STANDARDEBENE
 62
     7
100
AcDbVertex
100
AcDb2dVertex
 10
86.42952200530235
 20
147.6361219248965
 30
0.0
  0
VERTEX
  5
346
330
344
100
AcDbEntity
  8
STANDARDEBENE
 62
     7
100
AcDbVertex
100
AcDb2dVertex
 10
86.70461287979954
 20
147.4774752778008
 30
0.0
  0
VERTEX
  5
347
330
344
100
AcDbEntity
  8
STANDARDEBENE
 62
     7
100
AcDbVertex
100
AcDb2dVertex
 10
89.42968340863217
 20
145.9039279149129
 30
0.0
  0
SEQEND
  5
348
330
344
100
AcDbEntity
  8
STANDARDEBENE
  0
POLYLINE
  5
349
330
1F
100
AcDbEntity
  8
STANDARDEBENE
 62
     7
100
AcDb2dPolyline
 66
     1
 10
0.0
 20
0.0
 30
0.0
  0
VERTEX
  5
34A
330
349
100
AcDbEntity
  8
STANDARDEBENE
 62
     7
100
AcDbVertex
100
AcDb2dVertex
 10
103.2074815280176
 20
152.8030761336742
 30
0.0
  0
VERTEX
  5
34B
330
349
100
AcDbEntity
  8
STANDARDEBENE
 62
     7
100
AcDbVertex
100
AcDb2dVertex
 10
103.2298746486717
 20
152.6831868107875
 30
0.0
  0
SEQEND
  5
34C
330
349
100
AcDbEntity
  8
STANDARDEBENE
  0
POLYLINE
  5
34D
330
1F
100
AcDbEntity
  8
STANDARDEBENE
 62
     7
100
AcDb2dPolyline
 66
     1
 10
0.0
 20
0.0
 30
0.0
  0
VERTEX
  5
34E
330
34D
100
AcDbEntity
  8
STANDARDEBENE
 62
     7
100
AcDbVertex
100
AcDb2dVertex
 10
103.2298746486717
 20
152.5627807235781
 30
0.0
  0
VERTEX
  5
34F
330
34D
100
AcDbEntity
  8
STANDARDEBENE
 62
     7
100
AcDbVertex
100
AcDb2dVertex
 10
103.2298746486717
 20
152.6831868107875
 30
0.0
  0
SEQEND
  5
350
330
34D
100
AcDbEntity
  8
STANDARDEBENE
  0
POLYLINE
  5
351
330
1F
100
AcDbEntity
  8
STANDARDEBENE
 62
     7
100
AcDb2dPolyline
 66
     1
 10
0.0
 20
0.0
 30
0.0
  0
VERTEX
  5
352
330
351
100
AcDbEntity
  8
STANDARDEBENE
 62
     7
100
AcDbVertex
100
AcDb2dVertex
 10
103.2298746486717
 20
152.8030761336742
 30
0.0
  0
VERTEX
  5
353
330
351
100
AcDbEntity
  8
STANDARDEBENE
 62
     7
100
AcDbVertex
100
AcDb2dVertex
 10
103.2298746486717
 20
152.6831868107875
 30
0.0
  0
SEQEND
  5
354
330
351
100
AcDbEntity
  8
STANDARDEBENE
  0
POLYLINE
  5
355
330
1F
100
AcDbEntity
  8
STANDARDEBENE
 62
     7
100
AcDb2dPolyline
 66
     1
 10
0.0
 20
0.0
 30
0.0
  0
VERTEX
  5
356
330
355
100
AcDbEntity
  8
STANDARDEBENE
 62
     7
100
AcDbVertex
100
AcDb2dVertex
 10
99.62957761181136
 20
150.2857448626022
 30
0.0
  0
VERTEX
  5
357
330
355
100
AcDbEntity
  8
STANDARDEBENE
 62
     7
100
AcDbVertex
100
AcDb2dVertex
 10
98.97001408116027
 20
150.2857448626022
 30
0.0
  0
SEQEND
  5
358
330
355
100
AcDbEntity
  8
STANDARDEBENE
  0
POLYLINE
  5
359
330
1F
100
AcDbEntity
  8
STANDARDEBENE
 62
     7
100
AcDb2dPolyline
 66
     1
 10
0.0
 20
0.0
 30
0.0
  0
VERTEX
  5
35A
330
359
100
AcDbEntity
  8
STANDARDEBENE
 62
     7
100
AcDbVertex
100
AcDb2dVertex
 10
97.64985349121254
 20
150.2857448626022
 30
0.0
  0
VERTEX
  5
35B
330
359
100
AcDbEntity
  8
STANDARDEBENE
 62
     7
100
AcDbVertex
100
AcDb2dVertex
 10
96.32986515603906
 20
150.2857448626022
 30
0.0
  0
SEQEND
  5
35C
330
359
100
AcDbEntity
  8
STANDARDEBENE
  0
POLYLINE
  5
35D
330
1F
100
AcDbEntity
  8
STANDARDEBENE
 62
     7
100
AcDb2dPolyline
 66
     1
 10
0.0
 20
0.0
 30
0.0
  0
VERTEX
  5
35E
330
35D
100
AcDbEntity
  8
STANDARDEBENE
 62
     7
100
AcDbVertex
100
AcDb2dVertex
 10
95.01004907563986
 20
150.2857448626022
 30
0.0
  0
VERTEX
  5
35F
330
35D
100
AcDbEntity
  8
STANDARDEBENE
 62
     7
100
AcDbVertex
100
AcDb2dVertex
 10
93.68971623091785
 20
150.2857448626022
 30
0.0
  0
SEQEND
  5
360
330
35D
100
AcDbEntity
  8
STANDARDEBENE
  0
POLYLINE
  5
361
330
1F
100
AcDbEntity
  8
STANDARDEBENE
 62
     7
100
AcDb2dPolyline
 66
     1
 10
0.0
 20
0.0
 30
0.0
  0
VERTEX
  5
362
330
361
100
AcDbEntity
  8
STANDARDEBENE
 62
     7
100
AcDbVertex
100
AcDb2dVertex
 10
87.08994680982474
 20
150.2857448626022
 30
0.0
  0
VERTEX
  5
363
330
361
100
AcDbEntity
  8
STANDARDEBENE
 62
     7
100
AcDbVertex
100
AcDb2dVertex
 10
86.42952200530235
 20
150.2857448626022
 30
0.0
  0
SEQEND
  5
364
330
361
100
AcDbEntity
  8
STANDARDEBENE
  0
POLYLINE
  5
366
330
1F
100
AcDbEntity
  8
EBENE_2
 62
     7
100
AcDb2dPolyline
 66
     1
 10
0.0
 20
0.0
 30
0.0
  0
VERTEX
  5
367
330
366
100
AcDbEntity
  8
EBENE_2
 62
     7
100
AcDbVertex
100
AcDb2dVertex
 10
88.53654240408115
 20
155.0844183640067
 30
0.0
  0
VERTEX
  5
368
330
366
100
AcDbEntity
  8
EBENE_2
 62
     7
100
AcDbVertex
100
AcDb2dVertex
 10
77.97542993927351
 20
155.0844183640067
 30
0.0
  0
SEQEND
  5
369
330
366
100
AcDbEntity
  8
EBENE_2
  0
POLYLINE
  5
36A
330
1F
100
AcDbEntity
  8
EBENE_2
 62
     7
100
AcDb2dPolyline
 66
     1
 10
0.0
 20
0.0
 30
0.0
  0
VERTEX
  5
36B
330
36A
100
AcDbEntity
  8
EBENE_2
 62
     7
100
AcDbVertex
100
AcDb2dVertex
 10
88.53654240408115
 20
150.2866061364735
 30
0.0
  0
VERTEX
  5
36C
330
36A
100
AcDbEntity
  8
EBENE_2
 62
     7
100
AcDbVertex
100
AcDb2dVertex
 10
77.97542993927351
 20
150.2866061364735
 30
0.0
  0
SEQEND
  5
36D
330
36A
100
AcDbEntity
  8
EBENE_2
  0
POLYLINE
  5
36E
330
1F
100
AcDbEntity
  8
EBENE_2
 62
     7
100
AcDb2dPolyline
 66
     1
 10
0.0
 20
0.0
 30
0.0
  0
VERTEX
  5
36F
330
36E
100
AcDbEntity
  8
EBENE_2
 62
     7
100
AcDbVertex
100
AcDb2dVertex
 10
79.65611977175264
 20
159.119141941557
 30
0.0
  0
VERTEX
  5
370
330
36E
100
AcDbEntity
  8
EBENE_2
 62
     7
100
AcDbVertex
100
AcDb2dVertex
 10
79.65611977175264
 20
146.0486219252934
 30
0.0
  0
SEQEND
  5
371
330
36E
100
AcDbEntity
  8
EBENE_2
  0
POLYLINE
  5
372
330
1F
100
AcDbEntity
  8
EBENE_2
 62
     7
100
AcDb2dPolyline
 66
     1
 10
0.0
 20
0.0
 30
0.0
  0
VERTEX
  5
373
330
372
100
AcDbEntity
  8
EBENE_2
 62
     7
100
AcDbVertex
100
AcDb2dVertex
 10
79.65749780994675
 20
155.1100843253718
 30
0.0
  0
VERTEX
  5
374
330
372
100
AcDbEntity
  8
EBENE_2
 62
     7
100
AcDbVertex
100
AcDb2dVertex
 10
79.87471108029175
 20
156.7601128080322
 30
0.0
  0
VERTEX
  5
375
330
372
100
AcDbEntity
  8
EBENE_2
 62
     7
100
AcDbVertex
100
AcDb2dVertex
 10
79.44062904915026
 20
156.7601128080322
 30
0.0
  0
VERTEX
  5
376
330
372
100
AcDbEntity
  8
EBENE_2
 62
     7
100
AcDbVertex
100
AcDb2dVertex
 10
79.65749780994675
 20
155.1100843253718
 30
0.0
  0
SEQEND
  5
377
330
372
100
AcDbEntity
  8
EBENE_2
  0
POLYLINE
  5
378
330
1F
100
AcDbEntity
  8
EBENE_2
 62
     7
100
AcDb2dPolyline
 66
     1
 10
0.0
 20
0.0
 30
0.0
  0
VERTEX
  5
379
330
378
100
AcDbEntity
  8
EBENE_2
 62
     7
100
AcDbVertex
100
AcDb2dVertex
 10
79.85903589583386
 20
156.7601128080322
 30
0.0
  0
VERTEX
  5
37A
330
378
100
AcDbEntity
  8
EBENE_2
 62
     7
100
AcDbVertex
100
AcDb2dVertex
 10
79.85903589583386
 20
156.6381564278544
 30
0.0
  0
SEQEND
  5
37B
330
378
100
AcDbEntity
  8
EBENE_2
  0
POLYLINE
  5
37C
330
1F
100
AcDbEntity
  8
EBENE_2
 62
     7
100
AcDb2dPolyline
 66
     1
 10
0.0
 20
0.0
 30
0.0
  0
VERTEX
  5
37D
330
37C
100
AcDbEntity
  8
EBENE_2
 62
     7
100
AcDbVertex
100
AcDb2dVertex
 10
79.85903589583386
 20
156.7601128080322
 30
0.0
  0
VERTEX
  5
37E
330
37C
100
AcDbEntity
  8
EBENE_2
 62
     7
100
AcDbVertex
100
AcDb2dVertex
 10
79.85903589583386
 20
156.6381564278544
 30
0.0
  0
SEQEND
  5
37F
330
37C
100
AcDbEntity
  8
EBENE_2
  0
POLYLINE
  5
380
330
1F
100
AcDbEntity
  8
EBENE_2
 62
     7
100
AcDb2dPolyline
 66
     1
 10
0.0
 20
0.0
 30
0.0
  0
VERTEX
  5
381
330
380
100
AcDbEntity
  8
EBENE_2
 62
     7
100
AcDbVertex
100
AcDb2dVertex
 10
79.82510170530415
 20
156.7601128080322
 30
0.0
  0
VERTEX
  5
382
330
380
100
AcDbEntity
  8
EBENE_2
 62
     7
100
AcDbVertex
100
AcDb2dVertex
 10
79.82510170530415
 20
156.3835638714944
 30
0.0
  0
SEQEND
  5
383
330
380
100
AcDbEntity
  8
EBENE_2
  0
POLYLINE
  5
384
330
1F
100
AcDbEntity
  8
EBENE_2
 62
     7
100
AcDb2dPolyline
 66
     1
 10
0.0
 20
0.0
 30
0.0
  0
VERTEX
  5
385
330
384
100
AcDbEntity
  8
EBENE_2
 62
     7
100
AcDbVertex
100
AcDb2dVertex
 10
79.79151202432296
 20
156.7601128080322
 30
0.0
  0
VERTEX
  5
386
330
384
100
AcDbEntity
  8
EBENE_2
 62
     7
100
AcDbVertex
100
AcDb2dVertex
 10
79.79151202432296
 20
156.1289713151344
 30
0.0
  0
SEQEND
  5
387
330
384
100
AcDbEntity
  8
EBENE_2
  0
POLYLINE
  5
388
330
1F
100
AcDbEntity
  8
EBENE_2
 62
     7
100
AcDb2dPolyline
 66
     1
 10
0.0
 20
0.0
 30
0.0
  0
VERTEX
  5
389
330
388
100
AcDbEntity
  8
EBENE_2
 62
     7
100
AcDbVertex
100
AcDb2dVertex
 10
79.7582668528903
 20
156.7601128080322
 30
0.0
  0
VERTEX
  5
38A
330
388
100
AcDbEntity
  8
EBENE_2
 62
     7
100
AcDbVertex
100
AcDb2dVertex
 10
79.7582668528903
 20
155.8743787587745
 30
0.0
  0
SEQEND
  5
38B
330
388
100
AcDbEntity
  8
EBENE_2
  0
POLYLINE
  5
38C
330
1F
100
AcDbEntity
  8
EBENE_2
 62
     7
100
AcDb2dPolyline
 66
     1
 10
0.0
 20
0.0
 30
0.0
  0
VERTEX
  5
38D
330
38C
100
AcDbEntity
  8
EBENE_2
 62
     7
100
AcDbVertex
100
AcDb2dVertex
 10
79.72484942668338
 20
156.7601128080322
 30
0.0
  0
VERTEX
  5
38E
330
38C
100
AcDbEntity
  8
EBENE_2
 62
     7
100
AcDbVertex
100
AcDb2dVertex
 10
79.72484942668338
 20
155.6196139476402
 30
0.0
  0
SEQEND
  5
38F
330
38C
100
AcDbEntity
  8
EBENE_2
  0
POLYLINE
  5
390
330
1F
100
AcDbEntity
  8
EBENE_2
 62
     7
100
AcDb2dPolyline
 66
     1
 10
0.0
 20
0.0
 30
0.0
  0
VERTEX
  5
391
330
390
100
AcDbEntity
  8
EBENE_2
 62
     7
100
AcDbVertex
100
AcDb2dVertex
 10
79.69108749092793
 20
156.7601128080322
 30
0.0
  0
VERTEX
  5
392
330
390
100
AcDbEntity
  8
EBENE_2
 62
     7
100
AcDbVertex
100
AcDb2dVertex
 10
79.69108749092793
 20
155.364849136506
 30
0.0
  0
SEQEND
  5
393
330
390
100
AcDbEntity
  8
EBENE_2
  0
POLYLINE
  5
394
330
1F
100
AcDbEntity
  8
EBENE_2
 62
     7
100
AcDb2dPolyline
 66
     1
 10
0.0
 20
0.0
 30
0.0
  0
VERTEX
  5
395
330
394
100
AcDbEntity
  8
EBENE_2
 62
     7
100
AcDbVertex
100
AcDb2dVertex
 10
79.65749780994675
 20
156.7601128080322
 30
0.0
  0
VERTEX
  5
396
330
394
100
AcDbEntity
  8
EBENE_2
 62
     7
100
AcDbVertex
100
AcDb2dVertex
 10
79.65749780994675
 20
155.1100843253718
 30
0.0
  0
SEQEND
  5
397
330
394
100
AcDbEntity
  8
EBENE_2
  0
POLYLINE
  5
398
330
1F
100
AcDbEntity
  8
EBENE_2
 62
     7
100
AcDb2dPolyline
 66
     1
 10
0.0
 20
0.0
 30
0.0
  0
VERTEX
  5
399
330
398
100
AcDbEntity
  8
EBENE_2
 62
     7
100
AcDbVertex
100
AcDb2dVertex
 10
79.45630423360815
 20
156.7601128080322
 30
0.0
  0
VERTEX
  5
39A
330
398
100
AcDbEntity
  8
EBENE_2
 62
     7
100
AcDbVertex
100
AcDb2dVertex
 10
79.45630423360815
 20
156.6381564278544
 30
0.0
  0
SEQEND
  5
39B
330
398
100
AcDbEntity
  8
EBENE_2
  0
POLYLINE
  5
39C
330
1F
100
AcDbEntity
  8
EBENE_2
 62
     7
100
AcDb2dPolyline
 66
     1
 10
0.0
 20
0.0
 30
0.0
  0
VERTEX
  5
39D
330
39C
100
AcDbEntity
  8
EBENE_2
 62
     7
100
AcDbVertex
100
AcDb2dVertex
 10
79.45630423360815
 20
156.7601128080322
 30
0.0
  0
VERTEX
  5
39E
330
39C
100
AcDbEntity
  8
EBENE_2
 62
     7
100
AcDbVertex
100
AcDb2dVertex
 10
79.45630423360815
 20
156.6381564278544
 30
0.0
  0
SEQEND
  5
39F
330
39C
100
AcDbEntity
  8
EBENE_2
  0
POLYLINE
  5
3A0
330
1F
100
AcDbEntity
  8
EBENE_2
 62
     7
100
AcDb2dPolyline
 66
     1
 10
0.0
 20
0.0
 30
0.0
  0
VERTEX
  5
3A1
330
3A0
100
AcDbEntity
  8
EBENE_2
 62
     7
100
AcDbVertex
100
AcDb2dVertex
 10
79.48972165981507
 20
156.7601128080322
 30
0.0
  0
VERTEX
  5
3A2
330
3A0
100
AcDbEntity
  8
EBENE_2
 62
     7
100
AcDbVertex
100
AcDb2dVertex
 10
79.48972165981507
 20
156.3835638714944
 30
0.0
  0
SEQEND
  5
3A3
330
3A0
100
AcDbEntity
  8
EBENE_2
  0
POLYLINE
  5
3A4
330
1F
100
AcDbEntity
  8
EBENE_2
 62
     7
100
AcDb2dPolyline
 66
     1
 10
0.0
 20
0.0
 30
0.0
  0
VERTEX
  5
3A5
330
3A4
100
AcDbEntity
  8
EBENE_2
 62
     7
100
AcDbVertex
100
AcDb2dVertex
 10
79.52365585034478
 20
156.7601128080322
 30
0.0
  0
VERTEX
  5
3A6
330
3A4
100
AcDbEntity
  8
EBENE_2
 62
     7
100
AcDbVertex
100
AcDb2dVertex
 10
79.52365585034478
 20
156.1289713151344
 30
0.0
  0
SEQEND
  5
3A7
330
3A4
100
AcDbEntity
  8
EBENE_2
  0
POLYLINE
  5
3A8
330
1F
100
AcDbEntity
  8
EBENE_2
 62
     7
100
AcDb2dPolyline
 66
     1
 10
0.0
 20
0.0
 30
0.0
  0
VERTEX
  5
3A9
330
3A8
100
AcDbEntity
  8
EBENE_2
 62
     7
100
AcDbVertex
100
AcDb2dVertex
 10
79.55724553132598
 20
156.7601128080322
 30
0.0
  0
VERTEX
  5
3AA
330
3A8
100
AcDbEntity
  8
EBENE_2
 62
     7
100
AcDbVertex
100
AcDb2dVertex
 10
79.55724553132598
 20
155.8743787587745
 30
0.0
  0
SEQEND
  5
3AB
330
3A8
100
AcDbEntity
  8
EBENE_2
  0
POLYLINE
  5
3AC
330
1F
100
AcDbEntity
  8
EBENE_2
 62
     7
100
AcDb2dPolyline
 66
     1
 10
0.0
 20
0.0
 30
0.0
  0
VERTEX
  5
3AD
330
3AC
100
AcDbEntity
  8
EBENE_2
 62
     7
100
AcDbVertex
100
AcDb2dVertex
 10
79.5906629575329
 20
156.7601128080322
 30
0.0
  0
VERTEX
  5
3AE
330
3AC
100
AcDbEntity
  8
EBENE_2
 62
     7
100
AcDbVertex
100
AcDb2dVertex
 10
79.5906629575329
 20
155.6196139476402
 30
0.0
  0
SEQEND
  5
3AF
330
3AC
100
AcDbEntity
  8
EBENE_2
  0
POLYLINE
  5
3B0
330
1F
100
AcDbEntity
  8
EBENE_2
 62
     7
100
AcDb2dPolyline
 66
     1
 10
0.0
 20
0.0
 30
0.0
  0
VERTEX
  5
3B1
330
3B0
100
AcDbEntity
  8
EBENE_2
 62
     7
100
AcDbVertex
100
AcDb2dVertex
 10
79.62390812896555
 20
156.7601128080322
 30
0.0
  0
VERTEX
  5
3B2
330
3B0
100
AcDbEntity
  8
EBENE_2
 62
     7
100
AcDbVertex
100
AcDb2dVertex
 10
79.62390812896555
 20
155.364849136506
 30
0.0
  0
SEQEND
  5
3B3
330
3B0
100
AcDbEntity
  8
EBENE_2
  0
POLYLINE
  5
3B4
330
1F
100
AcDbEntity
  8
EBENE_2
 62
     7
100
AcDb2dPolyline
 66
     1
 10
0.0
 20
0.0
 30
0.0
  0
VERTEX
  5
3B5
330
3B4
100
AcDbEntity
  8
EBENE_2
 62
     7
100
AcDbVertex
100
AcDb2dVertex
 10
79.65749780994675
 20
156.7601128080322
 30
0.0
  0
VERTEX
  5
3B6
330
3B4
100
AcDbEntity
  8
EBENE_2
 62
     7
100
AcDbVertex
100
AcDb2dVertex
 10
79.65749780994675
 20
155.1100843253718
 30
0.0
  0
SEQEND
  5
3B7
330
3B4
100
AcDbEntity
  8
EBENE_2
  0
POLYLINE
  5
3B8
330
1F
100
AcDbEntity
  8
EBENE_2
 62
     7
100
AcDb2dPolyline
 66
     1
 10
0.0
 20
0.0
 30
0.0
  0
VERTEX
  5
3B9
330
3B8
100
AcDbEntity
  8
EBENE_2
 62
     7
100
AcDbVertex
100
AcDb2dVertex
 10
79.65990937678642
 20
150.2478488122644
 30
0.0
  0
VERTEX
  5
3BA
330
3B8
100
AcDbEntity
  8
EBENE_2
 62
     7
100
AcDbVertex
100
AcDb2dVertex
 10
79.44304061598994
 20
148.597820329604
 30
0.0
  0
VERTEX
  5
3BB
330
3B8
100
AcDbEntity
  8
EBENE_2
 62
     7
100
AcDbVertex
100
AcDb2dVertex
 10
79.87712264713142
 20
148.597820329604
 30
0.0
  0
VERTEX
  5
3BC
330
3B8
100
AcDbEntity
  8
EBENE_2
 62
     7
100
AcDbVertex
100
AcDb2dVertex
 10
79.65990937678642
 20
150.2478488122644
 30
0.0
  0
SEQEND
  5
3BD
330
3B8
100
AcDbEntity
  8
EBENE_2
  0
POLYLINE
  5
3BE
330
1F
100
AcDbEntity
  8
EBENE_2
 62
     7
100
AcDb2dPolyline
 66
     1
 10
0.0
 20
0.0
 30
0.0
  0
VERTEX
  5
3BF
330
3BE
100
AcDbEntity
  8
EBENE_2
 62
     7
100
AcDbVertex
100
AcDb2dVertex
 10
79.45871580044782
 20
148.597820329604
 30
0.0
  0
VERTEX
  5
3C0
330
3BE
100
AcDbEntity
  8
EBENE_2
 62
     7
100
AcDbVertex
100
AcDb2dVertex
 10
79.45871580044782
 20
148.7197767097819
 30
0.0
  0
SEQEND
  5
3C1
330
3BE
100
AcDbEntity
  8
EBENE_2
  0
POLYLINE
  5
3C2
330
1F
100
AcDbEntity
  8
EBENE_2
 62
     7
100
AcDb2dPolyline
 66
     1
 10
0.0
 20
0.0
 30
0.0
  0
VERTEX
  5
3C3
330
3C2
100
AcDbEntity
  8
EBENE_2
 62
     7
100
AcDbVertex
100
AcDb2dVertex
 10
79.45871580044782
 20
148.597820329604
 30
0.0
  0
VERTEX
  5
3C4
330
3C2
100
AcDbEntity
  8
EBENE_2
 62
     7
100
AcDbVertex
100
AcDb2dVertex
 10
79.45871580044782
 20
148.7197767097819
 30
0.0
  0
SEQEND
  5
3C5
330
3C2
100
AcDbEntity
  8
EBENE_2
  0
POLYLINE
  5
3C6
330
1F
100
AcDbEntity
  8
EBENE_2
 62
     7
100
AcDb2dPolyline
 66
     1
 10
0.0
 20
0.0
 30
0.0
  0
VERTEX
  5
3C7
330
3C6
100
AcDbEntity
  8
EBENE_2
 62
     7
100
AcDbVertex
100
AcDb2dVertex
 10
79.49230548142901
 20
148.597820329604
 30
0.0
  0
VERTEX
  5
3C8
330
3C6
100
AcDbEntity
  8
EBENE_2
 62
     7
100
AcDbVertex
100
AcDb2dVertex
 10
79.49230548142901
 20
148.9743692661418
 30
0.0
  0
SEQEND
  5
3C9
330
3C6
100
AcDbEntity
  8
EBENE_2
  0
POLYLINE
  5
3CA
330
1F
100
AcDbEntity
  8
EBENE_2
 62
     7
100
AcDb2dPolyline
 66
     1
 10
0.0
 20
0.0
 30
0.0
  0
VERTEX
  5
3CB
330
3CA
100
AcDbEntity
  8
EBENE_2
 62
     7
100
AcDbVertex
100
AcDb2dVertex
 10
79.52623967195872
 20
148.597820329604
 30
0.0
  0
VERTEX
  5
3CC
330
3CA
100
AcDbEntity
  8
EBENE_2
 62
     7
100
AcDbVertex
100
AcDb2dVertex
 10
79.52623967195872
 20
149.2291340772761
 30
0.0
  0
SEQEND
  5
3CD
330
3CA
100
AcDbEntity
  8
EBENE_2
  0
POLYLINE
  5
3CE
330
1F
100
AcDbEntity
  8
EBENE_2
 62
     7
100
AcDb2dPolyline
 66
     1
 10
0.0
 20
0.0
 30
0.0
  0
VERTEX
  5
3CF
330
3CE
100
AcDbEntity
  8
EBENE_2
 62
     7
100
AcDbVertex
100
AcDb2dVertex
 10
79.55965709816564
 20
148.597820329604
 30
0.0
  0
VERTEX
  5
3D0
330
3CE
100
AcDbEntity
  8
EBENE_2
 62
     7
100
AcDbVertex
100
AcDb2dVertex
 10
79.55965709816564
 20
149.4835543788618
 30
0.0
  0
SEQEND
  5
3D1
330
3CE
100
AcDbEntity
  8
EBENE_2
  0
POLYLINE
  5
3D2
330
1F
100
AcDbEntity
  8
EBENE_2
 62
     7
100
AcDb2dPolyline
 66
     1
 10
0.0
 20
0.0
 30
0.0
  0
VERTEX
  5
3D3
330
3D2
100
AcDbEntity
  8
EBENE_2
 62
     7
100
AcDbVertex
100
AcDb2dVertex
 10
79.59307452437257
 20
148.597820329604
 30
0.0
  0
VERTEX
  5
3D4
330
3D2
100
AcDbEntity
  8
EBENE_2
 62
     7
100
AcDbVertex
100
AcDb2dVertex
 10
79.59307452437257
 20
149.738319189996
 30
0.0
  0
SEQEND
  5
3D5
330
3D2
100
AcDbEntity
  8
EBENE_2
  0
POLYLINE
  5
3D6
330
1F
100
AcDbEntity
  8
EBENE_2
 62
     7
100
AcDb2dPolyline
 66
     1
 10
0.0
 20
0.0
 30
0.0
  0
VERTEX
  5
3D7
330
3D6
100
AcDbEntity
  8
EBENE_2
 62
     7
100
AcDbVertex
100
AcDb2dVertex
 10
79.62649195057949
 20
148.597820329604
 30
0.0
  0
VERTEX
  5
3D8
330
3D6
100
AcDbEntity
  8
EBENE_2
 62
     7
100
AcDbVertex
100
AcDb2dVertex
 10
79.62649195057949
 20
149.9930840011302
 30
0.0
  0
SEQEND
  5
3D9
330
3D6
100
AcDbEntity
  8
EBENE_2
  0
POLYLINE
  5
3DA
330
1F
100
AcDbEntity
  8
EBENE_2
 62
     7
100
AcDb2dPolyline
 66
     1
 10
0.0
 20
0.0
 30
0.0
  0
VERTEX
  5
3DB
330
3DA
100
AcDbEntity
  8
EBENE_2
 62
     7
100
AcDbVertex
100
AcDb2dVertex
 10
79.65990937678642
 20
148.597820329604
 30
0.0
  0
VERTEX
  5
3DC
330
3DA
100
AcDbEntity
  8
EBENE_2
 62
     7
100
AcDbVertex
100
AcDb2dVertex
 10
79.65990937678642
 20
150.2478488122644
 30
0.0
  0
SEQEND
  5
3DD
330
3DA
100
AcDbEntity
  8
EBENE_2
  0
POLYLINE
  5
3DE
330
1F
100
AcDbEntity
  8
EBENE_2
 62
     7
100
AcDb2dPolyline
 66
     1
 10
0.0
 20
0.0
 30
0.0
  0
VERTEX
  5
3DF
330
3DE
100
AcDbEntity
  8
EBENE_2
 62
     7
100
AcDbVertex
100
AcDb2dVertex
 10
79.86144746267352
 20
148.597820329604
 30
0.0
  0
VERTEX
  5
3E0
330
3DE
100
AcDbEntity
  8
EBENE_2
 62
     7
100
AcDbVertex
100
AcDb2dVertex
 10
79.86144746267352
 20
148.7197767097819
 30
0.0
  0
SEQEND
  5
3E1
330
3DE
100
AcDbEntity
  8
EBENE_2
  0
POLYLINE
  5
3E2
330
1F
100
AcDbEntity
  8
EBENE_2
 62
     7
100
AcDb2dPolyline
 66
     1
 10
0.0
 20
0.0
 30
0.0
  0
VERTEX
  5
3E3
330
3E2
100
AcDbEntity
  8
EBENE_2
 62
     7
100
AcDbVertex
100
AcDb2dVertex
 10
79.86144746267352
 20
148.597820329604
 30
0.0
  0
VERTEX
  5
3E4
330
3E2
100
AcDbEntity
  8
EBENE_2
 62
     7
100
AcDbVertex
100
AcDb2dVertex
 10
79.86144746267352
 20
148.7197767097819
 30
0.0
  0
SEQEND
  5
3E5
330
3E2
100
AcDbEntity
  8
EBENE_2
  0
POLYLINE
  5
3E6
330
1F
100
AcDbEntity
  8
EBENE_2
 62
     7
100
AcDb2dPolyline
 66
     1
 10
0.0
 20
0.0
 30
0.0
  0
VERTEX
  5
3E7
330
3E6
100
AcDbEntity
  8
EBENE_2
 62
     7
100
AcDbVertex
100
AcDb2dVertex
 10
79.82751327214382
 20
148.597820329604
 30
0.0
  0
VERTEX
  5
3E8
330
3E6
100
AcDbEntity
  8
EBENE_2
 62
     7
100
AcDbVertex
100
AcDb2dVertex
 10
79.82751327214382
 20
148.9743692661418
 30
0.0
  0
SEQEND
  5
3E9
330
3E6
100
AcDbEntity
  8
EBENE_2
  0
POLYLINE
  5
3EA
330
1F
100
AcDbEntity
  8
EBENE_2
 62
     7
100
AcDb2dPolyline
 66
     1
 10
0.0
 20
0.0
 30
0.0
  0
VERTEX
  5
3EB
330
3EA
100
AcDbEntity
  8
EBENE_2
 62
     7
100
AcDbVertex
100
AcDb2dVertex
 10
79.7940958459369
 20
148.597820329604
 30
0.0
  0
VERTEX
  5
3EC
330
3EA
100
AcDbEntity
  8
EBENE_2
 62
     7
100
AcDbVertex
100
AcDb2dVertex
 10
79.7940958459369
 20
149.2291340772761
 30
0.0
  0
SEQEND
  5
3ED
330
3EA
100
AcDbEntity
  8
EBENE_2
  0
POLYLINE
  5
3EE
330
1F
100
AcDbEntity
  8
EBENE_2
 62
     7
100
AcDb2dPolyline
 66
     1
 10
0.0
 20
0.0
 30
0.0
  0
VERTEX
  5
3EF
330
3EE
100
AcDbEntity
  8
EBENE_2
 62
     7
100
AcDbVertex
100
AcDb2dVertex
 10
79.76085067450424
 20
148.597820329604
 30
0.0
  0
VERTEX
  5
3F0
330
3EE
100
AcDbEntity
  8
EBENE_2
 62
     7
100
AcDbVertex
100
AcDb2dVertex
 10
79.76085067450424
 20
149.4835543788618
 30
0.0
  0
SEQEND
  5
3F1
330
3EE
100
AcDbEntity
  8
EBENE_2
  0
POLYLINE
  5
3F2
330
1F
100
AcDbEntity
  8
EBENE_2
 62
     7
100
AcDb2dPolyline
 66
     1
 10
0.0
 20
0.0
 30
0.0
  0
VERTEX
  5
3F3
330
3F2
100
AcDbEntity
  8
EBENE_2
 62
     7
100
AcDbVertex
100
AcDb2dVertex
 10
79.72726099352305
 20
148.597820329604
 30
0.0
  0
VERTEX
  5
3F4
330
3F2
100
AcDbEntity
  8
EBENE_2
 62
     7
100
AcDbVertex
100
AcDb2dVertex
 10
79.72726099352305
 20
149.738319189996
 30
0.0
  0
SEQEND
  5
3F5
330
3F2
100
AcDbEntity
  8
EBENE_2
  0
POLYLINE
  5
3F6
330
1F
100
AcDbEntity
  8
EBENE_2
 62
     7
100
AcDb2dPolyline
 66
     1
 10
0.0
 20
0.0
 30
0.0
  0
VERTEX
  5
3F7
330
3F6
100
AcDbEntity
  8
EBENE_2
 62
     7
100
AcDbVertex
100
AcDb2dVertex
 10
79.69367131254187
 20
148.597820329604
 30
0.0
  0
VERTEX
  5
3F8
330
3F6
100
AcDbEntity
  8
EBENE_2
 62
     7
100
AcDbVertex
100
AcDb2dVertex
 10
79.69367131254187
 20
149.9930840011302
 30
0.0
  0
SEQEND
  5
3F9
330
3F6
100
AcDbEntity
  8
EBENE_2
  0
POLYLINE
  5
3FA
330
1F
100
AcDbEntity
  8
EBENE_2
 62
     7
100
AcDb2dPolyline
 66
     1
 10
0.0
 20
0.0
 30
0.0
  0
VERTEX
  5
3FB
330
3FA
100
AcDbEntity
  8
EBENE_2
 62
     7
100
AcDbVertex
100
AcDb2dVertex
 10
79.65990937678642
 20
148.597820329604
 30
0.0
  0
VERTEX
  5
3FC
330
3FA
100
AcDbEntity
  8
EBENE_2
 62
     7
100
AcDbVertex
100
AcDb2dVertex
 10
79.65990937678642
 20
150.2478488122644
 30
0.0
  0
SEQEND
  5
3FD
330
3FA
100
AcDbEntity
  8
EBENE_2
  0
MTEXT
  5
3FE
330
1F
100
AcDbEntity
  8
EBENE_2
 62
     7
100
AcDbMText
 10
78.84910615433287
 20
151.5910915419634
 30
0.0
 40
2.398888888289167
 41
0.0
 71
     7
 72
     1
  1
\fINDEX Univers 45 Light|b0|i0|c0|p34;\W1;d
 11
-4.371139000186241E-8
 21
0.999999999999999
 31
0.0
  0
POLYLINE
  5
3FF
330
1F
100
AcDbEntity
  8
EBENE_2
 62
     7
100
AcDb2dPolyline
 66
     1
 10
0.0
 20
0.0
 30
0.0
  0
VERTEX
  5
400
330
3FF
100
AcDbEntity
  8
EBENE_2
 62
     7
100
AcDbVertex
100
AcDb2dVertex
 10
106.3263264708143
 20
153.6686563743433
 30
0.0
  0
VERTEX
  5
401
330
3FF
100
AcDbEntity
  8
EBENE_2
 62
     7
100
AcDbVertex
100
AcDb2dVertex
 10
113.1524386652883
 20
158.2725097260569
 30
0.0
  0
VERTEX
  5
402
330
3FF
100
AcDbEntity
  8
EBENE_2
 62
     7
100
AcDbVertex
100
AcDb2dVertex
 10
119.2378553304336
 20
158.2725097260569
 30
0.0
  0
SEQEND
  5
403
330
3FF
100
AcDbEntity
  8
EBENE_2
  0
SPLINE
  5
404
330
1F
100
AcDbEntity
  8
EBENE_2
 62
     7
100
AcDbSpline
210
0.0
220
0.0
230
1.0
 70
    11
 71
     3
 72
    17
 73
    13
 74
     0
 42
0.0000000001
 43
0.0000000001
 40
0.0
 40
0.0
 40
0.0
 40
0.0
 40
1.0
 40
1.0
 40
1.0
 40
2.0
 40
2.0
 40
2.0
 40
3.0
 40
3.0
 40
3.0
 40
4.0
 40
4.0
 40
4.0
 40
4.0
 10
106.7759114316394
 20
153.6686563743433
 30
0.0
 10
106.7759114316394
 20
153.4202649898567
 30
0.0
 10
106.5747178553008
 20
153.2188991587439
 30
0.0
 10
106.3263264708143
 20
153.2188991587439
 30
0.0
 10
106.0775905767792
 20
153.2188991587439
 30
0.0
 10
105.8763970004406
 20
153.4202649898567
 30
0.0
 10
105.8763970004406
 20
153.6686563743433
 30
0.0
 10
105.8763970004406
 20
153.917220013604
 30
0.0
 10
106.0775905767792
 20
154.1184135899426
 30
0.0
 10
106.3263264708143
 20
154.1184135899426
 30
0.0
 10
106.5747178553008
 20
154.1184135899426
 30
0.0
 10
106.7759114316394
 20
153.917220013604
 30
0.0
 10
106.7759114316394
 20
153.6686563743433
 30
0.0
  0
HATCH
  5
405
330
1F
100
AcDbEntity
  8
EBENE_2
 62
     7
100
AcDbHatch
 10
0.0
 20
0.0
 30
0.0
210
0.0
220
0.0
230
1.0
  2
SOLID
 70
     1
 71
     0
 91
        1
 92
        1
 93
        1
 72
     4
 94
        3
 73
     0
 74
     1
 95
       17
 96
       13
 40
0.0
 40
0.0
 40
0.0
 40
0.0
 40
1.0
 40
1.0
 40
1.0
 40
2.0
 40
2.0
 40
2.0
 40
3.0
 40
3.0
 40
3.0
 40
4.0
 40
4.0
 40
4.0
 40
4.0
 10
106.7759114316394
 20
153.6686563743433
 10
106.7759114316394
 20
153.4202649898567
 10
106.5747178553008
 20
153.2188991587439
 10
106.3263264708143
 20
153.2188991587439
 10
106.0775905767792
 20
153.2188991587439
 10
105.8763970004406
 20
153.4202649898567
 10
105.8763970004406
 20
153.6686563743433
 10
105.8763970004406
 20
153.917220013604
 10
106.0775905767792
 20
154.1184135899426
 10
106.3263264708143
 20
154.1184135899426
 10
106.5747178553008
 20
154.1184135899426
 10
106.7759114316394
 20
153.917220013604
 10
106.7759114316394
 20
153.6686563743433
 97
        0
 75
     0
 76
     1
 98
        0
  0
MTEXT
  5
406
330
1F
100
AcDbEntity
  8
EBENE_2
 62
     7
100
AcDbMText
 10
116.1730983867553
 20
158.9641126447208
 30
0.0
 40
2.398888888289167
 41
0.0
 71
     7
 72
     1
  1
\fINDEX Univers 45 Light|b0|i0|c0|p34;\W1;s
  0
ENDSEC
  0
SECTION
  2
OBJECTS
  0
DICTIONARY
  5
C
330
0
100
AcDbDictionary
  3
ACAD_GROUP
350
D
  3
ACAD_LAYOUT
350
1A
  3
ACAD_MLINESTYLE
350
17
  3
ACAD_PLOTSETTINGS
350
19
  3
ACAD_TABLESTYLE
350
427
  3
ACAD_VISUALSTYLE
350
2A
  3
ACDBHEADERROUNDTRIPXREC
350
407
  0
DICTIONARY
  5
D
102
{ACAD_REACTORS
330
C
102
}
330
C
100
AcDbDictionary
  0
DICTIONARY
  5
1A
102
{ACAD_REACTORS
330
C
102
}
330
C
100
AcDbDictionary
  0
DICTIONARY
  5
17
102
{ACAD_REACTORS
330
C
102
}
330
C
100
AcDbDictionary
  3
STANDARD
350
18
  0
DICTIONARY
  5
19
102
{ACAD_REACTORS
330
C
102
}
330
C
100
AcDbDictionary
  0
DICTIONARY
  5
427
102
{ACAD_REACTORS
330
C
102
}
330
C
100
AcDbDictionary
  0
DICTIONARY
  5
2A
102
{ACAD_REACTORS
330
C
102
}
330
C
100
AcDbDictionary
  3
2DWIREFRAME
350
2F
  3
3D_HIDDEN
350
31
  3
3DWIREFRAME
350
30
  3
BASIC
350
32
  3
BRIGHTEN
350
36
  3
COLORCHANGE
350
3A
  3
CONCEPTUAL
350
34
  3
DIM
350
35
  3
FACEPATTERN
350
39
  3
FLAT
350
2B
  3
FLATWITHEDGES
350
2C
  3
GOURAUD
350
2D
  3
GOURAUDWITHEDGES
350
2E
  3
LINEPATTERN
350
38
  3
REALISTIC
350
33
  3
THICKEN
350
37
  0
DICTIONARY
  5
407
102
{ACAD_REACTORS
330
C
102
}
330
C
100
AcDbDictionary
  3
CEPSNTYPE
350
410
  3
DIMSTYLEDATA
350
426
  3
FINGERPRINTGUID
350
411
  3
HYPERLINKBASE
350
40A
  3
INSUNITS
350
40F
  3
LAYOUTDICT
350
40C
  3
LWETCUNION
350
40E
  3
PLOTSETDICT
350
40D
  3
PSVPSCALE
350
413
  3
PUCSBASE
350
416
  3
PUCSORGBACK
350
41C
  3
PUCSORGBOTTOM
350
418
  3
PUCSORGFRONT
350
41B
  3
PUCSORGLEFT
350
419
  3
PUCSORGRIGHT
350
41A
  3
PUCSORGTOP
350
417
  3
PUCSORTHOREF
350
414
  3
PUCSORTHOVIEW
350
415
  3
STYLESHEET
350
40B
  3
TSTACKALIGN
350
408
  3
TSTACKSIZE
350
409
  3
UCSBASE
350
41F
  3
UCSORGBACK
350
425
  3
UCSORGBOTTOM
350
421
  3
UCSORGFRONT
350
424
  3
UCSORGLEFT
350
422
  3
UCSORGRIGHT
350
423
  3
UCSORGTOP
350
420
  3
UCSORTHOREF
350
41D
  3
UCSORTHOVIEW
350
41E
  3
VERSIONGUID
350
412
  0
MLINESTYLE
  5
18
102
{ACAD_REACTORS
330
17
102
}
330
17
100
AcDbMlineStyle
  2
Standard
 70
     0
  3

 62
   256
 51
90.0
 52
90.0
 71
     2
 49
0.5
 62
   256
  6
BYLAYER
 49
-0.5
 62
   256
  6
BYLAYER
  0
VISUALSTYLE
  5
2F
102
{ACAD_REACTORS
330
2A
102
}
330
2A
100
AcDbVisualStyle
  2
2dWireframe
 70
     4
 71
     0
 72
     2
 73
     0
 90
        0
 40
-0.6
 41
-30.0
 62
     5
 63
     7
 74
     1
 91
        4
 64
     7
 65
   257
 75
     1
175
     1
 42
1.0
 92
        0
 66
   257
 43
1.0
 76
     1
 77
     6
 78
     2
 67
     7
 79
     5
170
     0
171
     0
290
     0
174
     0
 93
        1
 44
0.0
173
     0
291
     0
 45
0.0
1001
ACAD
1000
AcDbSavedByObjectVersion
1070
     0
  0
VISUALSTYLE
  5
31
102
{ACAD_REACTORS
330
2A
102
}
330
2A
100
AcDbVisualStyle
  2
3D Hidden
 70
     6
 71
     1
 72
     2
 73
     2
 90
        0
 40
-0.6
 41
-30.0
 62
     5
 63
     7
 74
     2
 91
        2
 64
     7
 65
   257
 75
     2
175
     1
 42
40.0
 92
        0
 66
   257
 43
1.0
 76
     1
 77
     6
 78
     2
 67
     7
 79
     3
170
     0
171
     0
290
     0
174
     0
 93
        1
 44
0.0
173
     0
291
     0
 45
0.0
1001
ACAD
1000
AcDbSavedByObjectVersion
1070
     0
  0
VISUALSTYLE
  5
30
102
{ACAD_REACTORS
330
2A
102
}
330
2A
100
AcDbVisualStyle
  2
3dWireframe
 70
     5
 71
     0
 72
     2
 73
     0
 90
        0
 40
-0.6
 41
-30.0
 62
     5
 63
     7
 74
     1
 91
        4
 64
     7
 65
   257
 75
     1
175
     1
 42
1.0
 92
        0
 66
   257
 43
1.0
 76
     1
 77
     6
 78
     2
 67
     7
 79
     5
170
     0
171
     0
290
     0
174
     0
 93
        1
 44
0.0
173
     0
291
     0
 45
0.0
1001
ACAD
1000
AcDbSavedByObjectVersion
1070
     0
  0
VISUALSTYLE
  5
32
102
{ACAD_REACTORS
330
2A
102
}
330
2A
100
AcDbVisualStyle
  2
Basic
 70
     7
 71
     1
 72
     0
 73
     1
 90
        0
 40
-0.6
 41
-30.0
 62
     5
 63
     7
 74
     0
 91
        4
 64
     7
 65
   257
 75
     1
175
     1
 42
1.0
 92
        8
 66
     7
 43
1.0
 76
     1
 77
     6
 78
     2
 67
     7
 79
     5
170
     0
171
     0
290
     0
174
     0
 93
        1
 44
0.0
173
     0
291
     1
 45
0.0
1001
ACAD
1000
AcDbSavedByObjectVersion
1070
     0
  0
VISUALSTYLE
  5
36
102
{ACAD_REACTORS
330
2A
102
}
330
2A
100
AcDbVisualStyle
  2
Brighten
 70
    12
 71
     2
 72
     2
 73
     0
 90
        0
 40
-0.6
 41
-30.0
 62
     5
 63
     7
 74
     1
 91
        4
 64
     7
 65
   257
 75
     1
175
     1
 42
1.0
 92
        8
 66
     7
 43
1.0
 76
     1
 77
     6
 78
     2
 67
     7
 79
     5
170
     0
171
     0
290
     0
174
     0
 93
        1
 44
50.0
173
     0
291
     1
 45
0.0
1001
ACAD
1000
AcDbSavedByObjectVersion
1070
     0
  0
VISUALSTYLE
  5
3A
102
{ACAD_REACTORS
330
2A
102
}
330
2A
100
AcDbVisualStyle
  2
ColorChange
 70
    16
 71
     2
 72
     2
 73
     3
 90
        0
 40
-0.6
 41
-30.0
 62
     5
 63
     8
 74
     1
 91
        4
 64
     7
 65
   257
 75
     1
175
     1
 42
1.0
 92
        8
 66
     8
 43
1.0
 76
     1
 77
     6
 78
     2
 67
     7
 79
     5
170
     0
171
     0
290
     0
174
     0
 93
        1
 44
0.0
173
     0
291
     1
 45
0.0
1001
ACAD
1000
AcDbSavedByObjectVersion
1070
     0
  0
VISUALSTYLE
  5
34
102
{ACAD_REACTORS
330
2A
102
}
330
2A
100
AcDbVisualStyle
  2
Conceptual
 70
     9
 71
     3
 72
     2
 73
     0
 90
        0
 40
-0.6
 41
-30.0
 62
     5
 63
     7
 74
     2
 91
        2
 64
     7
 65
   257
 75
     1
175
     1
 42
40.0
 92
        8
 66
     7
 43
1.0
 76
     1
 77
     6
 78
     2
 67
     7
 79
     3
170
     0
171
     0
290
     0
174
     0
 93
        1
 44
0.0
173
     0
291
     0
 45
0.0
1001
ACAD
1000
AcDbSavedByObjectVersion
1070
     0
  0
VISUALSTYLE
  5
35
102
{ACAD_REACTORS
330
2A
102
}
330
2A
100
AcDbVisualStyle
  2
Dim
 70
    11
 71
     2
 72
     2
 73
     0
 90
        0
 40
-0.6
 41
-30.0
 62
     5
 63
     7
 74
     1
 91
        4
 64
     7
 65
   257
 75
     1
175
     1
 42
1.0
 92
        8
 66
     7
 43
1.0
 76
     1
 77
     6
 78
     2
 67
     7
 79
     5
170
     0
171
     0
290
     0
174
     0
 93
        1
 44
-50.0
173
     0
291
     1
 45
0.0
1001
ACAD
1000
AcDbSavedByObjectVersion
1070
     0
  0
VISUALSTYLE
  5
39
102
{ACAD_REACTORS
330
2A
102
}
330
2A
100
AcDbVisualStyle
  2
Facepattern
 70
    15
 71
     2
 72
     2
 73
     0
 90
        0
 40
-0.6
 41
-30.0
 62
     5
 63
     7
 74
     1
 91
        4
 64
     7
 65
   257
 75
     1
175
     1
 42
1.0
 92
        8
 66
     7
 43
1.0
 76
     1
 77
     6
 78
     2
 67
     7
 79
     5
170
     0
171
     0
290
     0
174
     0
 93
        1
 44
0.0
173
     0
291
     1
 45
0.0
1001
ACAD
1000
AcDbSavedByObjectVersion
1070
     0
  0
VISUALSTYLE
  5
2B
102
{ACAD_REACTORS
330
2A
102
}
330
2A
100
AcDbVisualStyle
  2
Flat
 70
     0
 71
     2
 72
     1
 73
     1
 90
        2
 40
-0.6
 41
30.0
 62
     5
 63
     7
 74
     0
 91
        4
 64
     7
 65
   257
 75
     1
175
     1
 42
1.0
 92
        8
 66
     7
 43
1.0
 76
     1
 77
     6
 78
     2
 67
     7
 79
     5
170
     0
171
     0
290
     0
174
     0
 93
       13
 44
0.0
173
     0
291
     1
 45
0.0
1001
ACAD
1000
AcDbSavedByObjectVersion
1070
     0
  0
VISUALSTYLE
  5
2C
102
{ACAD_REACTORS
330
2A
102
}
330
2A
100
AcDbVisualStyle
  2
FlatWithEdges
 70
     1
 71
     2
 72
     1
 73
     1
 90
        2
 40
-0.6
 41
30.0
 62
     5
 63
     7
 74
     1
 91
        4
 64
     7
 65
   257
 75
     1
175
     1
 42
1.0
 92
        0
 66
   257
 43
1.0
 76
     1
 77
     6
 78
     2
 67
     7
 79
     5
170
     0
171
     0
290
     0
174
     0
 93
       13
 44
0.0
173
     0
291
     1
 45
0.0
1001
ACAD
1000
AcDbSavedByObjectVersion
1070
     0
  0
VISUALSTYLE
  5
2D
102
{ACAD_REACTORS
330
2A
102
}
330
2A
100
AcDbVisualStyle
  2
Gouraud
 70
     2
 71
     2
 72
     2
 73
     1
 90
        2
 40
-0.6
 41
30.0
 62
     5
 63
     7
 74
     0
 91
        4
 64
     7
 65
   257
 75
     1
175
     1
 42
1.0
 92
        0
 66
     7
 43
1.0
 76
     1
 77
     6
 78
     2
 67
     7
 79
     5
170
     0
171
     0
290
     0
174
     0
 93
       13
 44
0.0
173
     0
291
     1
 45
0.0
1001
ACAD
1000
AcDbSavedByObjectVersion
1070
     0
  0
VISUALSTYLE
  5
2E
102
{ACAD_REACTORS
330
2A
102
}
330
2A
100
AcDbVisualStyle
  2
GouraudWithEdges
 70
     3
 71
     2
 72
     2
 73
     1
 90
        2
 40
-0.6
 41
30.0
 62
     5
 63
     7
 74
     1
 91
        4
 64
     7
 65
   257
 75
     1
175
     1
 42
1.0
 92
        0
 66
   257
 43
1.0
 76
     1
 77
     6
 78
     2
 67
     7
 79
     5
170
     0
171
     0
290
     0
174
     0
 93
       13
 44
0.0
173
     0
291
     1
 45
0.0
1001
ACAD
1000
AcDbSavedByObjectVersion
1070
     0
  0
VISUALSTYLE
  5
38
102
{ACAD_REACTORS
330
2A
102
}
330
2A
100
AcDbVisualStyle
  2
Linepattern
 70
    14
 71
     2
 72
     2
 73
     0
 90
        0
 40
-0.6
 41
-30.0
 62
     5
 63
     7
 74
     1
 91
        4
 64
     7
 65
   257
 75
     7
175
     7
 42
1.0
 92
        8
 66
     7
 43
1.0
 76
     1
 77
     6
 78
     2
 67
     7
 79
     5
170
     0
171
     0
290
     0
174
     0
 93
        1
 44
0.0
173
     0
291
     1
 45
0.0
1001
ACAD
1000
AcDbSavedByObjectVersion
1070
     0
  0
VISUALSTYLE
  5
33
102
{ACAD_REACTORS
330
2A
102
}
330
2A
100
AcDbVisualStyle
  2
Realistic
 70
     8
 71
     2
 72
     2
 73
     0
 90
        0
 40
-0.6
 41
-30.0
 62
     5
 63
     7
 74
     1
 91
        0
 64
     7
 65
   257
 75
     1
175
     1
 42
1.0
 92
        8
 66
     8
 43
1.0
 76
     1
 77
     6
 78
     2
 67
     7
 79
     5
170
     0
171
     0
290
     0
174
     0
 93
       13
 44
0.0
173
     0
291
     0
 45
0.0
1001
ACAD
1000
AcDbSavedByObjectVersion
1070
     0
  0
VISUALSTYLE
  5
37
102
{ACAD_REACTORS
330
2A
102
}
330
2A
100
AcDbVisualStyle
  2
Thicken
 70
    13
 71
     2
 72
     2
 73
     0
 90
        0
 40
-0.6
 41
-30.0
 62
     5
 63
     7
 74
     1
 91
        4
 64
     7
 65
   257
 75
     1
175
     1
 42
1.0
 92
       12
 66
     7
 43
1.0
 76
     1
 77
     6
 78
     2
 67
     7
 79
     5
170
     0
171
     0
290
     0
174
     0
 93
        1
 44
0.0
173
     0
291
     1
 45
0.0
1001
ACAD
1000
AcDbSavedByObjectVersion
1070
     0
  0
XRECORD
  5
410
102
{ACAD_REACTORS
330
407
102
}
330
407
100
AcDbXrecord
 90
        0
  0
XRECORD
  5
426
102
{ACAD_REACTORS
330
407
102
}
330
407
100
AcDbXrecord
1000
DSTYLE
1002
{
1070
   340
340
11
1002
}
  0
XRECORD
  5
411
102
{ACAD_REACTORS
330
407
102
}
330
407
100
AcDbXrecord
  1
{16C220B5-D932-4851-A027-A3AF1658A905}
  0
XRECORD
  5
40A
102
{ACAD_REACTORS
330
407
102
}
330
407
100
AcDbXrecord
  1

  0
XRECORD
  5
40F
102
{ACAD_REACTORS
330
407
102
}
330
407
100
AcDbXrecord
 90
        1
  0
XRECORD
  5
40C
102
{ACAD_REACTORS
330
407
102
}
330
407
100
AcDbXrecord
340
1A
  0
XRECORD
  5
40E
102
{ACAD_REACTORS
330
407
102
}
330
407
100
AcDbXrecord
 90
    10269
  0
XRECORD
  5
40D
102
{ACAD_REACTORS
330
407
102
}
330
407
100
AcDbXrecord
340
19
  0
XRECORD
  5
413
102
{ACAD_REACTORS
330
407
102
}
330
407
100
AcDbXrecord
 40
0.0
  0
XRECORD
  5
416
102
{ACAD_REACTORS
330
407
102
}
330
407
100
AcDbXrecord
340
0
  0
XRECORD
  5
41C
102
{ACAD_REACTORS
330
407
102
}
330
407
100
AcDbXrecord
 10
0.0
 20
0.0
 30
0.0
  0
XRECORD
  5
418
102
{ACAD_REACTORS
330
407
102
}
330
407
100
AcDbXrecord
 10
0.0
 20
0.0
 30
0.0
  0
XRECORD
  5
41B
102
{ACAD_REACTORS
330
407
102
}
330
407
100
AcDbXrecord
 10
0.0
 20
0.0
 30
0.0
  0
XRECORD
  5
419
102
{ACAD_REACTORS
330
407
102
}
330
407
100
AcDbXrecord
 10
0.0
 20
0.0
 30
0.0
  0
XRECORD
  5
41A
102
{ACAD_REACTORS
330
407
102
}
330
407
100
AcDbXrecord
 10
0.0
 20
0.0
 30
0.0
  0
XRECORD
  5
417
102
{ACAD_REACTORS
330
407
102
}
330
407
100
AcDbXrecord
 10
0.0
 20
0.0
 30
0.0
  0
XRECORD
  5
414
102
{ACAD_REACTORS
330
407
102
}
330
407
100
AcDbXrecord
340
0
  0
XRECORD
  5
415
102
{ACAD_REACTORS
330
407
102
}
330
407
100
AcDbXrecord
 70
     0
  0
XRECORD
  5
40B
102
{ACAD_REACTORS
330
407
102
}
330
407
100
AcDbXrecord
  1

  0
XRECORD
  5
408
102
{ACAD_REACTORS
330
407
102
}
330
407
100
AcDbXrecord
 90
        1
  0
XRECORD
  5
409
102
{ACAD_REACTORS
330
407
102
}
330
407
100
AcDbXrecord
 90
       70
  0
XRECORD
  5
41F
102
{ACAD_REACTORS
330
407
102
}
330
407
100
AcDbXrecord
340
0
  0
XRECORD
  5
425
102
{ACAD_REACTORS
330
407
102
}
330
407
100
AcDbXrecord
 10
0.0
 20
0.0
 30
0.0
  0
XRECORD
  5
421
102
{ACAD_REACTORS
330
407
102
}
330
407
100
AcDbXrecord
 10
0.0
 20
0.0
 30
0.0
  0
XRECORD
  5
424
102
{ACAD_REACTORS
330
407
102
}
330
407
100
AcDbXrecord
 10
0.0
 20
0.0
 30
0.0
  0
XRECORD
  5
422
102
{ACAD_REACTORS
330
407
102
}
330
407
100
AcDbXrecord
 10
0.0
 20
0.0
 30
0.0
  0
XRECORD
  5
423
102
{ACAD_REACTORS
330
407
102
}
330
407
100
AcDbXrecord
 10
0.0
 20
0.0
 30
0.0
  0
XRECORD
  5
420
102
{ACAD_REACTORS
330
407
102
}
330
407
100
AcDbXrecord
 10
0.0
 20
0.0
 30
0.0
  0
XRECORD
  5
41D
102
{ACAD_REACTORS
330
407
102
}
330
407
100
AcDbXrecord
340
0
  0
XRECORD
  5
41E
102
{ACAD_REACTORS
330
407
102
}
330
407
100
AcDbXrecord
 70
     0
  0
XRECORD
  5
412
102
{ACAD_REACTORS
330
407
102
}
330
407
100
AcDbXrecord
  1
{FAEB1C32-E019-11D5-929B-00C0DF256EC4}
  0
ENDSEC
  0
EOF
