ISO-10303-21;
HEADER;
/* Generated by software containing ST-Developer
 * from STEP Tools, Inc. (www.steptools.com) 
 */
/* OPTION: using custom schema-name function */

FILE_DESCRIPTION(
/* description */ (''),
/* implementation_level */ '2;1');

FILE_NAME(
/* name */ 'W9990791_stp.stp',
/* time_stamp */ '2017-05-12T07:55:03+02:00',
/* author */ (''),
/* organization */ (''),
/* preprocessor_version */ 'ST-DEVELOPER v15',
/* originating_system */ 'SIEMENS PLM Software NX 9.0',
/* authorisation */ '');

FILE_SCHEMA (('AUTOMOTIVE_DESIGN { 1 0 10303 214 3 1 1 1 }'));
ENDSEC;

DATA;
#10=PROPERTY_DEFINITION_REPRESENTATION(#14,#12);
#11=PROPERTY_DEFINITION_REPRESENTATION(#15,#13);
#12=REPRESENTATION('',(#16),#333);
#13=REPRESENTATION('',(#17),#333);
#14=PROPERTY_DEFINITION('pmi validation property','',#21);
#15=PROPERTY_DEFINITION('pmi validation property','',#21);
#16=VALUE_REPRESENTATION_ITEM('number of annotations',COUNT_MEASURE(0.));
#17=VALUE_REPRESENTATION_ITEM('number of views',COUNT_MEASURE(0.));
#18=SHAPE_REPRESENTATION_RELATIONSHIP('None',
'relationship between reic0AD8C65Btq8q-None and reic0AD8C65Btq8q-None',
#30,#19);
#19=ADVANCED_BREP_SHAPE_REPRESENTATION('reic0AD8C65Btq8q-None',(#40),#333);
#20=SHAPE_DEFINITION_REPRESENTATION(#21,#30);
#21=PRODUCT_DEFINITION_SHAPE('','',#22);
#22=PRODUCT_DEFINITION(' ','',#24,#23);
#23=PRODUCT_DEFINITION_CONTEXT('part definition',#29,'design');
#24=PRODUCT_DEFINITION_FORMATION_WITH_SPECIFIED_SOURCE(' ',' ',#26,
 .NOT_KNOWN.);
#25=PRODUCT_RELATED_PRODUCT_CATEGORY('part','',(#26));
#26=PRODUCT('reic0AD8C65Btq8q','reic0AD8C65Btq8q',' ',(#27));
#27=PRODUCT_CONTEXT(' ',#29,'mechanical');
#28=APPLICATION_PROTOCOL_DEFINITION('international standard',
'automotive_design',2010,#29);
#29=APPLICATION_CONTEXT(
'core data for automotive mechanical design processes');
#30=SHAPE_REPRESENTATION('reic0AD8C65Btq8q-None',(#198),#333);
#31=PRESENTATION_LAYER_ASSIGNMENT('210','Layer 210',(#40));
#32=STYLED_ITEM('',(#33),#40);
#33=PRESENTATION_STYLE_ASSIGNMENT((#34));
#34=SURFACE_STYLE_USAGE(.BOTH.,#35);
#35=SURFACE_SIDE_STYLE('',(#36));
#36=SURFACE_STYLE_FILL_AREA(#37);
#37=FILL_AREA_STYLE('',(#38));
#38=FILL_AREA_STYLE_COLOUR('',#39);
#39=COLOUR_RGB('RAL 7035',0.8,0.8,0.8);
#40=MANIFOLD_SOLID_BREP('',#41);
#41=CLOSED_SHELL('',(#54,#55,#56,#57,#58,#59,#60,#61,#62,#63,#64,#65,#66,
#67,#68));
#42=FACE_OUTER_BOUND('',#118,.T.);
#43=FACE_OUTER_BOUND('',#127,.T.);
#44=CONICAL_SURFACE('',#211,4.07254295516145,4.49999999999936);
#45=CONICAL_SURFACE('',#213,8.0961822482065,75.0000000000002);
#46=CONICAL_SURFACE('',#223,10.0723145172501,8.00000000000003);
#47=CYLINDRICAL_SURFACE('',#209,25.);
#48=CYLINDRICAL_SURFACE('',#217,1.49999999999998);
#49=CYLINDRICAL_SURFACE('',#221,8.);
#50=CYLINDRICAL_SURFACE('',#226,16.);
#51=TOROIDAL_SURFACE('',#204,3.07562562142827,1.00000000000005);
#52=TOROIDAL_SURFACE('',#207,8.87263938351403,2.99999999999995);
#53=TOROIDAL_SURFACE('',#212,705.,700.);
#54=ADVANCED_FACE('',(#74,#75),#69,.F.);
#55=ADVANCED_FACE('',(#76,#77),#51,.T.);
#56=ADVANCED_FACE('',(#78,#79),#52,.F.);
#57=ADVANCED_FACE('',(#80,#81),#47,.T.);
#58=ADVANCED_FACE('',(#82,#83),#44,.T.);
#59=ADVANCED_FACE('',(#84,#85),#53,.F.);
#60=ADVANCED_FACE('',(#86,#87),#45,.T.);
#61=ADVANCED_FACE('',(#88,#89),#70,.F.);
#62=ADVANCED_FACE('',(#90,#91),#48,.F.);
#63=ADVANCED_FACE('',(#42),#71,.F.);
#64=ADVANCED_FACE('',(#92,#93),#49,.T.);
#65=ADVANCED_FACE('',(#94,#95),#46,.T.);
#66=ADVANCED_FACE('',(#96,#97),#72,.F.);
#67=ADVANCED_FACE('',(#98,#99),#50,.T.);
#68=ADVANCED_FACE('',(#43),#73,.F.);
#69=PLANE('',#201);
#70=PLANE('',#215);
#71=PLANE('',#219);
#72=PLANE('',#225);
#73=PLANE('',#227);
#74=FACE_BOUND('',#100,.T.);
#75=FACE_BOUND('',#101,.T.);
#76=FACE_BOUND('',#102,.T.);
#77=FACE_BOUND('',#103,.T.);
#78=FACE_BOUND('',#104,.T.);
#79=FACE_BOUND('',#105,.T.);
#80=FACE_BOUND('',#106,.T.);
#81=FACE_BOUND('',#107,.T.);
#82=FACE_BOUND('',#108,.T.);
#83=FACE_BOUND('',#109,.T.);
#84=FACE_BOUND('',#110,.T.);
#85=FACE_BOUND('',#111,.T.);
#86=FACE_BOUND('',#112,.T.);
#87=FACE_BOUND('',#113,.T.);
#88=FACE_BOUND('',#114,.T.);
#89=FACE_BOUND('',#115,.T.);
#90=FACE_BOUND('',#116,.T.);
#91=FACE_BOUND('',#117,.T.);
#92=FACE_BOUND('',#119,.T.);
#93=FACE_BOUND('',#120,.T.);
#94=FACE_BOUND('',#121,.T.);
#95=FACE_BOUND('',#122,.T.);
#96=FACE_BOUND('',#123,.T.);
#97=FACE_BOUND('',#124,.T.);
#98=FACE_BOUND('',#125,.T.);
#99=FACE_BOUND('',#126,.T.);
#100=EDGE_LOOP('',(#128));
#101=EDGE_LOOP('',(#129));
#102=EDGE_LOOP('',(#130));
#103=EDGE_LOOP('',(#131));
#104=EDGE_LOOP('',(#132));
#105=EDGE_LOOP('',(#133));
#106=EDGE_LOOP('',(#134));
#107=EDGE_LOOP('',(#135));
#108=EDGE_LOOP('',(#136));
#109=EDGE_LOOP('',(#137));
#110=EDGE_LOOP('',(#138));
#111=EDGE_LOOP('',(#139));
#112=EDGE_LOOP('',(#140));
#113=EDGE_LOOP('',(#141));
#114=EDGE_LOOP('',(#142));
#115=EDGE_LOOP('',(#143));
#116=EDGE_LOOP('',(#144));
#117=EDGE_LOOP('',(#145));
#118=EDGE_LOOP('',(#146));
#119=EDGE_LOOP('',(#147));
#120=EDGE_LOOP('',(#148));
#121=EDGE_LOOP('',(#149));
#122=EDGE_LOOP('',(#150));
#123=EDGE_LOOP('',(#151));
#124=EDGE_LOOP('',(#152));
#125=EDGE_LOOP('',(#153));
#126=EDGE_LOOP('',(#154));
#127=EDGE_LOOP('',(#155));
#128=ORIENTED_EDGE('',*,*,#170,.T.);
#129=ORIENTED_EDGE('',*,*,#171,.T.);
#130=ORIENTED_EDGE('',*,*,#172,.F.);
#131=ORIENTED_EDGE('',*,*,#173,.T.);
#132=ORIENTED_EDGE('',*,*,#174,.F.);
#133=ORIENTED_EDGE('',*,*,#175,.T.);
#134=ORIENTED_EDGE('',*,*,#170,.F.);
#135=ORIENTED_EDGE('',*,*,#176,.T.);
#136=ORIENTED_EDGE('',*,*,#177,.F.);
#137=ORIENTED_EDGE('',*,*,#172,.T.);
#138=ORIENTED_EDGE('',*,*,#177,.T.);
#139=ORIENTED_EDGE('',*,*,#175,.F.);
#140=ORIENTED_EDGE('',*,*,#174,.T.);
#141=ORIENTED_EDGE('',*,*,#176,.F.);
#142=ORIENTED_EDGE('',*,*,#178,.T.);
#143=ORIENTED_EDGE('',*,*,#173,.F.);
#144=ORIENTED_EDGE('',*,*,#178,.F.);
#145=ORIENTED_EDGE('',*,*,#179,.T.);
#146=ORIENTED_EDGE('',*,*,#180,.F.);
#147=ORIENTED_EDGE('',*,*,#180,.T.);
#148=ORIENTED_EDGE('',*,*,#181,.T.);
#149=ORIENTED_EDGE('',*,*,#182,.F.);
#150=ORIENTED_EDGE('',*,*,#181,.F.);
#151=ORIENTED_EDGE('',*,*,#182,.T.);
#152=ORIENTED_EDGE('',*,*,#183,.F.);
#153=ORIENTED_EDGE('',*,*,#183,.T.);
#154=ORIENTED_EDGE('',*,*,#171,.F.);
#155=ORIENTED_EDGE('',*,*,#179,.F.);
#156=VERTEX_POINT('',#290);
#157=VERTEX_POINT('',#292);
#158=VERTEX_POINT('',#295);
#159=VERTEX_POINT('',#297);
#160=VERTEX_POINT('',#300);
#161=VERTEX_POINT('',#302);
#162=VERTEX_POINT('',#305);
#163=VERTEX_POINT('',#308);
#164=VERTEX_POINT('',#313);
#165=VERTEX_POINT('',#316);
#166=VERTEX_POINT('',#319);
#167=VERTEX_POINT('',#322);
#168=VERTEX_POINT('',#325);
#169=VERTEX_POINT('',#328);
#170=EDGE_CURVE('',#156,#156,#184,.T.);
#171=EDGE_CURVE('',#157,#157,#185,.T.);
#172=EDGE_CURVE('',#158,#158,#186,.T.);
#173=EDGE_CURVE('',#159,#159,#187,.T.);
#174=EDGE_CURVE('',#160,#160,#188,.T.);
#175=EDGE_CURVE('',#161,#161,#189,.T.);
#176=EDGE_CURVE('',#162,#162,#190,.T.);
#177=EDGE_CURVE('',#163,#163,#191,.T.);
#178=EDGE_CURVE('',#164,#164,#192,.T.);
#179=EDGE_CURVE('',#165,#165,#193,.T.);
#180=EDGE_CURVE('',#166,#166,#194,.T.);
#181=EDGE_CURVE('',#167,#167,#195,.T.);
#182=EDGE_CURVE('',#168,#168,#196,.T.);
#183=EDGE_CURVE('',#169,#169,#197,.T.);
#184=CIRCLE('',#199,25.);
#185=CIRCLE('',#200,16.);
#186=CIRCLE('',#202,4.07254295516145);
#187=CIRCLE('',#203,3.07562562142835);
#188=CIRCLE('',#205,8.0961822482065);
#189=CIRCLE('',#206,5.87639536364404);
#190=CIRCLE('',#208,25.);
#191=CIRCLE('',#210,5.);
#192=CIRCLE('',#214,1.49999999999998);
#193=CIRCLE('',#216,1.5);
#194=CIRCLE('',#218,8.);
#195=CIRCLE('',#220,8.);
#196=CIRCLE('',#222,10.0723145172501);
#197=CIRCLE('',#224,16.);
#198=AXIS2_PLACEMENT_3D('',#288,#228,#229);
#199=AXIS2_PLACEMENT_3D('',#289,#230,#231);
#200=AXIS2_PLACEMENT_3D('',#291,#232,#233);
#201=AXIS2_PLACEMENT_3D('',#293,#234,#235);
#202=AXIS2_PLACEMENT_3D('',#294,#236,#237);
#203=AXIS2_PLACEMENT_3D('',#296,#238,#239);
#204=AXIS2_PLACEMENT_3D('',#298,#240,#241);
#205=AXIS2_PLACEMENT_3D('',#299,#242,#243);
#206=AXIS2_PLACEMENT_3D('',#301,#244,#245);
#207=AXIS2_PLACEMENT_3D('',#303,#246,#247);
#208=AXIS2_PLACEMENT_3D('',#304,#248,#249);
#209=AXIS2_PLACEMENT_3D('',#306,#250,#251);
#210=AXIS2_PLACEMENT_3D('',#307,#252,#253);
#211=AXIS2_PLACEMENT_3D('',#309,#254,#255);
#212=AXIS2_PLACEMENT_3D('',#310,#256,#257);
#213=AXIS2_PLACEMENT_3D('',#311,#258,#259);
#214=AXIS2_PLACEMENT_3D('',#312,#260,#261);
#215=AXIS2_PLACEMENT_3D('',#314,#262,#263);
#216=AXIS2_PLACEMENT_3D('',#315,#264,#265);
#217=AXIS2_PLACEMENT_3D('',#317,#266,#267);
#218=AXIS2_PLACEMENT_3D('',#318,#268,#269);
#219=AXIS2_PLACEMENT_3D('',#320,#270,#271);
#220=AXIS2_PLACEMENT_3D('',#321,#272,#273);
#221=AXIS2_PLACEMENT_3D('',#323,#274,#275);
#222=AXIS2_PLACEMENT_3D('',#324,#276,#277);
#223=AXIS2_PLACEMENT_3D('',#326,#278,#279);
#224=AXIS2_PLACEMENT_3D('',#327,#280,#281);
#225=AXIS2_PLACEMENT_3D('',#329,#282,#283);
#226=AXIS2_PLACEMENT_3D('',#330,#284,#285);
#227=AXIS2_PLACEMENT_3D('',#331,#286,#287);
#228=DIRECTION('',(0.,0.,1.));
#229=DIRECTION('',(1.,0.,0.));
#230=DIRECTION('',(0.,-1.74529223335299E-017,-1.));
#231=DIRECTION('',(0.,-1.,1.74529223335299E-017));
#232=DIRECTION('',(0.,1.74529223335299E-017,1.));
#233=DIRECTION('',(0.,-1.,1.74529223335299E-017));
#234=DIRECTION('',(0.,1.74529223335299E-017,1.));
#235=DIRECTION('',(0.,-1.,1.74529223335299E-017));
#236=DIRECTION('',(0.,-1.74529223335299E-017,-1.));
#237=DIRECTION('',(0.,-1.,0.));
#238=DIRECTION('',(0.,-1.74529223335299E-017,-1.));
#239=DIRECTION('',(0.,-1.,0.));
#240=DIRECTION('',(0.,-1.74529223335299E-017,-1.));
#241=DIRECTION('',(0.,1.,0.));
#242=DIRECTION('',(0.,-1.74529223335299E-017,-1.));
#243=DIRECTION('',(0.,-1.,0.));
#244=DIRECTION('',(0.,-1.74529223335299E-017,-1.));
#245=DIRECTION('',(0.,-1.,0.));
#246=DIRECTION('',(0.,-1.74529223335299E-017,-1.));
#247=DIRECTION('',(0.,1.,0.));
#248=DIRECTION('',(0.,-1.74529223335299E-017,-1.));
#249=DIRECTION('',(0.,-1.,3.46944695195361E-017));
#250=DIRECTION('',(0.,-1.74529223335299E-017,-1.));
#251=DIRECTION('',(0.,1.,0.));
#252=DIRECTION('',(0.,-1.74529223335299E-017,-1.));
#253=DIRECTION('',(0.,-1.,0.));
#254=DIRECTION('',(0.,-1.74529223335299E-017,-1.));
#255=DIRECTION('',(0.,1.,1.67658273493726E-016));
#256=DIRECTION('',(0.,-1.74529223335299E-017,-1.));
#257=DIRECTION('',(0.,1.,-1.97548580894156E-017));
#258=DIRECTION('',(0.,-1.74529223335299E-017,-1.));
#259=DIRECTION('',(0.,1.,-1.8552463105859E-017));
#260=DIRECTION('',(0.,-1.74529223335299E-017,-1.));
#261=DIRECTION('',(0.,1.,0.));
#262=DIRECTION('',(0.,-1.74529223335299E-017,-1.));
#263=DIRECTION('',(0.,1.,-2.08166817117217E-017));
#264=DIRECTION('',(0.,0.,-1.));
#265=DIRECTION('',(-1.,0.,0.));
#266=DIRECTION('',(0.,0.,1.));
#267=DIRECTION('',(-1.,0.,0.));
#268=DIRECTION('',(0.,0.,1.));
#269=DIRECTION('',(1.,0.,0.));
#270=DIRECTION('',(0.,1.74529223335299E-017,1.));
#271=DIRECTION('',(0.,-1.,2.08166817117217E-017));
#272=DIRECTION('',(0.,0.,-1.));
#273=DIRECTION('',(1.,0.,0.));
#274=DIRECTION('',(0.,-1.74529223335299E-017,-1.));
#275=DIRECTION('',(0.,1.,0.));
#276=DIRECTION('',(0.,0.,1.));
#277=DIRECTION('',(1.,0.,0.));
#278=DIRECTION('',(0.,1.74529223335299E-017,1.));
#279=DIRECTION('',(0.,-1.,2.76425820980137E-016));
#280=DIRECTION('',(0.,0.,1.));
#281=DIRECTION('',(1.,0.,0.));
#282=DIRECTION('',(0.,1.74529223335299E-017,1.));
#283=DIRECTION('',(0.,-1.,1.73472347597681E-017));
#284=DIRECTION('',(0.,-1.74529223335299E-017,-1.));
#285=DIRECTION('',(0.,1.,0.));
#286=DIRECTION('',(0.,0.,-1.));
#287=DIRECTION('',(-1.,0.,0.));
#288=CARTESIAN_POINT('',(0.,0.,0.));
#289=CARTESIAN_POINT('',(0.,7.15569815674724E-016,0.));
#290=CARTESIAN_POINT('',(0.,-25.,4.36323058338246E-016));
#291=CARTESIAN_POINT('',(0.,7.15569815674724E-016,0.));
#292=CARTESIAN_POINT('',(0.,-16.,2.79246757336478E-016));
#293=CARTESIAN_POINT('',(0.,25.,0.));
#294=CARTESIAN_POINT('',(0.,1.74666157385708E-015,59.0784590957278));
#295=CARTESIAN_POINT('',(0.,-4.07254295516145,59.0784590957278));
#296=CARTESIAN_POINT('',(0.,1.76274515568651E-015,60.));
#297=CARTESIAN_POINT('',(0.,-3.07562562142835,60.));
#298=CARTESIAN_POINT('',(0.,1.73472347597681E-015,59.));
#299=CARTESIAN_POINT('',(0.,8.8188507096273E-016,9.52936431559588));
#300=CARTESIAN_POINT('',(0.,-8.0961822482065,9.52936431559588));
#301=CARTESIAN_POINT('',(0.,9.29840551499743E-016,12.2770692340372));
#302=CARTESIAN_POINT('',(0.,-5.87639536364404,12.2770692340372));
#303=CARTESIAN_POINT('',(0.,1.73472347597681E-015,12.427141794463));
#304=CARTESIAN_POINT('',(0.,8.02834427342373E-016,5.));
#305=CARTESIAN_POINT('',(0.,-25.,5.00000000000001));
#306=CARTESIAN_POINT('',(0.,0.,-41.));
#307=CARTESIAN_POINT('',(0.,1.54098832451668E-015,47.294));
#308=CARTESIAN_POINT('',(0.,-5.,47.294));
#309=CARTESIAN_POINT('',(0.,1.74666157385708E-015,59.0784590957278));
#310=CARTESIAN_POINT('',(0.,0.,47.294));
#311=CARTESIAN_POINT('',(0.,8.8188507096273E-016,9.52936431559588));
#312=CARTESIAN_POINT('',(0.,1.76274515568651E-015,60.));
#313=CARTESIAN_POINT('',(0.,1.49999999999998,60.));
#314=CARTESIAN_POINT('',(0.,3.07562562142836,60.));
#315=CARTESIAN_POINT('',(0.,1.76274515568651E-015,49.));
#316=CARTESIAN_POINT('',(-1.5,1.76274515568651E-015,49.));
#317=CARTESIAN_POINT('',(0.,1.76274515568651E-015,60.));
#318=CARTESIAN_POINT('',(0.,0.,-41.));
#319=CARTESIAN_POINT('',(8.,0.,-41.));
#320=CARTESIAN_POINT('',(0.,1.2184179919209E-033,-41.));
#321=CARTESIAN_POINT('',(0.,0.,-33.2452839712988));
#322=CARTESIAN_POINT('',(8.,0.,-33.2452839712988));
#323=CARTESIAN_POINT('',(0.,0.,-41.));
#324=CARTESIAN_POINT('',(0.,0.,-18.5));
#325=CARTESIAN_POINT('',(10.0723145172501,0.,-18.5));
#326=CARTESIAN_POINT('',(0.,3.92690752504422E-016,-18.5));
#327=CARTESIAN_POINT('',(0.,0.,-18.5));
#328=CARTESIAN_POINT('',(16.,0.,-18.5));
#329=CARTESIAN_POINT('',(0.,16.,-18.5));
#330=CARTESIAN_POINT('',(0.,0.,-41.));
#331=CARTESIAN_POINT('',(0.,1.76274515568651E-015,49.));
#332=MECHANICAL_DESIGN_GEOMETRIC_PRESENTATION_REPRESENTATION('',(#32),#333);
#333=(
GEOMETRIC_REPRESENTATION_CONTEXT(3)
GLOBAL_UNCERTAINTY_ASSIGNED_CONTEXT((#334))
GLOBAL_UNIT_ASSIGNED_CONTEXT((#340,#336,#335))
REPRESENTATION_CONTEXT('W9990791_stp','TOP_LEVEL_ASSEMBLY_PART')
);
#334=UNCERTAINTY_MEASURE_WITH_UNIT(LENGTH_MEASURE(2.E-005),#340,
'DISTANCE_ACCURACY_VALUE','Maximum Tolerance applied to model');
#335=(
NAMED_UNIT(*)
SI_UNIT($,.STERADIAN.)
SOLID_ANGLE_UNIT()
);
#336=(
CONVERSION_BASED_UNIT('DEGREE',#338)
NAMED_UNIT(#337)
PLANE_ANGLE_UNIT()
);
#337=DIMENSIONAL_EXPONENTS(0.,0.,0.,0.,0.,0.,0.);
#338=PLANE_ANGLE_MEASURE_WITH_UNIT(PLANE_ANGLE_MEASURE(0.0174532925),#339);
#339=(
NAMED_UNIT(*)
PLANE_ANGLE_UNIT()
SI_UNIT($,.RADIAN.)
);
#340=(
LENGTH_UNIT()
NAMED_UNIT(*)
SI_UNIT(.MILLI.,.METRE.)
);
ENDSEC;
END-ISO-10303-21;
