  0
SECTION
  2
HEADER
  9
$ACADVER
  1
AC1032
  9
$ACADMAINTVER
 90
      228
  9
$DWGCODEPAGE
  3
ANSI_1252
  9
$REQUIREDVERSIONS
160
                 0
  9
$INSBASE
 10
0.0
 20
0.0
 30
0.0
  9
$EXTMIN
 10
1.000000000000000E+20
 20
1.000000000000000E+20
 30
1.000000000000000E+20
  9
$EXTMAX
 10
-1.000000000000000E+20
 20
-1.000000000000000E+20
 30
-1.000000000000000E+20
  9
$LIMMIN
 10
0.0
 20
0.0
  9
$LIMMAX
 10
12.0
 20
9.0
  9
$ORTHOMODE
 70
     0
  9
$REGENMODE
 70
     1
  9
$FILLMODE
 70
     1
  9
$QTEXTMODE
 70
     0
  9
$MIRRTEXT
 70
     0
  9
$LTSCALE
 40
1.0
  9
$ATTMODE
 70
     1
  9
$TEXTSIZE
 40
0.2
  9
$TRACEWID
 40
0.05
  9
$TEXTSTYLE
  7
Standard
  9
$CLAYER
  8
0
  9
$CELTYPE
  6
ByLayer
  9
$CECOLOR
 62
   256
  9
$CELTSCALE
 40
1.0
  9
$DISPSILH
 70
     0
  9
$DIMSCALE
 40
1.0
  9
$DIMASZ
 40
0.18
  9
$DIMEXO
 40
0.0625
  9
$DIMDLI
 40
0.38
  9
$DIMRND
 40
0.0
  9
$DIMDLE
 40
0.0
  9
$DIMEXE
 40
0.18
  9
$DIMTP
 40
0.0
  9
$DIMTM
 40
0.0
  9
$DIMTXT
 40
0.18
  9
$DIMCEN
 40
0.09
  9
$DIMTSZ
 40
0.0
  9
$DIMTOL
 70
     0
  9
$DIMLIM
 70
     0
  9
$DIMTIH
 70
     1
  9
$DIMTOH
 70
     1
  9
$DIMSE1
 70
     0
  9
$DIMSE2
 70
     0
  9
$DIMTAD
 70
     0
  9
$DIMZIN
 70
     0
  9
$DIMBLK
  1

  9
$DIMASO
 70
     1
  9
$DIMSHO
 70
     1
  9
$DIMPOST
  1

  9
$DIMAPOST
  1

  9
$DIMALT
 70
     0
  9
$DIMALTD
 70
     2
  9
$DIMALTF
 40
25.4
  9
$DIMLFAC
 40
1.0
  9
$DIMTOFL
 70
     0
  9
$DIMTVP
 40
0.0
  9
$DIMTIX
 70
     0
  9
$DIMSOXD
 70
     0
  9
$DIMSAH
 70
     0
  9
$DIMBLK1
  1

  9
$DIMBLK2
  1

  9
$DIMSTYLE
  2
Standard
  9
$DIMCLRD
 70
     0
  9
$DIMCLRE
 70
     0
  9
$DIMCLRT
 70
     0
  9
$DIMTFAC
 40
1.0
  9
$DIMGAP
 40
0.09
  9
$DIMJUST
 70
     0
  9
$DIMSD1
 70
     0
  9
$DIMSD2
 70
     0
  9
$DIMTOLJ
 70
     1
  9
$DIMTZIN
 70
     0
  9
$DIMALTZ
 70
     0
  9
$DIMALTTZ
 70
     0
  9
$DIMUPT
 70
     0
  9
$DIMDEC
 70
     4
  9
$DIMTDEC
 70
     4
  9
$DIMALTU
 70
     2
  9
$DIMALTTD
 70
     2
  9
$DIMTXSTY
  7
Standard
  9
$DIMAUNIT
 70
     0
  9
$DIMADEC
 70
     0
  9
$DIMALTRND
 40
0.0
  9
$DIMAZIN
 70
     0
  9
$DIMDSEP
 70
    46
  9
$DIMATFIT
 70
     3
  9
$DIMFRAC
 70
     0
  9
$DIMLDRBLK
  1

  9
$DIMLUNIT
 70
     2
  9
$DIMLWD
 70
    -2
  9
$DIMLWE
 70
    -2
  9
$DIMTMOVE
 70
     0
  9
$DIMFXL
 40
1.0
  9
$DIMFXLON
 70
     0
  9
$DIMJOGANG
 40
0.7853981633974483
  9
$DIMTFILL
 70
     0
  9
$DIMTFILLCLR
 70
     0
  9
$DIMARCSYM
 70
     0
  9
$DIMLTYPE
  6

  9
$DIMLTEX1
  6

  9
$DIMLTEX2
  6

  9
$DIMTXTDIRECTION
 70
     0
  9
$LUNITS
 70
     2
  9
$LUPREC
 70
     4
  9
$SKETCHINC
 40
0.1
  9
$FILLETRAD
 40
0.0
  9
$AUNITS
 70
     0
  9
$AUPREC
 70
     0
  9
$MENU
  1
.
  9
$ELEVATION
 40
0.0
  9
$PELEVATION
 40
0.0
  9
$THICKNESS
 40
0.0
  9
$LIMCHECK
 70
     0
  9
$CHAMFERA
 40
0.0
  9
$CHAMFERB
 40
0.0
  9
$CHAMFERC
 40
0.0
  9
$CHAMFERD
 40
0.0
  9
$SKPOLY
 70
     0
  9
$TDCREATE
 40
2460101.451712963
  9
$TDUCREATE
 40
2460101.368379630
  9
$TDUPDATE
 40
2460101.451712963
  9
$TDUUPDATE
 40
2460101.368379630
  9
$TDINDWG
 40
0.0000000000
  9
$TDUSRTIMER
 40
0.0000000000
  9
$USRTIMER
 70
     1
  9
$ANGBASE
 50
0.0
  9
$ANGDIR
 70
     0
  9
$PDMODE
 70
     0
  9
$PDSIZE
 40
0.0
  9
$PLINEWID
 40
0.0
  9
$SPLFRAME
 70
     0
  9
$SPLINETYPE
 70
     6
  9
$SPLINESEGS
 70
     8
  9
$HANDSEED
  5
29E
  9
$SURFTAB1
 70
     6
  9
$SURFTAB2
 70
     6
  9
$SURFTYPE
 70
     6
  9
$SURFU
 70
     6
  9
$SURFV
 70
     6
  9
$UCSBASE
  2

  9
$UCSNAME
  2

  9
$UCSORG
 10
0.0
 20
0.0
 30
0.0
  9
$UCSXDIR
 10
1.0
 20
0.0
 30
0.0
  9
$UCSYDIR
 10
0.0
 20
1.0
 30
0.0
  9
$UCSORTHOREF
  2

  9
$UCSORTHOVIEW
 70
     0
  9
$UCSORGTOP
 10
0.0
 20
0.0
 30
0.0
  9
$UCSORGBOTTOM
 10
0.0
 20
0.0
 30
0.0
  9
$UCSORGLEFT
 10
0.0
 20
0.0
 30
0.0
  9
$UCSORGRIGHT
 10
0.0
 20
0.0
 30
0.0
  9
$UCSORGFRONT
 10
0.0
 20
0.0
 30
0.0
  9
$UCSORGBACK
 10
0.0
 20
0.0
 30
0.0
  9
$PUCSBASE
  2

  9
$PUCSNAME
  2

  9
$PUCSORG
 10
0.0
 20
0.0
 30
0.0
  9
$PUCSXDIR
 10
1.0
 20
0.0
 30
0.0
  9
$PUCSYDIR
 10
0.0
 20
1.0
 30
0.0
  9
$PUCSORTHOREF
  2

  9
$PUCSORTHOVIEW
 70
     0
  9
$PUCSORGTOP
 10
0.0
 20
0.0
 30
0.0
  9
$PUCSORGBOTTOM
 10
0.0
 20
0.0
 30
0.0
  9
$PUCSORGLEFT
 10
0.0
 20
0.0
 30
0.0
  9
$PUCSORGRIGHT
 10
0.0
 20
0.0
 30
0.0
  9
$PUCSORGFRONT
 10
0.0
 20
0.0
 30
0.0
  9
$PUCSORGBACK
 10
0.0
 20
0.0
 30
0.0
  9
$USERI1
 70
     0
  9
$USERI2
 70
     0
  9
$USERI3
 70
     0
  9
$USERI4
 70
     0
  9
$USERI5
 70
     0
  9
$USERR1
 40
0.0
  9
$USERR2
 40
0.0
  9
$USERR3
 40
0.0
  9
$USERR4
 40
0.0
  9
$USERR5
 40
0.0
  9
$WORLDVIEW
 70
     1
  9
$SHADEDGE
 70
     3
  9
$SHADEDIF
 70
    70
  9
$TILEMODE
 70
     1
  9
$MAXACTVP
 70
    64
  9
$PINSBASE
 10
0.0
 20
0.0
 30
0.0
  9
$PLIMCHECK
 70
     0
  9
$PEXTMIN
 10
1.000000000000000E+20
 20
1.000000000000000E+20
 30
1.000000000000000E+20
  9
$PEXTMAX
 10
-1.000000000000000E+20
 20
-1.000000000000000E+20
 30
-1.000000000000000E+20
  9
$PLIMMIN
 10
0.0
 20
0.0
  9
$PLIMMAX
 10
12.0
 20
9.0
  9
$UNITMODE
 70
     0
  9
$VISRETAIN
 70
     1
  9
$PLINEGEN
 70
     0
  9
$PSLTSCALE
 70
     1
  9
$TREEDEPTH
 70
  3020
  9
$CMLSTYLE
  2
Standard
  9
$CMLJUST
 70
     0
  9
$CMLSCALE
 40
1.0
  9
$PROXYGRAPHICS
 70
     1
  9
$MEASUREMENT
 70
     0
  9
$CELWEIGHT
370
    -1
  9
$ENDCAPS
280
     0
  9
$JOINSTYLE
280
     0
  9
$LWDISPLAY
290
     1
  9
$INSUNITS
 70
     4
  9
$HYPERLINKBASE
  1

  9
$STYLESHEET
  1

  9
$XEDIT
290
     1
  9
$CEPSNTYPE
380
     0
  9
$PSTYLEMODE
290
     1
  9
$FINGERPRINTGUID
  2
{84F25DE1-CDA6-8449-B6E2-378B96DA1062}
  9
$VERSIONGUID
  2
{746C6B60-E90C-F842-9AEC-FECA6099F0C1}
  9
$EXTNAMES
290
     1
  9
$PSVPSCALE
 40
0.0
  9
$OLESTARTUP
290
     0
  9
$SORTENTS
280
   127
  9
$INDEXCTL
280
     0
  9
$HIDETEXT
280
     1
  9
$XCLIPFRAME
280
     2
  9
$HALOGAP
280
     0
  9
$OBSCOLOR
 70
   257
  9
$OBSLTYPE
280
     0
  9
$INTERSECTIONDISPLAY
280
     0
  9
$INTERSECTIONCOLOR
 70
   257
  9
$DIMASSOC
280
     2
  9
$PROJECTNAME
  1

  9
$CAMERADISPLAY
290
     0
  9
$LENSLENGTH
 40
50.0
  9
$CAMERAHEIGHT
 40
0.0
  9
$STEPSPERSEC
 40
2.0
  9
$STEPSIZE
 40
6.0
  9
$3DDWFPREC
 40
2.0
  9
$PSOLWIDTH
 40
0.25
  9
$PSOLHEIGHT
 40
4.0
  9
$LOFTANG1
 40
1.570796326794896
  9
$LOFTANG2
 40
1.570796326794896
  9
$LOFTMAG1
 40
0.0
  9
$LOFTMAG2
 40
0.0
  9
$LOFTPARAM
 70
     7
  9
$LOFTNORMALS
280
     1
  9
$LATITUDE
 40
37.795
  9
$LONGITUDE
 40
-122.394
  9
$NORTHDIRECTION
 40
0.0
  9
$TIMEZONE
 70
 -8000
  9
$LIGHTGLYPHDISPLAY
280
     1
  9
$TILEMODELIGHTSYNCH
280
     1
  9
$CMATERIAL
347
11
  9
$SOLIDHIST
280
     0
  9
$SHOWHIST
280
     1
  9
$DWFFRAME
280
     2
  9
$DGNFRAME
280
     0
  9
$REALWORLDSCALE
290
     1
  9
$INTERFERECOLOR
 62
     1
  9
$INTERFEREOBJVS
345
33
  9
$INTERFEREVPVS
346
30
  9
$CSHADOW
280
     0
  9
$SHADOWPLANELOCATION
 40
0.0
  0
ENDSEC
  0
SECTION
  2
CLASSES
  0
CLASS
  1
ACDBDICTIONARYWDFLT
  2
AcDbDictionaryWithDefault
  3
ObjectDBX Classes
 90
        0
 91
        1
280
     0
281
     0
  0
CLASS
  1
MATERIAL
  2
AcDbMaterial
  3
ObjectDBX Classes
 90
     1153
 91
        3
280
     0
281
     0
  0
CLASS
  1
VISUALSTYLE
  2
AcDbVisualStyle
  3
ObjectDBX Classes
 90
     4095
 91
       24
280
     0
281
     0
  0
CLASS
  1
SCALE
  2
AcDbScale
  3
ObjectDBX Classes
 90
     1153
 91
       17
280
     0
281
     0
  0
CLASS
  1
TABLESTYLE
  2
AcDbTableStyle
  3
ObjectDBX Classes
 90
     4095
 91
        1
280
     0
281
     0
  0
CLASS
  1
MLEADERSTYLE
  2
AcDbMLeaderStyle
  3
ACDB_MLEADERSTYLE_CLASS
 90
     4095
 91
        1
280
     0
281
     0
  0
CLASS
  1
ACDBSECTIONVIEWSTYLE
  2
AcDbSectionViewStyle
  3
ObjectDBX Classes
 90
     1025
 91
        1
280
     0
281
     0
  0
CLASS
  1
ACDBDETAILVIEWSTYLE
  2
AcDbDetailViewStyle
  3
ObjectDBX Classes
 90
     1025
 91
        1
280
     0
281
     0
  0
CLASS
  1
DICTIONARYVAR
  2
AcDbDictionaryVar
  3
ObjectDBX Classes
 90
        0
 91
        5
280
     0
281
     0
  0
CLASS
  1
CELLSTYLEMAP
  2
AcDbCellStyleMap
  3
ObjectDBX Classes
 90
     1152
 91
        1
280
     0
281
     0
  0
ENDSEC
  0
SECTION
  2
TABLES
  0
TABLE
  2
VPORT
  5
8
330
0
100
AcDbSymbolTable
 70
     1
  0
VPORT
  5
57
330
8
100
AcDbSymbolTableRecord
100
AcDbViewportTableRecord
  2
*Active
 70
     0
 10
0.0
 20
0.0
 11
1.0
 21
1.0
 12
0.0
 22
0.0
 13
0.0
 23
0.0
 14
1.0
 24
1.0
 15
0.0
 25
0.0
 16
0.0
 26
0.0
 36
1.0
 17
88.39976108901129
 27
152.8741294331894
 37
0.0
 40
183.9321527098136
 41
0.8734245949187366
 42
50.0
 43
0.0
 44
0.0
 50
0.0
 51
0.0
 71
     0
 72
   100
 73
     1
 74
     1
 75
     0
 76
     0
 77
     0
 78
     0
281
     0
 65
     1
110
0.0
120
0.0
130
0.0
111
1.0
121
0.0
131
0.0
112
0.0
122
1.0
132
0.0
 79
     0
146
0.0
 60
     3
 61
     5
292
     1
282
     1
141
0.0
142
0.0
 63
   250
421
  3355443
  0
ENDTAB
  0
TABLE
  2
LTYPE
  5
5
330
0
100
AcDbSymbolTable
 70
     7
  0
LTYPE
  5
5B
330
5
100
AcDbSymbolTableRecord
100
AcDbLinetypeTableRecord
  2
ByBlock
 70
     0
  3

 72
    65
 73
     0
 40
0.0
  0
LTYPE
  5
5C
330
5
100
AcDbSymbolTableRecord
100
AcDbLinetypeTableRecord
  2
ByLayer
 70
     0
  3

 72
    65
 73
     0
 40
0.0
  0
LTYPE
  5
5D
330
5
100
AcDbSymbolTableRecord
100
AcDbLinetypeTableRecord
  2
Continuous
 70
     0
  3
Solid line
 72
    65
 73
     0
 40
0.0
  0
LTYPE
  5
114
330
5
100
AcDbSymbolTableRecord
100
AcDbLinetypeTableRecord
  2
AI-Linetype-0
 70
     0
  3
Adobe Illustrator Linetype No. 0
 72
    65
 73
     4
 40
8.819444442239584
 49
7.055555553791666
 74
     0
 49
-0.7055555553791667
 74
     0
 49
0.3527777776895833
 74
     0
 49
-0.7055555553791667
 74
     0
  0
LTYPE
  5
116
330
5
100
AcDbSymbolTableRecord
100
AcDbLinetypeTableRecord
  2
AI-Linetype-1
 70
     0
  3
Adobe Illustrator Linetype No. 1
 72
    65
 73
     4
 40
8.819444442239584
 49
7.055555553791666
 74
     0
 49
-0.7055555553791667
 74
     0
 49
0.3527777776895833
 74
     0
 49
-0.7055555553791667
 74
     0
  0
LTYPE
  5
118
330
5
100
AcDbSymbolTableRecord
100
AcDbLinetypeTableRecord
  2
AI-Linetype-2
 70
     0
  3
Adobe Illustrator Linetype No. 2
 72
    65
 73
     4
 40
8.819444442239584
 49
7.055555553791666
 74
     0
 49
-0.7055555553791667
 74
     0
 49
0.3527777776895833
 74
     0
 49
-0.7055555553791667
 74
     0
  0
LTYPE
  5
11A
330
5
100
AcDbSymbolTableRecord
100
AcDbLinetypeTableRecord
  2
AI-Linetype-3
 70
     0
  3
Adobe Illustrator Linetype No. 3
 72
    65
 73
     4
 40
8.819444442239584
 49
7.055555553791666
 74
     0
 49
-0.7055555553791667
 74
     0
 49
0.3527777776895833
 74
     0
 49
-0.7055555553791667
 74
     0
  0
LTYPE
  5
11C
330
5
100
AcDbSymbolTableRecord
100
AcDbLinetypeTableRecord
  2
AI-Linetype-4
 70
     0
  3
Adobe Illustrator Linetype No. 4
 72
    65
 73
     4
 40
8.819444442239584
 49
7.055555553791666
 74
     0
 49
-0.7055555553791667
 74
     0
 49
0.3527777776895833
 74
     0
 49
-0.7055555553791667
 74
     0
  0
LTYPE
  5
1B0
330
5
100
AcDbSymbolTableRecord
100
AcDbLinetypeTableRecord
  2
AI-Linetype-5
 70
     0
  3
Adobe Illustrator Linetype No. 5
 72
    65
 73
     4
 40
8.819444442239584
 49
7.055555553791666
 74
     0
 49
-0.7055555553791667
 74
     0
 49
0.3527777776895833
 74
     0
 49
-0.7055555553791667
 74
     0
  0
ENDTAB
  0
TABLE
  2
LAYER
  5
2
330
0
100
AcDbSymbolTable
 70
     6
  0
LAYER
  5
54
330
2
100
AcDbSymbolTableRecord
100
AcDbLayerTableRecord
  2
0
 70
     0
 62
     7
  6
Continuous
370
    -3
390
F
347
21
348
0
  0
LAYER
  5
78
330
2
100
AcDbSymbolTableRecord
100
AcDbLayerTableRecord
  2
grau 10%
 70
     5
 62
     7
  6
Continuous
370
     0
390
F
347
21
348
0
  0
LAYER
  5
7D
330
2
100
AcDbSymbolTableRecord
100
AcDbLayerTableRecord
  2
Ebene 5
 70
     5
 62
     7
  6
Continuous
370
     0
390
F
347
21
348
0
  0
LAYER
  5
C9
330
2
100
AcDbSymbolTableRecord
100
AcDbLayerTableRecord
  2
Standardebene
 70
     0
 62
     7
  6
Continuous
370
     0
390
F
347
21
348
0
  0
LAYER
  5
1B1
330
2
100
AcDbSymbolTableRecord
100
AcDbLayerTableRecord
  2
Text
 70
     5
 62
     7
  6
Continuous
370
     0
390
F
347
21
348
0
  0
LAYER
  5
1B8
330
2
100
AcDbSymbolTableRecord
100
AcDbLayerTableRecord
  2
Bemaßung
 70
     5
 62
     7
  6
Continuous
370
     0
390
F
347
21
348
0
  0
ENDTAB
  0
TABLE
  2
STYLE
  5
3
330
0
100
AcDbSymbolTable
 70
     2
  0
STYLE
  5
55
330
3
100
AcDbSymbolTableRecord
100
AcDbTextStyleTableRecord
  2
Standard
 70
     0
 40
0.0
 41
1.0
 50
0.0
 71
     0
 42
0.2
  3
txt
  4

  0
STYLE
  5
5A
330
3
100
AcDbSymbolTableRecord
100
AcDbTextStyleTableRecord
  2
Annotative
 70
     0
 40
0.0
 41
1.0
 50
0.0
 71
     0
 42
0.2
  3
txt
  4

1001
AcadAnnotative
1000
AnnotativeData
1002
{
1070
     1
1070
     1
1002
}
  0
ENDTAB
  0
TABLE
  2
VIEW
  5
6
330
0
100
AcDbSymbolTable
 70
     0
  0
ENDTAB
  0
TABLE
  2
UCS
  5
7
330
0
100
AcDbSymbolTable
 70
     0
  0
ENDTAB
  0
TABLE
  2
APPID
  5
9
330
0
100
AcDbSymbolTable
 70
     2
  0
APPID
  5
56
330
9
100
AcDbSymbolTableRecord
100
AcDbRegAppTableRecord
  2
ACAD
 70
     0
  0
APPID
  5
5E
330
9
100
AcDbSymbolTableRecord
100
AcDbRegAppTableRecord
  2
AcadAnnotative
 70
     0
  0
ENDTAB
  0
TABLE
  2
DIMSTYLE
  5
A
330
0
100
AcDbSymbolTable
 70
     2
100
AcDbDimStyleTable
 71
     0
  0
DIMSTYLE
105
58
330
A
100
AcDbSymbolTableRecord
100
AcDbDimStyleTableRecord
  2
Standard
 70
     0
340
55
  0
DIMSTYLE
105
59
330
A
100
AcDbSymbolTableRecord
100
AcDbDimStyleTableRecord
  2
Annotative
 70
     0
340
55
1001
AcadAnnotative
1000
AnnotativeData
1002
{
1070
     1
1070
     1
1002
}
  0
ENDTAB
  0
TABLE
  2
BLOCK_RECORD
  5
1
330
0
100
AcDbSymbolTable
 70
     1
  0
BLOCK_RECORD
  5
70
330
1
100
AcDbSymbolTableRecord
100
AcDbBlockTableRecord
  2
*Model_Space
340
73
 70
     0
280
     1
281
     0
  0
BLOCK_RECORD
  5
6C
330
1
100
AcDbSymbolTableRecord
100
AcDbBlockTableRecord
  2
*Paper_Space
340
6F
 70
     0
280
     1
281
     0
  0
BLOCK_RECORD
  5
74
330
1
100
AcDbSymbolTableRecord
100
AcDbBlockTableRecord
  2
*Paper_Space0
340
77
 70
     0
280
     1
281
     0
  0
ENDTAB
  0
ENDSEC
  0
SECTION
  2
BLOCKS
  0
BLOCK
  5
71
330
70
100
AcDbEntity
  8
0
100
AcDbBlockBegin
  2
*Model_Space
 70
     0
 10
0.0
 20
0.0
 30
0.0
  3
*Model_Space
  1

  0
ENDBLK
  5
72
330
70
100
AcDbEntity
  8
0
100
AcDbBlockEnd
  0
BLOCK
  5
6D
330
6C
100
AcDbEntity
 67
     1
  8
0
100
AcDbBlockBegin
  2
*Paper_Space
 70
     0
 10
0.0
 20
0.0
 30
0.0
  3
*Paper_Space
  1

  0
ENDBLK
  5
6E
330
6C
100
AcDbEntity
 67
     1
  8
0
100
AcDbBlockEnd
  0
BLOCK
  5
75
330
74
100
AcDbEntity
 67
     1
  8
0
100
AcDbBlockBegin
  2
*Paper_Space0
 70
     0
 10
0.0
 20
0.0
 30
0.0
  3
*Paper_Space0
  1

  0
ENDBLK
  5
76
330
74
100
AcDbEntity
 67
     1
  8
0
100
AcDbBlockEnd
  0
ENDSEC
  0
SECTION
  2
ENTITIES
  0
SPLINE
  5
79
330
70
100
AcDbEntity
  8
grau 10%
100
AcDbSpline
210
0.0
220
0.0
230
1.0
 70
    11
 71
     3
 72
   185
 73
   181
 74
     0
 42
0.0000000001
 43
0.0000000001
 40
0.0
 40
0.0
 40
0.0
 40
0.0
 40
1.0
 40
1.0
 40
1.0
 40
2.0
 40
2.0
 40
2.0
 40
3.0
 40
3.0
 40
3.0
 40
4.0
 40
4.0
 40
4.0
 40
5.0
 40
5.0
 40
5.0
 40
6.0
 40
6.0
 40
6.0
 40
7.0
 40
7.0
 40
7.0
 40
8.0
 40
8.0
 40
8.0
 40
9.0
 40
9.0
 40
9.0
 40
10.0
 40
10.0
 40
10.0
 40
11.0
 40
11.0
 40
11.0
 40
12.0
 40
12.0
 40
12.0
 40
13.0
 40
13.0
 40
13.0
 40
14.0
 40
14.0
 40
14.0
 40
15.0
 40
15.0
 40
15.0
 40
16.0
 40
16.0
 40
16.0
 40
17.0
 40
17.0
 40
17.0
 40
18.0
 40
18.0
 40
18.0
 40
19.0
 40
19.0
 40
19.0
 40
20.0
 40
20.0
 40
20.0
 40
21.0
 40
21.0
 40
21.0
 40
22.0
 40
22.0
 40
22.0
 40
23.0
 40
23.0
 40
23.0
 40
24.0
 40
24.0
 40
24.0
 40
25.0
 40
25.0
 40
25.0
 40
26.0
 40
26.0
 40
26.0
 40
27.0
 40
27.0
 40
27.0
 40
28.0
 40
28.0
 40
28.0
 40
29.0
 40
29.0
 40
29.0
 40
30.0
 40
30.0
 40
30.0
 40
31.0
 40
31.0
 40
31.0
 40
32.0
 40
32.0
 40
32.0
 40
33.0
 40
33.0
 40
33.0
 40
34.0
 40
34.0
 40
34.0
 40
35.0
 40
35.0
 40
35.0
 40
36.0
 40
36.0
 40
36.0
 40
37.0
 40
37.0
 40
37.0
 40
38.0
 40
38.0
 40
38.0
 40
39.0
 40
39.0
 40
39.0
 40
40.0
 40
40.0
 40
40.0
 40
41.0
 40
41.0
 40
41.0
 40
42.0
 40
42.0
 40
42.0
 40
43.0
 40
43.0
 40
43.0
 40
44.0
 40
44.0
 40
44.0
 40
45.0
 40
45.0
 40
45.0
 40
46.0
 40
46.0
 40
46.0
 40
47.0
 40
47.0
 40
47.0
 40
48.0
 40
48.0
 40
48.0
 40
49.0
 40
49.0
 40
49.0
 40
50.0
 40
50.0
 40
50.0
 40
51.0
 40
51.0
 40
51.0
 40
52.0
 40
52.0
 40
52.0
 40
53.0
 40
53.0
 40
53.0
 40
54.0
 40
54.0
 40
54.0
 40
55.0
 40
55.0
 40
55.0
 40
56.0
 40
56.0
 40
56.0
 40
57.0
 40
57.0
 40
57.0
 40
58.0
 40
58.0
 40
58.0
 40
59.0
 40
59.0
 40
59.0
 40
60.0
 40
60.0
 40
60.0
 40
60.0
 10
81.72333374839739
 20
107.7195275296237
 30
0.0
 10
81.72333374839739
 20
107.7195275296237
 30
0.0
 10
81.70714124881049
 20
147.5825334570781
 30
0.0
 10
81.70714124881049
 20
147.5825334570781
 30
0.0
 10
81.70714124881049
 20
147.5825334570781
 30
0.0
 10
87.54416693322889
 20
147.6447281777136
 30
0.0
 10
87.54416693322889
 20
147.6447281777136
 30
0.0
 10
87.54416693322889
 20
147.6447281777136
 30
0.0
 10
87.59274443198959
 20
154.2255505098228
 30
0.0
 10
87.59274443198959
 20
154.2255505098228
 30
0.0
 10
87.59274443198959
 20
154.2255505098228
 30
0.0
 10
81.67475831291474
 20
154.209358010236
 30
0.0
 10
81.67475831291474
 20
154.209358010236
 30
0.0
 10
81.67475831291474
 20
154.209358010236
 30
0.0
 10
81.69094874922361
 20
186.6857666199953
 30
0.0
 10
81.69094874922361
 20
186.6857666199953
 30
0.0
 10
81.69094874922361
 20
186.6857666199953
 30
0.0
 10
81.07651570934354
 20
187.2679863335067
 30
0.0
 10
81.07651570934354
 20
187.2679863335067
 30
0.0
 10
81.07651570934354
 20
187.2679863335067
 30
0.0
 10
80.67240877520871
 20
187.2032163351591
 30
0.0
 10
80.67240877520871
 20
187.2032163351591
 30
0.0
 10
80.67240877520871
 20
187.2032163351591
 30
0.0
 10
80.70461942426836
 20
200.4292832832259
 30
0.0
 10
80.70461942426836
 20
200.4292832832259
 30
0.0
 10
80.70461942426836
 20
200.4292832832259
 30
0.0
 10
79.62130741313567
 20
200.4454707195434
 30
0.0
 10
79.62130741313567
 20
200.4454707195434
 30
0.0
 10
79.62130741313567
 20
200.4454707195434
 30
0.0
 10
79.57290831344
 20
200.7041979351649
 30
0.0
 10
79.57290831344
 20
200.7041979351649
 30
0.0
 10
79.57290831344
 20
200.7041979351649
 30
0.0
 10
79.33037158722472
 20
200.9143527275491
 30
0.0
 10
79.33037158722472
 20
200.9143527275491
 30
0.0
 10
79.33037158722472
 20
200.9143527275491
 30
0.0
 10
68.33534686773117
 20
200.9143527275491
 30
0.0
 10
68.33534686773117
 20
200.9143527275491
 30
0.0
 10
68.33534686773117
 20
200.9143527275491
 30
0.0
 10
68.09281387186577
 20
200.6556204364042
 30
0.0
 10
68.09281387186577
 20
200.6556204364042
 30
0.0
 10
68.09281387186577
 20
200.6556204364042
 30
0.0
 10
68.07679604099401
 20
200.4130857203695
 30
0.0
 10
68.07679604099401
 20
200.4130857203695
 30
0.0
 10
68.07679604099401
 20
200.4130857203695
 30
0.0
 10
62.28817146645191
 20
200.4454707195434
 30
0.0
 10
62.28817146645191
 20
200.4454707195434
 30
0.0
 10
62.28817146645191
 20
200.4454707195434
 30
0.0
 10
62.25596285616251
 20
198.5213854908531
 30
0.0
 10
62.25596285616251
 20
198.5213854908531
 30
0.0
 10
62.25596285616251
 20
198.5213854908531
 30
0.0
 10
61.8678720327302
 20
199.2004121401963
 30
0.0
 10
61.8678720327302
 20
199.2004121401963
 30
0.0
 10
61.8678720327302
 20
199.2004121401963
 30
0.0
 10
59.26458376581228
 20
199.2166046397832
 30
0.0
 10
59.26458376581228
 20
199.2166046397832
 30
0.0
 10
59.26458376581228
 20
199.2166046397832
 30
0.0
 10
58.87649442972541
 20
198.5213854908531
 30
0.0
 10
58.87649442972541
 20
198.5213854908531
 30
0.0
 10
58.87649442972541
 20
198.5213854908531
 30
0.0
 10
58.84428433209057
 20
197.4382519073749
 30
0.0
 10
58.84428433209057
 20
197.4382519073749
 30
0.0
 10
58.84428433209057
 20
197.4382519073749
 30
0.0
 10
58.73093683498231
 20
197.2119096909272
 30
0.0
 10
58.73093683498231
 20
197.2119096909272
 30
0.0
 10
58.73093683498231
 20
197.2119096909272
 30
0.0
 10
58.50459461853455
 20
197.1147546934058
 30
0.0
 10
58.50459461853455
 20
197.1147546934058
 30
0.0
 10
58.50459461853455
 20
197.1147546934058
 30
0.0
 10
52.19869200163375
 20
197.1147546934058
 30
0.0
 10
52.19869200163375
 20
197.1147546934058
 30
0.0
 10
52.19869200163375
 20
197.1147546934058
 30
0.0
 10
51.51966665378674
 20
196.564915262989
 30
0.0
 10
51.51966665378674
 20
196.564915262989
 30
0.0
 10
51.51966665378674
 20
196.564915262989
 30
0.0
 10
49.93509344827185
 20
196.564915262989
 30
0.0
 10
49.93509344827185
 20
196.564915262989
 30
0.0
 10
49.93509344827185
 20
196.564915262989
 30
0.0
 10
49.35304540756558
 20
197.0661771946452
 30
0.0
 10
49.35304540756558
 20
197.0661771946452
 30
0.0
 10
49.35304540756558
 20
197.0661771946452
 30
0.0
 10
46.66897221055497
 20
197.1147546934058
 30
0.0
 10
46.66897221055497
 20
197.1147546934058
 30
0.0
 10
46.66897221055497
 20
197.1147546934058
 30
0.0
 10
46.29707270775216
 20
196.9855674744795
 30
0.0
 10
46.29707270775216
 20
196.9855674744795
 30
0.0
 10
46.29707270775216
 20
196.9855674744795
 30
0.0
 10
46.0869229908913
 20
196.6620702605104
 30
0.0
 10
46.0869229908913
 20
196.6620702605104
 30
0.0
 10
46.0869229908913
 20
196.6620702605104
 30
0.0
 10
46.0869229908913
 20
191.196766511053
 30
0.0
 10
46.0869229908913
 20
191.196766511053
 30
0.0
 10
46.0869229908913
 20
191.196766511053
 30
0.0
 10
46.18390276623179
 20
190.8088520765051
 30
0.0
 10
46.18390276623179
 20
190.8088520765051
 30
0.0
 10
46.18390276623179
 20
190.8088520765051
 30
0.0
 10
46.42643631556293
 20
190.5663221745806
 30
0.0
 10
46.42643631556293
 20
190.5663221745806
 30
0.0
 10
46.42643631556293
 20
190.5663221745806
 30
0.0
 10
49.36906151826809
 20
190.4853548625359
 30
0.0
 10
49.36906151826809
 20
190.4853548625359
 30
0.0
 10
49.36906151826809
 20
190.4853548625359
 30
0.0
 10
49.93509344827185
 20
191.1161567908873
 30
0.0
 10
49.93509344827185
 20
191.1161567908873
 30
0.0
 10
49.93509344827185
 20
191.1161567908873
 30
0.0
 10
51.5358578518774
 20
191.1161567908873
 30
0.0
 10
51.5358578518774
 20
191.1161567908873
 30
0.0
 10
51.5358578518774
 20
191.1161567908873
 30
0.0
 10
52.10171339299677
 20
190.5501248608835
 30
0.0
 10
52.10171339299677
 20
190.5501248608835
 30
0.0
 10
52.10171339299677
 20
190.5501248608835
 30
0.0
 10
58.27825240208681
 20
190.5501248608835
 30
0.0
 10
58.27825240208681
 20
190.5501248608835
 30
0.0
 10
58.27825240208681
 20
190.5501248608835
 30
0.0
 10
58.60174961605593
 20
190.5015473621228
 30
0.0
 10
58.60174961605593
 20
190.5015473621228
 30
0.0
 10
58.60174961605593
 20
190.5015473621228
 30
0.0
 10
58.89268544196687
 20
190.2590126460882
 30
0.0
 10
58.89268544196687
 20
190.2590126460882
 30
0.0
 10
58.89268544196687
 20
190.2590126460882
 30
0.0
 10
58.89268544196687
 20
189.2888737819496
 30
0.0
 10
58.89268544196687
 20
189.2888737819496
 30
0.0
 10
58.89268544196687
 20
189.2888737819496
 30
0.0
 10
59.28077776295758
 20
188.4482749145062
 30
0.0
 10
59.28077776295758
 20
188.4482749145062
 30
0.0
 10
59.28077776295758
 20
188.4482749145062
 30
0.0
 10
61.8678720327302
 20
188.3835049161586
 30
0.0
 10
61.8678720327302
 20
188.3835049161586
 30
0.0
 10
61.8678720327302
 20
188.3835049161586
 30
0.0
 10
62.25596285616251
 20
189.1758790626101
 30
0.0
 10
62.25596285616251
 20
189.1758790626101
 30
0.0
 10
62.25596285616251
 20
189.1758790626101
 30
0.0
 10
62.3205564656257
 20
187.2679863335067
 30
0.0
 10
62.3205564656257
 20
187.2679863335067
 30
0.0
 10
62.3205564656257
 20
187.2679863335067
 30
0.0
 10
66.50809913657036
 20
187.2194088347461
 30
0.0
 10
66.50809913657036
 20
187.2194088347461
 30
0.0
 10
66.50809913657036
 20
187.2194088347461
 30
0.0
 10
66.02302970450107
 20
186.6533769047423
 30
0.0
 10
66.02302970450107
 20
186.6533769047423
 30
0.0
 10
66.02302970450107
 20
186.6533769047423
 30
0.0
 10
66.00697831602168
 20
154.2823830083729
 30
0.0
 10
66.00697831602168
 20
154.2823830083729
 30
0.0
 10
66.00697831602168
 20
154.2823830083729
 30
0.0
 10
64.79430473584845
 20
154.2011030104465
 30
0.0
 10
64.79430473584845
 20
154.2011030104465
 30
0.0
 10
64.79430473584845
 20
154.2011030104465
 30
0.0
 10
64.81049723543534
 20
147.6933056764743
 30
0.0
 10
64.81049723543534
 20
147.6933056764743
 30
0.0
 10
64.81049723543534
 20
147.6933056764743
 30
0.0
 10
66.00697831602168
 20
147.6526694075311
 30
0.0
 10
66.00697831602168
 20
147.6526694075311
 30
0.0
 10
66.00697831602168
 20
147.6526694075311
 30
0.0
 10
66.03026164876101
 20
120.2596835985865
 30
0.0
 10
66.03026164876101
 20
120.2596835985865
 30
0.0
 10
66.03026164876101
 20
120.2596835985865
 30
0.0
 10
66.64159024427583
 20
118.1577983744323
 30
0.0
 10
65.95116887300107
 20
116.1665471931803
 30
0.0
 10
65.95116887300107
 20
116.1665471931803
 30
0.0
 10
65.97787415009753
 20
109.7373105337013
 30
0.0
 10
65.97787415009753
 20
109.7373105337013
 30
0.0
 10
65.97787415009753
 20
109.7373105337013
 30
0.0
 10
66.16357636758209
 20
108.9676905533359
 30
0.0
 10
66.16357636758209
 20
108.9676905533359
 30
0.0
 10
66.16357636758209
 20
108.9676905533359
 30
0.0
 10
66.29639719752688
 20
107.852489470676
 30
0.0
 10
66.29639719752688
 20
107.852489470676
 30
0.0
 10
66.29639719752688
 20
107.852489470676
 30
0.0
 10
66.34959608505856
 20
106.0207614618517
 30
0.0
 10
66.34959608505856
 20
106.0207614618517
 30
0.0
 10
66.34959608505856
 20
106.0207614618517
 30
0.0
 10
65.6061522151365
 20
105.4361055291964
 30
0.0
 10
66.40265553895492
 20
104.7195406617152
 30
0.0
 10
66.40265553895492
 20
104.7195406617152
 30
0.0
 10
81.08462959802542
 20
104.7195406617152
 30
0.0
 10
81.08462959802542
 20
104.7195406617152
 30
0.0
 10
81.08462959802542
 20
104.7195406617152
 30
0.0
 10
82.25267679044828
 20
104.931736489635
 30
0.0
 10
81.50940930941061
 20
105.8877642430225
 30
0.0
 10
81.50940930941061
 20
105.8877642430225
 30
0.0
 10
81.72333374839739
 20
107.7195275296237
 30
0.0
 10
81.72333374839739
 20
107.7195275296237
 30
0.0
  0
HATCH
  5
7A
330
70
100
AcDbEntity
  8
grau 10%
 62
   255
440
 33554687
100
AcDbHatch
 10
0.0
 20
0.0
 30
0.0
210
0.0
220
0.0
230
1.0
  2
SOLID
 70
     1
 71
     1
 91
        1
 92
        1
 93
        1
 72
     4
 94
        3
 73
     0
 74
     0
 95
      185
 96
      181
 40
0.0
 40
0.0
 40
0.0
 40
0.0
 40
1.0
 40
1.0
 40
1.0
 40
2.0
 40
2.0
 40
2.0
 40
3.0
 40
3.0
 40
3.0
 40
4.0
 40
4.0
 40
4.0
 40
5.0
 40
5.0
 40
5.0
 40
6.0
 40
6.0
 40
6.0
 40
7.0
 40
7.0
 40
7.0
 40
8.0
 40
8.0
 40
8.0
 40
9.0
 40
9.0
 40
9.0
 40
10.0
 40
10.0
 40
10.0
 40
11.0
 40
11.0
 40
11.0
 40
12.0
 40
12.0
 40
12.0
 40
13.0
 40
13.0
 40
13.0
 40
14.0
 40
14.0
 40
14.0
 40
15.0
 40
15.0
 40
15.0
 40
16.0
 40
16.0
 40
16.0
 40
17.0
 40
17.0
 40
17.0
 40
18.0
 40
18.0
 40
18.0
 40
19.0
 40
19.0
 40
19.0
 40
20.0
 40
20.0
 40
20.0
 40
21.0
 40
21.0
 40
21.0
 40
22.0
 40
22.0
 40
22.0
 40
23.0
 40
23.0
 40
23.0
 40
24.0
 40
24.0
 40
24.0
 40
25.0
 40
25.0
 40
25.0
 40
26.0
 40
26.0
 40
26.0
 40
27.0
 40
27.0
 40
27.0
 40
28.0
 40
28.0
 40
28.0
 40
29.0
 40
29.0
 40
29.0
 40
30.0
 40
30.0
 40
30.0
 40
31.0
 40
31.0
 40
31.0
 40
32.0
 40
32.0
 40
32.0
 40
33.0
 40
33.0
 40
33.0
 40
34.0
 40
34.0
 40
34.0
 40
35.0
 40
35.0
 40
35.0
 40
36.0
 40
36.0
 40
36.0
 40
37.0
 40
37.0
 40
37.0
 40
38.0
 40
38.0
 40
38.0
 40
39.0
 40
39.0
 40
39.0
 40
40.0
 40
40.0
 40
40.0
 40
41.0
 40
41.0
 40
41.0
 40
42.0
 40
42.0
 40
42.0
 40
43.0
 40
43.0
 40
43.0
 40
44.0
 40
44.0
 40
44.0
 40
45.0
 40
45.0
 40
45.0
 40
46.0
 40
46.0
 40
46.0
 40
47.0
 40
47.0
 40
47.0
 40
48.0
 40
48.0
 40
48.0
 40
49.0
 40
49.0
 40
49.0
 40
50.0
 40
50.0
 40
50.0
 40
51.0
 40
51.0
 40
51.0
 40
52.0
 40
52.0
 40
52.0
 40
53.0
 40
53.0
 40
53.0
 40
54.0
 40
54.0
 40
54.0
 40
55.0
 40
55.0
 40
55.0
 40
56.0
 40
56.0
 40
56.0
 40
57.0
 40
57.0
 40
57.0
 40
58.0
 40
58.0
 40
58.0
 40
59.0
 40
59.0
 40
59.0
 40
60.0
 40
60.0
 40
60.0
 40
60.0
 10
81.72333374839739
 20
107.7195275296237
 10
81.72333374839739
 20
107.7195275296237
 10
81.70714124881049
 20
147.5825334570781
 10
81.70714124881049
 20
147.5825334570781
 10
81.70714124881049
 20
147.5825334570781
 10
87.54416693322889
 20
147.6447281777136
 10
87.54416693322889
 20
147.6447281777136
 10
87.54416693322889
 20
147.6447281777136
 10
87.59274443198959
 20
154.2255505098228
 10
87.59274443198959
 20
154.2255505098228
 10
87.59274443198959
 20
154.2255505098228
 10
81.67475831291474
 20
154.209358010236
 10
81.67475831291474
 20
154.209358010236
 10
81.67475831291474
 20
154.209358010236
 10
81.69094874922361
 20
186.6857666199953
 10
81.69094874922361
 20
186.6857666199953
 10
81.69094874922361
 20
186.6857666199953
 10
81.07651570934354
 20
187.2679863335067
 10
81.07651570934354
 20
187.2679863335067
 10
81.07651570934354
 20
187.2679863335067
 10
80.67240877520871
 20
187.2032163351591
 10
80.67240877520871
 20
187.2032163351591
 10
80.67240877520871
 20
187.2032163351591
 10
80.70461942426836
 20
200.4292832832259
 10
80.70461942426836
 20
200.4292832832259
 10
80.70461942426836
 20
200.4292832832259
 10
79.62130741313567
 20
200.4454707195434
 10
79.62130741313567
 20
200.4454707195434
 10
79.62130741313567
 20
200.4454707195434
 10
79.57290831344
 20
200.7041979351649
 10
79.57290831344
 20
200.7041979351649
 10
79.57290831344
 20
200.7041979351649
 10
79.33037158722472
 20
200.9143527275491
 10
79.33037158722472
 20
200.9143527275491
 10
79.33037158722472
 20
200.9143527275491
 10
68.33534686773117
 20
200.9143527275491
 10
68.33534686773117
 20
200.9143527275491
 10
68.33534686773117
 20
200.9143527275491
 10
68.09281387186577
 20
200.6556204364042
 10
68.09281387186577
 20
200.6556204364042
 10
68.09281387186577
 20
200.6556204364042
 10
68.07679604099401
 20
200.4130857203695
 10
68.07679604099401
 20
200.4130857203695
 10
68.07679604099401
 20
200.4130857203695
 10
62.28817146645191
 20
200.4454707195434
 10
62.28817146645191
 20
200.4454707195434
 10
62.28817146645191
 20
200.4454707195434
 10
62.25596285616251
 20
198.5213854908531
 10
62.25596285616251
 20
198.5213854908531
 10
62.25596285616251
 20
198.5213854908531
 10
61.8678720327302
 20
199.2004121401963
 10
61.8678720327302
 20
199.2004121401963
 10
61.8678720327302
 20
199.2004121401963
 10
59.26458376581228
 20
199.2166046397832
 10
59.26458376581228
 20
199.2166046397832
 10
59.26458376581228
 20
199.2166046397832
 10
58.87649442972541
 20
198.5213854908531
 10
58.87649442972541
 20
198.5213854908531
 10
58.87649442972541
 20
198.5213854908531
 10
58.84428433209057
 20
197.4382519073749
 10
58.84428433209057
 20
197.4382519073749
 10
58.84428433209057
 20
197.4382519073749
 10
58.73093683498231
 20
197.2119096909272
 10
58.73093683498231
 20
197.2119096909272
 10
58.73093683498231
 20
197.2119096909272
 10
58.50459461853455
 20
197.1147546934058
 10
58.50459461853455
 20
197.1147546934058
 10
58.50459461853455
 20
197.1147546934058
 10
52.19869200163375
 20
197.1147546934058
 10
52.19869200163375
 20
197.1147546934058
 10
52.19869200163375
 20
197.1147546934058
 10
51.51966665378674
 20
196.564915262989
 10
51.51966665378674
 20
196.564915262989
 10
51.51966665378674
 20
196.564915262989
 10
49.93509344827185
 20
196.564915262989
 10
49.93509344827185
 20
196.564915262989
 10
49.93509344827185
 20
196.564915262989
 10
49.35304540756558
 20
197.0661771946452
 10
49.35304540756558
 20
197.0661771946452
 10
49.35304540756558
 20
197.0661771946452
 10
46.66897221055497
 20
197.1147546934058
 10
46.66897221055497
 20
197.1147546934058
 10
46.66897221055497
 20
197.1147546934058
 10
46.29707270775216
 20
196.9855674744795
 10
46.29707270775216
 20
196.9855674744795
 10
46.29707270775216
 20
196.9855674744795
 10
46.0869229908913
 20
196.6620702605104
 10
46.0869229908913
 20
196.6620702605104
 10
46.0869229908913
 20
196.6620702605104
 10
46.0869229908913
 20
191.196766511053
 10
46.0869229908913
 20
191.196766511053
 10
46.0869229908913
 20
191.196766511053
 10
46.18390276623179
 20
190.8088520765051
 10
46.18390276623179
 20
190.8088520765051
 10
46.18390276623179
 20
190.8088520765051
 10
46.42643631556293
 20
190.5663221745806
 10
46.42643631556293
 20
190.5663221745806
 10
46.42643631556293
 20
190.5663221745806
 10
49.36906151826809
 20
190.4853548625359
 10
49.36906151826809
 20
190.4853548625359
 10
49.36906151826809
 20
190.4853548625359
 10
49.93509344827185
 20
191.1161567908873
 10
49.93509344827185
 20
191.1161567908873
 10
49.93509344827185
 20
191.1161567908873
 10
51.5358578518774
 20
191.1161567908873
 10
51.5358578518774
 20
191.1161567908873
 10
51.5358578518774
 20
191.1161567908873
 10
52.10171339299677
 20
190.5501248608835
 10
52.10171339299677
 20
190.5501248608835
 10
52.10171339299677
 20
190.5501248608835
 10
58.27825240208681
 20
190.5501248608835
 10
58.27825240208681
 20
190.5501248608835
 10
58.27825240208681
 20
190.5501248608835
 10
58.60174961605593
 20
190.5015473621228
 10
58.60174961605593
 20
190.5015473621228
 10
58.60174961605593
 20
190.5015473621228
 10
58.89268544196687
 20
190.2590126460882
 10
58.89268544196687
 20
190.2590126460882
 10
58.89268544196687
 20
190.2590126460882
 10
58.89268544196687
 20
189.2888737819496
 10
58.89268544196687
 20
189.2888737819496
 10
58.89268544196687
 20
189.2888737819496
 10
59.28077776295758
 20
188.4482749145062
 10
59.28077776295758
 20
188.4482749145062
 10
59.28077776295758
 20
188.4482749145062
 10
61.8678720327302
 20
188.3835049161586
 10
61.8678720327302
 20
188.3835049161586
 10
61.8678720327302
 20
188.3835049161586
 10
62.25596285616251
 20
189.1758790626101
 10
62.25596285616251
 20
189.1758790626101
 10
62.25596285616251
 20
189.1758790626101
 10
62.3205564656257
 20
187.2679863335067
 10
62.3205564656257
 20
187.2679863335067
 10
62.3205564656257
 20
187.2679863335067
 10
66.50809913657036
 20
187.2194088347461
 10
66.50809913657036
 20
187.2194088347461
 10
66.50809913657036
 20
187.2194088347461
 10
66.02302970450107
 20
186.6533769047423
 10
66.02302970450107
 20
186.6533769047423
 10
66.02302970450107
 20
186.6533769047423
 10
66.00697831602168
 20
154.2823830083729
 10
66.00697831602168
 20
154.2823830083729
 10
66.00697831602168
 20
154.2823830083729
 10
64.79430473584845
 20
154.2011030104465
 10
64.79430473584845
 20
154.2011030104465
 10
64.79430473584845
 20
154.2011030104465
 10
64.81049723543534
 20
147.6933056764743
 10
64.81049723543534
 20
147.6933056764743
 10
64.81049723543534
 20
147.6933056764743
 10
66.00697831602168
 20
147.6526694075311
 10
66.00697831602168
 20
147.6526694075311
 10
66.00697831602168
 20
147.6526694075311
 10
66.03026164876101
 20
120.2596835985865
 10
66.03026164876101
 20
120.2596835985865
 10
66.03026164876101
 20
120.2596835985865
 10
66.64159024427583
 20
118.1577983744323
 10
65.95116887300107
 20
116.1665471931803
 10
65.95116887300107
 20
116.1665471931803
 10
65.97787415009753
 20
109.7373105337013
 10
65.97787415009753
 20
109.7373105337013
 10
65.97787415009753
 20
109.7373105337013
 10
66.16357636758209
 20
108.9676905533359
 10
66.16357636758209
 20
108.9676905533359
 10
66.16357636758209
 20
108.9676905533359
 10
66.29639719752688
 20
107.852489470676
 10
66.29639719752688
 20
107.852489470676
 10
66.29639719752688
 20
107.852489470676
 10
66.34959608505856
 20
106.0207614618517
 10
66.34959608505856
 20
106.0207614618517
 10
66.34959608505856
 20
106.0207614618517
 10
65.6061522151365
 20
105.4361055291964
 10
66.40265553895492
 20
104.7195406617152
 10
66.40265553895492
 20
104.7195406617152
 10
81.08462959802542
 20
104.7195406617152
 10
81.08462959802542
 20
104.7195406617152
 10
81.08462959802542
 20
104.7195406617152
 10
82.25267679044828
 20
104.931736489635
 10
81.50940930941061
 20
105.8877642430225
 10
81.50940930941061
 20
105.8877642430225
 10
81.72333374839739
 20
107.7195275296237
 10
81.72333374839739
 20
107.7195275296237
 97
        0
 97
        1
330
79
 75
     0
 76
     1
 98
        1
 10
0.0
 20
0.0
450
        0
451
        0
460
0.0
461
0.0
452
        0
462
0.0
453
        0
470

  0
SPLINE
  5
7B
330
70
100
AcDbEntity
  8
grau 10%
100
AcDbSpline
210
0.0
220
0.0
230
1.0
 70
    11
 71
     3
 72
    95
 73
    91
 74
     0
 42
0.0000000001
 43
0.0000000001
 40
0.0
 40
0.0
 40
0.0
 40
0.0
 40
1.0
 40
1.0
 40
1.0
 40
2.0
 40
2.0
 40
2.0
 40
3.0
 40
3.0
 40
3.0
 40
4.0
 40
4.0
 40
4.0
 40
5.0
 40
5.0
 40
5.0
 40
6.0
 40
6.0
 40
6.0
 40
7.0
 40
7.0
 40
7.0
 40
8.0
 40
8.0
 40
8.0
 40
9.0
 40
9.0
 40
9.0
 40
10.0
 40
10.0
 40
10.0
 40
11.0
 40
11.0
 40
11.0
 40
12.0
 40
12.0
 40
12.0
 40
13.0
 40
13.0
 40
13.0
 40
14.0
 40
14.0
 40
14.0
 40
15.0
 40
15.0
 40
15.0
 40
16.0
 40
16.0
 40
16.0
 40
17.0
 40
17.0
 40
17.0
 40
18.0
 40
18.0
 40
18.0
 40
19.0
 40
19.0
 40
19.0
 40
20.0
 40
20.0
 40
20.0
 40
21.0
 40
21.0
 40
21.0
 40
22.0
 40
22.0
 40
22.0
 40
23.0
 40
23.0
 40
23.0
 40
24.0
 40
24.0
 40
24.0
 40
25.0
 40
25.0
 40
25.0
 40
26.0
 40
26.0
 40
26.0
 40
27.0
 40
27.0
 40
27.0
 40
28.0
 40
28.0
 40
28.0
 40
29.0
 40
29.0
 40
29.0
 40
30.0
 40
30.0
 40
30.0
 40
30.0
 10
125.7277390146404
 20
107.8483619707813
 30
0.0
 10
125.7277390146404
 20
107.8483619707813
 30
0.0
 10
125.7115465150535
 20
147.561190402067
 30
0.0
 10
125.7115465150535
 20
147.561190402067
 30
0.0
 10
125.7115465150535
 20
147.561190402067
 30
0.0
 10
131.5485721994719
 20
147.6094151230589
 30
0.0
 10
131.5485721994719
 20
147.6094151230589
 30
0.0
 10
131.5485721994719
 20
147.6094151230589
 30
0.0
 10
131.5971496982325
 20
154.1902374551682
 30
0.0
 10
131.5971496982325
 20
154.1902374551682
 30
0.0
 10
131.5971496982325
 20
154.1902374551682
 30
0.0
 10
125.6791615158797
 20
154.1740449555813
 30
0.0
 10
125.6791615158797
 20
154.1740449555813
 30
0.0
 10
125.6791615158797
 20
154.1740449555813
 30
0.0
 10
125.6953540154666
 20
186.6857666199953
 30
0.0
 10
125.6953540154666
 20
186.6857666199953
 30
0.0
 10
125.6953540154666
 20
186.6857666199953
 30
0.0
 10
125.081062086694
 20
187.2679863335067
 30
0.0
 10
125.081062086694
 20
187.2679863335067
 30
0.0
 10
125.081062086694
 20
187.2679863335067
 30
0.0
 10
127.8447231272983
 20
187.2207846680443
 30
0.0
 10
127.8447231272983
 20
187.2207846680443
 30
0.0
 10
127.8447231272983
 20
187.2207846680443
 30
0.0
 10
127.8168184057879
 20
200.4192946091
 30
0.0
 10
127.8168184057879
 20
200.4192946091
 30
0.0
 10
127.8168184057879
 20
200.4192946091
 30
0.0
 10
123.723714343545
 20
200.4192946091
 30
0.0
 10
123.723714343545
 20
200.4192946091
 30
0.0
 10
123.723714343545
 20
200.4192946091
 30
0.0
 10
123.723714343545
 20
200.6146276596723
 30
0.0
 10
123.723714343545
 20
200.6146276596723
 30
0.0
 10
123.723714343545
 20
200.6146276596723
 30
0.0
 10
123.4171151847004
 20
200.9484612622665
 30
0.0
 10
123.4171151847004
 20
200.9484612622665
 30
0.0
 10
123.4171151847004
 20
200.9484612622665
 30
0.0
 10
112.4182833052285
 20
200.9205565407562
 30
0.0
 10
112.4182833052285
 20
200.9205565407562
 30
0.0
 10
112.4182833052285
 20
200.9205565407562
 30
0.0
 10
112.1399416386318
 20
200.6704371026929
 30
0.0
 10
112.1399416386318
 20
200.6704371026929
 30
0.0
 10
112.1399416386318
 20
200.6704371026929
 30
0.0
 10
112.0841293627178
 20
200.4475521083791
 30
0.0
 10
112.0841293627178
 20
200.4475521083791
 30
0.0
 10
112.0841293627178
 20
200.4475521083791
 30
0.0
 10
108.0185419664396
 20
200.3913898875897
 30
0.0
 10
108.0185419664396
 20
200.3913898875897
 30
0.0
 10
108.0185419664396
 20
200.3913898875897
 30
0.0
 10
108.0185419664396
 20
187.2679863335067
 30
0.0
 10
108.0185419664396
 20
187.2679863335067
 30
0.0
 10
108.0185419664396
 20
187.2679863335067
 30
0.0
 10
110.5127866250283
 20
187.2194088347461
 30
0.0
 10
110.5127866250283
 20
187.2194088347461
 30
0.0
 10
110.5127866250283
 20
187.2194088347461
 30
0.0
 10
110.027717192959
 20
186.6533769047423
 30
0.0
 10
110.027717192959
 20
186.6533769047423
 30
0.0
 10
110.027717192959
 20
186.6533769047423
 30
0.0
 10
110.011559971149
 20
154.2470699537183
 30
0.0
 10
110.011559971149
 20
154.2470699537183
 30
0.0
 10
110.011559971149
 20
154.2470699537183
 30
0.0
 10
104.1421492875568
 20
154.1657899557919
 30
0.0
 10
104.1421492875568
 20
154.1657899557919
 30
0.0
 10
104.1421492875568
 20
154.1657899557919
 30
0.0
 10
104.158344418405
 20
147.6579926218196
 30
0.0
 10
104.158344418405
 20
147.6579926218196
 30
0.0
 10
104.158344418405
 20
147.6579926218196
 30
0.0
 10
110.011559971149
 20
147.6173526228564
 30
0.0
 10
110.011559971149
 20
147.6173526228564
 30
0.0
 10
110.011559971149
 20
147.6173526228564
 30
0.0
 10
110.0349844149959
 20
115.1027076190408
 30
0.0
 10
110.0349844149959
 20
115.1027076190408
 30
0.0
 10
110.0349844149959
 20
115.1027076190408
 30
0.0
 10
109.916360154981
 20
112.9124398374849
 30
0.0
 10
110.0584088588427
 20
111.0540182778871
 30
0.0
 10
110.0584088588427
 20
111.0540182778871
 30
0.0
 10
109.9874299717646
 20
107.7942811388276
 30
0.0
 10
109.9874299717646
 20
107.7942811388276
 30
0.0
 10
109.9874299717646
 20
107.7942811388276
 30
0.0
 10
110.3650080176874
 20
105.9756059074481
 30
0.0
 10
110.3650080176874
 20
105.9756059074481
 30
0.0
 10
110.3650080176874
 20
105.9756059074481
 30
0.0
 10
109.5385202609951
 20
105.4089036996837
 30
0.0
 10
110.4835060702198
 20
104.6526892745319
 30
0.0
 10
110.4835060702198
 20
104.6526892745319
 30
0.0
 10
125.1988898614657
 20
104.6526892745319
 30
0.0
 10
125.1988898614657
 20
104.6526892745319
 30
0.0
 10
125.1988898614657
 20
104.6526892745319
 30
0.0
 10
126.2851278893091
 20
105.0547527515139
 30
0.0
 10
125.4352509665468
 20
105.9518286858325
 30
0.0
 10
125.4352509665468
 20
105.9518286858325
 30
0.0
 10
125.7277390146404
 20
107.8483619707813
 30
0.0
 10
125.7277390146404
 20
107.8483619707813
 30
0.0
  0
HATCH
  5
7C
330
70
100
AcDbEntity
  8
grau 10%
 62
   255
440
 33554687
100
AcDbHatch
 10
0.0
 20
0.0
 30
0.0
210
0.0
220
0.0
230
1.0
  2
SOLID
 70
     1
 71
     1
 91
        1
 92
        1
 93
        1
 72
     4
 94
        3
 73
     0
 74
     0
 95
       95
 96
       91
 40
0.0
 40
0.0
 40
0.0
 40
0.0
 40
1.0
 40
1.0
 40
1.0
 40
2.0
 40
2.0
 40
2.0
 40
3.0
 40
3.0
 40
3.0
 40
4.0
 40
4.0
 40
4.0
 40
5.0
 40
5.0
 40
5.0
 40
6.0
 40
6.0
 40
6.0
 40
7.0
 40
7.0
 40
7.0
 40
8.0
 40
8.0
 40
8.0
 40
9.0
 40
9.0
 40
9.0
 40
10.0
 40
10.0
 40
10.0
 40
11.0
 40
11.0
 40
11.0
 40
12.0
 40
12.0
 40
12.0
 40
13.0
 40
13.0
 40
13.0
 40
14.0
 40
14.0
 40
14.0
 40
15.0
 40
15.0
 40
15.0
 40
16.0
 40
16.0
 40
16.0
 40
17.0
 40
17.0
 40
17.0
 40
18.0
 40
18.0
 40
18.0
 40
19.0
 40
19.0
 40
19.0
 40
20.0
 40
20.0
 40
20.0
 40
21.0
 40
21.0
 40
21.0
 40
22.0
 40
22.0
 40
22.0
 40
23.0
 40
23.0
 40
23.0
 40
24.0
 40
24.0
 40
24.0
 40
25.0
 40
25.0
 40
25.0
 40
26.0
 40
26.0
 40
26.0
 40
27.0
 40
27.0
 40
27.0
 40
28.0
 40
28.0
 40
28.0
 40
29.0
 40
29.0
 40
29.0
 40
30.0
 40
30.0
 40
30.0
 40
30.0
 10
125.7277390146404
 20
107.8483619707813
 10
125.7277390146404
 20
107.8483619707813
 10
125.7115465150535
 20
147.561190402067
 10
125.7115465150535
 20
147.561190402067
 10
125.7115465150535
 20
147.561190402067
 10
131.5485721994719
 20
147.6094151230589
 10
131.5485721994719
 20
147.6094151230589
 10
131.5485721994719
 20
147.6094151230589
 10
131.5971496982325
 20
154.1902374551682
 10
131.5971496982325
 20
154.1902374551682
 10
131.5971496982325
 20
154.1902374551682
 10
125.6791615158797
 20
154.1740449555813
 10
125.6791615158797
 20
154.1740449555813
 10
125.6791615158797
 20
154.1740449555813
 10
125.6953540154666
 20
186.6857666199953
 10
125.6953540154666
 20
186.6857666199953
 10
125.6953540154666
 20
186.6857666199953
 10
125.081062086694
 20
187.2679863335067
 10
125.081062086694
 20
187.2679863335067
 10
125.081062086694
 20
187.2679863335067
 10
127.8447231272983
 20
187.2207846680443
 10
127.8447231272983
 20
187.2207846680443
 10
127.8447231272983
 20
187.2207846680443
 10
127.8168184057879
 20
200.4192946091
 10
127.8168184057879
 20
200.4192946091
 10
127.8168184057879
 20
200.4192946091
 10
123.723714343545
 20
200.4192946091
 10
123.723714343545
 20
200.4192946091
 10
123.723714343545
 20
200.4192946091
 10
123.723714343545
 20
200.6146276596723
 10
123.723714343545
 20
200.6146276596723
 10
123.723714343545
 20
200.6146276596723
 10
123.4171151847004
 20
200.9484612622665
 10
123.4171151847004
 20
200.9484612622665
 10
123.4171151847004
 20
200.9484612622665
 10
112.4182833052285
 20
200.9205565407562
 10
112.4182833052285
 20
200.9205565407562
 10
112.4182833052285
 20
200.9205565407562
 10
112.1399416386318
 20
200.6704371026929
 10
112.1399416386318
 20
200.6704371026929
 10
112.1399416386318
 20
200.6704371026929
 10
112.0841293627178
 20
200.4475521083791
 10
112.0841293627178
 20
200.4475521083791
 10
112.0841293627178
 20
200.4475521083791
 10
108.0185419664396
 20
200.3913898875897
 10
108.0185419664396
 20
200.3913898875897
 10
108.0185419664396
 20
200.3913898875897
 10
108.0185419664396
 20
187.2679863335067
 10
108.0185419664396
 20
187.2679863335067
 10
108.0185419664396
 20
187.2679863335067
 10
110.5127866250283
 20
187.2194088347461
 10
110.5127866250283
 20
187.2194088347461
 10
110.5127866250283
 20
187.2194088347461
 10
110.027717192959
 20
186.6533769047423
 10
110.027717192959
 20
186.6533769047423
 10
110.027717192959
 20
186.6533769047423
 10
110.011559971149
 20
154.2470699537183
 10
110.011559971149
 20
154.2470699537183
 10
110.011559971149
 20
154.2470699537183
 10
104.1421492875568
 20
154.1657899557919
 10
104.1421492875568
 20
154.1657899557919
 10
104.1421492875568
 20
154.1657899557919
 10
104.158344418405
 20
147.6579926218196
 10
104.158344418405
 20
147.6579926218196
 10
104.158344418405
 20
147.6579926218196
 10
110.011559971149
 20
147.6173526228564
 10
110.011559971149
 20
147.6173526228564
 10
110.011559971149
 20
147.6173526228564
 10
110.0349844149959
 20
115.1027076190408
 10
110.0349844149959
 20
115.1027076190408
 10
110.0349844149959
 20
115.1027076190408
 10
109.916360154981
 20
112.9124398374849
 10
110.0584088588427
 20
111.0540182778871
 10
110.0584088588427
 20
111.0540182778871
 10
109.9874299717646
 20
107.7942811388276
 10
109.9874299717646
 20
107.7942811388276
 10
109.9874299717646
 20
107.7942811388276
 10
110.3650080176874
 20
105.9756059074481
 10
110.3650080176874
 20
105.9756059074481
 10
110.3650080176874
 20
105.9756059074481
 10
109.5385202609951
 20
105.4089036996837
 10
110.4835060702198
 20
104.6526892745319
 10
110.4835060702198
 20
104.6526892745319
 10
125.1988898614657
 20
104.6526892745319
 10
125.1988898614657
 20
104.6526892745319
 10
125.1988898614657
 20
104.6526892745319
 10
126.2851278893091
 20
105.0547527515139
 10
125.4352509665468
 20
105.9518286858325
 10
125.4352509665468
 20
105.9518286858325
 10
125.7277390146404
 20
107.8483619707813
 10
125.7277390146404
 20
107.8483619707813
 97
        0
 97
        1
330
7B
 75
     0
 76
     1
 98
        1
 10
0.0
 20
0.0
450
        0
451
        0
460
0.0
461
0.0
452
        0
462
0.0
453
        0
470

  0
LINE
  5
7E
330
70
100
AcDbEntity
  8
Ebene 5
 62
     7
370
     9
100
AcDbLine
 10
94.5759414814549
 20
104.7574768679579
 30
0.0
 11
110.8972484755377
 21
104.7574768679579
 31
0.0
  0
LINE
  5
7F
330
70
100
AcDbEntity
  8
Ebene 5
 62
     7
370
     9
100
AcDbLine
 10
94.57594148145522
 20
118.2323179757006
 30
0.0
 11
118.8250939981439
 21
118.2323179757006
 31
0.0
  0
LINE
  5
80
330
70
100
AcDbEntity
  8
Ebene 5
 62
     7
370
     9
100
AcDbLine
 10
95.98636462970286
 20
104.7574768679579
 30
0.0
 11
95.98636462970286
 21
117.9823179758769
 31
0.0
  0
LWPOLYLINE
  5
81
330
70
100
AcDbEntity
  8
Ebene 5
 62
     7
370
     9
100
AcDbPolyline
 90
        4
 70
     0
 43
0.0
 10
95.98636462970286
 20
104.7574768679579
 10
96.16739254632451
 20
106.1323577009477
 10
95.80533671308122
 20
106.1323577009477
 10
95.98636462970286
 20
104.7574768679579
  0
LINE
  5
82
330
70
100
AcDbEntity
  8
Ebene 5
 62
     7
370
     9
100
AcDbLine
 10
96.15419865743918
 20
106.1323577009477
 30
0.0
 11
96.15419865743918
 21
106.0306871454173
 31
0.0
  0
LINE
  5
83
330
70
100
AcDbEntity
  8
Ebene 5
 62
     7
370
     9
100
AcDbLine
 10
96.15419865743918
 20
106.1323577009477
 30
0.0
 11
96.15419865743918
 21
106.0306871454173
 31
0.0
  0
LINE
  5
84
330
70
100
AcDbEntity
  8
Ebene 5
 62
     7
370
     9
100
AcDbLine
 10
96.12625865744611
 20
106.1323577009477
 30
0.0
 11
96.12625865744611
 21
105.8186147843591
 31
0.0
  0
LINE
  5
85
330
70
100
AcDbEntity
  8
Ebene 5
 62
     7
370
     9
100
AcDbLine
 10
96.09831865745306
 20
106.1323577009477
 30
0.0
 11
96.09831865745306
 21
105.6063483955235
 31
0.0
  0
LINE
  5
86
330
70
100
AcDbEntity
  8
Ebene 5
 62
     7
370
     9
100
AcDbLine
 10
96.07037865746033
 20
106.1323577009477
 30
0.0
 11
96.07037865746033
 21
105.394082006688
 31
0.0
  0
LINE
  5
87
330
70
100
AcDbEntity
  8
Ebene 5
 62
     7
370
     9
100
AcDbLine
 10
96.04224462968899
 20
106.1323577009477
 30
0.0
 11
96.04224462968899
 21
105.1818156178518
 31
0.0
  0
LINE
  5
88
330
70
100
AcDbEntity
  8
Ebene 5
 62
     7
370
     9
100
AcDbLine
 10
96.01430462969592
 20
106.1323577009477
 30
0.0
 11
96.01430462969592
 21
104.9697432567935
 31
0.0
  0
LINE
  5
89
330
70
100
AcDbEntity
  8
Ebene 5
 62
     7
370
     9
100
AcDbLine
 10
95.98636462970286
 20
106.1323577009477
 30
0.0
 11
95.98636462970286
 21
104.7574768679579
 31
0.0
  0
LINE
  5
8A
330
70
100
AcDbEntity
  8
Ebene 5
 62
     7
370
     9
100
AcDbLine
 10
95.8187246297445
 20
106.1323577009477
 30
0.0
 11
95.8187246297445
 21
106.0306871454173
 31
0.0
  0
LINE
  5
8B
330
70
100
AcDbEntity
  8
Ebene 5
 62
     7
370
     9
100
AcDbLine
 10
95.8187246297445
 20
106.1323577009477
 30
0.0
 11
95.8187246297445
 21
106.0306871454173
 31
0.0
  0
LINE
  5
8C
330
70
100
AcDbEntity
  8
Ebene 5
 62
     7
370
     9
100
AcDbLine
 10
95.84666462973755
 20
106.1323577009477
 30
0.0
 11
95.84666462973755
 21
105.8186147843591
 31
0.0
  0
LINE
  5
8D
330
70
100
AcDbEntity
  8
Ebene 5
 62
     7
370
     9
100
AcDbLine
 10
95.8746046297306
 20
106.1323577009477
 30
0.0
 11
95.8746046297306
 21
105.6063483955235
 31
0.0
  0
LINE
  5
8E
330
70
100
AcDbEntity
  8
Ebene 5
 62
     7
370
     9
100
AcDbLine
 10
95.90254462972367
 20
106.1323577009477
 30
0.0
 11
95.90254462972367
 21
105.394082006688
 31
0.0
  0
LINE
  5
8F
330
70
100
AcDbEntity
  8
Ebene 5
 62
     7
370
     9
100
AcDbLine
 10
95.93048462971674
 20
106.1323577009477
 30
0.0
 11
95.93048462971674
 21
105.1818156178518
 31
0.0
  0
LINE
  5
90
330
70
100
AcDbEntity
  8
Ebene 5
 62
     7
370
     9
100
AcDbLine
 10
95.95842462970979
 20
106.1323577009477
 30
0.0
 11
95.95842462970979
 21
104.9697432567935
 31
0.0
  0
LINE
  5
91
330
70
100
AcDbEntity
  8
Ebene 5
 62
     7
370
     9
100
AcDbLine
 10
95.98636462970286
 20
106.1323577009477
 30
0.0
 11
95.98636462970286
 21
104.7574768679579
 31
0.0
  0
LWPOLYLINE
  5
92
330
70
100
AcDbEntity
  8
Ebene 5
 62
     7
370
     9
100
AcDbPolyline
 90
        4
 70
     0
 43
0.0
 10
95.98636462970286
 20
118.2323179757006
 10
95.80533671308122
 20
116.8574371427108
 10
96.16739254632451
 20
116.8574371427108
 10
95.98636462970286
 20
118.2323179757006
  0
LINE
  5
93
330
70
100
AcDbEntity
  8
Ebene 5
 62
     7
370
     9
100
AcDbLine
 10
95.8187246297445
 20
116.8574371427108
 30
0.0
 11
95.8187246297445
 21
116.9591076982406
 31
0.0
  0
LINE
  5
94
330
70
100
AcDbEntity
  8
Ebene 5
 62
     7
370
     9
100
AcDbLine
 10
95.8187246297445
 20
116.8574371427108
 30
0.0
 11
95.8187246297445
 21
116.9591076982406
 31
0.0
  0
LINE
  5
95
330
70
100
AcDbEntity
  8
Ebene 5
 62
     7
370
     9
100
AcDbLine
 10
95.84666462973755
 20
116.8574371427108
 30
0.0
 11
95.84666462973755
 21
117.1711800592988
 31
0.0
  0
LINE
  5
96
330
70
100
AcDbEntity
  8
Ebene 5
 62
     7
370
     9
100
AcDbLine
 10
95.8746046297306
 20
116.8574371427108
 30
0.0
 11
95.8746046297306
 21
117.383446448135
 31
0.0
  0
LINE
  5
97
330
70
100
AcDbEntity
  8
Ebene 5
 62
     7
370
     9
100
AcDbLine
 10
95.90254462972367
 20
116.8574371427108
 30
0.0
 11
95.90254462972367
 21
117.5957128369706
 31
0.0
  0
LINE
  5
98
330
70
100
AcDbEntity
  8
Ebene 5
 62
     7
370
     9
100
AcDbLine
 10
95.93048462971674
 20
116.8574371427108
 30
0.0
 11
95.93048462971674
 21
117.8079792258062
 31
0.0
  0
LINE
  5
99
330
70
100
AcDbEntity
  8
Ebene 5
 62
     7
370
     9
100
AcDbLine
 10
95.95842462970979
 20
116.8574371427108
 30
0.0
 11
95.95842462970979
 21
118.0200515868644
 31
0.0
  0
LINE
  5
9A
330
70
100
AcDbEntity
  8
Ebene 5
 62
     7
370
     9
100
AcDbLine
 10
95.98636462970286
 20
116.8574371427108
 30
0.0
 11
95.98636462970286
 21
118.2323179757006
 31
0.0
  0
LINE
  5
9B
330
70
100
AcDbEntity
  8
Ebene 5
 62
     7
370
     9
100
AcDbLine
 10
96.15419865743918
 20
116.8574371427108
 30
0.0
 11
96.15419865743918
 21
116.9591076982406
 31
0.0
  0
LINE
  5
9C
330
70
100
AcDbEntity
  8
Ebene 5
 62
     7
370
     9
100
AcDbLine
 10
96.15419865743918
 20
116.8574371427108
 30
0.0
 11
96.15419865743918
 21
116.9591076982406
 31
0.0
  0
LINE
  5
9D
330
70
100
AcDbEntity
  8
Ebene 5
 62
     7
370
     9
100
AcDbLine
 10
96.12625865744611
 20
116.8574371427108
 30
0.0
 11
96.12625865744611
 21
117.1711800592988
 31
0.0
  0
LINE
  5
9E
330
70
100
AcDbEntity
  8
Ebene 5
 62
     7
370
     9
100
AcDbLine
 10
96.09831865745306
 20
116.8574371427108
 30
0.0
 11
96.09831865745306
 21
117.383446448135
 31
0.0
  0
LINE
  5
9F
330
70
100
AcDbEntity
  8
Ebene 5
 62
     7
370
     9
100
AcDbLine
 10
96.07037865746033
 20
116.8574371427108
 30
0.0
 11
96.07037865746033
 21
117.5957128369706
 31
0.0
  0
LINE
  5
A0
330
70
100
AcDbEntity
  8
Ebene 5
 62
     7
370
     9
100
AcDbLine
 10
96.04224462968899
 20
116.8574371427108
 30
0.0
 11
96.04224462968899
 21
117.8079792258062
 31
0.0
  0
LINE
  5
A1
330
70
100
AcDbEntity
  8
Ebene 5
 62
     7
370
     9
100
AcDbLine
 10
96.01430462969592
 20
116.8574371427108
 30
0.0
 11
96.01430462969592
 21
118.0200515868644
 31
0.0
  0
LINE
  5
A2
330
70
100
AcDbEntity
  8
Ebene 5
 62
     7
370
     9
100
AcDbLine
 10
95.98636462970286
 20
116.8574371427108
 30
0.0
 11
95.98636462970286
 21
118.2323179757006
 31
0.0
  0
LINE
  5
A3
330
70
100
AcDbEntity
  8
Ebene 5
 62
     7
370
     9
100
AcDbLine
 10
101.5906308703999
 20
108.3324386726201
 30
0.0
 11
119.3227975371978
 21
108.3324386726201
 31
0.0
  0
LINE
  5
A4
330
70
100
AcDbEntity
  8
Ebene 5
 62
     7
370
     9
100
AcDbLine
 10
102.5266184028545
 20
118.2323179757006
 30
0.0
 11
102.5266184028545
 21
108.3324386726201
 31
0.0
  0
LWPOLYLINE
  5
A5
330
70
100
AcDbEntity
  8
Ebene 5
 62
     7
370
     9
100
AcDbPolyline
 90
        4
 70
     0
 43
0.0
 10
102.5266184028545
 20
118.2323179757006
 10
102.3455904862335
 20
116.8574371427108
 10
102.7076463194761
 20
116.8574371427108
 10
102.5266184028545
 20
118.2323179757006
  0
LINE
  5
A6
330
70
100
AcDbEntity
  8
Ebene 5
 62
     7
370
     9
100
AcDbLine
 10
102.3587843751188
 20
116.8574371427108
 30
0.0
 11
102.3587843751188
 21
116.9591076982406
 31
0.0
  0
LINE
  5
A7
330
70
100
AcDbEntity
  8
Ebene 5
 62
     7
370
     9
100
AcDbLine
 10
102.3587843751188
 20
116.8574371427108
 30
0.0
 11
102.3587843751188
 21
116.9591076982406
 31
0.0
  0
LINE
  5
A8
330
70
100
AcDbEntity
  8
Ebene 5
 62
     7
370
     9
100
AcDbLine
 10
102.3869184028892
 20
116.8574371427108
 30
0.0
 11
102.3869184028892
 21
117.1711800592988
 31
0.0
  0
LINE
  5
A9
330
70
100
AcDbEntity
  8
Ebene 5
 62
     7
370
     9
100
AcDbLine
 10
102.4148584028823
 20
116.8574371427108
 30
0.0
 11
102.4148584028823
 21
117.383446448135
 31
0.0
  0
LINE
  5
AA
330
70
100
AcDbEntity
  8
Ebene 5
 62
     7
370
     9
100
AcDbLine
 10
102.4427984028753
 20
116.8574371427108
 30
0.0
 11
102.4427984028753
 21
117.5957128369706
 31
0.0
  0
LINE
  5
AB
330
70
100
AcDbEntity
  8
Ebene 5
 62
     7
370
     9
100
AcDbLine
 10
102.4707384028684
 20
116.8574371427108
 30
0.0
 11
102.4707384028684
 21
117.8079792258062
 31
0.0
  0
LINE
  5
AC
330
70
100
AcDbEntity
  8
Ebene 5
 62
     7
370
     9
100
AcDbLine
 10
102.4986784028614
 20
116.8574371427108
 30
0.0
 11
102.4986784028614
 21
118.0200515868644
 31
0.0
  0
LINE
  5
AD
330
70
100
AcDbEntity
  8
Ebene 5
 62
     7
370
     9
100
AcDbLine
 10
102.5266184028545
 20
116.8574371427108
 30
0.0
 11
102.5266184028545
 21
118.2323179757006
 31
0.0
  0
LINE
  5
AE
330
70
100
AcDbEntity
  8
Ebene 5
 62
     7
370
     9
100
AcDbLine
 10
102.6940643750355
 20
116.8574371427108
 30
0.0
 11
102.6940643750355
 21
116.9591076982406
 31
0.0
  0
LINE
  5
AF
330
70
100
AcDbEntity
  8
Ebene 5
 62
     7
370
     9
100
AcDbLine
 10
102.6940643750355
 20
116.8574371427108
 30
0.0
 11
102.6940643750355
 21
116.9591076982406
 31
0.0
  0
LINE
  5
B0
330
70
100
AcDbEntity
  8
Ebene 5
 62
     7
370
     9
100
AcDbLine
 10
102.6661243750418
 20
116.8574371427108
 30
0.0
 11
102.6661243750418
 21
117.1711800592988
 31
0.0
  0
LINE
  5
B1
330
70
100
AcDbEntity
  8
Ebene 5
 62
     7
370
     9
100
AcDbLine
 10
102.6383784028267
 20
116.8574371427108
 30
0.0
 11
102.6383784028267
 21
117.383446448135
 31
0.0
  0
LINE
  5
B2
330
70
100
AcDbEntity
  8
Ebene 5
 62
     7
370
     9
100
AcDbLine
 10
102.6104384028337
 20
116.8574371427108
 30
0.0
 11
102.6104384028337
 21
117.5957128369706
 31
0.0
  0
LINE
  5
B3
330
70
100
AcDbEntity
  8
Ebene 5
 62
     7
370
     9
100
AcDbLine
 10
102.5824984028406
 20
116.8574371427108
 30
0.0
 11
102.5824984028406
 21
117.8079792258062
 31
0.0
  0
LINE
  5
B4
330
70
100
AcDbEntity
  8
Ebene 5
 62
     7
370
     9
100
AcDbLine
 10
102.5545584028476
 20
116.8574371427108
 30
0.0
 11
102.5545584028476
 21
118.0200515868644
 31
0.0
  0
LINE
  5
B5
330
70
100
AcDbEntity
  8
Ebene 5
 62
     7
370
     9
100
AcDbLine
 10
102.5266184028545
 20
116.8574371427108
 30
0.0
 11
102.5266184028545
 21
118.2323179757006
 31
0.0
  0
LWPOLYLINE
  5
B6
330
70
100
AcDbEntity
  8
Ebene 5
 62
     7
370
     9
100
AcDbPolyline
 90
        4
 70
     0
 43
0.0
 10
102.5266184028545
 20
108.3324386726201
 10
102.7076463194761
 20
109.7075135333866
 10
102.3455904862335
 20
109.7075135333866
 10
102.5266184028545
 20
108.3324386726201
  0
LINE
  5
B7
330
70
100
AcDbEntity
  8
Ebene 5
 62
     7
370
     9
100
AcDbLine
 10
102.6940643750355
 20
109.7075135333866
 30
0.0
 11
102.6940643750355
 21
109.6058429778568
 31
0.0
  0
LINE
  5
B8
330
70
100
AcDbEntity
  8
Ebene 5
 62
     7
370
     9
100
AcDbLine
 10
102.6940643750355
 20
109.7075135333866
 30
0.0
 11
102.6940643750355
 21
109.6058429778568
 31
0.0
  0
LINE
  5
B9
330
70
100
AcDbEntity
  8
Ebene 5
 62
     7
370
     9
100
AcDbLine
 10
102.6661243750418
 20
109.7075135333866
 30
0.0
 11
102.6661243750418
 21
109.3935765890212
 31
0.0
  0
LINE
  5
BA
330
70
100
AcDbEntity
  8
Ebene 5
 62
     7
370
     9
100
AcDbLine
 10
102.6383784028267
 20
109.7075135333866
 30
0.0
 11
102.6383784028267
 21
109.1813102001856
 31
0.0
  0
LINE
  5
BB
330
70
100
AcDbEntity
  8
Ebene 5
 62
     7
370
     9
100
AcDbLine
 10
102.6104384028337
 20
109.7075135333866
 30
0.0
 11
102.6104384028337
 21
108.9692378391267
 31
0.0
  0
LINE
  5
BC
330
70
100
AcDbEntity
  8
Ebene 5
 62
     7
370
     9
100
AcDbLine
 10
102.5824984028406
 20
109.7075135333866
 30
0.0
 11
102.5824984028406
 21
108.7569714502912
 31
0.0
  0
LINE
  5
BD
330
70
100
AcDbEntity
  8
Ebene 5
 62
     7
370
     9
100
AcDbLine
 10
102.5545584028476
 20
109.7075135333866
 30
0.0
 11
102.5545584028476
 21
108.5447050614556
 31
0.0
  0
LINE
  5
BE
330
70
100
AcDbEntity
  8
Ebene 5
 62
     7
370
     9
100
AcDbLine
 10
102.5266184028545
 20
109.7075135333866
 30
0.0
 11
102.5266184028545
 21
108.3324386726201
 31
0.0
  0
LINE
  5
BF
330
70
100
AcDbEntity
  8
Ebene 5
 62
     7
370
     9
100
AcDbLine
 10
102.3587843751188
 20
109.7075135333866
 30
0.0
 11
102.3587843751188
 21
109.6058429778568
 31
0.0
  0
LINE
  5
C0
330
70
100
AcDbEntity
  8
Ebene 5
 62
     7
370
     9
100
AcDbLine
 10
102.3587843751188
 20
109.7075135333866
 30
0.0
 11
102.3587843751188
 21
109.6058429778568
 31
0.0
  0
LINE
  5
C1
330
70
100
AcDbEntity
  8
Ebene 5
 62
     7
370
     9
100
AcDbLine
 10
102.3869184028892
 20
109.7075135333866
 30
0.0
 11
102.3869184028892
 21
109.3935765890212
 31
0.0
  0
LINE
  5
C2
330
70
100
AcDbEntity
  8
Ebene 5
 62
     7
370
     9
100
AcDbLine
 10
102.4148584028823
 20
109.7075135333866
 30
0.0
 11
102.4148584028823
 21
109.1813102001856
 31
0.0
  0
LINE
  5
C3
330
70
100
AcDbEntity
  8
Ebene 5
 62
     7
370
     9
100
AcDbLine
 10
102.4427984028753
 20
109.7075135333866
 30
0.0
 11
102.4427984028753
 21
108.9692378391267
 31
0.0
  0
LINE
  5
C4
330
70
100
AcDbEntity
  8
Ebene 5
 62
     7
370
     9
100
AcDbLine
 10
102.4707384028684
 20
109.7075135333866
 30
0.0
 11
102.4707384028684
 21
108.7569714502912
 31
0.0
  0
LINE
  5
C5
330
70
100
AcDbEntity
  8
Ebene 5
 62
     7
370
     9
100
AcDbLine
 10
102.4986784028614
 20
109.7075135333866
 30
0.0
 11
102.4986784028614
 21
108.5447050614556
 31
0.0
  0
LINE
  5
C6
330
70
100
AcDbEntity
  8
Ebene 5
 62
     7
370
     9
100
AcDbLine
 10
102.5266184028545
 20
109.7075135333866
 30
0.0
 11
102.5266184028545
 21
108.3324386726201
 31
0.0
  0
MTEXT
  5
C7
330
70
100
AcDbEntity
  8
Ebene 5
100
AcDbMText
 10
95.23519769363927
 20
108.1567756806295
 30
0.0
 40
0.2
 41
0.0
 46
0.0
 71
     7
 72
     1
  1
\C7;\FINDEX Univers 45 Light|b0|i0|c1;\H2.497667;\W1.000000;24,5
 11
0.0000000000000001
 21
1.0
 31
0.0
 73
     1
 44
1.0
  0
MTEXT
  5
C8
330
70
100
AcDbEntity
  8
Ebene 5
100
AcDbMText
 10
101.8811076545325
 20
110.801553952809
 30
0.0
 40
0.2
 41
0.0
 46
0.0
 71
     7
 72
     1
  1
\C7;\FINDEX Univers 45 Light|b0|i0|c1;\H2.497667;\W1.000000;18
 11
0.0000000000000001
 21
1.0
 31
0.0
 73
     1
 44
1.0
  0
SPLINE
  5
CA
330
70
100
AcDbEntity
  8
Standardebene
 62
     7
370
     9
100
AcDbSpline
210
0.0
220
0.0
230
1.0
 70
     8
 71
     3
 72
    17
 73
    13
 74
     0
 42
0.0000000001
 43
0.0000000001
 40
0.0
 40
0.0
 40
0.0
 40
0.0
 40
1.0
 40
1.0
 40
1.0
 40
2.0
 40
2.0
 40
2.0
 40
3.0
 40
3.0
 40
3.0
 40
4.0
 40
4.0
 40
4.0
 40
4.0
 10
139.0767298677704
 20
72.60084710803133
 30
0.0
 10
139.0052764056936
 20
72.33395495749014
 30
0.0
 10
138.9714739151056
 20
72.06590826267895
 30
0.0
 10
138.9746168411753
 20
71.82409537934771
 30
0.0
 10
138.9746168411753
 20
70.16668293763202
 30
0.0
 10
140.3175442518646
 20
68.8243969404267
 30
0.0
 10
141.973738007962
 20
68.8243969404267
 30
0.0
 10
143.6310863083293
 20
68.8243969404267
 30
0.0
 10
144.9747192738503
 20
70.16668293763202
 30
0.0
 10
144.9747192738503
 20
71.82409537934771
 30
0.0
 10
144.9747192738503
 20
73.20467376152643
 30
0.0
 10
144.0413985138114
 20
74.36781297275219
 30
0.0
 10
142.7510670087806
 20
74.72174998040333
 30
0.0
  0
SPLINE
  5
CB
330
70
100
AcDbEntity
  8
Standardebene
 62
     7
370
     9
100
AcDbSpline
210
0.0
220
0.0
230
1.0
 70
     8
 71
     3
 72
    17
 73
    13
 74
     0
 42
0.0000000001
 43
0.0000000001
 40
0.0
 40
0.0
 40
0.0
 40
0.0
 40
1.0
 40
1.0
 40
1.0
 40
2.0
 40
2.0
 40
2.0
 40
3.0
 40
3.0
 40
3.0
 40
4.0
 40
4.0
 40
4.0
 40
4.0
 10
139.0767298677704
 20
90.60051299257175
 30
0.0
 10
139.0052764056936
 20
90.33362084203059
 30
0.0
 10
138.9714739151056
 20
90.06621556070273
 30
0.0
 10
138.9746168411753
 20
89.82440267737214
 30
0.0
 10
138.9746168411753
 20
88.16699023565581
 30
0.0
 10
140.3175442518646
 20
86.82406282496712
 30
0.0
 10
141.973738007962
 20
86.82406282496712
 30
0.0
 10
143.6310863083293
 20
86.82406282496712
 30
0.0
 10
144.9747192738503
 20
88.16699023565581
 30
0.0
 10
144.9747192738503
 20
89.82440267737214
 30
0.0
 10
144.9747192738503
 20
91.20491691820189
 30
0.0
 10
144.0413985138114
 20
92.36747885729261
 30
0.0
 10
142.7510670087806
 20
92.72205223104641
 30
0.0
  0
SPLINE
  5
CC
330
70
100
AcDbEntity
  8
Standardebene
 62
     7
370
     9
100
AcDbSpline
210
0.0
220
0.0
230
1.0
 70
     9
 71
     3
 72
    17
 73
    13
 74
     0
 42
0.0000000001
 43
0.0000000001
 40
0.0
 40
0.0
 40
0.0
 40
0.0
 40
1.0
 40
1.0
 40
1.0
 40
2.0
 40
2.0
 40
2.0
 40
3.0
 40
3.0
 40
3.0
 40
4.0
 40
4.0
 40
4.0
 40
4.0
 10
141.973738007962
 20
74.21060252791285
 30
0.0
 10
140.6564671366182
 20
74.21060252791285
 30
0.0
 10
139.5872308593968
 20
73.14200766417542
 30
0.0
 10
139.5872308593968
 20
71.82409537934771
 30
0.0
 10
139.5872308593968
 20
70.50618309452064
 30
0.0
 10
140.6564671366182
 20
69.43758823078258
 30
0.0
 10
141.973738007962
 20
69.43758823078258
 30
0.0
 10
143.2915861514407
 20
69.43758823078258
 30
0.0
 10
144.3608224286621
 20
70.50618309452064
 30
0.0
 10
144.3608224286621
 20
71.82409537934771
 30
0.0
 10
144.3608224286621
 20
73.14200766417542
 30
0.0
 10
143.2915861514407
 20
74.21060252791285
 30
0.0
 10
141.973738007962
 20
74.21060252791285
 30
0.0
  0
SPLINE
  5
CD
330
70
100
AcDbEntity
  8
Standardebene
 62
     7
370
     9
100
AcDbSpline
210
0.0
220
0.0
230
1.0
 70
     8
 71
     3
 72
     8
 73
     4
 74
     0
 42
0.0000000001
 43
0.0000000001
 40
0.0
 40
0.0
 40
0.0
 40
0.0
 40
1.0
 40
1.0
 40
1.0
 40
1.0
 10
142.8719734504456
 20
73.02552697554687
 30
0.0
 10
142.7723619364368
 20
73.09941780886166
 30
0.0
 10
142.6664645702887
 20
73.16080107924595
 30
0.0
 10
142.565634370661
 20
73.20217224894008
 30
0.0
  0
LWPOLYLINE
  5
CE
330
70
100
AcDbEntity
  8
Standardebene
 62
     7
370
     9
100
AcDbPolyline
 90
        3
 70
     0
 43
0.0
 10
142.8719734504456
 20
73.02552697554687
 10
143.4638698131452
 20
72.68410257820754
 10
143.4638698131452
 20
72.00074065274158
  0
SPLINE
  5
CF
330
70
100
AcDbEntity
  8
Standardebene
 62
     7
370
     9
100
AcDbSpline
210
0.0
220
0.0
230
1.0
 70
     8
 71
     3
 72
     8
 73
     4
 74
     0
 42
0.0000000001
 43
0.0000000001
 40
0.0
 40
0.0
 40
0.0
 40
0.0
 40
1.0
 40
1.0
 40
1.0
 40
1.0
 10
143.4638698131452
 20
71.64745507567163
 30
0.0
 10
143.478301616527
 20
71.77149947368981
 30
0.0
 10
143.4776602030437
 20
71.89298318749044
 30
0.0
 10
143.4638698131452
 20
72.00074065274158
 30
0.0
  0
LWPOLYLINE
  5
D0
330
70
100
AcDbEntity
  8
Standardebene
 62
     7
370
     9
100
AcDbPolyline
 90
        3
 70
     0
 43
0.0
 10
143.4638698131452
 20
71.64745507567163
 10
143.4638698131452
 20
70.95216284184497
 10
141.9636678162689
 20
70.08592898004216
  0
LINE
  5
D1
330
70
100
AcDbEntity
  8
Standardebene
 62
     7
370
     9
100
AcDbLine
 10
140.4641072328758
 20
70.95216284184497
 30
0.0
 11
141.9636678162689
 21
70.08592898004216
 31
0.0
  0
LINE
  5
D2
330
70
100
AcDbEntity
  8
Standardebene
 62
     7
370
     9
100
AcDbLine
 10
140.4641072328758
 20
72.68410257820754
 30
0.0
 11
140.4641072328758
 21
70.95216284184497
 31
0.0
  0
LINE
  5
D3
330
70
100
AcDbEntity
  8
Standardebene
 62
     7
370
     9
100
AcDbLine
 10
141.9636678162689
 20
73.55039562920613
 30
0.0
 11
140.4641072328758
 21
72.68410257820754
 31
0.0
  0
LINE
  5
D4
330
70
100
AcDbEntity
  8
Standardebene
 62
     7
370
     9
100
AcDbLine
 10
141.9636678162689
 20
73.55039562920613
 30
0.0
 11
142.565634370661
 21
73.20217224894008
 31
0.0
  0
SPLINE
  5
D5
330
70
100
AcDbEntity
  8
Standardebene
 62
     7
370
     9
100
AcDbSpline
210
0.0
220
0.0
230
1.0
 70
     8
 71
     3
 72
    14
 73
    10
 74
     0
 42
0.0000000001
 43
0.0000000001
 40
0.0
 40
0.0
 40
0.0
 40
0.0
 40
1.0
 40
1.0
 40
1.0
 40
2.0
 40
2.0
 40
2.0
 40
3.0
 40
3.0
 40
3.0
 40
3.0
 10
141.973738007962
 20
73.32365596274072
 30
0.0
 10
141.1456090592388
 20
73.32365596274072
 30
0.0
 10
140.474177424569
 20
72.65216018672252
 30
0.0
 10
140.474177424569
 20
71.82409537934771
 30
0.0
 10
140.474177424569
 20
70.99603057197353
 30
0.0
 10
141.1456090592388
 20
70.3239575238197
 30
0.0
 10
141.973738007962
 20
70.3239575238197
 30
0.0
 10
142.7410609584358
 20
70.3239575238197
 30
0.0
 10
143.3724042503789
 20
70.89834329841615
 30
0.0
 10
143.4638698131452
 20
71.64745507567163
 30
0.0
  0
SPLINE
  5
D6
330
70
100
AcDbEntity
  8
Standardebene
 62
     7
370
     9
100
AcDbSpline
210
0.0
220
0.0
230
1.0
 70
     8
 71
     3
 72
     8
 73
     4
 74
     0
 42
0.0000000001
 43
0.0000000001
 40
0.0
 40
0.0
 40
0.0
 40
0.0
 40
1.0
 40
1.0
 40
1.0
 40
1.0
 10
143.4638698131452
 20
72.00074065274158
 30
0.0
 10
143.413775420073
 20
72.42542052025711
 30
0.0
 10
143.1901145383296
 20
72.78749843176932
 30
0.0
 10
142.8719734504456
 20
73.02552697554687
 30
0.0
  0
SPLINE
  5
D7
330
70
100
AcDbEntity
  8
Standardebene
 62
     7
370
     9
100
AcDbSpline
210
0.0
220
0.0
230
1.0
 70
     8
 71
     3
 72
     8
 73
     4
 74
     0
 42
0.0000000001
 43
0.0000000001
 40
0.0
 40
0.0
 40
0.0
 40
0.0
 40
1.0
 40
1.0
 40
1.0
 40
1.0
 10
142.565634370661
 20
73.20217224894008
 30
0.0
 10
142.3695542687139
 20
73.28671054608363
 30
0.0
 10
142.1647509433887
 20
73.32551606184371
 30
0.0
 10
141.973738007962
 20
73.32365596274072
 30
0.0
  0
SPLINE
  5
D8
330
70
100
AcDbEntity
  8
Standardebene
 62
     7
370
     9
100
AcDbSpline
210
0.0
220
0.0
230
1.0
 70
     9
 71
     3
 72
    17
 73
    13
 74
     0
 42
0.0000000001
 43
0.0000000001
 40
0.0
 40
0.0
 40
0.0
 40
0.0
 40
1.0
 40
1.0
 40
1.0
 40
2.0
 40
2.0
 40
2.0
 40
3.0
 40
3.0
 40
3.0
 40
4.0
 40
4.0
 40
4.0
 40
4.0
 10
141.973738007962
 20
92.21026841245327
 30
0.0
 10
140.6564671366182
 20
92.21026841245327
 30
0.0
 10
139.5872308593968
 20
91.14167354871522
 30
0.0
 10
139.5872308593968
 20
89.82440267737214
 30
0.0
 10
139.5872308593968
 20
88.50584897906108
 30
0.0
 10
140.6564671366182
 20
87.43725411532301
 30
0.0
 10
141.973738007962
 20
87.43725411532301
 30
0.0
 10
143.2915861514407
 20
87.43725411532301
 30
0.0
 10
144.3608224286621
 20
88.50584897906108
 30
0.0
 10
144.3608224286621
 20
89.82440267737214
 30
0.0
 10
144.3608224286621
 20
91.14167354871522
 30
0.0
 10
143.2915861514407
 20
92.21026841245327
 30
0.0
 10
141.973738007962
 20
92.21026841245327
 30
0.0
  0
SPLINE
  5
D9
330
70
100
AcDbEntity
  8
Standardebene
 62
     7
370
     9
100
AcDbSpline
210
0.0
220
0.0
230
1.0
 70
     8
 71
     3
 72
     8
 73
     4
 74
     0
 42
0.0000000001
 43
0.0000000001
 40
0.0
 40
0.0
 40
0.0
 40
0.0
 40
1.0
 40
1.0
 40
1.0
 40
1.0
 10
142.8719734504456
 20
91.0257701322223
 30
0.0
 10
142.7723619364368
 20
91.10036652036942
 30
0.0
 10
142.6664645702887
 20
91.16046696378575
 30
0.0
 10
142.565634370661
 20
91.20183813348051
 30
0.0
  0
LWPOLYLINE
  5
DA
330
70
100
AcDbEntity
  8
Standardebene
 62
     7
370
     9
100
AcDbPolyline
 90
        3
 70
     0
 43
0.0
 10
142.8719734504456
 20
91.0257701322223
 10
143.4638698131452
 20
90.68376846274796
 10
143.4638698131452
 20
90.00040653728136
  0
SPLINE
  5
DB
330
70
100
AcDbEntity
  8
Standardebene
 62
     7
370
     9
100
AcDbSpline
210
0.0
220
0.0
230
1.0
 70
     8
 71
     3
 72
     8
 73
     4
 74
     0
 42
0.0000000001
 43
0.0000000001
 40
0.0
 40
0.0
 40
0.0
 40
0.0
 40
1.0
 40
1.0
 40
1.0
 40
1.0
 10
143.4638698131452
 20
89.64775740397826
 30
0.0
 10
143.478301616527
 20
89.77116535823023
 30
0.0
 10
143.4776602030437
 20
89.89264907203086
 30
0.0
 10
143.4638698131452
 20
90.00040653728136
 30
0.0
  0
LWPOLYLINE
  5
DC
330
70
100
AcDbEntity
  8
Standardebene
 62
     7
370
     9
100
AcDbPolyline
 90
        3
 70
     0
 43
0.0
 10
143.4638698131452
 20
89.64775740397826
 10
143.4638698131452
 20
88.95182377423349
 10
141.9636678162689
 20
88.08560024956177
  0
LINE
  5
DD
330
70
100
AcDbEntity
  8
Standardebene
 62
     7
370
     9
100
AcDbLine
 10
140.4641072328758
 20
88.95182377423349
 30
0.0
 11
141.9636678162689
 21
88.08560024956177
 31
0.0
  0
LINE
  5
DE
330
70
100
AcDbEntity
  8
Standardebene
 62
     7
370
     9
100
AcDbLine
 10
140.4641072328758
 20
90.68376846274796
 30
0.0
 11
140.4641072328758
 21
88.95182377423349
 31
0.0
  0
LINE
  5
DF
330
70
100
AcDbEntity
  8
Standardebene
 62
     7
370
     9
100
AcDbLine
 10
141.9636678162689
 20
91.55006151374657
 30
0.0
 11
140.4641072328758
 21
90.68376846274796
 31
0.0
  0
LINE
  5
E0
330
70
100
AcDbEntity
  8
Standardebene
 62
     7
370
     9
100
AcDbLine
 10
141.9636678162689
 20
91.55006151374657
 30
0.0
 11
142.565634370661
 21
91.20241540561616
 31
0.0
  0
SPLINE
  5
E1
330
70
100
AcDbEntity
  8
Standardebene
 62
     7
370
     9
100
AcDbSpline
210
0.0
220
0.0
230
1.0
 70
     8
 71
     3
 72
    14
 73
    10
 74
     0
 42
0.0000000001
 43
0.0000000001
 40
0.0
 40
0.0
 40
0.0
 40
0.0
 40
1.0
 40
1.0
 40
1.0
 40
2.0
 40
2.0
 40
2.0
 40
3.0
 40
3.0
 40
3.0
 40
3.0
 10
141.973738007962
 20
91.32332184728115
 30
0.0
 10
141.1456090592388
 20
91.32332184728115
 30
0.0
 10
140.474177424569
 20
90.65246748474631
 30
0.0
 10
140.474177424569
 20
89.82440267737214
 30
0.0
 10
140.474177424569
 20
88.99505504303062
 30
0.0
 10
141.1456090592388
 20
88.32362340836011
 30
0.0
 10
141.973738007962
 20
88.32362340836011
 30
0.0
 10
142.7410609584358
 20
88.32362340836011
 30
0.0
 10
143.3724042503789
 20
88.89858645509159
 30
0.0
 10
143.4638698131452
 20
89.64775740397826
 30
0.0
  0
SPLINE
  5
E2
330
70
100
AcDbEntity
  8
Standardebene
 62
     7
370
     9
100
AcDbSpline
210
0.0
220
0.0
230
1.0
 70
     8
 71
     3
 72
     8
 73
     4
 74
     0
 42
0.0000000001
 43
0.0000000001
 40
0.0
 40
0.0
 40
0.0
 40
0.0
 40
1.0
 40
1.0
 40
1.0
 40
1.0
 10
143.4638698131452
 20
90.00040653728136
 30
0.0
 10
143.413775420073
 20
90.4250864047969
 30
0.0
 10
143.1901145383296
 20
90.78780572979374
 30
0.0
 10
142.8719734504456
 20
91.0257701322223
 30
0.0
  0
SPLINE
  5
E3
330
70
100
AcDbEntity
  8
Standardebene
 62
     7
370
     9
100
AcDbSpline
210
0.0
220
0.0
230
1.0
 70
     8
 71
     3
 72
     8
 73
     4
 74
     0
 42
0.0000000001
 43
0.0000000001
 40
0.0
 40
0.0
 40
0.0
 40
0.0
 40
1.0
 40
1.0
 40
1.0
 40
1.0
 10
142.565634370661
 20
91.20183813348051
 30
0.0
 10
142.3695542687139
 20
91.28701784410742
 30
0.0
 10
142.1647509433887
 20
91.3258233598675
 30
0.0
 10
141.973738007962
 20
91.32332184728115
 30
0.0
  0
LINE
  5
E4
330
70
100
AcDbEntity
  8
Standardebene
 62
     7
370
     9
100
AcDbLine
 10
69.86045388027472
 20
65.32413941887567
 30
0.0
 11
69.86045388027472
 21
65.82342049712798
 31
0.0
  0
LINE
  5
E5
330
70
100
AcDbEntity
  8
Standardebene
 62
     7
370
     9
100
AcDbLine
 10
69.86045388027472
 20
66.82305858878532
 30
0.0
 11
69.86045388027472
 21
67.82276564438065
 31
0.0
  0
LINE
  5
E6
330
70
100
AcDbEntity
  8
Standardebene
 62
     7
370
     9
100
AcDbLine
 10
69.86045388027472
 20
68.82189542784033
 30
0.0
 11
69.86045388027472
 21
69.82160248343567
 31
0.0
  0
LINE
  5
E7
330
70
100
AcDbEntity
  8
Standardebene
 62
     7
370
     9
100
AcDbLine
 10
69.86045388027472
 20
70.82124539768267
 30
0.0
 11
69.86045388027472
 21
71.82095245327801
 31
0.0
  0
LINE
  5
E8
330
70
100
AcDbEntity
  8
Standardebene
 62
     7
370
     9
100
AcDbLine
 10
69.86045388027472
 20
72.82008223673833
 30
0.0
 11
69.86045388027472
 21
73.81978929233366
 31
0.0
  0
LINE
  5
E9
330
70
100
AcDbEntity
  8
Standardebene
 62
     7
370
     9
100
AcDbLine
 10
69.86045388027472
 20
74.81943220658067
 30
0.0
 11
69.86045388027472
 21
75.81856706512832
 31
0.0
  0
LINE
  5
EA
330
70
100
AcDbEntity
  8
Standardebene
 62
     7
370
     9
100
AcDbLine
 10
69.86045388027472
 20
76.81826904563632
 30
0.0
 11
69.86045388027472
 21
77.81791195988268
 31
0.0
  0
LINE
  5
EB
330
70
100
AcDbEntity
  8
Standardebene
 62
     7
370
     9
100
AcDbLine
 10
69.86045388027472
 20
78.81704174334299
 30
0.0
 11
69.86045388027472
 21
79.81674879893834
 31
0.0
  0
LINE
  5
EC
330
70
100
AcDbEntity
  8
Standardebene
 62
     7
370
     9
100
AcDbLine
 10
69.86045388027472
 20
80.81646105587978
 30
0.0
 11
69.86045388027472
 21
81.81552149664566
 31
0.0
  0
LINE
  5
ED
330
70
100
AcDbEntity
  8
Standardebene
 62
     7
370
     9
100
AcDbLine
 10
69.86045388027472
 20
82.814587138757
 30
0.0
 11
69.86045388027472
 21
83.81429419435233
 31
0.0
  0
LINE
  5
EE
330
70
100
AcDbEntity
  8
Standardebene
 62
     7
370
     9
100
AcDbLine
 10
69.86045388027472
 20
84.81464266343166
 30
0.0
 11
69.86045388027472
 21
85.81371363312994
 31
0.0
  0
LINE
  5
EF
330
70
100
AcDbEntity
  8
Standardebene
 62
     7
370
     9
100
AcDbLine
 10
69.86045388027472
 20
86.81341536113835
 30
0.0
 11
69.86045388027472
 21
87.81248100325035
 31
0.0
  0
LINE
  5
F0
330
70
100
AcDbEntity
  8
Standardebene
 62
     7
370
     9
100
AcDbLine
 10
69.86045388027472
 20
88.81154664536232
 30
0.0
 11
69.86045388027472
 21
89.81125370095766
 31
0.0
  0
LINE
  5
F1
330
70
100
AcDbEntity
  8
Standardebene
 62
     7
370
     9
100
AcDbLine
 10
69.86045388027472
 20
90.81096621038136
 30
0.0
 11
69.86045388027472
 21
91.81002639866433
 31
0.0
  0
LINE
  5
F2
330
70
100
AcDbEntity
  8
Standardebene
 62
     7
370
     9
100
AcDbLine
 10
69.86045388027472
 20
92.80909204077632
 30
0.0
 11
69.86045388027472
 21
93.80944050985501
 31
0.0
  0
LINE
  5
F3
330
70
100
AcDbEntity
  8
Standardebene
 62
     7
370
     9
100
AcDbLine
 10
69.86045388027472
 20
94.80850615196699
 30
0.0
 11
69.86045388027472
 21
95.80821878763151
 31
0.0
  0
LINE
  5
F4
330
70
100
AcDbEntity
  8
Standardebene
 62
     7
370
     9
100
AcDbLine
 10
69.86045388027472
 20
96.80792026315767
 30
0.0
 11
69.86045388027472
 21
97.807627318753
 31
0.0
  0
LINE
  5
F5
330
70
100
AcDbEntity
  8
Standardebene
 62
     7
370
     9
100
AcDbLine
 10
69.86045388027472
 20
98.806051547381
 30
0.0
 11
69.86045388027472
 21
99.80575860297633
 31
0.0
  0
LWPOLYLINE
  5
F6
330
70
100
AcDbEntity
  8
Standardebene
 62
     7
370
     9
100
AcDbPolyline
 90
        3
 70
     0
 43
0.0
 10
69.86045388027472
 20
100.8054713648816
 10
69.86045388027472
 20
101.304677772886
 10
69.36028322368816
 20
101.304677772886
  0
LINE
  5
F7
330
70
100
AcDbEntity
  8
Standardebene
 62
     7
370
     9
100
AcDbLine
 10
68.36025188339836
 20
101.304677772886
 30
0.0
 11
67.36022412106071
 21
101.304677772886
 31
0.0
  0
LINE
  5
F8
330
70
100
AcDbEntity
  8
Standardebene
 62
     7
370
     9
100
AcDbLine
 10
66.35987565198202
 20
101.304677772886
 30
0.0
 11
65.36048930312836
 21
101.304677772886
 31
0.0
  0
LINE
  5
F9
330
70
100
AcDbEntity
  8
Standardebene
 62
     7
370
     9
100
AcDbLine
 10
64.36046499243786
 20
101.304677772886
 30
0.0
 11
63.35985993268803
 21
101.304677772886
 31
0.0
  0
LINE
  5
FA
330
70
100
AcDbEntity
  8
Standardebene
 62
     7
370
     9
100
AcDbLine
 10
62.36047015746566
 20
101.304677772886
 30
0.0
 11
61.36012168838633
 21
101.304677772886
 31
0.0
  0
LINE
  5
FB
330
70
100
AcDbEntity
  8
Standardebene
 62
     7
370
     9
100
AcDbLine
 10
60.35977321930765
 20
101.304677772886
 30
0.0
 11
59.36038687045399
 21
101.304677772886
 31
0.0
  0
LINE
  5
FC
330
70
100
AcDbEntity
  8
Standardebene
 62
     7
370
     9
100
AcDbLine
 10
58.35978183598132
 20
101.304677772886
 30
0.0
 11
57.36039548712765
 21
101.304677772886
 31
0.0
  0
LINE
  5
FD
330
70
100
AcDbEntity
  8
Standardebene
 62
     7
370
     9
100
AcDbLine
 10
56.36004701804896
 20
101.304677772886
 30
0.0
 11
55.36001925571195
 21
101.304677772886
 31
0.0
  0
LWPOLYLINE
  5
FE
330
70
100
AcDbEntity
  8
Standardebene
 62
     7
370
     9
100
AcDbPolyline
 90
        3
 70
     0
 43
0.0
 10
54.36031220011662
 20
101.304677772886
 10
53.86013796557663
 20
101.304677772886
 10
53.86013796557663
 20
100.8054713648816
  0
LINE
  5
FF
330
70
100
AcDbEntity
  8
Standardebene
 62
     7
370
     9
100
AcDbLine
 10
53.86013796557663
 20
99.80575860297633
 30
0.0
 11
53.86013796557663
 21
98.806051547381
 31
0.0
  0
LINE
  5
100
330
70
100
AcDbEntity
  8
Standardebene
 62
     7
370
     9
100
AcDbLine
 10
53.86013796557663
 20
97.807627318753
 30
0.0
 11
53.86013796557663
 21
96.80792026315767
 31
0.0
  0
LINE
  5
101
330
70
100
AcDbEntity
  8
Standardebene
 62
     7
370
     9
100
AcDbLine
 10
53.86013796557663
 20
95.80821878763151
 30
0.0
 11
53.86013796557663
 21
94.80850615196699
 31
0.0
  0
LINE
  5
102
330
70
100
AcDbEntity
  8
Standardebene
 62
     7
370
     9
100
AcDbLine
 10
53.86013796557663
 20
93.80944050985501
 30
0.0
 11
53.86013796557663
 21
92.80909204077632
 31
0.0
  0
LINE
  5
103
330
70
100
AcDbEntity
  8
Standardebene
 62
     7
370
     9
100
AcDbLine
 10
53.86013796557663
 20
91.81002639866433
 30
0.0
 11
53.86013796557663
 21
90.81096621038136
 31
0.0
  0
LINE
  5
104
330
70
100
AcDbEntity
  8
Standardebene
 62
     7
370
     9
100
AcDbLine
 10
53.86013796557663
 20
89.81125370095766
 30
0.0
 11
53.86013796557663
 21
88.81154664536232
 31
0.0
  0
LINE
  5
105
330
70
100
AcDbEntity
  8
Standardebene
 62
     7
370
     9
100
AcDbLine
 10
53.86013796557663
 20
87.81248100325035
 30
0.0
 11
53.86013796557663
 21
86.81341536113835
 31
0.0
  0
LINE
  5
106
330
70
100
AcDbEntity
  8
Standardebene
 62
     7
370
     9
100
AcDbLine
 10
53.86013796557663
 20
85.81371363312994
 30
0.0
 11
53.86013796557663
 21
84.81464266343166
 31
0.0
  0
LINE
  5
107
330
70
100
AcDbEntity
  8
Standardebene
 62
     7
370
     9
100
AcDbLine
 10
53.86013796557663
 20
83.81429419435233
 30
0.0
 11
53.86013796557663
 21
82.814587138757
 31
0.0
  0
LINE
  5
108
330
70
100
AcDbEntity
  8
Standardebene
 62
     7
370
     9
100
AcDbLine
 10
53.86013796557663
 20
81.81552149664566
 30
0.0
 11
53.86013796557663
 21
80.81646105587978
 31
0.0
  0
LINE
  5
109
330
70
100
AcDbEntity
  8
Standardebene
 62
     7
370
     9
100
AcDbLine
 10
53.86013796557663
 20
79.81674879893834
 30
0.0
 11
53.86013796557663
 21
78.81704174334299
 31
0.0
  0
LINE
  5
10A
330
70
100
AcDbEntity
  8
Standardebene
 62
     7
370
     9
100
AcDbLine
 10
53.86013796557663
 20
77.81791195988268
 30
0.0
 11
53.86013796557663
 21
76.81826904563632
 31
0.0
  0
LINE
  5
10B
330
70
100
AcDbEntity
  8
Standardebene
 62
     7
370
     9
100
AcDbLine
 10
53.86013796557663
 20
75.81856706512832
 30
0.0
 11
53.86013796557663
 21
74.81943220658067
 31
0.0
  0
LINE
  5
10C
330
70
100
AcDbEntity
  8
Standardebene
 62
     7
370
     9
100
AcDbLine
 10
53.86013796557663
 20
73.81978929233366
 30
0.0
 11
53.86013796557663
 21
72.82008223673833
 31
0.0
  0
LINE
  5
10D
330
70
100
AcDbEntity
  8
Standardebene
 62
     7
370
     9
100
AcDbLine
 10
53.86013796557663
 20
71.82095245327801
 30
0.0
 11
53.86013796557663
 21
70.82124539768267
 31
0.0
  0
LINE
  5
10E
330
70
100
AcDbEntity
  8
Standardebene
 62
     7
370
     9
100
AcDbLine
 10
53.86013796557663
 20
69.82160248343567
 30
0.0
 11
53.86013796557663
 21
68.82189542784033
 31
0.0
  0
LINE
  5
10F
330
70
100
AcDbEntity
  8
Standardebene
 62
     7
370
     9
100
AcDbLine
 10
53.86013796557663
 20
67.82276564438065
 30
0.0
 11
53.86013796557663
 21
66.82305858878532
 31
0.0
  0
LINE
  5
110
330
70
100
AcDbEntity
  8
Standardebene
 62
     7
370
     9
100
AcDbLine
 10
53.86013796557663
 20
65.82342049712798
 30
0.0
 11
53.86013796557663
 21
65.32413941887567
 31
0.0
  0
SPLINE
  5
111
330
70
100
AcDbEntity
  8
Standardebene
 62
     7
370
     9
100
AcDbSpline
210
0.0
220
0.0
230
1.0
 70
     8
 71
     3
 72
    17
 73
    13
 74
     0
 42
0.0000000001
 43
0.0000000001
 40
0.0
 40
0.0
 40
0.0
 40
0.0
 40
1.0
 40
1.0
 40
1.0
 40
2.0
 40
2.0
 40
2.0
 40
3.0
 40
3.0
 40
3.0
 40
4.0
 40
4.0
 40
4.0
 40
4.0
 10
59.92855093425872
 20
149.8416547652543
 30
0.0
 10
59.88095805377288
 20
149.6637908062421
 30
0.0
 10
59.85838363706363
 20
149.4855489352121
 30
0.0
 10
59.86024039825165
 20
149.3239699426118
 30
0.0
 10
59.86024039825165
 20
148.2193276410933
 30
0.0
 10
60.75565362140787
 20
147.3239144179371
 30
0.0
 10
61.86029592292568
 20
147.3239144179371
 30
0.0
 10
62.96429681096078
 20
147.3239144179371
 30
0.0
 10
63.86003074085866
 20
148.2193276410933
 30
0.0
 10
63.86003074085866
 20
149.3239699426118
 30
0.0
 10
63.86003074085866
 20
150.2441417262356
 30
0.0
 10
63.23799136771851
 20
151.0195464866036
 30
0.0
 10
62.37766003882653
 20
151.2557149312787
 30
0.0
  0
SPLINE
  5
112
330
70
100
AcDbEntity
  8
Standardebene
 62
     7
370
     9
100
AcDbSpline
210
0.0
220
0.0
230
1.0
 70
     9
 71
     3
 72
    17
 73
    13
 74
     0
 42
0.0000000001
 43
0.0000000001
 40
0.0
 40
0.0
 40
0.0
 40
0.0
 40
1.0
 40
1.0
 40
1.0
 40
2.0
 40
2.0
 40
2.0
 40
3.0
 40
3.0
 40
3.0
 40
4.0
 40
4.0
 40
4.0
 40
4.0
 10
80.86063098328711
 20
151.3327486906632
 30
0.0
 10
79.7503442431126
 20
151.3327486906632
 30
0.0
 10
78.85089011500999
 20
150.4336152693023
 30
0.0
 10
78.85089011500999
 20
149.3239699426118
 30
0.0
 10
78.85089011500999
 20
148.2143246159206
 30
0.0
 10
79.7503442431126
 20
147.314870487818
 30
0.0
 10
80.86063098328711
 20
147.314870487818
 30
0.0
 10
81.96963489649363
 20
147.314870487818
 30
0.0
 10
82.86909294381098
 20
148.2143246159206
 30
0.0
 10
82.86909294381098
 20
149.3239699426118
 30
0.0
 10
82.86909294381098
 20
150.4336152693023
 30
0.0
 10
81.96963489649363
 20
151.3327486906632
 30
0.0
 10
80.86063098328711
 20
151.3327486906632
 30
0.0
  0
LINE
  5
113
330
70
100
AcDbEntity
  8
Standardebene
  6
AI-Linetype-0
 62
     7
370
     9
100
AcDbLine
 10
61.86029592292568
 20
176.0995192516102
 30
0.0
 11
61.86029592292568
 21
242.9928521667692
 31
0.0
  0
LINE
  5
115
330
70
100
AcDbEntity
  8
Standardebene
  6
AI-Linetype-1
 62
     7
370
     9
100
AcDbLine
 10
61.86029592292568
 20
63.18316535184648
 30
0.0
 11
61.86029592292568
 21
166.4783169970675
 31
0.0
  0
LINE
  5
117
330
70
100
AcDbEntity
  8
Standardebene
  6
AI-Linetype-2
 62
     7
370
     9
100
AcDbLine
 10
9.693433814604786
 20
227.3236427947527
 30
0.0
 11
77.68326479760689
 21
227.3236427947527
 31
0.0
  0
LINE
  5
119
330
70
100
AcDbEntity
  8
Standardebene
  6
AI-Linetype-3
 62
     7
370
     9
100
AcDbLine
 10
141.973738007962
 20
175.5373203332032
 30
0.0
 11
141.973738007962
 21
242.9928521667692
 31
0.0
  0
LINE
  5
11B
330
70
100
AcDbEntity
  8
Standardebene
  6
AI-Linetype-4
 62
     7
370
     9
100
AcDbLine
 10
141.973738007962
 20
62.75540669960958
 30
0.0
 11
141.973738007962
 21
166.5575315622967
 31
0.0
  0
LINE
  5
11D
330
70
100
AcDbEntity
  8
Standardebene
 62
     7
370
    35
100
AcDbLine
 10
156.22389309121
 20
214.3240426781215
 30
0.0
 11
155.2247633077497
 21
215.3243911472002
 31
0.0
  0
LINE
  5
11E
330
70
100
AcDbEntity
  8
Standardebene
 62
     7
370
    35
100
AcDbLine
 10
128.7245086659276
 20
215.3243911472002
 30
0.0
 11
127.7241601968489
 21
214.3240426781215
 31
0.0
  0
LINE
  5
11F
330
70
100
AcDbEntity
  8
Standardebene
 62
     7
370
    35
100
AcDbLine
 10
127.7241601968489
 20
76.82891650946444
 30
0.0
 11
127.7241601968489
 21
70.82381105161736
 31
0.0
  0
LINE
  5
120
330
70
100
AcDbEntity
  8
Standardebene
 62
     7
370
    35
100
AcDbLine
 10
127.7241601968489
 20
214.3240426781215
 30
0.0
 11
127.7241601968489
 21
155.3224688415771
 31
0.0
  0
LINE
  5
121
330
70
100
AcDbEntity
  8
Standardebene
 62
     7
370
    35
100
AcDbLine
 10
127.7241601968489
 20
143.3248296301624
 30
0.0
 11
127.7241601968489
 21
76.32751189753804
 31
0.0
  0
LINE
  5
122
330
70
100
AcDbEntity
  8
Standardebene
 62
     7
370
    35
100
AcDbLine
 10
156.22389309121
 20
70.82381105161736
 30
0.0
 11
156.22389309121
 21
143.3225846829694
 31
0.0
  0
LINE
  5
123
330
70
100
AcDbEntity
  8
Standardebene
 62
     7
370
    35
100
AcDbLine
 10
156.22389309121
 20
155.3231102550605
 30
0.0
 11
156.22389309121
 21
214.3240426781215
 31
0.0
  0
LINE
  5
124
330
70
100
AcDbEntity
  8
Standardebene
 62
     7
370
    35
100
AcDbLine
 10
127.7241601968489
 20
70.82381105161736
 30
0.0
 11
128.1219648393998
 21
67.59102295274253
 31
0.0
  0
LINE
  5
125
330
70
100
AcDbEntity
  8
Standardebene
 62
     7
370
    35
100
AcDbLine
 10
155.8273712756258
 20
67.59102295274253
 30
0.0
 11
156.22389309121
 21
70.82381105161736
 31
0.0
  0
LINE
  5
126
330
70
100
AcDbEntity
  8
Standardebene
 62
     7
370
    35
100
AcDbLine
 10
156.0935578713353
 20
67.06865581166962
 30
0.0
 11
155.8273712756258
 21
67.59102295274253
 31
0.0
  0
LINE
  5
127
330
70
100
AcDbEntity
  8
Standardebene
 62
     7
370
    35
100
AcDbLine
 10
128.1219648393998
 20
67.59102295274253
 30
0.0
 11
127.8550726888586
 21
67.06865581166962
 31
0.0
  0
LINE
  5
128
330
70
100
AcDbEntity
  8
Standardebene
 62
     7
370
    35
100
AcDbLine
 10
166.9737966967842
 20
151.5241464741806
 30
0.0
 11
166.9737966967842
 21
155.1239513683914
 31
0.0
  0
LINE
  5
129
330
70
100
AcDbEntity
  8
Standardebene
 62
     7
370
    35
100
AcDbLine
 10
166.9737966967842
 20
143.5239885168315
 30
0.0
 11
166.9737966967842
 21
147.1306565353174
 31
0.0
  0
LINE
  5
12A
330
70
100
AcDbEntity
  8
Standardebene
 62
     7
370
    35
100
AcDbLine
 10
123.9746493955566
 20
239.3238479632523
 30
0.0
 11
123.9746493955566
 21
215.3243911472002
 31
0.0
  0
LINE
  5
12B
330
70
100
AcDbEntity
  8
Standardebene
 62
     7
370
    35
100
AcDbLine
 10
159.9739811646374
 20
215.3243911472002
 30
0.0
 11
159.9739811646374
 21
239.3238479632523
 31
0.0
  0
LINE
  5
12C
330
70
100
AcDbEntity
  8
Standardebene
 62
     7
370
    35
100
AcDbLine
 10
131.4736709981406
 20
239.7240899871524
 30
0.0
 11
131.4736709981406
 21
239.3238479632523
 31
0.0
  0
LWPOLYLINE
  5
12D
330
70
100
AcDbEntity
  8
Standardebene
 62
     7
370
    35
100
AcDbPolyline
 90
        3
 70
     0
 43
0.0
 10
152.4743822899177
 20
239.3238479632523
 10
152.4743822899177
 20
239.7240899871524
 10
151.9745287621201
 20
240.2236777338666
  0
LINE
  5
12E
330
70
100
AcDbEntity
  8
Standardebene
 62
     7
370
    35
100
AcDbLine
 10
131.9741659394223
 20
240.2236777338666
 30
0.0
 11
131.4736709981406
 21
239.7240899871524
 31
0.0
  0
SPLINE
  5
12F
330
70
100
AcDbEntity
  8
Standardebene
 62
     7
370
    35
100
AcDbSpline
210
0.0
220
0.0
230
1.0
 70
     8
 71
     3
 72
    11
 73
     7
 74
     0
 42
0.0000000001
 43
0.0000000001
 40
0.0
 40
0.0
 40
0.0
 40
0.0
 40
1.0
 40
1.0
 40
1.0
 40
2.0
 40
2.0
 40
2.0
 40
2.0
 10
127.8550726888586
 20
67.06865581166962
 30
0.0
 10
127.7642485395757
 20
66.89201538786041
 30
0.0
 10
127.7229415112299
 20
66.70221628846803
 30
0.0
 10
127.7241601968489
 20
66.52371091597181
 30
0.0
 10
127.7241601968489
 20
65.86093836333105
 30
0.0
 10
128.2616005547876
 20
65.32413941887567
 30
0.0
 10
128.92430896608
 20
65.32413941887567
 30
0.0
  0
SPLINE
  5
130
330
70
100
AcDbEntity
  8
Standardebene
 62
     7
370
    35
100
AcDbSpline
210
0.0
220
0.0
230
1.0
 70
     8
 71
     3
 72
    11
 73
     7
 74
     0
 42
0.0000000001
 43
0.0000000001
 40
0.0
 40
0.0
 40
0.0
 40
0.0
 40
1.0
 40
1.0
 40
1.0
 40
2.0
 40
2.0
 40
2.0
 40
2.0
 10
155.0243215941133
 20
65.32413941887567
 30
0.0
 10
155.6870300054064
 20
65.32413941887567
 30
0.0
 10
156.22389309121
 20
65.86093836333105
 30
0.0
 10
156.22389309121
 20
66.52371091597181
 30
0.0
 10
156.22389309121
 20
66.72286980264093
 30
0.0
 10
156.1762418404846
 20
66.91080395334627
 30
0.0
 10
156.0935578713353
 20
67.06865581166962
 30
0.0
  0
LWPOLYLINE
  5
131
330
70
100
AcDbEntity
  8
Standardebene
 62
     7
370
    35
100
AcDbPolyline
 90
       29
 70
     0
 43
0.0
 10
141.973738007962
 20
86.32356788368545
 10
142.5518439807632
 20
86.37244359113863
 10
143.1137221924285
 20
86.51458081911281
 10
144.1234407649969
 20
87.06209136874464
 10
144.9120531764993
 20
87.92273998108719
 10
145.1920356557306
 20
88.44760863474711
 10
145.378745627193
 20
89.01384845810115
 10
145.4657854369222
 20
89.59387867135301
 10
145.4557793865775
 20
90.18019473674494
 10
145.1570089858996
 20
91.279513306349
 10
144.5161727743984
 20
92.23034465449115
 10
144.0752010043987
 20
92.62244071703769
 10
143.5747702044661
 20
92.93628433458135
 10
143.0253995557319
 20
93.16174668729319
 10
142.4441506568603
 20
93.29265366608916
 10
141.8628376166411
 20
93.32145864875259
 10
141.2853089159749
 20
93.25506683594809
 10
140.2204983917906
 20
92.85296472305679
 10
139.3309861726838
 20
92.11758416406794
 10
138.9814799654504
 20
91.63774821167358
 10
138.7177948823279
 20
91.10594681767715
 10
138.5480127332091
 20
90.53848830870409
 10
138.4766234124807
 20
89.94967073072583
 10
138.6244692204586
 20
88.81026381839497
 10
139.1274710147456
 20
87.78926721263589
 10
139.9517461421471
 20
86.96748287990798
 10
140.4647486463592
 20
86.66621096664378
 10
141.0228479067727
 20
86.45569906131484
 10
141.973738007962
 20
86.32356788368545
  0
LWPOLYLINE
  5
132
330
70
100
AcDbEntity
  8
Standardebene
 62
     7
370
    35
100
AcDbPolyline
 90
       19
 70
     0
 43
0.0
 10
145.3285870927724
 20
70.82381105161736
 10
145.378745627193
 20
71.01360530142506
 10
145.4657854369222
 20
71.59357634168469
 10
145.4557793865775
 20
72.17988743872116
 10
145.1570089858996
 20
73.27985243276386
 10
144.5161727743984
 20
74.23003735646737
 10
144.0752010043987
 20
74.6221334190139
 10
143.5747702044661
 20
74.93662350284846
 10
143.0253995557319
 20
75.16143387605564
 10
142.4441506568603
 20
75.29234636806539
 10
141.8628376166411
 20
75.32178724696469
 10
141.2853089159749
 20
75.25540601226982
 10
140.2204983917906
 20
74.85329883851638
 10
139.3309861726838
 20
74.11727686604418
 10
138.9814799654504
 20
73.6380768524194
 10
138.7177948823279
 20
73.10628093313671
 10
138.5480127332091
 20
72.53818101068032
 10
138.4766234124807
 20
71.94936343270204
 10
138.6200434674215
 20
70.82381105161736
  0
LWPOLYLINE
  5
133
330
70
100
AcDbEntity
  8
Standardebene
 62
     7
370
    35
100
AcDbPolyline
 90
       12
 70
     0
 43
0.0
 10
145.3285870927724
 20
70.82381105161736
 10
146.9778535832457
 20
70.82381105161736
 10
148.5544479260239
 20
70.82381105161736
 10
150.0345736808623
 20
70.82381105161736
 10
151.3963586479706
 20
70.82381105161736
 10
152.6190210304776
 20
70.82381105161736
 10
153.6870386220807
 20
70.82381105161736
 10
154.5827725519785
 20
70.82381105161736
 10
155.2924324302735
 20
70.82381105161736
 10
155.8079364470719
 20
70.82381105161736
 10
156.1198558241643
 20
70.82381105161736
 10
156.22389309121
 20
70.82381105161736
  0
LWPOLYLINE
  5
134
330
70
100
AcDbEntity
  8
Standardebene
 62
     7
370
    35
100
AcDbPolyline
 90
       12
 70
     0
 43
0.0
 10
127.7241601968489
 20
70.82381105161736
 10
127.8287747360297
 20
70.82381105161736
 10
128.1407582544703
 20
70.82381105161736
 10
128.6562622712688
 20
70.82381105161736
 10
129.3665635630478
 20
70.82381105161736
 10
130.2622974929456
 20
70.82381105161736
 10
131.3290322575807
 20
70.82381105161736
 10
132.5529826413889
 20
70.82381105161736
 10
133.913479607196
 20
70.82381105161736
 10
135.3941826341701
 20
70.82381105161736
 10
136.9708411182959
 20
70.82381105161736
 10
138.6200434674215
 20
70.82381105161736
  0
LWPOLYLINE
  5
135
330
70
100
AcDbEntity
  8
Standardebene
 62
     7
370
    35
100
AcDbPolyline
 90
       14
 70
     0
 43
0.0
 10
141.973738007962
 20
214.3240426781215
 10
140.2568023949643
 20
214.3240426781215
 10
138.5643099618871
 20
214.3240426781215
 10
136.9206825838761
 20
214.3240426781215
 10
135.351592778857
 20
214.3240426781215
 10
133.8796129752602
 20
214.3240426781215
 10
132.5241190338976
 20
214.3240426781215
 10
131.3077373299238
 20
214.3240426781215
 10
130.2466470039448
 20
214.3240426781215
 10
129.356557512703
 20
214.3240426781215
 10
128.6499814948655
 20
214.3240426781215
 10
128.1381926005357
 20
214.3240426781215
 10
127.8281974638947
 20
214.3240426781215
 10
127.7241601968489
 20
214.3240426781215
  0
LWPOLYLINE
  5
136
330
70
100
AcDbEntity
  8
Standardebene
 62
     7
370
    35
100
AcDbPolyline
 90
       14
 70
     0
 43
0.0
 10
156.22389309121
 20
214.3240426781215
 10
156.1198558241643
 20
214.3240426781215
 10
155.8104379596583
 20
214.3240426781215
 10
155.2980768689295
 20
214.3240426781215
 10
154.591495775356
 20
214.3240426781215
 10
153.7020476975975
 20
214.3240426781215
 10
152.6403159581345
 20
214.3240426781215
 10
151.4239394277668
 20
214.3240426781215
 10
150.069081726282
 20
214.3240426781215
 10
148.596460509202
 20
214.3240426781215
 10
147.0273707041829
 20
214.3240426781215
 10
145.3843259245001
 20
214.3240426781215
 10
143.691892306578
 20
214.3240426781215
 10
141.973738007962
 20
214.3240426781215
  0
LWPOLYLINE
  5
137
330
70
100
AcDbEntity
  8
Standardebene
 62
     7
370
    35
100
AcDbPolyline
 90
       12
 70
     0
 43
0.0
 10
138.6200434674215
 20
70.82381105161736
 10
138.8317793913197
 20
70.28386918109227
 10
139.129325773429
 20
69.78523433891361
 10
139.9492446295607
 20
68.9690998223349
 10
141.0040491034003
 20
68.46110034329547
 10
141.5822192175505
 20
68.34641561242093
 10
142.1722608984853
 20
68.33018785128508
 10
143.3103795665112
 20
68.58951132271887
 10
144.3007219852452
 20
69.20834705173145
 10
144.7072498511742
 20
69.6373885309357
 10
145.036102544234
 20
70.12787742187194
 10
145.3285870927724
 20
70.82381105161736
  0
LWPOLYLINE
  5
138
330
70
100
AcDbEntity
  8
Standardebene
 62
     7
370
    35
100
AcDbPolyline
 90
       26
 70
     0
 43
0.0
 10
128.1219648393998
 20
67.59102295274253
 10
128.230299576786
 20
67.59102295274253
 10
128.5566507572601
 20
67.59102295274253
 10
129.0940911151989
 20
67.59102295274253
 10
129.8351161128438
 20
67.59102295274253
 10
130.7671540459154
 20
67.59102295274253
 10
131.8758372523809
 20
67.59102295274253
 10
133.1436551441357
 20
67.59102295274253
 10
134.5517501647624
 20
67.59102295274253
 10
136.0756844605337
 20
67.59102295274253
 10
137.693008559522
 20
67.59102295274253
 10
139.378643194518
 20
67.59102295274253
 10
141.1036660077515
 20
67.59102295274253
 10
142.8437512571659
 20
67.59102295274253
 10
144.5694100935403
 20
67.59102295274253
 10
146.2550447285364
 20
67.59102295274253
 10
147.8729460996603
 20
67.59102295274253
 10
149.3969445367799
 20
67.59102295274253
 10
150.8044037793274
 20
67.59102295274253
 10
152.0734988626454
 20
67.59102295274253
 10
153.1815406556269
 20
67.59102295274253
 10
154.1129371752152
 20
67.59102295274253
 10
154.8546035863435
 20
67.59102295274253
 10
155.3926853577656
 20
67.59102295274253
 10
155.7183951247564
 20
67.59102295274253
 10
155.8273712756258
 20
67.59102295274253
  0
LWPOLYLINE
  5
139
330
70
100
AcDbEntity
  8
Standardebene
 62
     7
370
    35
100
AcDbPolyline
 90
       26
 70
     0
 43
0.0
 10
128.92430896608
 20
65.32413941887567
 10
129.0270634061591
 20
65.32413941887567
 10
129.3339797580788
 20
65.32413941887567
 10
129.8406964101515
 20
65.32413941887567
 10
130.5384901389993
 20
65.32413941887567
 10
131.416713480794
 20
65.32413941887567
 10
132.4608704908054
 20
65.32413941887567
 10
133.6560162348645
 20
65.32413941887567
 10
134.982074470934
 20
65.32413941887567
 10
136.417750271357
 20
65.32413941887567
 10
137.9416845671276
 20
65.32413941887567
 10
139.5289263737339
 20
65.32413941887567
 10
141.1550378374486
 20
65.32413941887567
 10
142.7942982775777
 20
65.32413941887567
 10
144.4197041864601
 20
65.32413941887567
 10
146.0069459930657
 20
65.32413941887567
 10
147.5309444301853
 20
65.32413941887567
 10
148.9672616440923
 20
65.32413941887567
 10
150.2933198801618
 20
65.32413941887567
 10
151.4871827972535
 20
65.32413941887567
 10
152.5319812207483
 20
65.32413941887567
 10
153.4107818346787
 20
65.32413941887567
 10
154.1079341500425
 20
65.32413941887567
 10
154.6147149434636
 20
65.32413941887567
 10
154.9216370347978
 20
65.32413941887567
 10
155.0243215941133
 20
65.32413941887567
  0
SPLINE
  5
13A
330
70
100
AcDbEntity
  8
Standardebene
 62
     7
370
    35
100
AcDbSpline
210
0.0
220
0.0
230
1.0
 70
     9
 71
     3
 72
    17
 73
    13
 74
     0
 42
0.0000000001
 43
0.0000000001
 40
0.0
 40
0.0
 40
0.0
 40
0.0
 40
1.0
 40
1.0
 40
1.0
 40
2.0
 40
2.0
 40
2.0
 40
3.0
 40
3.0
 40
3.0
 40
4.0
 40
4.0
 40
4.0
 40
4.0
 10
141.973738007962
 20
74.32400443182004
 30
0.0
 10
140.5938010392666
 20
74.32400443182004
 30
0.0
 10
139.4738343046594
 20
73.20467376152643
 30
0.0
 10
139.4738343046594
 20
71.82409537934771
 30
0.0
 10
139.4738343046594
 20
70.44358113851797
 30
0.0
 10
140.5938010392666
 20
69.32425537925169
 30
0.0
 10
141.973738007962
 20
69.32425537925169
 30
0.0
 10
143.3548936622757
 20
69.32425537925169
 30
0.0
 10
144.4742243325687
 20
70.44358113851797
 30
0.0
 10
144.4742243325687
 20
71.82409537934771
 30
0.0
 10
144.4742243325687
 20
73.20467376152643
 30
0.0
 10
143.3548936622757
 20
74.32400443182004
 30
0.0
 10
141.973738007962
 20
74.32400443182004
 30
0.0
  0
SPLINE
  5
13B
330
70
100
AcDbEntity
  8
Standardebene
 62
     7
370
    35
100
AcDbSpline
210
0.0
220
0.0
230
1.0
 70
     9
 71
     3
 72
    17
 73
    13
 74
     0
 42
0.0000000001
 43
0.0000000001
 40
0.0
 40
0.0
 40
0.0
 40
0.0
 40
1.0
 40
1.0
 40
1.0
 40
2.0
 40
2.0
 40
2.0
 40
3.0
 40
3.0
 40
3.0
 40
4.0
 40
4.0
 40
4.0
 40
4.0
 10
141.973738007962
 20
92.32431172984382
 30
0.0
 10
140.5938010392666
 20
92.32431172984382
 30
0.0
 10
139.4738343046594
 20
91.20491691820189
 30
0.0
 10
139.4738343046594
 20
89.82440267737214
 30
0.0
 10
139.4738343046594
 20
88.44388843654174
 30
0.0
 10
140.5938010392666
 20
87.32391635276478
 30
0.0
 10
141.973738007962
 20
87.32391635276478
 30
0.0
 10
143.3548936622757
 20
87.32391635276478
 30
0.0
 10
144.4742243325687
 20
88.44388843654174
 30
0.0
 10
144.4742243325687
 20
89.82440267737214
 30
0.0
 10
144.4742243325687
 20
91.20491691820189
 30
0.0
 10
143.3548936622757
 20
92.32431172984382
 30
0.0
 10
141.973738007962
 20
92.32431172984382
 30
0.0
  0
LINE
  5
13C
330
70
100
AcDbEntity
  8
Standardebene
 62
     7
370
    35
100
AcDbLine
 10
151.1257519427463
 20
239.3238479632523
 30
0.0
 11
151.1257519427463
 21
215.3243911472002
 31
0.0
  0
LINE
  5
13D
330
70
100
AcDbEntity
  8
Standardebene
 62
     7
370
    35
100
AcDbLine
 10
132.8229484023176
 20
239.3238479632523
 30
0.0
 11
151.1257519427463
 21
239.3238479632523
 31
0.0
  0
LINE
  5
13E
330
70
100
AcDbEntity
  8
Standardebene
 62
     7
370
    35
100
AcDbLine
 10
132.8229484023176
 20
215.3243911472002
 30
0.0
 11
132.8229484023176
 21
239.3238479632523
 31
0.0
  0
LINE
  5
13F
330
70
100
AcDbEntity
  8
Standardebene
 62
     7
370
    35
100
AcDbLine
 10
151.1257519427463
 20
215.3243911472002
 30
0.0
 11
132.8229484023176
 21
215.3243911472002
 31
0.0
  0
LWPOLYLINE
  5
140
330
70
100
AcDbEntity
  8
Standardebene
 62
     7
370
    35
100
AcDbPolyline
 90
       10
 70
     0
 43
0.0
 10
132.8229484023176
 20
239.3238479632523
 10
131.1003683506646
 20
239.3238479632523
 10
129.5231325944031
 20
239.3238479632523
 10
128.1106759620877
 20
239.3238479632523
 10
126.8823049995763
 20
239.3238479632523
 10
125.8537984785656
 20
239.3238479632523
 10
125.0395240610893
 20
239.3238479632523
 10
124.4500650696276
 20
239.3238479632523
 10
124.0936957381198
 20
239.3238479632523
 10
123.9746493955566
 20
239.3238479632523
  0
LWPOLYLINE
  5
141
330
70
100
AcDbEntity
  8
Standardebene
 62
     7
370
    35
100
AcDbPolyline
 90
       10
 70
     0
 43
0.0
 10
159.9739811646374
 20
239.3238479632523
 10
159.8549989634225
 20
239.3238479632523
 10
159.4979882184307
 20
239.3238479632523
 10
158.9091706404531
 20
239.3238479632523
 10
158.0948962229767
 20
239.3238479632523
 10
157.0669669741011
 20
239.3238479632523
 10
155.838660152938
 20
239.3238479632523
 10
154.4254979657909
 20
239.3238479632523
 10
152.8483263508777
 20
239.3238479632523
 10
151.1257519427463
 20
239.3238479632523
  0
LWPOLYLINE
  5
142
330
70
100
AcDbEntity
  8
Standardebene
 62
     7
370
    35
100
AcDbPolyline
 90
       10
 70
     0
 43
0.0
 10
151.1257519427463
 20
215.3243911472002
 10
152.8483263508777
 20
215.3243911472002
 10
154.4254979657909
 20
215.3243911472002
 10
155.838660152938
 20
215.3243911472002
 10
157.0669669741011
 20
215.3243911472002
 10
158.0948962229767
 20
215.3243911472002
 10
158.9091706404531
 20
215.3243911472002
 10
159.4979882184307
 20
215.3243911472002
 10
159.8549989634225
 20
215.3243911472002
 10
159.9739811646374
 20
215.3243911472002
  0
LWPOLYLINE
  5
143
330
70
100
AcDbEntity
  8
Standardebene
 62
     7
370
    35
100
AcDbPolyline
 90
       10
 70
     0
 43
0.0
 10
123.9746493955566
 20
215.3243911472002
 10
124.0936957381198
 20
215.3243911472002
 10
124.4500650696276
 20
215.3243911472002
 10
125.0395240610893
 20
215.3243911472002
 10
125.8537984785656
 20
215.3243911472002
 10
126.8823049995763
 20
215.3243911472002
 10
128.1106759620877
 20
215.3243911472002
 10
129.5231325944031
 20
215.3243911472002
 10
131.1003683506646
 20
215.3243911472002
 10
132.8229484023176
 20
215.3243911472002
  0
LWPOLYLINE
  5
144
330
70
100
AcDbEntity
  8
Standardebene
 62
     7
370
    35
100
AcDbPolyline
 90
       20
 70
     0
 43
0.0
 10
141.973738007962
 20
228.7239036684505
 10
141.3247558452184
 20
228.6155689310644
 10
140.7497927984869
 20
228.3055096530744
 10
140.2981735646591
 20
227.8150849034865
 10
140.0294213150156
 20
227.1905405944695
 10
139.9843299471154
 20
226.5253306705907
 10
140.1528292692669
 20
225.8998883826971
 10
140.5136243538124
 20
225.3574449995856
 10
141.0492046126488
 20
224.9509171336573
 10
141.696198393592
 20
224.7439330024881
 10
142.3564052922988
 20
224.7611228838496
 10
142.9633748718642
 20
224.9853610377286
 10
143.473298591355
 20
225.4000437087335
 10
143.8290319685711
 20
225.9757034564625
 10
143.9725107056687
 20
226.6362310619116
 10
143.8935527058328
 20
227.2857993982621
 10
143.6142171337095
 20
227.8685787880217
 10
143.1500261956022
 20
228.3418136562481
 10
142.5406192447994
 20
228.642187590635
 10
141.973738007962
 20
228.7239036684505
  0
LWPOLYLINE
  5
145
330
70
100
AcDbEntity
  8
Standardebene
 62
     7
370
    35
100
AcDbPolyline
 90
       23
 70
     0
 43
0.0
 10
131.9741659394223
 20
240.2236777338666
 10
132.0756375525333
 20
240.2236777338666
 10
132.3794751197316
 20
240.2236777338666
 10
132.8780458205619
 20
240.2236777338666
 10
133.5614077460279
 20
240.2236777338666
 10
134.416411919715
 20
240.2236777338666
 10
135.4255477535201
 20
240.2236777338666
 10
136.5674561784373
 20
240.2236777338666
 10
137.820842266811
 20
240.2236777338666
 10
139.1569065532253
 20
240.2236777338666
 10
140.5512111839535
 20
240.2236777338666
 10
141.973738007962
 20
240.2236777338666
 10
143.3974835175888
 20
240.2236777338666
 10
144.7911522183311
 20
240.2236777338666
 10
146.1284993654955
 20
240.2236777338666
 10
147.380597109621
 20
240.2236777338666
 10
148.5225055345388
 20
240.2236777338666
 10
149.5316413683433
 20
240.2236777338666
 10
150.3872228141661
 20
240.2236777338666
 10
151.0706488809804
 20
240.2236777338666
 10
151.5692195818107
 20
240.2236777338666
 10
151.8724157355256
 20
240.2236777338666
 10
151.9745287621201
 20
240.2236777338666
  0
LWPOLYLINE
  5
146
330
70
100
AcDbEntity
  8
Standardebene
 62
     7
370
    35
100
AcDbPolyline
 90
       12
 70
     0
 43
0.0
 10
141.973738007962
 20
239.7240899871524
 10
140.4798218632244
 20
239.7240899871524
 10
139.0159238695217
 20
239.7240899871524
 10
137.6122546019321
 20
239.7240899871524
 10
136.2974852431747
 20
239.7240899871524
 10
135.098555159562
 20
239.7240899871524
 10
134.0393249326853
 20
239.7240899871524
 10
133.141158820743
 20
239.7240899871524
 10
132.4226422471804
 20
239.7240899871524
 10
131.8989922791401
 20
239.7240899871524
 10
131.5807870499077
 20
239.7240899871524
 10
131.4736709981406
 20
239.7240899871524
  0
LWPOLYLINE
  5
147
330
70
100
AcDbEntity
  8
Standardebene
 62
     7
370
    35
100
AcDbPolyline
 90
       12
 70
     0
 43
0.0
 10
152.4743822899177
 20
239.7240899871524
 10
152.3672662381506
 20
239.7240899871524
 10
152.0490610089188
 20
239.7240899871524
 10
151.5254110408779
 20
239.7240899871524
 10
150.8068996565089
 20
239.7240899871524
 10
149.9093056275087
 20
239.7240899871524
 10
148.8501395419804
 20
239.7240899871524
 10
147.6512150141151
 20
239.7240899871524
 10
146.3357986861262
 20
239.7240899871524
 10
144.9327066906722
 20
239.7240899871524
 10
143.4688728383179
 20
239.7240899871524
 10
141.973738007962
 20
239.7240899871524
  0
LWPOLYLINE
  5
148
330
70
100
AcDbEntity
  8
Standardebene
 62
     7
370
    35
100
AcDbPolyline
 90
        3
 70
     0
 43
0.0
 10
166.9731552832842
 20
155.1239513683914
 10
166.9731552832842
 20
155.1239513683914
 10
166.9737966967842
 20
155.1239513683914
  0
LINE
  5
149
330
70
100
AcDbEntity
  8
Standardebene
 62
     7
370
    35
100
AcDbLine
 10
166.9731552832842
 20
155.3237516685445
 30
0.0
 11
166.9731552832842
 21
155.1239513683914
 31
0.0
  0
LWPOLYLINE
  5
14A
330
70
100
AcDbEntity
  8
Standardebene
 62
     7
370
    35
100
AcDbPolyline
 90
       16
 70
     0
 43
0.0
 10
166.9731552832842
 20
155.3237516685445
 10
166.8184403071708
 20
155.3237516685445
 10
166.4088336565204
 20
155.3237516685445
 10
165.746702517363
 20
155.3237516685445
 10
164.8403852649847
 20
155.3237516685445
 10
163.6971940131002
 20
155.3237516685445
 10
162.3316888477872
 20
155.3237516685445
 10
160.7557359184931
 20
155.3237516685445
 10
160.7557359184931
 20
143.3241882166784
 10
162.3316888477872
 20
143.3241882166784
 10
163.6971940131002
 20
143.3241882166784
 10
164.8403852649847
 20
143.3241882166784
 10
165.746702517363
 20
143.3241882166784
 10
166.4088336565204
 20
143.3241882166784
 10
166.8184403071708
 20
143.3241882166784
 10
166.9731552832842
 20
143.3241882166784
  0
LINE
  5
14B
330
70
100
AcDbEntity
  8
Standardebene
 62
     7
370
    35
100
AcDbLine
 10
166.9731552832842
 20
143.5239885168315
 30
0.0
 11
166.9731552832842
 21
143.3241882166784
 31
0.0
  0
LWPOLYLINE
  5
14C
330
70
100
AcDbEntity
  8
Standardebene
 62
     7
370
    35
100
AcDbPolyline
 90
        3
 70
     0
 43
0.0
 10
166.9737966967842
 20
143.5239885168315
 10
166.9731552832842
 20
143.5239885168315
 10
166.9731552832842
 20
143.5239885168315
  0
LWPOLYLINE
  5
14D
330
70
100
AcDbEntity
  8
Standardebene
 62
     7
370
    35
100
AcDbPolyline
 90
       12
 70
     0
 43
0.0
 10
166.9737966967842
 20
151.5241464741806
 10
166.963143189079
 20
151.4007385199286
 10
166.963143189079
 20
151.4007385199286
 10
166.9362038227661
 20
151.0443050470718
 10
166.9049028447644
 20
150.4937157127186
 10
166.8798235775545
 20
149.3214684300254
 10
166.8786048919355
 20
149.0736904012965
 10
166.8786048919355
 20
149.0736904012965
 10
166.8955442498042
 20
148.3668527423296
 10
166.9261977724213
 20
147.7664897216458
 10
166.9556386513206
 20
147.3402063204213
 10
166.9719305538048
 20
147.1510534840969
  0
LWPOLYLINE
  5
14E
330
70
100
AcDbEntity
  8
Standardebene
 62
     7
370
    35
100
AcDbPolyline
 90
       16
 70
     0
 43
0.0
 10
117.0550807340894
 20
143.3241882166784
 10
117.3432036709391
 20
143.3241882166784
 10
117.8361299331134
 20
143.3241882166784
 10
118.5327049763422
 20
143.3241882166784
 10
119.424013153203
 20
143.3241882166784
 10
120.5038968942532
 20
143.3241882166784
 10
121.7641461069013
 20
143.3241882166784
 10
123.1929587830492
 20
143.3241882166784
 10
123.1929587830492
 20
155.3237516685445
 10
121.7641461069013
 20
155.3237516685445
 10
120.5038968942532
 20
155.3237516685445
 10
119.424013153203
 20
155.3237516685445
 10
118.5327049763422
 20
155.3237516685445
 10
117.8361299331134
 20
155.3237516685445
 10
117.3432036709391
 20
155.3237516685445
 10
117.0550807340894
 20
155.3237516685445
  0
LINE
  5
14F
330
70
100
AcDbEntity
  8
Standardebene
 62
     7
370
    35
100
AcDbLine
 10
117.0550807340894
 20
143.3241882166784
 30
0.0
 11
117.0550807340894
 21
155.3237516685445
 31
0.0
  0
LINE
  5
150
330
70
100
AcDbEntity
  8
Standardebene
 62
     7
370
    35
100
AcDbLine
 10
123.1929587830492
 20
155.3237516685445
 30
0.0
 11
160.7557359184931
 21
155.3237516685445
 31
0.0
  0
LINE
  5
151
330
70
100
AcDbEntity
  8
Standardebene
 62
     7
370
    35
100
AcDbLine
 10
160.7557359184931
 20
143.3241882166784
 30
0.0
 11
123.1929587830492
 21
143.3241882166784
 31
0.0
  0
LWPOLYLINE
  5
152
330
70
100
AcDbEntity
  8
Standardebene
 62
     7
370
    35
100
AcDbPolyline
 90
       10
 70
     0
 43
0.0
 10
141.973738007962
 20
217.5089171897688
 10
140.942088560881
 20
218.1049185987632
 10
139.8922229708658
 20
218.7112467648447
 10
138.8149048837503
 20
219.332584006443
 10
137.724373678872
 20
219.963093460857
 10
137.4218189386411
 20
220.1368523735745
 10
136.4334007603572
 20
220.708159363449
 10
135.444982582074
 20
221.2784400917501
 10
134.4546401633401
 20
221.8500036470185
 10
133.4743679362986
 20
222.4165641771142
  0
LWPOLYLINE
  5
153
330
70
100
AcDbEntity
  8
Standardebene
 62
     7
370
    35
100
AcDbPolyline
 90
       10
 70
     0
 43
0.0
 10
150.4743267652437
 20
222.4165641771142
 10
149.4420415056673
 20
221.8205627681192
 10
148.3915930425285
 20
221.21455530878
 10
147.3148522275486
 20
220.5925766536978
 10
146.2243210226704
 20
219.963093460857
 10
145.9224076959228
 20
219.7883169986368
 10
144.9327066906722
 20
219.2173861447817
 10
143.9449299258724
 20
218.6470412751323
 10
142.9552289206218
 20
218.0751570131229
 10
141.973738007962
 20
217.5089171897688
  0
LWPOLYLINE
  5
154
330
70
100
AcDbEntity
  8
Standardebene
 62
     7
370
    35
100
AcDbPolyline
 90
        7
 70
     0
 43
0.0
 10
150.4743267652437
 20
232.2310243142766
 10
150.4743267652437
 20
230.4593119897764
 10
150.4743267652437
 20
228.6384032510819
 10
150.4743267652437
 20
227.3236427947527
 10
150.4743267652437
 20
225.4773893210262
 10
150.4743267652437
 20
223.6299260641088
 10
150.4743267652437
 20
222.4165641771142
  0
LWPOLYLINE
  5
155
330
70
100
AcDbEntity
  8
Standardebene
 62
     7
370
    35
100
AcDbPolyline
 90
       10
 70
     0
 43
0.0
 10
141.973738007962
 20
237.139056149712
 10
143.0059647271773
 20
236.5427340339753
 10
144.0558303171932
 20
235.9364058678938
 10
145.1331484043087
 20
235.3146837782055
 10
146.2243210226704
 20
234.6852005853648
 10
146.5262343494179
 20
234.510415411074
 10
147.5159353546685
 20
233.9398230455981
 10
148.5037121194683
 20
233.3694691063824
 10
149.4934131247189
 20
232.79726413763
 10
150.4743267652437
 20
232.2310243142766
  0
LWPOLYLINE
  5
156
330
70
100
AcDbEntity
  8
Standardebene
 62
     7
370
    35
100
AcDbPolyline
 90
       10
 70
     0
 43
0.0
 10
133.4743679362986
 20
232.2310243142766
 10
134.506658796863
 20
232.827667136755
 10
135.5564602455298
 20
233.4336745960941
 10
136.6325596470263
 20
234.0553966857825
 10
137.724373678872
 20
234.6852005853648
 10
138.0268642777545
 20
234.859665052914
 10
139.0159238695217
 20
235.4309079014408
 10
140.00376477567
 20
236.0009320643479
 10
140.9934016395722
 20
236.5728254624402
 10
141.973738007962
 20
237.139056149712
  0
LWPOLYLINE
  5
157
330
70
100
AcDbEntity
  8
Standardebene
 62
     7
370
    35
100
AcDbPolyline
 90
        8
 70
     0
 43
0.0
 10
133.4743679362986
 20
222.4165641771142
 10
133.4743679362986
 20
223.6299260641088
 10
133.4743679362986
 20
225.4532810292198
 10
133.4743679362986
 20
226.3853101071129
 10
133.4743679362986
 20
227.3236427947527
 10
133.4743679362986
 20
228.6384032510819
 10
133.4743679362986
 20
230.4430200872922
 10
133.4743679362986
 20
232.2310243142766
  0
SPLINE
  5
158
330
70
100
AcDbEntity
  8
Standardebene
 62
     7
370
    35
100
AcDbSpline
210
0.0
220
0.0
230
1.0
 70
     9
 71
     3
 72
    17
 73
    13
 74
     0
 42
0.0000000001
 43
0.0000000001
 40
0.0
 40
0.0
 40
0.0
 40
0.0
 40
1.0
 40
1.0
 40
1.0
 40
2.0
 40
2.0
 40
2.0
 40
3.0
 40
3.0
 40
3.0
 40
4.0
 40
4.0
 40
4.0
 40
4.0
 10
141.973738007962
 20
235.8236544946279
 30
0.0
 10
137.2802589828025
 20
235.8236544946279
 30
0.0
 10
133.4743679362986
 20
232.018075037709
 30
0.0
 10
133.4743679362986
 20
227.3236427947527
 30
0.0
 10
133.4743679362986
 20
222.6298983017712
 30
0.0
 10
137.2802589828025
 20
218.8236865485262
 30
0.0
 10
141.973738007962
 20
218.8236865485262
 30
0.0
 10
146.6690771322237
 20
218.8236865485262
 30
0.0
 10
150.4743267652437
 20
222.6298983017712
 30
0.0
 10
150.4743267652437
 20
227.3236427947527
 30
0.0
 10
150.4743267652437
 20
232.018075037709
 30
0.0
 10
146.6690771322237
 20
235.8236544946279
 30
0.0
 10
141.973738007962
 20
235.8236544946279
 30
0.0
  0
SPLINE
  5
159
330
70
100
AcDbEntity
  8
Standardebene
 62
     7
370
    35
100
AcDbSpline
210
0.0
220
0.0
230
1.0
 70
     9
 71
     3
 72
    17
 73
    13
 74
     0
 42
0.0000000001
 43
0.0000000001
 40
0.0
 40
0.0
 40
0.0
 40
0.0
 40
1.0
 40
1.0
 40
1.0
 40
2.0
 40
2.0
 40
2.0
 40
3.0
 40
3.0
 40
3.0
 40
4.0
 40
4.0
 40
4.0
 40
4.0
 10
141.973738007962
 20
230.8238914138749
 30
0.0
 10
140.0419288779461
 20
230.8238914138749
 30
0.0
 10
138.4741218998943
 20
229.2569824147006
 30
0.0
 10
138.4741218998943
 20
227.3236427947527
 30
0.0
 10
138.4741218998943
 20
225.3912474901736
 30
0.0
 10
140.0419288779461
 20
223.8240907396271
 30
0.0
 10
141.973738007962
 20
223.8240907396271
 30
0.0
 10
143.9073430957313
 20
223.8240907396271
 30
0.0
 10
145.473931388164
 20
225.3912474901736
 30
0.0
 10
145.473931388164
 20
227.3236427947527
 30
0.0
 10
145.473931388164
 20
229.2569824147006
 30
0.0
 10
143.9073430957313
 20
230.8238914138749
 30
0.0
 10
141.973738007962
 20
230.8238914138749
 30
0.0
  0
SPLINE
  5
15A
330
70
100
AcDbEntity
  8
Standardebene
 62
     7
370
    35
100
AcDbSpline
210
0.0
220
0.0
230
1.0
 70
     9
 71
     3
 72
    17
 73
    13
 74
     0
 42
0.0000000001
 43
0.0000000001
 40
0.0
 40
0.0
 40
0.0
 40
0.0
 40
1.0
 40
1.0
 40
1.0
 40
2.0
 40
2.0
 40
2.0
 40
3.0
 40
3.0
 40
3.0
 40
4.0
 40
4.0
 40
4.0
 40
4.0
 10
141.973738007962
 20
233.323736324999
 30
0.0
 10
138.6607732236323
 20
233.323736324999
 30
0.0
 10
135.9742128474226
 20
230.637240090137
 30
0.0
 10
135.9742128474226
 20
227.3236427947527
 30
0.0
 10
135.9742128474226
 20
224.0101006545809
 30
0.0
 10
138.6607732236323
 20
221.3235314596496
 30
0.0
 10
141.973738007962
 20
221.3235314596496
 30
0.0
 10
145.28792147791
 20
221.3235314596496
 30
0.0
 10
147.9744177127713
 20
224.0101006545809
 30
0.0
 10
147.9744177127713
 20
227.3236427947527
 30
0.0
 10
147.9744177127713
 20
230.637240090137
 30
0.0
 10
145.28792147791
 20
233.323736324999
 30
0.0
 10
141.973738007962
 20
233.323736324999
 30
0.0
  0
SPLINE
  5
15B
330
70
100
AcDbEntity
  8
Standardebene
 62
     7
370
    35
100
AcDbSpline
210
0.0
220
0.0
230
1.0
 70
     9
 71
     3
 72
    17
 73
    13
 74
     0
 42
0.0000000001
 43
0.0000000001
 40
0.0
 40
0.0
 40
0.0
 40
0.0
 40
1.0
 40
1.0
 40
1.0
 40
2.0
 40
2.0
 40
2.0
 40
3.0
 40
3.0
 40
3.0
 40
4.0
 40
4.0
 40
4.0
 40
4.0
 10
141.973738007962
 20
230.3240378860773
 30
0.0
 10
140.3175442518646
 20
230.3240378860773
 30
0.0
 10
138.9746168411753
 20
228.981055278338
 30
0.0
 10
138.9746168411753
 20
227.3236427947527
 30
0.0
 10
138.9746168411753
 20
225.6671835708339
 30
0.0
 10
140.3175442518646
 20
224.3239354534029
 30
0.0
 10
141.973738007962
 20
224.3239354534029
 30
0.0
 10
143.6310863083293
 20
224.3239354534029
 30
0.0
 10
144.9747192738503
 20
225.6671835708339
 30
0.0
 10
144.9747192738503
 20
227.3236427947527
 30
0.0
 10
144.9747192738503
 20
228.981055278338
 30
0.0
 10
143.6310863083293
 20
230.3240378860773
 30
0.0
 10
141.973738007962
 20
230.3240378860773
 30
0.0
  0
LINE
  5
15C
330
70
100
AcDbEntity
  8
Standardebene
 62
     7
370
    35
100
AcDbLine
 10
76.11045100617442
 20
214.3240426781215
 30
0.0
 11
75.1097818303534
 21
215.3243911472002
 31
0.0
  0
LINE
  5
15D
330
70
100
AcDbEntity
  8
Standardebene
 62
     7
370
    35
100
AcDbLine
 10
48.6101686020146
 20
215.3243911472002
 30
0.0
 11
47.61014083967759
 21
214.3240426781215
 31
0.0
  0
LINE
  5
15E
330
70
100
AcDbEntity
  8
Standardebene
 62
     7
370
    35
100
AcDbLine
 10
47.61014083967759
 20
86.32356788368545
 30
0.0
 11
47.61014083967759
 21
75.32307007393203
 31
0.0
  0
LINE
  5
15F
330
70
100
AcDbEntity
  8
Standardebene
 62
     7
370
    35
100
AcDbLine
 10
47.61014083967759
 20
214.3240426781215
 30
0.0
 11
47.61014083967759
 21
155.3237516685445
 31
0.0
  0
LINE
  5
160
330
70
100
AcDbEntity
  8
Standardebene
 62
     7
370
    35
100
AcDbLine
 10
47.61014083967759
 20
143.3248296301624
 30
0.0
 11
47.61014083967759
 21
93.31645010633241
 31
0.0
  0
LINE
  5
161
330
70
100
AcDbEntity
  8
Standardebene
 62
     7
370
    35
100
AcDbLine
 10
76.11045100617442
 20
70.82381105161736
 30
0.0
 11
76.11045100617442
 21
143.3225846829694
 31
0.0
  0
LINE
  5
162
330
70
100
AcDbEntity
  8
Standardebene
 62
     7
370
    35
100
AcDbLine
 10
76.11045100617442
 20
155.3231102550605
 30
0.0
 11
76.11045100617442
 21
214.3240426781215
 31
0.0
  0
LINE
  5
163
330
70
100
AcDbEntity
  8
Standardebene
 62
     7
370
    35
100
AcDbLine
 10
47.91705719159785
 20
68.32512068476403
 30
0.0
 11
48.00691922065515
 21
67.59102295274253
 31
0.0
  0
LINE
  5
164
330
70
100
AcDbEntity
  8
Standardebene
 62
     7
370
    35
100
AcDbLine
 10
75.71360848384852
 20
67.59102295274253
 30
0.0
 11
76.11045100617442
 21
70.82381105161736
 31
0.0
  0
LINE
  5
165
330
70
100
AcDbEntity
  8
Standardebene
 62
     7
370
    35
100
AcDbLine
 10
75.97953851416402
 20
67.06865581166962
 30
0.0
 11
75.71360848384852
 21
67.59102295274253
 31
0.0
  0
LINE
  5
166
330
70
100
AcDbEntity
  8
Standardebene
 62
     7
370
    35
100
AcDbLine
 10
48.00691922065515
 20
67.59102295274253
 30
0.0
 11
47.74041191820398
 21
67.06865581166962
 31
0.0
  0
LINE
  5
167
330
70
100
AcDbEntity
  8
Standardebene
 62
     7
370
    35
100
AcDbLine
 10
74.36035431607274
 20
215.3243911472002
 30
0.0
 11
74.36035431607274
 21
239.3238479632523
 31
0.0
  0
LINE
  5
168
330
70
100
AcDbEntity
  8
Standardebene
 62
     7
370
    35
100
AcDbLine
 10
17.36005468982142
 20
221.3235314596496
 30
0.0
 11
18.36033901755241
 21
222.3235592219865
 31
0.0
  0
LINE
  5
169
330
70
100
AcDbEntity
  8
Standardebene
 62
     7
370
    35
100
AcDbLine
 10
18.36033901755241
 20
232.3240292694036
 30
0.0
 11
17.36005468982142
 21
233.323736324999
 31
0.0
  0
LINE
  5
16A
330
70
100
AcDbEntity
  8
Standardebene
 62
     7
370
    35
100
AcDbLine
 10
22.36012936015879
 20
221.3235314596496
 30
0.0
 11
33.86015999096885
 21
221.3235314596496
 31
0.0
  0
LWPOLYLINE
  5
16B
330
70
100
AcDbEntity
  8
Standardebene
 62
     7
370
    35
100
AcDbPolyline
 90
        3
 70
     0
 43
0.0
 10
33.86015999096885
 20
233.323736324999
 10
22.36012936015879
 20
233.323736324999
 10
21.36042230456345
 20
232.3240292694036
  0
LINE
  5
16C
330
70
100
AcDbEntity
  8
Standardebene
 62
     7
370
    35
100
AcDbLine
 10
21.36042230456345
 20
222.3235592219865
 30
0.0
 11
22.36012936015879
 21
221.3235314596496
 31
0.0
  0
LINE
  5
16D
330
70
100
AcDbEntity
  8
Standardebene
 62
     7
370
    35
100
AcDbLine
 10
12.56010102637884
 20
221.3235314596496
 30
0.0
 11
17.36005468982142
 21
221.3235314596496
 31
0.0
  0
LINE
  5
16E
330
70
100
AcDbEntity
  8
Standardebene
 62
     7
370
    35
100
AcDbLine
 10
17.36005468982142
 20
233.323736324999
 30
0.0
 11
12.56010102637884
 21
233.323736324999
 31
0.0
  0
LINE
  5
16F
330
70
100
AcDbEntity
  8
Standardebene
 62
     7
370
    35
100
AcDbLine
 10
18.36033901755241
 20
222.3235592219865
 30
0.0
 11
21.36042230456345
 21
222.3235592219865
 31
0.0
  0
LINE
  5
170
330
70
100
AcDbEntity
  8
Standardebene
 62
     7
370
    35
100
AcDbLine
 10
21.36042230456345
 20
232.3240292694036
 30
0.0
 11
18.36033901755241
 21
232.3240292694036
 31
0.0
  0
LINE
  5
171
330
70
100
AcDbEntity
  8
Standardebene
 62
     7
370
    35
100
AcDbLine
 10
35.41917960429482
 20
237.139056149712
 30
0.0
 11
34.66032331180505
 21
235.8236544946279
 31
0.0
  0
LINE
  5
172
330
70
100
AcDbEntity
  8
Standardebene
 62
     7
370
    35
100
AcDbLine
 10
40.85996947923855
 20
235.8236544946279
 30
0.0
 11
40.10111318674878
 21
237.139056149712
 31
0.0
  0
LINE
  5
173
330
70
100
AcDbEntity
  8
Standardebene
 62
     7
370
    35
100
AcDbLine
 10
40.10111318674878
 20
217.5089171897688
 30
0.0
 11
40.85996947923855
 21
218.8236865485262
 31
0.0
  0
LINE
  5
174
330
70
100
AcDbEntity
  8
Standardebene
 62
     7
370
    35
100
AcDbLine
 10
34.66032331180505
 20
218.8236865485262
 30
0.0
 11
35.41917960429482
 21
217.5089171897688
 31
0.0
  0
LINE
  5
175
330
70
100
AcDbEntity
  8
Standardebene
 62
     7
370
    35
100
AcDbLine
 10
51.36029617768785
 20
239.7240899871524
 30
0.0
 11
51.36029617768785
 21
239.3238479632523
 31
0.0
  0
LWPOLYLINE
  5
176
330
70
100
AcDbEntity
  8
Standardebene
 62
     7
370
    35
100
AcDbPolyline
 90
        3
 70
     0
 43
0.0
 10
72.36029879139872
 20
239.3238479632523
 10
72.36029879139872
 20
239.7240899871524
 10
71.86044526360105
 20
240.2236777338666
  0
LINE
  5
177
330
70
100
AcDbEntity
  8
Standardebene
 62
     7
370
    35
100
AcDbLine
 10
51.86046728899262
 20
240.2236777338666
 30
0.0
 11
51.36029617768785
 21
239.7240899871524
 31
0.0
  0
SPLINE
  5
178
330
70
100
AcDbEntity
  8
Standardebene
 62
     7
370
    35
100
AcDbSpline
210
0.0
220
0.0
230
1.0
 70
     8
 71
     3
 72
    11
 73
     7
 74
     0
 42
0.0000000001
 43
0.0000000001
 40
0.0
 40
0.0
 40
0.0
 40
0.0
 40
1.0
 40
1.0
 40
1.0
 40
2.0
 40
2.0
 40
2.0
 40
2.0
 10
47.74041191820398
 20
67.06865581166962
 30
0.0
 10
47.65087059588836
 20
66.89201538786041
 30
0.0
 10
47.60828074057522
 20
66.70221628846803
 30
0.0
 10
47.61014083967759
 20
66.52371091597181
 30
0.0
 10
47.61014083967759
 20
65.86093836333105
 30
0.0
 10
48.147901904358
 20
65.32413941887567
 30
0.0
 10
48.80996890216771
 20
65.32413941887567
 30
0.0
  0
SPLINE
  5
179
330
70
100
AcDbEntity
  8
Standardebene
 62
     7
370
    35
100
AcDbSpline
210
0.0
220
0.0
230
1.0
 70
     8
 71
     3
 72
    11
 73
     7
 74
     0
 42
0.0000000001
 43
0.0000000001
 40
0.0
 40
0.0
 40
0.0
 40
0.0
 40
1.0
 40
1.0
 40
1.0
 40
2.0
 40
2.0
 40
2.0
 40
2.0
 10
74.90966082345861
 20
65.32413941887567
 30
0.0
 10
75.57301438313456
 20
65.32413941887567
 30
0.0
 10
76.11045100617442
 20
65.86093836333105
 30
0.0
 10
76.11045100617442
 20
66.52371091597181
 30
0.0
 10
76.11045100617442
 20
66.72286980264093
 30
0.0
 10
76.06157529872122
 20
66.91080395334627
 30
0.0
 10
75.97953851416402
 20
67.06865581166962
 30
0.0
  0
SPLINE
  5
17A
330
70
100
AcDbEntity
  8
Standardebene
 62
     7
370
    35
100
AcDbSpline
210
0.0
220
0.0
230
1.0
 70
     8
 71
     3
 72
     8
 73
     4
 74
     0
 42
0.0000000001
 43
0.0000000001
 40
0.0
 40
0.0
 40
0.0
 40
0.0
 40
1.0
 40
1.0
 40
1.0
 40
1.0
 10
34.66032331180505
 20
220.524330259039
 30
0.0
 10
34.66032331180505
 20
220.9658793011744
 30
0.0
 10
34.30209388119422
 20
221.3235314596496
 30
0.0
 10
33.86015999096885
 20
221.3235314596496
 30
0.0
  0
SPLINE
  5
17B
330
70
100
AcDbEntity
  8
Standardebene
 62
     7
370
    35
100
AcDbSpline
210
0.0
220
0.0
230
1.0
 70
     8
 71
     3
 72
     8
 73
     4
 74
     0
 42
0.0000000001
 43
0.0000000001
 40
0.0
 40
0.0
 40
0.0
 40
0.0
 40
1.0
 40
1.0
 40
1.0
 40
1.0
 10
33.86015999096885
 20
233.323736324999
 30
0.0
 10
34.30209388119422
 20
233.323736324999
 30
0.0
 10
34.66032331180505
 20
233.6820298969581
 30
0.0
 10
34.66032331180505
 20
234.1236430804418
 30
0.0
  0
SPLINE
  5
17C
330
70
100
AcDbEntity
  8
Standardebene
 62
     7
370
    35
100
AcDbSpline
210
0.0
220
0.0
230
1.0
 70
     8
 71
     3
 72
     8
 73
     4
 74
     0
 42
0.0000000001
 43
0.0000000001
 40
0.0
 40
0.0
 40
0.0
 40
0.0
 40
1.0
 40
1.0
 40
1.0
 40
1.0
 10
11.36059367063039
 20
222.5236802288813
 30
0.0
 10
11.36059367063039
 20
221.86129252433
 30
0.0
 10
11.89771332182745
 20
221.3235314596496
 30
0.0
 10
12.56010102637884
 20
221.3235314596496
 30
0.0
  0
SPLINE
  5
17D
330
70
100
AcDbEntity
  8
Standardebene
 62
     7
370
    35
100
AcDbSpline
210
0.0
220
0.0
230
1.0
 70
     8
 71
     3
 72
     8
 73
     4
 74
     0
 42
0.0000000001
 43
0.0000000001
 40
0.0
 40
0.0
 40
0.0
 40
0.0
 40
1.0
 40
1.0
 40
1.0
 40
1.0
 10
12.56010102637884
 20
233.323736324999
 30
0.0
 10
11.89771332182745
 20
233.323736324999
 30
0.0
 10
11.36059367063039
 20
232.7866166738019
 30
0.0
 10
11.36059367063039
 20
232.1239082625088
 30
0.0
  0
LWPOLYLINE
  5
17E
330
70
100
AcDbEntity
  8
Standardebene
 62
     7
370
    35
100
AcDbPolyline
 90
        6
 70
     0
 43
0.0
 10
72.60365106709
 20
215.3243911472002
 10
73.48713768165588
 20
215.3243911472002
 10
74.18903277459389
 20
215.3243911472002
 10
74.69793023251067
 20
215.3243911472002
 10
75.00645011813931
 20
215.3243911472002
 10
75.1097818303534
 20
215.3243911472002
  0
LWPOLYLINE
  5
17F
330
70
100
AcDbEntity
  8
Standardebene
 62
     7
370
    35
100
AcDbPolyline
 90
       16
 70
     0
 43
0.0
 10
47.61014083967759
 20
86.32356788368545
 10
47.62207113047305
 20
86.37244359113863
 10
47.62207113047305
 20
86.37244359113863
 10
47.65587362106106
 20
86.51458081911281
 10
47.77299572317299
 20
87.06209136874464
 10
47.91673648485553
 20
87.92273998108719
 10
47.97812279303347
 20
88.44760863474711
 10
48.02295455774599
 20
89.01384845810115
 10
48.04450605079622
 20
89.59387867135301
 10
48.04232524495154
 20
90.18019473674494
 10
47.96997380399743
 20
91.279513306349
 10
47.83874060524537
 20
92.23034465449115
 10
47.76638916429126
 20
92.62244071703769
 10
47.70000286873488
 20
92.93628433458135
 10
47.64926706217933
 20
93.16174668729319
 10
47.61200093877994
 20
93.31587283419739
  0
LWPOLYLINE
  5
180
330
70
100
AcDbEntity
  8
Standardebene
 62
     7
370
    35
100
AcDbPolyline
 90
       11
 70
     0
 43
0.0
 10
48.0107035602082
 20
70.82381105161736
 10
48.02295455774599
 20
71.01360530142506
 10
48.02295455774599
 20
71.01360530142506
 10
48.04450605079622
 20
71.59357634168469
 10
48.04232524495154
 20
72.17988743872116
 10
47.96997380399743
 20
73.27985243276386
 10
47.83874060524537
 20
74.23003735646737
 10
47.76638916429126
 20
74.6221334190139
 10
47.70000286873488
 20
74.93662350284846
 10
47.64926706217933
 20
75.16143387605564
 10
47.61200093877994
 20
75.31620694965697
  0
LWPOLYLINE
  5
181
330
70
100
AcDbEntity
  8
Standardebene
 62
     7
370
    35
100
AcDbPolyline
 90
       25
 70
     0
 43
0.0
 10
48.0107035602082
 20
70.82381105161736
 10
48.5165222334036
 20
70.82381105161736
 10
49.21803616045675
 20
70.82381105161736
 10
50.10376713150216
 20
70.82381105161736
 10
51.16203214666149
 20
70.82381105161736
 10
52.37597130579112
 20
70.82381105161736
 10
53.72922547356688
 20
70.82381105161736
 10
55.20152598390527
 20
70.82381105161736
 10
56.77061904883505
 20
70.82381105161736
 10
58.41456184892407
 20
70.82381105161736
 10
60.10891640585731
 20
70.82381105161736
 10
61.82867423818234
 20
70.82381105161736
 10
63.5493300493847
 20
70.82381105161736
 10
65.24433279521655
 20
70.82381105161736
 10
66.89077359238801
 20
70.82381105161736
 10
68.46326288887015
 20
70.82381105161736
 10
69.93902703202055
 20
70.82381105161736
 10
71.29702765957503
 20
70.82381105161736
 10
72.51661125736072
 20
70.82381105161736
 10
73.58052380266776
 20
70.82381105161736
 10
74.47337137188928
 20
70.82381105161736
 10
75.18149185782416
 20
70.82381105161736
 10
75.69513577551965
 20
70.82381105161736
 10
76.00583646699297
 20
70.82381105161736
 10
76.11045100617442
 20
70.82381105161736
  0
LWPOLYLINE
  5
182
330
70
100
AcDbEntity
  8
Standardebene
 62
     7
370
    35
100
AcDbPolyline
 90
       27
 70
     0
 43
0.0
 10
76.11045100617442
 20
214.3240426781215
 10
76.00679858721864
 20
214.3240426781215
 10
75.69609789574532
 20
214.3240426781215
 10
75.1843178022318
 20
214.3240426781215
 10
74.47779712492634
 20
214.3240426781215
 10
73.58802834042617
 20
214.3240426781215
 10
72.52694167239607
 20
214.3240426781215
 10
71.30921451576384
 20
214.3240426781215
 10
69.95531893450473
 20
214.3240426781215
 10
68.48237701068235
 20
214.3240426781215
 10
66.91296649892159
 20
214.3240426781215
 10
65.2706307487103
 20
214.3240426781215
 10
63.57780880805833
 20
214.3240426781215
 10
61.86029592292568
 20
214.3240426781215
 10
60.14214162430967
 20
214.3240426781215
 10
58.44996457178093
 20
214.3240426781215
 10
56.80730464018873
 20
214.3240426781215
 10
55.23757342168565
 20
214.3240426781215
 10
53.76495538858661
 20
214.3240426781215
 10
52.41041520986248
 20
214.3240426781215
 10
51.1939745381465
 20
214.3240426781215
 10
50.13256350542517
 20
214.3240426781215
 10
49.24247401418334
 20
214.3240426781215
 10
48.53621362735147
 20
214.3240426781215
 10
48.02385253662268
 20
214.3240426781215
 10
47.71379325863335
 20
214.3240426781215
 10
47.61014083967759
 20
214.3240426781215
  0
LWPOLYLINE
  5
183
330
70
100
AcDbEntity
  8
Standardebene
 62
     7
370
    35
100
AcDbPolyline
 90
        8
 70
     0
 43
0.0
 10
47.9189172907002
 20
68.3351957624993
 10
47.9176986050812
 20
68.33018785128508
 10
47.9176986050812
 20
68.33018785128508
 10
47.94867887634054
 20
68.58951132271887
 10
48.00191619548244
 20
69.20834705173145
 10
48.02295455774599
 20
69.6373885309357
 10
48.03077980224608
 20
70.12787742187194
 10
48.0107035602082
 20
70.82381105161736
  0
LWPOLYLINE
  5
184
330
70
100
AcDbEntity
  8
Standardebene
 62
     7
370
    35
100
AcDbPolyline
 90
       26
 70
     0
 43
0.0
 10
48.00691922065515
 20
67.59102295274253
 10
48.11685749175032
 20
67.59102295274253
 10
48.44256725874047
 20
67.59102295274253
 10
48.98001067978274
 20
67.59102295274253
 10
49.72039120084077
 20
67.59102295274253
 10
50.65274984065407
 20
67.59102295274253
 10
51.7620744606029
 20
67.59102295274253
 10
53.0302130591001
 20
67.59102295274253
 10
54.43708939410777
 20
67.59102295274253
 10
55.96166510336239
 20
67.59102295274253
 10
57.57963061583465
 20
67.59102295274253
 10
59.26423898925664
 20
67.59102295274253
 10
60.99021853237339
 20
67.59102295274253
 10
62.73005260673629
 20
67.59102295274253
 10
64.45603560391363
 20
67.59102295274253
 10
66.14128193675901
 20
67.59102295274253
 10
67.75860603574729
 20
67.59102295274253
 10
69.28260447286689
 20
67.59102295274253
 10
70.69005808000958
 20
67.59102295274253
 10
71.95845324390012
 20
67.59102295274253
 10
73.06777786384896
 20
67.59102295274253
 10
73.99955923152723
 20
67.59102295274253
 10
74.74026352243047
 20
67.59102295274253
 10
75.2777038803692
 20
67.59102295274253
 10
75.60373435410167
 20
67.59102295274253
 10
75.71360848384852
 20
67.59102295274253
  0
LWPOLYLINE
  5
185
330
70
100
AcDbEntity
  8
Standardebene
 62
     7
370
    35
100
AcDbPolyline
 90
       26
 70
     0
 43
0.0
 10
48.80996890216771
 20
65.32413941887567
 10
48.91297990763948
 20
65.32413941887567
 10
49.21996040090744
 20
65.32413941887567
 10
49.72667705298018
 20
65.32413941887567
 10
50.42415007508629
 20
65.32413941887567
 10
51.30262998227433
 20
65.32413941887567
 10
52.34717184037581
 20
65.32413941887567
 10
53.54167617095155
 20
65.32413941887567
 10
54.86741370027936
 20
65.32413941887567
 10
56.30398747957904
 20
65.32413941887567
 10
57.82734450321528
 20
65.32413941887567
 10
59.41490701656323
 20
65.32413941887567
 10
61.04101848027727
 20
65.32413941887567
 10
62.67957336557409
 20
65.32413941887567
 10
64.30568482928876
 20
65.32413941887567
 10
65.89324734263671
 20
65.32413941887567
 10
67.41660436627296
 20
65.32413941887567
 10
68.85285743883095
 20
65.32413941887567
 10
70.17833840276478
 20
65.32413941887567
 10
71.37309929873386
 20
65.32413941887567
 10
72.418218428971
 20
65.32413941887567
 10
73.2961210640234
 20
65.32413941887567
 10
73.99391479287118
 20
65.32413941887567
 10
74.49999003146055
 20
65.32413941887567
 10
74.80754779686417
 20
65.32413941887567
 10
74.90966082345861
 20
65.32413941887567
  0
LINE
  5
186
330
70
100
AcDbEntity
  8
Standardebene
 62
     7
370
    35
100
AcDbLine
 10
40.85996947923855
 20
239.3238479632523
 30
0.0
 11
40.85996947923855
 21
215.3243911472002
 31
0.0
  0
LWPOLYLINE
  5
187
330
70
100
AcDbEntity
  8
Standardebene
 62
     7
370
    35
100
AcDbPolyline
 90
       25
 70
     0
 43
0.0
 10
74.36035431607274
 20
239.3238479632523
 10
74.25355897104727
 20
239.3238479632523
 10
73.93657242743454
 20
239.3238479632523
 10
73.41228104591029
 20
239.3238479632523
 10
72.68632926513055
 20
239.3238479632523
 10
71.76744030847341
 20
239.3238479632523
 10
70.66722375999265
 20
239.3238479632523
 10
69.39786647587644
 20
239.3238479632523
 10
67.97501894512627
 20
239.3238479632523
 10
66.41471650483294
 20
239.3238479632523
 10
64.73665054894372
 20
239.3238479632523
 10
62.95897649528845
 20
239.3238479632523
 10
61.10394114302226
 20
239.3238479632523
 10
59.19252896178652
 20
239.3238479632523
 10
57.24731428996277
 20
239.3238479632523
 10
55.2920935677949
 20
239.3238479632523
 10
53.34963697395084
 20
239.3238479632523
 10
51.44265054575216
 20
239.3238479632523
 10
49.59358375512575
 20
239.3238479632523
 10
47.82437294321188
 20
239.3238479632523
 10
46.15567162418407
 20
239.3238479632523
 10
44.60787674682187
 20
239.3238479632523
 10
43.19856304057617
 20
239.3238479632523
 10
41.94421483197745
 20
239.3238479632523
 10
40.85996947923855
 20
239.3238479632523
  0
LWPOLYLINE
  5
188
330
70
100
AcDbEntity
  8
Standardebene
 62
     7
370
    35
100
AcDbPolyline
 90
       21
 70
     0
 43
0.0
 10
40.85996947923855
 20
215.3243911472002
 10
41.93857327854337
 20
215.3243911472002
 10
43.1854140641617
 20
215.3243911472002
 10
44.5862611124233
 20
215.3243911472002
 10
46.12469135292473
 20
215.3243911472002
 10
47.78268106677543
 20
215.3243911472002
 10
49.54066714272553
 20
215.3243911472002
 10
51.37908646952381
 20
215.3243911472002
 10
53.27510472715205
 20
215.3243911472002
 10
55.20685293622607
 20
215.3243911472002
 10
57.15244923573277
 20
215.3243911472002
 10
59.08919724957243
 20
215.3243911472002
 10
60.99336145844309
 20
215.3243911472002
 10
62.84371107603683
 20
215.3243911472002
 10
64.61824561986445
 20
215.3243911472002
 10
66.29663228249535
 20
215.3243911472002
 10
67.85821754975602
 20
215.3243911472002
 10
69.28574739893659
 20
215.3243911472002
 10
70.56293353588755
 20
215.3243911472002
 10
71.67347323312075
 20
215.3243911472002
 10
72.60493389405734
 20
215.3243911472002
  0
LWPOLYLINE
  5
189
330
70
100
AcDbEntity
  8
Standardebene
 62
     7
370
    35
100
AcDbPolyline
 90
       23
 70
     0
 43
0.0
 10
51.86046728899262
 20
240.2236777338666
 10
51.96194204053757
 20
240.2236777338666
 10
52.26539162121259
 20
240.2236777338666
 10
52.76428302878459
 20
240.2236777338666
 10
53.44802980234057
 20
240.2236777338666
 10
54.302713269286
 20
240.2236777338666
 10
55.31178496174212
 20
240.2236777338666
 10
56.45369338665997
 20
240.2236777338666
 10
57.70644134510184
 20
240.2236777338666
 10
59.04314707876757
 20
240.2236777338666
 10
60.43712768543382
 20
240.2236777338666
 10
61.86029592292568
 20
240.2236777338666
 10
63.28314345367586
 20
240.2236777338666
 10
64.67744808440407
 20
240.2236777338666
 10
66.01415378430232
 20
240.2236777338666
 10
67.26689845919203
 20
240.2236777338666
 10
68.40880688410924
 20
240.2236777338666
 10
69.41787857656599
 20
240.2236777338666
 10
70.27288275025312
 20
240.2236777338666
 10
70.95624467571908
 20
240.2236777338666
 10
71.45487951789774
 20
240.2236777338666
 10
71.75865294374765
 20
240.2236777338666
 10
71.86044526360105
 20
240.2236777338666
  0
LWPOLYLINE
  5
18A
330
70
100
AcDbEntity
  8
Standardebene
 62
     7
370
    35
100
AcDbPolyline
 90
       23
 70
     0
 43
0.0
 10
72.36029879139872
 20
239.7240899871524
 10
72.25350344637324
 20
239.7240899871524
 10
71.93497751039919
 20
239.7240899871524
 10
71.41100683561726
 20
239.7240899871524
 10
70.69352171282161
 20
239.7240899871524
 10
69.79560697707903
 20
239.7240899871524
 10
68.73605604346072
 20
239.7240899871524
 10
67.53719010119626
 20
239.7240899871524
 10
66.22242074243889
 20
239.7240899871524
 10
64.81836662675924
 20
239.7240899871524
 10
63.35453277440494
 20
239.7240899871524
 10
61.86029592292568
 20
239.7240899871524
 10
60.36638312893641
 20
239.7240899871524
 10
58.90222521909276
 20
239.7240899871524
 10
57.49817110341311
 20
239.7240899871524
 10
56.18372569648165
 20
239.7240899871524
 10
54.98421509564961
 20
239.7240899871524
 10
53.92434345528897
 20
239.7240899871524
 10
53.02707013303039
 20
239.7240899871524
 10
52.30862289000907
 20
239.7240899871524
 10
51.78561433545215
 20
239.7240899871524
 10
51.46708839947875
 20
239.7240899871524
 10
51.36029617768785
 20
239.7240899871524
  0
LINE
  5
18B
330
70
100
AcDbEntity
  8
Standardebene
 62
     7
370
    35
100
AcDbLine
 10
62.10993405075701
 20
155.1239513683914
 30
0.0
 11
62.10993405075701
 21
155.3237516685445
 31
0.0
  0
LWPOLYLINE
  5
18C
330
70
100
AcDbEntity
  8
Standardebene
 62
     7
370
    35
100
AcDbPolyline
 90
        3
 70
     0
 43
0.0
 10
61.61033708835268
 20
155.1239513683914
 10
61.86029592292568
 20
155.1239513683914
 10
62.10993405075701
 20
155.1239513683914
  0
LINE
  5
18D
330
70
100
AcDbEntity
  8
Standardebene
 62
     7
370
    35
100
AcDbLine
 10
61.61033708835268
 20
155.3237516685445
 30
0.0
 11
61.61033708835268
 21
155.1239513683914
 31
0.0
  0
LWPOLYLINE
  5
18E
330
70
100
AcDbEntity
  8
Standardebene
 62
     7
370
    35
100
AcDbPolyline
 90
       16
 70
     0
 43
0.0
 10
61.61033708835268
 20
155.3237516685445
 10
59.07726695877697
 20
155.3237516685445
 10
56.57299629461592
 20
155.3237516685445
 10
54.12324577656475
 20
155.3237516685445
 10
51.75367194396715
 20
155.3237516685445
 10
49.48768638897762
 20
155.3237516685445
 10
47.34927797588247
 20
155.3237516685445
 10
45.36019062177889
 20
155.3237516685445
 10
45.36019062177889
 20
143.3241882166784
 10
47.34927797588247
 20
143.3241882166784
 10
49.48768638897762
 20
143.3241882166784
 10
51.75367194396715
 20
143.3241882166784
 10
54.12324577656475
 20
143.3241882166784
 10
56.57299629461592
 20
143.3241882166784
 10
59.07726695877697
 20
143.3241882166784
 10
61.61033708835268
 20
143.3241882166784
  0
LINE
  5
18F
330
70
100
AcDbEntity
  8
Standardebene
 62
     7
370
    35
100
AcDbLine
 10
61.61033708835268
 20
143.5239885168315
 30
0.0
 11
61.61033708835268
 21
143.3241882166784
 31
0.0
  0
LWPOLYLINE
  5
190
330
70
100
AcDbEntity
  8
Standardebene
 62
     7
370
    35
100
AcDbPolyline
 90
        3
 70
     0
 43
0.0
 10
62.10993405075701
 20
143.5239885168315
 10
61.86029592292568
 20
143.5239885168315
 10
61.61033708835268
 20
143.5239885168315
  0
LINE
  5
191
330
70
100
AcDbEntity
  8
Standardebene
 62
     7
370
    35
100
AcDbLine
 10
62.10993405075701
 20
143.3241882166784
 30
0.0
 11
62.10993405075701
 21
143.5239885168315
 31
0.0
  0
LWPOLYLINE
  5
192
330
70
100
AcDbEntity
  8
Standardebene
 62
     7
370
    35
100
AcDbPolyline
 90
       17
 70
     0
 43
0.0
 10
62.10993405075701
 20
143.3241882166784
 10
64.48136798245697
 20
143.3241882166784
 10
66.8293903220037
 20
143.3241882166784
 10
69.13225715230261
 20
143.3241882166784
 10
71.36969980727082
 20
143.3241882166784
 10
73.52067992464478
 20
143.3241882166784
 10
75.56672479609563
 20
143.3241882166784
 10
77.48942585464347
 20
143.3241882166784
 10
79.27050281600448
 20
143.3241882166784
 10
80.89507488735847
 20
143.3241882166784
 10
82.34698235494127
 20
143.3241882166784
 10
83.61479634067219
 20
143.3241882166784
 10
84.68499473811927
 20
143.3241882166784
 10
85.55000496215116
 20
143.3241882166784
 10
86.20110378939044
 20
143.3241882166784
 10
86.63271092252873
 20
143.3241882166784
 10
86.84033646718194
 20
143.3241882166784
  0
LINE
  5
193
330
70
100
AcDbEntity
  8
Standardebene
 62
     7
370
    35
100
AcDbLine
 10
86.84033646718194
 20
155.3237516685445
 30
0.0
 11
86.84033646718194
 21
143.3241882166784
 31
0.0
  0
LWPOLYLINE
  5
194
330
70
100
AcDbEntity
  8
Standardebene
 62
     7
370
    35
100
AcDbPolyline
 90
       17
 70
     0
 43
0.0
 10
86.84033646718194
 20
155.3237516685445
 10
86.63271092252873
 20
155.3237516685445
 10
86.20110378939044
 20
155.3237516685445
 10
85.55000496215116
 20
155.3237516685445
 10
84.68499473811927
 20
155.3237516685445
 10
83.61479634067219
 20
155.3237516685445
 10
82.34698235494127
 20
155.3237516685445
 10
80.89507488735847
 20
155.3237516685445
 10
79.27050281600448
 20
155.3237516685445
 10
77.48942585464347
 20
155.3237516685445
 10
75.56672479609563
 20
155.3237516685445
 10
73.52067992464478
 20
155.3237516685445
 10
71.36969980727082
 20
155.3237516685445
 10
69.13225715230261
 20
155.3237516685445
 10
66.8293903220037
 20
155.3237516685445
 10
64.48136798245697
 20
155.3237516685445
 10
62.10993405075701
 20
155.3237516685445
  0
LWPOLYLINE
  5
195
330
70
100
AcDbEntity
  8
Standardebene
 62
     7
370
    35
100
AcDbPolyline
 90
       26
 70
     0
 43
0.0
 10
82.96023388062153
 20
149.3239699426118
 10
82.92168885079785
 20
149.7229932707817
 10
82.78763342933087
 20
150.1579998953837
 10
82.46666620496327
 20
150.6766538044141
 10
82.13339165949493
 20
150.9942106540003
 10
81.76354874420175
 20
151.2196674934983
 10
80.89257337477212
 20
151.4239005317276
 10
80.4396713139763
 20
151.3816243981164
 10
79.98369046845976
 20
151.2322391977772
 10
79.38544411227237
 20
150.8187840662254
 10
79.01092277917673
 20
150.3186739730344
 10
78.8148426772296
 20
149.7987442031988
 10
78.76314475044839
 20
149.215250357135
 10
78.85461031321471
 20
148.7025685596645
 10
79.05915707314655
 20
148.2434447880782
 10
79.48133542807572
 20
147.7395503553335
 10
79.81891134451365
 20
147.5002389845887
 10
80.17188118455843
 20
147.3402063204213
 10
80.66859178628639
 20
147.2324488551708
 10
81.15465492418559
 20
147.2450205594496
 10
81.6288519126383
 20
147.3693264925783
 10
82.0679674825112
 20
147.6063929161308
 10
82.5521666223325
 20
148.0799484910989
 10
82.81431231309431
 20
148.5547868930349
 10
82.92951017475552
 20
148.9647211733418
 10
82.96023388062153
 20
149.3239699426118
  0
LWPOLYLINE
  5
196
330
70
100
AcDbEntity
  8
Standardebene
 62
     7
370
    35
100
AcDbPolyline
 90
       20
 70
     0
 43
0.0
 10
61.86029592292568
 20
151.5241464741806
 10
61.1340234354049
 20
151.4007385199286
 10
60.48850490547335
 20
151.0443050470718
 10
59.99679732891745
 20
150.4937157127186
 10
59.7146395374661
 20
149.8103537872526
 10
59.67455119473868
 20
149.0736904012965
 10
59.87935452006386
 20
148.3668527423296
 10
60.30653590016575
 20
147.7664897216458
 10
60.90946457478352
 20
147.3402063204213
 10
61.62098793462264
 20
147.1369423874574
 10
62.35700652465364
 20
147.1811357764796
 10
63.03568613168921
 20
147.4645763948983
 10
63.58377395345607
 20
147.9568612435892
 10
63.93988671957119
 20
148.6055296134324
 10
64.06015174775281
 20
149.3342966996982
 10
63.93360086743115
 20
150.0593505016006
 10
63.57498658873031
 20
150.7019826708552
 10
63.02221644853306
 20
151.1921508550504
 10
62.33757169609976
 20
151.4714864271737
 10
61.86029592292568
 20
151.5241464741806
  0
SPLINE
  5
197
330
70
100
AcDbEntity
  8
Standardebene
 62
     7
370
    35
100
AcDbSpline
210
0.0
220
0.0
230
1.0
 70
     9
 71
     3
 72
    17
 73
    13
 74
     0
 42
0.0000000001
 43
0.0000000001
 40
0.0
 40
0.0
 40
0.0
 40
0.0
 40
1.0
 40
1.0
 40
1.0
 40
2.0
 40
2.0
 40
2.0
 40
3.0
 40
3.0
 40
3.0
 40
4.0
 40
4.0
 40
4.0
 40
4.0
 10
61.86029592292568
 20
150.9738137052207
 30
0.0
 10
60.94891150402695
 20
150.9738137052207
 30
0.0
 10
60.21006731222673
 20
150.2353613165245
 30
0.0
 10
60.21006731222673
 20
149.3239699426118
 30
0.0
 10
60.21006731222673
 20
148.412585523713
 30
0.0
 10
60.94891150402695
 20
147.6740620386539
 30
0.0
 10
61.86029592292568
 20
147.6740620386539
 30
0.0
 10
62.77104233983517
 20
147.6740620386539
 30
0.0
 10
63.51046039227694
 20
148.412585523713
 30
0.0
 10
63.51046039227694
 20
149.3239699426118
 30
0.0
 10
63.51046039227694
 20
150.2353613165245
 30
0.0
 10
62.77104233983517
 20
150.9738137052207
 30
0.0
 10
61.86029592292568
 20
150.9738137052207
 30
0.0
  0
LWPOLYLINE
  5
198
330
70
100
AcDbEntity
  8
Standardebene
 62
     7
370
    35
100
AcDbPolyline
 90
       18
 70
     0
 43
0.0
 10
22.36012936015879
 20
233.323736324999
 10
22.36012936015879
 20
233.2216874397522
 10
22.36012936015879
 20
232.9191326995213
 10
22.36012936015879
 20
232.4252443171213
 10
22.36012936015879
 20
231.7581101527913
 10
22.36012936015879
 20
230.9397306890202
 10
22.36012936015879
 20
229.9983370890842
 10
22.36012936015879
 20
228.9657165517811
 10
22.36012936015879
 20
227.8776868594892
 10
22.36012936015879
 20
226.7699657732493
 10
22.36012936015879
 20
225.6819360809574
 10
22.36012936015879
 20
224.6496452203937
 10
22.36012936015879
 20
223.7081785091123
 10
22.36012936015879
 20
222.8895512703616
 10
22.36012936015879
 20
222.2230497291012
 10
22.36012936015879
 20
221.7291613467012
 10
22.36012936015879
 20
221.4259651929863
 10
22.36012936015879
 20
221.3235314596496
  0
LINE
  5
199
330
70
100
AcDbEntity
  8
Standardebene
 62
     7
370
    35
100
AcDbLine
 10
40.10111318674878
 20
217.5089171897688
 30
0.0
 11
35.41917960429482
 21
217.5089171897688
 31
0.0
  0
LWPOLYLINE
  5
19A
330
70
100
AcDbEntity
  8
Standardebene
 62
     7
370
    35
100
AcDbPolyline
 90
       11
 70
     0
 43
0.0
 10
40.10111318674878
 20
222.4165641771142
 10
35.41917960429482
 20
222.4165641771142
 10
35.10886376091151
 20
221.8205627681192
 10
34.86891368331079
 20
221.21455530878
 10
34.71362477229528
 20
220.5925766536978
 10
34.66032331180505
 20
219.963093460857
 10
34.66442835810042
 20
219.7883169986368
 10
34.73549967534449
 20
219.2173861447817
 10
34.88994933894683
 20
218.6470412751323
 10
35.1223334440683
 20
218.0751570131229
 10
35.41917960429482
 20
217.5089171897688
  0
LWPOLYLINE
  5
19B
330
70
100
AcDbEntity
  8
Standardebene
 62
     7
370
    35
100
AcDbPolyline
 90
        6
 70
     0
 43
0.0
 10
40.85996947923855
 20
219.963093460857
 10
40.8561851396855
 20
219.7883169986368
 10
40.78543723244041
 20
219.2173861447817
 10
40.63040759344575
 20
218.6470412751323
 10
40.39828005371761
 20
218.0751570131229
 10
40.10111318674878
 20
217.5089171897688
  0
LWPOLYLINE
  5
19C
330
70
100
AcDbEntity
  8
Standardebene
 62
     7
370
    35
100
AcDbPolyline
 90
        5
 70
     0
 43
0.0
 10
40.10111318674878
 20
222.4165641771142
 10
40.41207044361544
 20
221.8205627681192
 10
40.65170252110199
 20
221.21455530878
 10
40.8067321600973
 20
220.5925766536978
 10
40.85996947923855
 20
219.963093460857
  0
LWPOLYLINE
  5
19D
330
70
100
AcDbEntity
  8
Standardebene
 62
     7
370
    35
100
AcDbPolyline
 90
        8
 70
     0
 43
0.0
 10
40.10111318674878
 20
232.2310243142766
 10
35.41917960429482
 20
232.2310243142766
 10
34.98327500081551
 20
230.4593119897764
 10
34.71862779746734
 20
228.6384032510819
 10
34.66032331180505
 20
227.3236427947527
 10
34.77468733593727
 20
225.4773893210262
 10
35.10354002899777
 20
223.6299260641088
 10
35.41917960429482
 20
222.4165641771142
  0
LWPOLYLINE
  5
19E
330
70
100
AcDbEntity
  8
Standardebene
 62
     7
370
    35
100
AcDbPolyline
 90
        4
 70
     0
 43
0.0
 10
40.85996947923855
 20
227.3236427947527
 10
40.745926161848
 20
225.4773893210262
 10
40.41707346878815
 20
223.6299260641088
 10
40.10111318674878
 20
222.4165641771142
  0
LWPOLYLINE
  5
19F
330
70
100
AcDbEntity
  8
Standardebene
 62
     7
370
    35
100
AcDbPolyline
 90
        4
 70
     0
 43
0.0
 10
40.10111318674878
 20
232.2310243142766
 10
40.53644336789392
 20
230.4593119897764
 10
40.80198855682773
 20
228.6384032510819
 10
40.85996947923855
 20
227.3236427947527
  0
LWPOLYLINE
  5
1A0
330
70
100
AcDbEntity
  8
Standardebene
 62
     7
370
    35
100
AcDbPolyline
 90
       11
 70
     0
 43
0.0
 10
40.10111318674878
 20
237.139056149712
 10
35.41917960429482
 20
237.139056149712
 10
35.10886376091151
 20
236.5427340339753
 10
34.86891368331079
 20
235.9364058678938
 10
34.71362477229528
 20
235.3146837782055
 10
34.66032331180505
 20
234.6852005853648
 10
34.66442835810042
 20
234.510415411074
 10
34.73549967534449
 20
233.9398230455981
 10
34.88994933894683
 20
233.3694691063824
 10
35.1223334440683
 20
232.79726413763
 10
35.41917960429482
 20
232.2310243142766
  0
LWPOLYLINE
  5
1A1
330
70
100
AcDbEntity
  8
Standardebene
 62
     7
370
    35
100
AcDbPolyline
 90
        6
 70
     0
 43
0.0
 10
40.85996947923855
 20
234.6852005853648
 10
40.8561851396855
 20
234.510415411074
 10
40.78543723244041
 20
233.9398230455981
 10
40.63040759344575
 20
233.3694691063824
 10
40.39828005371761
 20
232.79726413763
 10
40.10111318674878
 20
232.2310243142766
  0
LWPOLYLINE
  5
1A2
330
70
100
AcDbEntity
  8
Standardebene
 62
     7
370
    35
100
AcDbPolyline
 90
        5
 70
     0
 43
0.0
 10
40.10111318674878
 20
237.139056149712
 10
40.41207044361544
 20
236.5427340339753
 10
40.65170252110199
 20
235.9364058678938
 10
40.8067321600973
 20
235.3146837782055
 10
40.85996947923855
 20
234.6852005853648
  0
LWPOLYLINE
  5
1A3
330
70
100
AcDbEntity
  8
Standardebene
 62
     7
370
    35
100
AcDbPolyline
 90
        4
 70
     0
 43
0.0
 10
34.66032331180505
 20
234.6852005853648
 10
34.66032331180505
 20
235.3112842867425
 10
34.66032331180505
 20
235.6945929845633
 10
34.66032331180505
 20
235.8236544946279
  0
LWPOLYLINE
  5
1A4
330
70
100
AcDbEntity
  8
Standardebene
 62
     7
370
    35
100
AcDbPolyline
 90
        7
 70
     0
 43
0.0
 10
34.66032331180505
 20
227.3236427947527
 10
34.66032331180505
 20
228.799718742216
 10
34.66032331180505
 20
230.2307122242086
 10
34.66032331180505
 20
231.5739603416396
 10
34.66032331180505
 20
232.7875787940275
 10
34.66032331180505
 20
233.8355201435921
 10
34.66032331180505
 20
234.6852005853648
  0
LWPOLYLINE
  5
1A5
330
70
100
AcDbEntity
  8
Standardebene
 62
     7
370
    35
100
AcDbPolyline
 90
        7
 70
     0
 43
0.0
 10
34.66032331180505
 20
219.963093460857
 10
34.66032331180505
 20
220.8127739026304
 10
34.66032331180505
 20
221.8600826031186
 10
34.66032331180505
 20
223.0736922910995
 10
34.66032331180505
 20
224.4162989950466
 10
34.66032331180505
 20
225.8476131837808
 10
34.66032331180505
 20
227.3236427947527
  0
LWPOLYLINE
  5
1A6
330
70
100
AcDbEntity
  8
Standardebene
 62
     7
370
    35
100
AcDbPolyline
 90
        4
 70
     0
 43
0.0
 10
34.66032331180505
 20
218.8236865485262
 10
34.66032331180505
 20
218.952995506827
 10
34.66032331180505
 20
219.3363683459967
 10
34.66032331180505
 20
219.963093460857
  0
LWPOLYLINE
  5
1A7
330
70
100
AcDbEntity
  8
Standardebene
 62
     7
370
    35
100
AcDbPolyline
 90
        8
 70
     0
 43
0.0
 10
18.36033901755241
 20
227.3236427947527
 10
18.36033901755241
 20
228.4364221450848
 10
18.36033901755241
 20
229.4934715661174
 10
18.36033901755241
 20
230.4411599881898
 10
18.36033901755241
 20
231.2329207923903
 10
18.36033901755241
 20
231.828601494643
 10
18.36033901755241
 20
232.1984405093076
 10
18.36033901755241
 20
232.3240292694036
  0
LWPOLYLINE
  5
1A8
330
70
100
AcDbEntity
  8
Standardebene
 62
     7
370
    35
100
AcDbPolyline
 90
        8
 70
     0
 43
0.0
 10
18.36033901755241
 20
222.3235592219865
 10
18.36033901755241
 20
222.4491479820826
 10
18.36033901755241
 20
222.8190511380955
 10
18.36033901755241
 20
223.4150525470905
 10
18.36033901755241
 20
224.2061719378077
 10
18.36033901755241
 20
225.1548224801051
 10
18.36033901755241
 20
226.210909780912
 10
18.36033901755241
 20
227.3236427947527
  0
LWPOLYLINE
  5
1A9
330
70
100
AcDbEntity
  8
Standardebene
 62
     7
370
    35
100
AcDbPolyline
 90
        8
 70
     0
 43
0.0
 10
21.36042230456345
 20
227.3236427947527
 10
21.36042230456345
 20
228.4364221450848
 10
21.36042230456345
 20
229.4934715661174
 10
21.36042230456345
 20
230.4411599881898
 10
21.36042230456345
 20
231.2329207923903
 10
21.36042230456345
 20
231.828601494643
 10
21.36042230456345
 20
232.1984405093076
 10
21.36042230456345
 20
232.3240292694036
  0
LWPOLYLINE
  5
1AA
330
70
100
AcDbEntity
  8
Standardebene
 62
     7
370
    35
100
AcDbPolyline
 90
        8
 70
     0
 43
0.0
 10
21.36042230456345
 20
222.3235592219865
 10
21.36042230456345
 20
222.4491479820826
 10
21.36042230456345
 20
222.8190511380955
 10
21.36042230456345
 20
223.4150525470905
 10
21.36042230456345
 20
224.2061719378077
 10
21.36042230456345
 20
225.1548224801051
 10
21.36042230456345
 20
226.210909780912
 10
21.36042230456345
 20
227.3236427947527
  0
LWPOLYLINE
  5
1AB
330
70
100
AcDbEntity
  8
Standardebene
 62
     7
370
    35
100
AcDbPolyline
 90
        8
 70
     0
 43
0.0
 10
11.36059367063039
 20
227.3236427947527
 10
11.36059367063039
 20
228.3919721906687
 10
11.36059367063039
 20
229.4063676150392
 10
11.36059367063039
 20
230.3167899137122
 10
11.36059367063039
 20
231.07692903317
 10
11.36059367063039
 20
231.6481718816961
 10
11.36059367063039
 20
232.0036432343272
 10
11.36059367063039
 20
232.1239082625088
  0
LWPOLYLINE
  5
1AC
330
70
100
AcDbEntity
  8
Standardebene
 62
     7
370
    35
100
AcDbPolyline
 90
        8
 70
     0
 43
0.0
 10
11.36059367063039
 20
222.5236802288813
 10
11.36059367063039
 20
222.6442659638046
 10
11.36059367063039
 20
222.9988393375591
 10
11.36059367063039
 20
223.5710443063109
 10
11.36059367063039
 20
224.3308074045005
 10
11.36059367063039
 20
225.2409731607729
 10
11.36059367063039
 20
226.2553597353282
 10
11.36059367063039
 20
227.3236427947527
  0
LWPOLYLINE
  5
1AD
330
70
100
AcDbEntity
  8
Standardebene
 62
     7
370
    35
100
AcDbPolyline
 90
        9
 70
     0
 43
0.0
 10
17.36005468982142
 20
227.3236427947527
 10
17.36005468982142
 20
228.4940210759154
 10
17.36005468982142
 20
229.6199583050901
 10
17.36005468982142
 20
230.6569314840848
 10
17.36005468982142
 20
231.5664558038812
 10
17.36005468982142
 20
232.3128045334398
 10
17.36005468982142
 20
232.8674347727401
 10
17.36005468982142
 20
233.2082177565961
 10
17.36005468982142
 20
233.323736324999
  0
LWPOLYLINE
  5
1AE
330
70
100
AcDbEntity
  8
Standardebene
 62
     7
370
    35
100
AcDbPolyline
 90
        9
 70
     0
 43
0.0
 10
17.36005468982142
 20
221.3235314596496
 10
17.36005468982142
 20
221.4387934626591
 10
17.36005468982142
 20
221.7804744253918
 10
17.36005468982142
 20
222.3354895127827
 10
17.36005468982142
 20
223.0815175355997
 10
17.36005468982142
 20
223.9907211486537
 10
17.36005468982142
 20
225.0279508930418
 10
17.36005468982142
 20
226.1532467087331
 10
17.36005468982142
 20
227.3236427947527
  0
LINE
  5
1AF
330
70
100
AcDbEntity
  8
Standardebene
  6
AI-Linetype-5
 62
     7
370
     9
100
AcDbLine
 10
121.4916736590524
 20
227.3236427947527
 30
0.0
 11
161.4942594035516
 21
227.3236427947527
 31
0.0
  0
MTEXT
  5
1B2
330
70
100
AcDbEntity
  8
Text
100
AcDbMText
 10
78.80259736528199
 20
99.10626760760191
 30
0.0
 40
0.2
 41
0.0
 46
0.0
 71
     7
 72
     1
  1
\C7;\FINDEX Univers 45 Light|b0|i0|c1;\H2.497667;\W1.000000;ø16H5
 73
     1
 44
1.0
  0
MTEXT
  5
1B3
330
70
100
AcDbEntity
  8
Text
100
AcDbMText
 10
58.92801376564994
 20
112.6236165083024
 30
0.0
 40
0.2
 41
0.0
 46
0.0
 71
     7
 72
     1
  1
\C7;\FINDEX Univers 45 Light|b0|i0|c1;\H2.497667;\W1.000000;36
 11
0.0000000000000001
 21
1.0
 31
0.0
 73
     1
 44
1.0
  0
MTEXT
  5
1B4
330
70
100
AcDbEntity
  8
Text
100
AcDbMText
 10
70.61394990639165
 20
161.9141479087402
 30
0.0
 40
0.2
 41
0.0
 46
0.0
 71
     7
 72
     1
  1
\C7;\FINDEX Univers 45 Light|b0|i0|c1;\H2.497667;\W1.000000;ø28,5
 73
     1
 44
1.0
  0
MTEXT
  5
1B5
330
70
100
AcDbEntity
  8
Text
100
AcDbMText
 10
138.63494869581
 20
191.724559142607
 30
0.0
 40
0.2
 41
0.0
 46
0.0
 71
     7
 72
     1
  1
\C7;\FINDEX Univers 45 Light|b0|i0|c1;\H2.497667;\W1.000000;25
 11
0.0000000000000001
 21
1.0
 31
0.0
 73
     1
 44
1.0
  0
MTEXT
  5
1B6
330
70
100
AcDbEntity
  8
Text
100
AcDbMText
 10
138.6328816385189
 20
143.4381008213453
 30
0.0
 40
0.2
 41
0.0
 46
0.0
 71
     7
 72
     1
  1
\C7;\FINDEX Univers 45 Light|b0|i0|c1;\H2.497667;\W1.000000;150
 11
0.0000000000000001
 21
1.0
 31
0.0
 73
     1
 44
1.0
  0
MTEXT
  5
1B7
330
70
100
AcDbEntity
  8
Text
100
AcDbMText
 10
114.4057644028221
 20
162.0137111682639
 30
0.0
 40
0.2
 41
0.0
 46
0.0
 71
     7
 72
     1
  1
\C7;\FINDEX Univers 45 Light|b0|i0|c1;\H2.497667;\W1.000000;ø50
 73
     1
 44
1.0
  0
LINE
  5
1B9
330
70
100
AcDbEntity
  8
Bemaßung
 62
     7
370
     9
100
AcDbLine
 10
78.17336633896461
 20
104.7215867727742
 30
0.0
 11
78.17336633896461
 21
97.39834362627235
 31
0.0
  0
LINE
  5
1BA
330
70
100
AcDbEntity
  8
Bemaßung
 62
     7
370
     9
100
AcDbLine
 10
69.37318378569819
 20
104.7215867727742
 30
0.0
 11
69.37318378569819
 21
97.39834362627235
 31
0.0
  0
LINE
  5
1BB
330
70
100
AcDbEntity
  8
Bemaßung
 62
     7
370
     9
100
AcDbLine
 10
89.75040382138756
 20
98.49873053093114
 30
0.0
 11
69.37318378569819
 21
98.49873053093114
 31
0.0
  0
LWPOLYLINE
  5
1BC
330
70
100
AcDbEntity
  8
Bemaßung
 62
     7
370
     9
100
AcDbPolyline
 90
        4
 70
     0
 43
0.0
 10
78.17336633896461
 20
98.49873053093114
 10
76.79823859626925
 20
98.67959720469597
 10
76.79823859626925
 20
98.31750610282256
 10
78.17336633896461
 20
98.49873053093114
  0
LINE
  5
1BD
330
70
100
AcDbEntity
  8
Bemaßung
 62
     7
370
     9
100
AcDbLine
 10
76.79823859626925
 20
98.66615637170554
 30
0.0
 11
76.90005026033849
 21
98.66615637170554
 31
0.0
  0
LINE
  5
1BE
330
70
100
AcDbEntity
  8
Bemaßung
 62
     7
370
     9
100
AcDbLine
 10
76.79823859626925
 20
98.66615637170554
 30
0.0
 11
76.90005026033849
 21
98.66615637170554
 31
0.0
  0
LINE
  5
1BF
330
70
100
AcDbEntity
  8
Bemaßung
 62
     7
370
     9
100
AcDbLine
 10
76.79823859626925
 20
98.63860442796401
 30
0.0
 11
77.11206969937387
 21
98.63860442796401
 31
0.0
  0
LINE
  5
1C0
330
70
100
AcDbEntity
  8
Bemaßung
 62
     7
370
     9
100
AcDbLine
 10
76.79823859626925
 20
98.61034692868491
 30
0.0
 11
77.32430275844667
 21
98.61034692868491
 31
0.0
  0
LINE
  5
1C1
330
70
100
AcDbEntity
  8
Bemaßung
 62
     7
370
     9
100
AcDbLine
 10
76.79823859626925
 20
98.58244220717459
 30
0.0
 11
77.53635552188277
 21
98.58244220717459
 31
0.0
  0
LINE
  5
1C2
330
70
100
AcDbEntity
  8
Bemaßung
 62
     7
370
     9
100
AcDbLine
 10
76.79823859626925
 20
98.55453748566429
 30
0.0
 11
77.74890412757132
 21
98.55453748566429
 31
0.0
  0
LINE
  5
1C3
330
70
100
AcDbEntity
  8
Bemaßung
 62
     7
370
     9
100
AcDbLine
 10
76.79823859626925
 20
98.52627998638519
 30
0.0
 11
77.96095884438357
 21
98.52627998638519
 31
0.0
  0
LINE
  5
1C4
330
70
100
AcDbEntity
  8
Bemaßung
 62
     7
370
     9
100
AcDbLine
 10
76.79823859626925
 20
98.49873053093114
 30
0.0
 11
78.17336633896461
 21
98.49873053093114
 31
0.0
  0
LINE
  5
1C5
330
70
100
AcDbEntity
  8
Bemaßung
 62
     7
370
     9
100
AcDbLine
 10
76.79823859626925
 20
98.33094693581299
 30
0.0
 11
76.90005026033849
 21
98.33094693581299
 31
0.0
  0
LINE
  5
1C6
330
70
100
AcDbEntity
  8
Bemaßung
 62
     7
370
     9
100
AcDbLine
 10
76.79823859626925
 20
98.33094693581299
 30
0.0
 11
76.90005026033849
 21
98.33094693581299
 31
0.0
  0
LINE
  5
1C7
330
70
100
AcDbEntity
  8
Bemaßung
 62
     7
370
     9
100
AcDbLine
 10
76.79823859626925
 20
98.3588516573233
 30
0.0
 11
77.11206969937387
 21
98.3588516573233
 31
0.0
  0
LINE
  5
1C8
330
70
100
AcDbEntity
  8
Bemaßung
 62
     7
370
     9
100
AcDbLine
 10
76.79823859626925
 20
98.38675637883362
 30
0.0
 11
77.32430275844667
 21
98.38675637883362
 31
0.0
  0
LINE
  5
1C9
330
70
100
AcDbEntity
  8
Bemaßung
 62
     7
370
     9
100
AcDbLine
 10
76.79823859626925
 20
98.41466110034394
 30
0.0
 11
77.53635552188277
 21
98.41466110034394
 31
0.0
  0
LINE
  5
1CA
330
70
100
AcDbEntity
  8
Bemaßung
 62
     7
370
     9
100
AcDbLine
 10
76.79823859626925
 20
98.44256582185424
 30
0.0
 11
77.74890412757132
 21
98.44256582185424
 31
0.0
  0
LINE
  5
1CB
330
70
100
AcDbEntity
  8
Bemaßung
 62
     7
370
     9
100
AcDbLine
 10
76.79823859626925
 20
98.47047054336456
 30
0.0
 11
77.96095884438357
 21
98.47047054336456
 31
0.0
  0
LINE
  5
1CC
330
70
100
AcDbEntity
  8
Bemaßung
 62
     7
370
     9
100
AcDbLine
 10
76.79823859626925
 20
98.49873053093114
 30
0.0
 11
78.17336633896461
 21
98.49873053093114
 31
0.0
  0
LWPOLYLINE
  5
1CD
330
70
100
AcDbEntity
  8
Bemaßung
 62
     7
370
     9
100
AcDbPolyline
 90
        4
 70
     0
 43
0.0
 10
69.37318378569819
 20
98.49873053093114
 10
70.74813513950914
 20
98.31750610282256
 10
70.74813513950914
 20
98.67959720469597
 10
69.37318378569819
 20
98.49873053093114
  0
LINE
  5
1CE
330
70
100
AcDbEntity
  8
Bemaßung
 62
     7
370
     9
100
AcDbLine
 10
70.74813513950914
 20
98.33094693581299
 30
0.0
 11
70.6464998643243
 21
98.33094693581299
 31
0.0
  0
LINE
  5
1CF
330
70
100
AcDbEntity
  8
Bemaßung
 62
     7
370
     9
100
AcDbLine
 10
70.74813513950914
 20
98.33094693581299
 30
0.0
 11
70.6464998643243
 21
98.33094693581299
 31
0.0
  0
LINE
  5
1D0
330
70
100
AcDbEntity
  8
Bemaßung
 62
     7
370
     9
100
AcDbLine
 10
70.74813513950914
 20
98.3588516573233
 30
0.0
 11
70.43444514751205
 21
98.3588516573233
 31
0.0
  0
LINE
  5
1D1
330
70
100
AcDbEntity
  8
Bemaßung
 62
     7
370
     9
100
AcDbLine
 10
70.74813513950914
 20
98.38675637883362
 30
0.0
 11
70.22207293070789
 21
98.38675637883362
 31
0.0
  0
LINE
  5
1D2
330
70
100
AcDbEntity
  8
Bemaßung
 62
     7
370
     9
100
AcDbLine
 10
70.74813513950914
 20
98.41466110034394
 30
0.0
 11
70.01001821389563
 21
98.41466110034394
 31
0.0
  0
LINE
  5
1D3
330
70
100
AcDbEntity
  8
Bemaßung
 62
     7
370
     9
100
AcDbLine
 10
70.74813513950914
 20
98.44256582185424
 30
0.0
 11
69.79764599709148
 21
98.44256582185424
 31
0.0
  0
LINE
  5
1D4
330
70
100
AcDbEntity
  8
Bemaßung
 62
     7
370
     9
100
AcDbLine
 10
70.74813513950914
 20
98.47047054336456
 30
0.0
 11
69.58559128027921
 21
98.47047054336456
 31
0.0
  0
LINE
  5
1D5
330
70
100
AcDbEntity
  8
Bemaßung
 62
     7
370
     9
100
AcDbLine
 10
70.74813513950914
 20
98.49873053093114
 30
0.0
 11
69.37318378569819
 21
98.49873053093114
 31
0.0
  0
LINE
  5
1D6
330
70
100
AcDbEntity
  8
Bemaßung
 62
     7
370
     9
100
AcDbLine
 10
70.74813513950914
 20
98.66615637170554
 30
0.0
 11
70.6464998643243
 21
98.66615637170554
 31
0.0
  0
LINE
  5
1D7
330
70
100
AcDbEntity
  8
Bemaßung
 62
     7
370
     9
100
AcDbLine
 10
70.74813513950914
 20
98.66615637170554
 30
0.0
 11
70.6464998643243
 21
98.66615637170554
 31
0.0
  0
LINE
  5
1D8
330
70
100
AcDbEntity
  8
Bemaßung
 62
     7
370
     9
100
AcDbLine
 10
70.74813513950914
 20
98.63860442796401
 30
0.0
 11
70.43444514751205
 21
98.63860442796401
 31
0.0
  0
LINE
  5
1D9
330
70
100
AcDbEntity
  8
Bemaßung
 62
     7
370
     9
100
AcDbLine
 10
70.74813513950914
 20
98.61034692868491
 30
0.0
 11
70.22207293070789
 21
98.61034692868491
 31
0.0
  0
LINE
  5
1DA
330
70
100
AcDbEntity
  8
Bemaßung
 62
     7
370
     9
100
AcDbLine
 10
70.74813513950914
 20
98.58244220717459
 30
0.0
 11
70.01001821389563
 21
98.58244220717459
 31
0.0
  0
LINE
  5
1DB
330
70
100
AcDbEntity
  8
Bemaßung
 62
     7
370
     9
100
AcDbLine
 10
70.74813513950914
 20
98.55453748566429
 30
0.0
 11
69.79764599709148
 21
98.55453748566429
 31
0.0
  0
LINE
  5
1DC
330
70
100
AcDbEntity
  8
Bemaßung
 62
     7
370
     9
100
AcDbLine
 10
70.74813513950914
 20
98.52627998638519
 30
0.0
 11
69.58559128027921
 21
98.52627998638519
 31
0.0
  0
LINE
  5
1DD
330
70
100
AcDbEntity
  8
Bemaßung
 62
     7
370
     9
100
AcDbLine
 10
70.74813513950914
 20
98.49873053093114
 30
0.0
 11
69.37318378569819
 21
98.49873053093114
 31
0.0
  0
LINE
  5
1DE
330
70
100
AcDbEntity
  8
Bemaßung
 62
     7
370
     9
100
AcDbLine
 10
66.59558802322722
 20
104.7215867727742
 30
0.0
 11
58.69978655799924
 21
104.7215867727742
 31
0.0
  0
LINE
  5
1DF
330
70
100
AcDbEntity
  8
Bemaßung
 62
     7
370
     9
100
AcDbLine
 10
69.37318378569819
 20
124.5109026567955
 30
0.0
 11
58.69978655799924
 21
124.5109026567955
 31
0.0
  0
LINE
  5
1E0
330
70
100
AcDbEntity
  8
Bemaßung
 62
     7
370
     9
100
AcDbLine
 10
59.79995930770927
 20
104.7215867727742
 30
0.0
 11
59.79995930770927
 21
124.5109026567955
 31
0.0
  0
LWPOLYLINE
  5
1E1
330
70
100
AcDbEntity
  8
Bemaßung
 62
     7
370
     9
100
AcDbPolyline
 90
        4
 70
     0
 43
0.0
 10
59.79995930770927
 20
104.7215867727742
 10
59.98082846976158
 20
106.0965381265851
 10
59.61909165176183
 20
106.0965381265851
 10
59.79995930770927
 20
104.7215867727742
  0
LINE
  5
1E2
330
70
100
AcDbEntity
  8
Bemaßung
 62
     7
370
     9
100
AcDbLine
 10
59.96738763677115
 20
106.0965381265851
 30
0.0
 11
59.96738763677115
 21
105.994905529057
 31
0.0
  0
LINE
  5
1E3
330
70
100
AcDbEntity
  8
Bemaßung
 62
     7
370
     9
100
AcDbLine
 10
59.96738763677115
 20
106.0965381265851
 30
0.0
 11
59.96738763677115
 21
105.994905529057
 31
0.0
  0
LINE
  5
1E4
330
70
100
AcDbEntity
  8
Bemaßung
 62
     7
370
     9
100
AcDbLine
 10
59.93983569302962
 20
106.0965381265851
 30
0.0
 11
59.93983569302962
 21
105.7826717457036
 31
0.0
  0
LINE
  5
1E5
330
70
100
AcDbEntity
  8
Bemaßung
 62
     7
370
     9
100
AcDbLine
 10
59.91175458263491
 20
106.0965381265851
 30
0.0
 11
59.91175458263491
 21
105.5704759177839
 31
0.0
  0
LINE
  5
1E6
330
70
100
AcDbEntity
  8
Bemaßung
 62
     7
370
     9
100
AcDbLine
 10
59.88349708335582
 20
106.0965381265851
 30
0.0
 11
59.88349708335582
 21
105.3578920343184
 31
0.0
  0
LINE
  5
1E7
330
70
100
AcDbEntity
  8
Bemaßung
 62
     7
370
     9
100
AcDbLine
 10
59.85559236184551
 20
106.0965381265851
 30
0.0
 11
59.85559236184551
 21
105.1460489841675
 31
0.0
  0
LINE
  5
1E8
330
70
100
AcDbEntity
  8
Bemaßung
 62
     7
370
     9
100
AcDbLine
 10
59.82768764033519
 20
106.0965381265851
 30
0.0
 11
59.82768764033519
 21
104.9338178784708
 31
0.0
  0
LINE
  5
1E9
330
70
100
AcDbEntity
  8
Bemaßung
 62
     7
370
     9
100
AcDbLine
 10
59.79995930770927
 20
106.0965381265851
 30
0.0
 11
59.79995930770927
 21
104.7215867727742
 31
0.0
  0
LINE
  5
1EA
330
70
100
AcDbEntity
  8
Bemaßung
 62
     7
370
     9
100
AcDbLine
 10
59.63217820087861
 20
106.0965381265851
 30
0.0
 11
59.63217820087861
 21
105.994905529057
 31
0.0
  0
LINE
  5
1EB
330
70
100
AcDbEntity
  8
Bemaßung
 62
     7
370
     9
100
AcDbLine
 10
59.63217820087861
 20
106.0965381265851
 30
0.0
 11
59.63217820087861
 21
105.994905529057
 31
0.0
  0
LINE
  5
1EC
330
70
100
AcDbEntity
  8
Bemaßung
 62
     7
370
     9
100
AcDbLine
 10
59.66008292238893
 20
106.0965381265851
 30
0.0
 11
59.66008292238893
 21
105.7826717457036
 31
0.0
  0
LINE
  5
1ED
330
70
100
AcDbEntity
  8
Bemaßung
 62
     7
370
     9
100
AcDbLine
 10
59.68816403278363
 20
106.0965381265851
 30
0.0
 11
59.68816403278363
 21
105.5704759177839
 31
0.0
  0
LINE
  5
1EE
330
70
100
AcDbEntity
  8
Bemaßung
 62
     7
370
     9
100
AcDbLine
 10
59.71606875429394
 20
106.0965381265851
 30
0.0
 11
59.71606875429394
 21
105.3578920343184
 31
0.0
  0
LINE
  5
1EF
330
70
100
AcDbEntity
  8
Bemaßung
 62
     7
370
     9
100
AcDbLine
 10
59.74397498506403
 20
106.0965381265851
 30
0.0
 11
59.74397498506403
 21
105.1460489841675
 31
0.0
  0
LINE
  5
1F0
330
70
100
AcDbEntity
  8
Bemaßung
 62
     7
370
     9
100
AcDbLine
 10
59.77205458619895
 20
106.0965381265851
 30
0.0
 11
59.77205458619895
 21
104.9338178784708
 31
0.0
  0
LINE
  5
1F1
330
70
100
AcDbEntity
  8
Bemaßung
 62
     7
370
     9
100
AcDbLine
 10
59.79995930770927
 20
106.0965381265851
 30
0.0
 11
59.79995930770927
 21
104.7215867727742
 31
0.0
  0
LWPOLYLINE
  5
1F2
330
70
100
AcDbEntity
  8
Bemaßung
 62
     7
370
     9
100
AcDbPolyline
 90
        4
 70
     0
 43
0.0
 10
59.79995930770927
 20
124.5109026567955
 10
59.61909165176183
 20
123.1363393585303
 10
59.98082846976158
 20
123.1363393585303
 10
59.79995930770927
 20
124.5109026567955
  0
LINE
  5
1F3
330
70
100
AcDbEntity
  8
Bemaßung
 62
     7
370
     9
100
AcDbLine
 10
59.63217820087861
 20
123.1363393585303
 30
0.0
 11
59.63217820087861
 21
123.2376249691903
 31
0.0
  0
LINE
  5
1F4
330
70
100
AcDbEntity
  8
Bemaßung
 62
     7
370
     9
100
AcDbLine
 10
59.63217820087861
 20
123.1363393585303
 30
0.0
 11
59.63217820087861
 21
123.2376249691903
 31
0.0
  0
LINE
  5
1F5
330
70
100
AcDbEntity
  8
Bemaßung
 62
     7
370
     9
100
AcDbLine
 10
59.66008292238893
 20
123.1363393585303
 30
0.0
 11
59.66008292238893
 21
123.4505232394036
 31
0.0
  0
LINE
  5
1F6
330
70
100
AcDbEntity
  8
Bemaßung
 62
     7
370
     9
100
AcDbLine
 10
59.68816403278363
 20
123.1363393585303
 30
0.0
 11
59.68816403278363
 21
123.6624015673315
 31
0.0
  0
LINE
  5
1F7
330
70
100
AcDbEntity
  8
Bemaßung
 62
     7
370
     9
100
AcDbLine
 10
59.71606875429394
 20
123.1363393585303
 30
0.0
 11
59.71606875429394
 21
123.8745973952513
 31
0.0
  0
LINE
  5
1F8
330
70
100
AcDbEntity
  8
Bemaßung
 62
     7
370
     9
100
AcDbLine
 10
59.74397498506403
 20
123.1363393585303
 30
0.0
 11
59.74397498506403
 21
124.0868285009479
 31
0.0
  0
LINE
  5
1F9
330
70
100
AcDbEntity
  8
Bemaßung
 62
     7
370
     9
100
AcDbLine
 10
59.77205458619895
 20
123.1363393585303
 30
0.0
 11
59.77205458619895
 21
124.2990596066446
 31
0.0
  0
LINE
  5
1FA
330
70
100
AcDbEntity
  8
Bemaßung
 62
     7
370
     9
100
AcDbLine
 10
59.79995930770927
 20
123.1363393585303
 30
0.0
 11
59.79995930770927
 21
124.5109026567955
 31
0.0
  0
LINE
  5
1FB
330
70
100
AcDbEntity
  8
Bemaßung
 62
     7
370
     9
100
AcDbLine
 10
59.96738763677115
 20
123.1363393585303
 30
0.0
 11
59.96738763677115
 21
123.2376249691903
 31
0.0
  0
LINE
  5
1FC
330
70
100
AcDbEntity
  8
Bemaßung
 62
     7
370
     9
100
AcDbLine
 10
59.96738763677115
 20
123.1363393585303
 30
0.0
 11
59.96738763677115
 21
123.2376249691903
 31
0.0
  0
LINE
  5
1FD
330
70
100
AcDbEntity
  8
Bemaßung
 62
     7
370
     9
100
AcDbLine
 10
59.93983569302962
 20
123.1363393585303
 30
0.0
 11
59.93983569302962
 21
123.4505232394036
 31
0.0
  0
LINE
  5
1FE
330
70
100
AcDbEntity
  8
Bemaßung
 62
     7
370
     9
100
AcDbLine
 10
59.91175458263491
 20
123.1363393585303
 30
0.0
 11
59.91175458263491
 21
123.6624015673315
 31
0.0
  0
LINE
  5
1FF
330
70
100
AcDbEntity
  8
Bemaßung
 62
     7
370
     9
100
AcDbLine
 10
59.88349708335582
 20
123.1363393585303
 30
0.0
 11
59.88349708335582
 21
123.8745973952513
 31
0.0
  0
LINE
  5
200
330
70
100
AcDbEntity
  8
Bemaßung
 62
     7
370
     9
100
AcDbLine
 10
59.85559236184551
 20
123.1363393585303
 30
0.0
 11
59.85559236184551
 21
124.0868285009479
 31
0.0
  0
LINE
  5
201
330
70
100
AcDbEntity
  8
Bemaßung
 62
     7
370
     9
100
AcDbLine
 10
59.82768764033519
 20
123.1363393585303
 30
0.0
 11
59.82768764033519
 21
124.2990596066446
 31
0.0
  0
LINE
  5
202
330
70
100
AcDbEntity
  8
Bemaßung
 62
     7
370
     9
100
AcDbLine
 10
59.79995930770927
 20
123.1363393585303
 30
0.0
 11
59.79995930770927
 21
124.5109026567955
 31
0.0
  0
LINE
  5
203
330
70
100
AcDbEntity
  8
Bemaßung
 62
     7
370
     9
100
AcDbLine
 10
65.93568192895173
 20
161.3858456049262
 30
0.0
 11
81.61086819571108
 21
161.3858456049262
 31
0.0
  0
LWPOLYLINE
  5
204
330
70
100
AcDbEntity
  8
Bemaßung
 62
     7
370
     9
100
AcDbPolyline
 90
        4
 70
     0
 43
0.0
 10
65.93568192895173
 20
161.3858456049262
 10
67.31077439387019
 20
161.2048000539896
 10
67.31077439387019
 20
161.5670675447473
 10
65.93568192895173
 20
161.3858456049262
  0
LINE
  5
205
330
70
100
AcDbEntity
  8
Bemaßung
 62
     7
370
     9
100
AcDbLine
 10
67.31077439387019
 20
161.21824088698
 30
0.0
 11
67.20917439646221
 21
161.21824088698
 31
0.0
  0
LINE
  5
206
330
70
100
AcDbEntity
  8
Bemaßung
 62
     7
370
     9
100
AcDbLine
 10
67.31077439387019
 20
161.21824088698
 30
0.0
 11
67.20917439646221
 21
161.21824088698
 31
0.0
  0
LINE
  5
207
330
70
100
AcDbEntity
  8
Bemaßung
 62
     7
370
     9
100
AcDbLine
 10
67.31077439387019
 20
161.2461456084903
 30
0.0
 11
66.99711967964997
 21
161.2461456084903
 31
0.0
  0
LINE
  5
208
330
70
100
AcDbEntity
  8
Bemaßung
 62
     7
370
     9
100
AcDbLine
 10
67.31077439387019
 20
161.274226718885
 30
0.0
 11
66.78453579618454
 21
161.274226718885
 31
0.0
  0
LINE
  5
209
330
70
100
AcDbEntity
  8
Bemaßung
 62
     7
370
     9
100
AcDbLine
 10
67.31077439387019
 20
161.3021314403953
 30
0.0
 11
66.57251635714917
 21
161.3021314403953
 31
0.0
  0
LINE
  5
20A
330
70
100
AcDbEntity
  8
Bemaßung
 62
     7
370
     9
100
AcDbLine
 10
67.31077439387019
 20
161.3300361619056
 30
0.0
 11
66.36028525145253
 21
161.3300361619056
 31
0.0
  0
LINE
  5
20B
330
70
100
AcDbEntity
  8
Bemaßung
 62
     7
370
     9
100
AcDbLine
 10
67.31077439387019
 20
161.3579408834159
 30
0.0
 11
66.14791303464837
 21
161.3579408834159
 31
0.0
  0
LINE
  5
20C
330
70
100
AcDbEntity
  8
Bemaßung
 62
     7
370
     9
100
AcDbLine
 10
67.31077439387019
 20
161.3858456049262
 30
0.0
 11
65.93568192895173
 21
161.3858456049262
 31
0.0
  0
LINE
  5
20D
330
70
100
AcDbEntity
  8
Bemaßung
 62
     7
370
     9
100
AcDbLine
 10
67.31077439387019
 20
161.5534503228725
 30
0.0
 11
67.20917439646221
 21
161.5534503228725
 31
0.0
  0
LINE
  5
20E
330
70
100
AcDbEntity
  8
Bemaßung
 62
     7
370
     9
100
AcDbLine
 10
67.31077439387019
 20
161.5534503228725
 30
0.0
 11
67.20917439646221
 21
161.5534503228725
 31
0.0
  0
LINE
  5
20F
330
70
100
AcDbEntity
  8
Bemaßung
 62
     7
370
     9
100
AcDbLine
 10
67.31077439387019
 20
161.5253692124778
 30
0.0
 11
66.99711967964997
 21
161.5253692124778
 31
0.0
  0
LINE
  5
210
330
70
100
AcDbEntity
  8
Bemaßung
 62
     7
370
     9
100
AcDbLine
 10
67.31077439387019
 20
161.4974644909675
 30
0.0
 11
66.78453579618454
 21
161.4974644909675
 31
0.0
  0
LINE
  5
211
330
70
100
AcDbEntity
  8
Bemaßung
 62
     7
370
     9
100
AcDbLine
 10
67.31077439387019
 20
161.4695638485214
 30
0.0
 11
66.57251635714917
 21
161.4695638485214
 31
0.0
  0
LINE
  5
212
330
70
100
AcDbEntity
  8
Bemaßung
 62
     7
370
     9
100
AcDbLine
 10
67.31077439387019
 20
161.4416550479469
 30
0.0
 11
66.36028525145253
 21
161.4416550479469
 31
0.0
  0
LINE
  5
213
330
70
100
AcDbEntity
  8
Bemaßung
 62
     7
370
     9
100
AcDbLine
 10
67.31077439387019
 20
161.4137503264366
 30
0.0
 11
66.14791303464837
 21
161.4137503264366
 31
0.0
  0
LINE
  5
214
330
70
100
AcDbEntity
  8
Bemaßung
 62
     7
370
     9
100
AcDbLine
 10
67.31077439387019
 20
161.3858456049262
 30
0.0
 11
65.93568192895173
 21
161.3858456049262
 31
0.0
  0
LWPOLYLINE
  5
215
330
70
100
AcDbEntity
  8
Bemaßung
 62
     7
370
     9
100
AcDbPolyline
 90
        4
 70
     0
 43
0.0
 10
81.61086819571108
 20
161.3858456049262
 10
80.23574045301572
 20
161.5670675447473
 10
80.23574045301572
 20
161.2048000539896
 10
81.61086819571108
 20
161.3858456049262
  0
LINE
  5
216
330
70
100
AcDbEntity
  8
Bemaßung
 62
     7
370
     9
100
AcDbLine
 10
80.23574045301572
 20
161.5534503228725
 30
0.0
 11
80.33737775769346
 21
161.5534503228725
 31
0.0
  0
LINE
  5
217
330
70
100
AcDbEntity
  8
Bemaßung
 62
     7
370
     9
100
AcDbLine
 10
80.23574045301572
 20
161.5534503228725
 30
0.0
 11
80.33737775769346
 21
161.5534503228725
 31
0.0
  0
LINE
  5
218
330
70
100
AcDbEntity
  8
Bemaßung
 62
     7
370
     9
100
AcDbLine
 10
80.23574045301572
 20
161.5253692124778
 30
0.0
 11
80.54943044501284
 21
161.5253692124778
 31
0.0
  0
LINE
  5
219
330
70
100
AcDbEntity
  8
Bemaßung
 62
     7
370
     9
100
AcDbLine
 10
80.23574045301572
 20
161.4974644909675
 30
0.0
 11
80.76197905070136
 21
161.4974644909675
 31
0.0
  0
LINE
  5
21A
330
70
100
AcDbEntity
  8
Bemaßung
 62
     7
370
     9
100
AcDbLine
 10
80.23574045301572
 20
161.4695638485214
 30
0.0
 11
80.97403376751364
 21
161.4695638485214
 31
0.0
  0
LINE
  5
21B
330
70
100
AcDbEntity
  8
Bemaßung
 62
     7
370
     9
100
AcDbLine
 10
80.23574045301572
 20
161.4416550479469
 30
0.0
 11
81.18626487321028
 21
161.4416550479469
 31
0.0
  0
LINE
  5
21C
330
70
100
AcDbEntity
  8
Bemaßung
 62
     7
370
     9
100
AcDbLine
 10
80.23574045301572
 20
161.4137503264366
 30
0.0
 11
81.39831959002252
 21
161.4137503264366
 31
0.0
  0
LINE
  5
21D
330
70
100
AcDbEntity
  8
Bemaßung
 62
     7
370
     9
100
AcDbLine
 10
80.23574045301572
 20
161.3858456049262
 30
0.0
 11
81.61086819571108
 21
161.3858456049262
 31
0.0
  0
LINE
  5
21E
330
70
100
AcDbEntity
  8
Bemaßung
 62
     7
370
     9
100
AcDbLine
 10
80.23574045301572
 20
161.21824088698
 30
0.0
 11
80.33737775769346
 21
161.21824088698
 31
0.0
  0
LINE
  5
21F
330
70
100
AcDbEntity
  8
Bemaßung
 62
     7
370
     9
100
AcDbLine
 10
80.23574045301572
 20
161.21824088698
 30
0.0
 11
80.33737775769346
 21
161.21824088698
 31
0.0
  0
LINE
  5
220
330
70
100
AcDbEntity
  8
Bemaßung
 62
     7
370
     9
100
AcDbLine
 10
80.23574045301572
 20
161.2461456084903
 30
0.0
 11
80.54943044501284
 21
161.2461456084903
 31
0.0
  0
LINE
  5
221
330
70
100
AcDbEntity
  8
Bemaßung
 62
     7
370
     9
100
AcDbLine
 10
80.23574045301572
 20
161.274226718885
 30
0.0
 11
80.76197905070136
 21
161.274226718885
 31
0.0
  0
LINE
  5
222
330
70
100
AcDbEntity
  8
Bemaßung
 62
     7
370
     9
100
AcDbLine
 10
80.23574045301572
 20
161.3021314403953
 30
0.0
 11
80.97403376751364
 21
161.3021314403953
 31
0.0
  0
LINE
  5
223
330
70
100
AcDbEntity
  8
Bemaßung
 62
     7
370
     9
100
AcDbLine
 10
80.23574045301572
 20
161.3300361619056
 30
0.0
 11
81.18626487321028
 21
161.3300361619056
 31
0.0
  0
LINE
  5
224
330
70
100
AcDbEntity
  8
Bemaßung
 62
     7
370
     9
100
AcDbLine
 10
80.23574045301572
 20
161.3579408834159
 30
0.0
 11
81.39831959002252
 21
161.3579408834159
 31
0.0
  0
LINE
  5
225
330
70
100
AcDbEntity
  8
Bemaßung
 62
     7
370
     9
100
AcDbLine
 10
80.23574045301572
 20
161.3858456049262
 30
0.0
 11
81.61086819571108
 21
161.3858456049262
 31
0.0
  0
LINE
  5
226
330
70
100
AcDbEntity
  8
Bemaßung
 62
     7
370
     9
100
AcDbLine
 10
123.3361526867659
 20
200.9164290408615
 30
0.0
 11
140.5367066799842
 21
200.9164290408615
 31
0.0
  0
LWPOLYLINE
  5
227
330
70
100
AcDbEntity
  8
Bemaßung
 62
     7
370
     9
100
AcDbPolyline
 90
        1
 70
     0
 43
0.0
 10
127.7358559078535
 20
187.2218077235737
  0
LINE
  5
228
330
70
100
AcDbEntity
  8
Bemaßung
 62
     7
370
     9
100
AcDbLine
 10
139.4366750413817
 20
200.9164290408615
 30
0.0
 11
139.4366750413817
 21
187.2218077235737
 31
0.0
  0
LWPOLYLINE
  5
229
330
70
100
AcDbEntity
  8
Bemaßung
 62
     7
370
     9
100
AcDbPolyline
 90
        4
 70
     0
 43
0.0
 10
139.4366750413817
 20
200.9164290408615
 10
139.2558058793294
 20
199.5414776870505
 10
139.617544203434
 20
199.5414776870505
 10
139.4366750413817
 20
200.9164290408615
  0
LINE
  5
22A
330
70
100
AcDbEntity
  8
Bemaßung
 62
     7
370
     9
100
AcDbLine
 10
139.268893934551
 20
199.5414776870505
 30
0.0
 11
139.268893934551
 21
199.6432943945335
 31
0.0
  0
LINE
  5
22B
330
70
100
AcDbEntity
  8
Bemaßung
 62
     7
370
     9
100
AcDbLine
 10
139.268893934551
 20
199.5414776870505
 30
0.0
 11
139.268893934551
 21
199.6432943945335
 31
0.0
  0
LINE
  5
22C
330
70
100
AcDbEntity
  8
Bemaßung
 62
     7
370
     9
100
AcDbLine
 10
139.2971514338301
 20
199.5414776870505
 30
0.0
 11
139.2971514338301
 21
199.8554851790395
 31
0.0
  0
LINE
  5
22D
330
70
100
AcDbEntity
  8
Bemaßung
 62
     7
370
     9
100
AcDbLine
 10
139.3250561553404
 20
199.5414776870505
 30
0.0
 11
139.3250561553404
 21
200.0675398958518
 31
0.0
  0
LINE
  5
22E
330
70
100
AcDbEntity
  8
Bemaßung
 62
     7
370
     9
100
AcDbLine
 10
139.3529608768508
 20
199.5414776870505
 30
0.0
 11
139.3529608768508
 21
200.2797710015485
 31
0.0
  0
LINE
  5
22F
330
70
100
AcDbEntity
  8
Bemaßung
 62
     7
370
     9
100
AcDbLine
 10
139.3805128205923
 20
199.5414776870505
 30
0.0
 11
139.3805128205923
 21
200.492319607237
 31
0.0
  0
LINE
  5
230
330
70
100
AcDbEntity
  8
Bemaßung
 62
     7
370
     9
100
AcDbLine
 10
139.4084175421026
 20
199.5414776870505
 30
0.0
 11
139.4084175421026
 21
200.7043743240493
 31
0.0
  0
LINE
  5
231
330
70
100
AcDbEntity
  8
Bemaßung
 62
     7
370
     9
100
AcDbLine
 10
139.4366750413817
 20
199.5414776870505
 30
0.0
 11
139.4366750413817
 21
200.9164290408615
 31
0.0
  0
LINE
  5
232
330
70
100
AcDbEntity
  8
Bemaßung
 62
     7
370
     9
100
AcDbLine
 10
139.6044561482123
 20
199.5414776870505
 30
0.0
 11
139.6044561482123
 21
199.6432943945335
 31
0.0
  0
LINE
  5
233
330
70
100
AcDbEntity
  8
Bemaßung
 62
     7
370
     9
100
AcDbLine
 10
139.6044561482123
 20
199.5414776870505
 30
0.0
 11
139.6044561482123
 21
199.6432943945335
 31
0.0
  0
LINE
  5
234
330
70
100
AcDbEntity
  8
Bemaßung
 62
     7
370
     9
100
AcDbLine
 10
139.5761986489332
 20
199.5414776870505
 30
0.0
 11
139.5761986489332
 21
199.8554851790395
 31
0.0
  0
LINE
  5
235
330
70
100
AcDbEntity
  8
Bemaßung
 62
     7
370
     9
100
AcDbLine
 10
139.5482939274229
 20
199.5414776870505
 30
0.0
 11
139.5482939274229
 21
200.0675398958518
 31
0.0
  0
LINE
  5
236
330
70
100
AcDbEntity
  8
Bemaßung
 62
     7
370
     9
100
AcDbLine
 10
139.5203892059126
 20
199.5414776870505
 30
0.0
 11
139.5203892059126
 21
200.2797710015485
 31
0.0
  0
LINE
  5
237
330
70
100
AcDbEntity
  8
Bemaßung
 62
     7
370
     9
100
AcDbLine
 10
139.4928372621711
 20
199.5414776870505
 30
0.0
 11
139.4928372621711
 21
200.492319607237
 31
0.0
  0
LINE
  5
238
330
70
100
AcDbEntity
  8
Bemaßung
 62
     7
370
     9
100
AcDbLine
 10
139.4645832986947
 20
199.5414776870505
 30
0.0
 11
139.4645832986947
 21
200.7043743240493
 31
0.0
  0
LINE
  5
239
330
70
100
AcDbEntity
  8
Bemaßung
 62
     7
370
     9
100
AcDbLine
 10
139.4366750413817
 20
199.5414776870505
 30
0.0
 11
139.4366750413817
 21
200.9164290408615
 31
0.0
  0
LWPOLYLINE
  5
23A
330
70
100
AcDbEntity
  8
Bemaßung
 62
     7
370
     9
100
AcDbPolyline
 90
        4
 70
     0
 43
0.0
 10
139.4366750413817
 20
187.2218077235737
 10
139.617544203434
 20
188.5964110639621
 10
139.2558058793294
 20
188.5964110639621
 10
139.4366750413817
 20
187.2218077235737
  0
LINE
  5
23B
330
70
100
AcDbEntity
  8
Bemaßung
 62
     7
370
     9
100
AcDbLine
 10
139.6044561482123
 20
188.5964110639621
 30
0.0
 11
139.6044561482123
 21
188.4947710244311
 31
0.0
  0
LINE
  5
23C
330
70
100
AcDbEntity
  8
Bemaßung
 62
     7
370
     9
100
AcDbLine
 10
139.6044561482123
 20
188.5964110639621
 30
0.0
 11
139.6044561482123
 21
188.4947710244311
 31
0.0
  0
LINE
  5
23D
330
70
100
AcDbEntity
  8
Bemaßung
 62
     7
370
     9
100
AcDbLine
 10
139.5761986489332
 20
188.5964110639621
 30
0.0
 11
139.5761986489332
 21
188.2825751965113
 31
0.0
  0
LINE
  5
23E
330
70
100
AcDbEntity
  8
Bemaßung
 62
     7
370
     9
100
AcDbLine
 10
139.5482939274229
 20
188.5964110639621
 30
0.0
 11
139.5482939274229
 21
188.0706968685834
 31
0.0
  0
LINE
  5
23F
330
70
100
AcDbEntity
  8
Bemaßung
 62
     7
370
     9
100
AcDbLine
 10
139.5203892059126
 20
188.5964110639621
 30
0.0
 11
139.5203892059126
 21
187.858112985118
 31
0.0
  0
LINE
  5
240
330
70
100
AcDbEntity
  8
Bemaßung
 62
     7
370
     9
100
AcDbLine
 10
139.4928372621711
 20
188.5964110639621
 30
0.0
 11
139.4928372621711
 21
187.6459171571982
 31
0.0
  0
LINE
  5
241
330
70
100
AcDbEntity
  8
Bemaßung
 62
     7
370
     9
100
AcDbLine
 10
139.4645832986947
 20
188.5964110639621
 30
0.0
 11
139.4645832986947
 21
187.4336860515016
 31
0.0
  0
LINE
  5
242
330
70
100
AcDbEntity
  8
Bemaßung
 62
     7
370
     9
100
AcDbLine
 10
139.4366750413817
 20
188.5964110639621
 30
0.0
 11
139.4366750413817
 21
187.2218077235737
 31
0.0
  0
LINE
  5
243
330
70
100
AcDbEntity
  8
Bemaßung
 62
     7
370
     9
100
AcDbLine
 10
139.268893934551
 20
188.5964110639621
 30
0.0
 11
139.268893934551
 21
188.4947710244311
 31
0.0
  0
LINE
  5
244
330
70
100
AcDbEntity
  8
Bemaßung
 62
     7
370
     9
100
AcDbLine
 10
139.268893934551
 20
188.5964110639621
 30
0.0
 11
139.268893934551
 21
188.4947710244311
 31
0.0
  0
LINE
  5
245
330
70
100
AcDbEntity
  8
Bemaßung
 62
     7
370
     9
100
AcDbLine
 10
139.2971514338301
 20
188.5964110639621
 30
0.0
 11
139.2971514338301
 21
188.2825751965113
 31
0.0
  0
LINE
  5
246
330
70
100
AcDbEntity
  8
Bemaßung
 62
     7
370
     9
100
AcDbLine
 10
139.3250561553404
 20
188.5964110639621
 30
0.0
 11
139.3250561553404
 21
188.0706968685834
 31
0.0
  0
LINE
  5
247
330
70
100
AcDbEntity
  8
Bemaßung
 62
     7
370
     9
100
AcDbLine
 10
139.3529608768508
 20
188.5964110639621
 30
0.0
 11
139.3529608768508
 21
187.858112985118
 31
0.0
  0
LINE
  5
248
330
70
100
AcDbEntity
  8
Bemaßung
 62
     7
370
     9
100
AcDbLine
 10
139.3805128205923
 20
188.5964110639621
 30
0.0
 11
139.3805128205923
 21
187.6459171571982
 31
0.0
  0
LINE
  5
249
330
70
100
AcDbEntity
  8
Bemaßung
 62
     7
370
     9
100
AcDbLine
 10
139.4084175421026
 20
188.5964110639621
 30
0.0
 11
139.4084175421026
 21
187.4336860515016
 31
0.0
  0
LINE
  5
24A
330
70
100
AcDbEntity
  8
Bemaßung
 62
     7
370
     9
100
AcDbLine
 10
139.4366750413817
 20
188.5964110639621
 30
0.0
 11
139.4366750413817
 21
187.2218077235737
 31
0.0
  0
LINE
  5
24B
330
70
100
AcDbEntity
  8
Bemaßung
 62
     7
370
     9
100
AcDbLine
 10
125.01354042175
 20
104.7215867727742
 30
0.0
 11
140.5167041804945
 21
104.7215867727742
 31
0.0
  0
LINE
  5
24C
330
70
100
AcDbEntity
  8
Bemaßung
 62
     7
370
     9
100
AcDbLine
 10
139.4167078196689
 20
187.2218077235737
 30
0.0
 11
139.4167078196689
 21
104.7215867727742
 31
0.0
  0
LWPOLYLINE
  5
24D
330
70
100
AcDbEntity
  8
Bemaßung
 62
     7
370
     9
100
AcDbPolyline
 90
        4
 70
     0
 43
0.0
 10
139.4167078196689
 20
187.2218077235737
 10
139.2358386576165
 20
185.8465388697709
 10
139.5978944817131
 20
185.8465388697709
 10
139.4167078196689
 20
187.2218077235737
  0
LINE
  5
24E
330
70
100
AcDbEntity
  8
Bemaßung
 62
     7
370
     9
100
AcDbLine
 10
139.2492442128301
 20
185.8465388697709
 30
0.0
 11
139.2492442128301
 21
185.9481741449557
 31
0.0
  0
LINE
  5
24F
330
70
100
AcDbEntity
  8
Bemaßung
 62
     7
370
     9
100
AcDbLine
 10
139.2492442128301
 20
185.8465388697709
 30
0.0
 11
139.2492442128301
 21
185.9481741449557
 31
0.0
  0
LINE
  5
250
330
70
100
AcDbEntity
  8
Bemaßung
 62
     7
370
     9
100
AcDbLine
 10
139.2771842121173
 20
185.8465388697709
 30
0.0
 11
139.2771842121173
 21
186.1603699728755
 31
0.0
  0
LINE
  5
251
330
70
100
AcDbEntity
  8
Bemaßung
 62
     7
370
     9
100
AcDbLine
 10
139.3050889336276
 20
185.8465388697709
 30
0.0
 11
139.3050889336276
 21
186.3724246896877
 31
0.0
  0
LINE
  5
252
330
70
100
AcDbEntity
  8
Bemaßung
 62
     7
370
     9
100
AcDbLine
 10
139.3329971876167
 20
185.8465388697709
 30
0.0
 11
139.3329971876167
 21
186.5848321842688
 31
0.0
  0
LINE
  5
253
330
70
100
AcDbEntity
  8
Bemaßung
 62
     7
370
     9
100
AcDbLine
 10
139.3608983766482
 20
185.8465388697709
 30
0.0
 11
139.3608983766482
 21
186.7970280121886
 31
0.0
  0
LINE
  5
254
330
70
100
AcDbEntity
  8
Bemaßung
 62
     7
370
     9
100
AcDbLine
 10
139.3891205981504
 20
185.8465388697709
 30
0.0
 11
139.3891205981504
 21
187.0092638421364
 31
0.0
  0
LINE
  5
255
330
70
100
AcDbEntity
  8
Bemaßung
 62
     7
370
     9
100
AcDbLine
 10
139.4167078196689
 20
185.8465388697709
 30
0.0
 11
139.4167078196689
 21
187.2218077235737
 31
0.0
  0
LINE
  5
256
330
70
100
AcDbEntity
  8
Bemaßung
 62
     7
370
     9
100
AcDbLine
 10
139.5844536487226
 20
185.8465388697709
 30
0.0
 11
139.5844536487226
 21
185.9481741449557
 31
0.0
  0
LINE
  5
257
330
70
100
AcDbEntity
  8
Bemaßung
 62
     7
370
     9
100
AcDbLine
 10
139.5844536487226
 20
185.8465388697709
 30
0.0
 11
139.5844536487226
 21
185.9481741449557
 31
0.0
  0
LINE
  5
258
330
70
100
AcDbEntity
  8
Bemaßung
 62
     7
370
     9
100
AcDbLine
 10
139.5565489272123
 20
185.8465388697709
 30
0.0
 11
139.5565489272123
 21
186.1603699728755
 31
0.0
  0
LINE
  5
259
330
70
100
AcDbEntity
  8
Bemaßung
 62
     7
370
     9
100
AcDbLine
 10
139.528644205702
 20
185.8465388697709
 30
0.0
 11
139.528644205702
 21
186.3724246896877
 31
0.0
  0
LINE
  5
25A
330
70
100
AcDbEntity
  8
Bemaßung
 62
     7
370
     9
100
AcDbLine
 10
139.5007394841917
 20
185.8465388697709
 30
0.0
 11
139.5007394841917
 21
186.5848321842688
 31
0.0
  0
LINE
  5
25B
330
70
100
AcDbEntity
  8
Bemaßung
 62
     7
370
     9
100
AcDbLine
 10
139.4728347626814
 20
185.8465388697709
 30
0.0
 11
139.4728347626814
 21
186.7970280121886
 31
0.0
  0
LINE
  5
25C
330
70
100
AcDbEntity
  8
Bemaßung
 62
     7
370
     9
100
AcDbLine
 10
139.4446125411792
 20
185.8465388697709
 30
0.0
 11
139.4446125411792
 21
187.0092638421364
 31
0.0
  0
LINE
  5
25D
330
70
100
AcDbEntity
  8
Bemaßung
 62
     7
370
     9
100
AcDbLine
 10
139.4167078196689
 20
185.8465388697709
 30
0.0
 11
139.4167078196689
 21
187.2218077235737
 31
0.0
  0
LWPOLYLINE
  5
25E
330
70
100
AcDbEntity
  8
Bemaßung
 62
     7
370
     9
100
AcDbPolyline
 90
        4
 70
     0
 43
0.0
 10
139.4167078196689
 20
104.7215867727742
 10
139.5978944817131
 20
106.0965381265851
 10
139.2358386576165
 20
106.0965381265851
 10
139.4167078196689
 20
104.7215867727742
  0
LINE
  5
25F
330
70
100
AcDbEntity
  8
Bemaßung
 62
     7
370
     9
100
AcDbLine
 10
139.5844536487226
 20
106.0965381265851
 30
0.0
 11
139.5844536487226
 21
105.994905529057
 31
0.0
  0
LINE
  5
260
330
70
100
AcDbEntity
  8
Bemaßung
 62
     7
370
     9
100
AcDbLine
 10
139.5844536487226
 20
106.0965381265851
 30
0.0
 11
139.5844536487226
 21
105.994905529057
 31
0.0
  0
LINE
  5
261
330
70
100
AcDbEntity
  8
Bemaßung
 62
     7
370
     9
100
AcDbLine
 10
139.5565489272123
 20
106.0965381265851
 30
0.0
 11
139.5565489272123
 21
105.7826717457036
 31
0.0
  0
LINE
  5
262
330
70
100
AcDbEntity
  8
Bemaßung
 62
     7
370
     9
100
AcDbLine
 10
139.528644205702
 20
106.0965381265851
 30
0.0
 11
139.528644205702
 21
105.5704759177839
 31
0.0
  0
LINE
  5
263
330
70
100
AcDbEntity
  8
Bemaßung
 62
     7
370
     9
100
AcDbLine
 10
139.5007394841917
 20
106.0965381265851
 30
0.0
 11
139.5007394841917
 21
105.3578920343184
 31
0.0
  0
LINE
  5
264
330
70
100
AcDbEntity
  8
Bemaßung
 62
     7
370
     9
100
AcDbLine
 10
139.4728347626814
 20
106.0965381265851
 30
0.0
 11
139.4728347626814
 21
105.1460489841675
 31
0.0
  0
LINE
  5
265
330
70
100
AcDbEntity
  8
Bemaßung
 62
     7
370
     9
100
AcDbLine
 10
139.4446125411792
 20
106.0965381265851
 30
0.0
 11
139.4446125411792
 21
104.9338178784708
 31
0.0
  0
LINE
  5
266
330
70
100
AcDbEntity
  8
Bemaßung
 62
     7
370
     9
100
AcDbLine
 10
139.4167078196689
 20
106.0965381265851
 30
0.0
 11
139.4167078196689
 21
104.7215867727742
 31
0.0
  0
LINE
  5
267
330
70
100
AcDbEntity
  8
Bemaßung
 62
     7
370
     9
100
AcDbLine
 10
139.2492442128301
 20
106.0965381265851
 30
0.0
 11
139.2492442128301
 21
105.994905529057
 31
0.0
  0
LINE
  5
268
330
70
100
AcDbEntity
  8
Bemaßung
 62
     7
370
     9
100
AcDbLine
 10
139.2492442128301
 20
106.0965381265851
 30
0.0
 11
139.2492442128301
 21
105.994905529057
 31
0.0
  0
LINE
  5
269
330
70
100
AcDbEntity
  8
Bemaßung
 62
     7
370
     9
100
AcDbLine
 10
139.2771842121173
 20
106.0965381265851
 30
0.0
 11
139.2771842121173
 21
105.7826717457036
 31
0.0
  0
LINE
  5
26A
330
70
100
AcDbEntity
  8
Bemaßung
 62
     7
370
     9
100
AcDbLine
 10
139.3050889336276
 20
106.0965381265851
 30
0.0
 11
139.3050889336276
 21
105.5704759177839
 31
0.0
  0
LINE
  5
26B
330
70
100
AcDbEntity
  8
Bemaßung
 62
     7
370
     9
100
AcDbLine
 10
139.3329971876167
 20
106.0965381265851
 30
0.0
 11
139.3329971876167
 21
105.3578920343184
 31
0.0
  0
LINE
  5
26C
330
70
100
AcDbEntity
  8
Bemaßung
 62
     7
370
     9
100
AcDbLine
 10
139.3608983766482
 20
106.0965381265851
 30
0.0
 11
139.3608983766482
 21
105.1460489841675
 31
0.0
  0
LINE
  5
26D
330
70
100
AcDbEntity
  8
Bemaßung
 62
     7
370
     9
100
AcDbLine
 10
139.3891205981504
 20
106.0965381265851
 30
0.0
 11
139.3891205981504
 21
104.9338178784708
 31
0.0
  0
LINE
  5
26E
330
70
100
AcDbEntity
  8
Bemaßung
 62
     7
370
     9
100
AcDbLine
 10
139.4167078196689
 20
106.0965381265851
 30
0.0
 11
139.4167078196689
 21
104.7215867727742
 31
0.0
  0
LINE
  5
26F
330
70
100
AcDbEntity
  8
Bemaßung
 62
     7
370
     9
100
AcDbLine
 10
131.585405522659
 20
154.2214230099281
 30
0.0
 11
131.585405522659
 21
162.4682777371607
 31
0.0
  0
LINE
  5
270
330
70
100
AcDbEntity
  8
Bemaßung
 62
     7
370
     9
100
AcDbLine
 10
104.1304370656334
 20
154.2214230099281
 30
0.0
 11
104.1304370656334
 21
162.4682777371607
 31
0.0
  0
LINE
  5
271
330
70
100
AcDbEntity
  8
Bemaßung
 62
     7
370
     9
100
AcDbLine
 10
131.585405522659
 20
161.3679244942724
 30
0.0
 11
104.1304370656334
 21
161.3679244942724
 31
0.0
  0
LWPOLYLINE
  5
272
330
70
100
AcDbEntity
  8
Bemaßung
 62
     7
370
     9
100
AcDbPolyline
 90
        4
 70
     0
 43
0.0
 10
131.585405522659
 20
161.3679244942724
 10
130.2101333447294
 20
161.548970045209
 10
130.2101333447294
 20
161.1868789433357
 10
131.585405522659
 20
161.3679244942724
  0
LINE
  5
273
330
70
100
AcDbEntity
  8
Bemaßung
 62
     7
370
     9
100
AcDbLine
 10
130.2101333447294
 20
161.5358860707271
 30
0.0
 11
130.312121397683
 21
161.5358860707271
 31
0.0
  0
LINE
  5
274
330
70
100
AcDbEntity
  8
Bemaßung
 62
     7
370
     9
100
AcDbLine
 10
130.2101333447294
 20
161.5358860707271
 30
0.0
 11
130.312121397683
 21
161.5358860707271
 31
0.0
  0
LINE
  5
275
330
70
100
AcDbEntity
  8
Bemaßung
 62
     7
370
     9
100
AcDbLine
 10
130.2101333447294
 20
161.5078008795927
 30
0.0
 11
130.5239997256109
 21
161.5078008795927
 31
0.0
  0
LINE
  5
276
330
70
100
AcDbEntity
  8
Bemaßung
 62
     7
370
     9
100
AcDbLine
 10
130.2101333447294
 20
161.479719769198
 30
0.0
 11
130.7361955535307
 21
161.479719769198
 31
0.0
  0
LINE
  5
277
330
70
100
AcDbEntity
  8
Bemaßung
 62
     7
370
     9
100
AcDbLine
 10
130.2101333447294
 20
161.4518150476877
 30
0.0
 11
130.9487794369961
 21
161.4518150476877
 31
0.0
  0
LINE
  5
278
330
70
100
AcDbEntity
  8
Bemaßung
 62
     7
370
     9
100
AcDbLine
 10
130.2101333447294
 20
161.423733937293
 30
0.0
 11
131.1606224871471
 21
161.423733937293
 31
0.0
  0
LINE
  5
279
330
70
100
AcDbEntity
  8
Bemaßung
 62
     7
370
     9
100
AcDbLine
 10
130.2101333447294
 20
161.3958332929844
 30
0.0
 11
131.3732063706125
 21
161.3958332929844
 31
0.0
  0
LINE
  5
27A
330
70
100
AcDbEntity
  8
Bemaßung
 62
     7
370
     9
100
AcDbLine
 10
130.2101333447294
 20
161.3679244942724
 30
0.0
 11
131.585405522659
 21
161.3679244942724
 31
0.0
  0
LINE
  5
27B
330
70
100
AcDbEntity
  8
Bemaßung
 62
     7
370
     9
100
AcDbLine
 10
130.2101333447294
 20
161.2003197763261
 30
0.0
 11
130.312121397683
 21
161.2003197763261
 31
0.0
  0
LINE
  5
27C
330
70
100
AcDbEntity
  8
Bemaßung
 62
     7
370
     9
100
AcDbLine
 10
130.2101333447294
 20
161.2003197763261
 30
0.0
 11
130.312121397683
 21
161.2003197763261
 31
0.0
  0
LINE
  5
27D
330
70
100
AcDbEntity
  8
Bemaßung
 62
     7
370
     9
100
AcDbLine
 10
130.2101333447294
 20
161.2282244978364
 30
0.0
 11
130.5239997256109
 21
161.2282244978364
 31
0.0
  0
LINE
  5
27E
330
70
100
AcDbEntity
  8
Bemaßung
 62
     7
370
     9
100
AcDbLine
 10
130.2101333447294
 20
161.2561332930194
 30
0.0
 11
130.7361955535307
 21
161.2561332930194
 31
0.0
  0
LINE
  5
27F
330
70
100
AcDbEntity
  8
Bemaßung
 62
     7
370
     9
100
AcDbLine
 10
130.2101333447294
 20
161.284033940857
 30
0.0
 11
130.9487794369961
 21
161.284033940857
 31
0.0
  0
LINE
  5
280
330
70
100
AcDbEntity
  8
Bemaßung
 62
     7
370
     9
100
AcDbLine
 10
130.2101333447294
 20
161.3119386623673
 30
0.0
 11
131.1606224871471
 21
161.3119386623673
 31
0.0
  0
LINE
  5
281
330
70
100
AcDbEntity
  8
Bemaßung
 62
     7
370
     9
100
AcDbLine
 10
130.2101333447294
 20
161.3400197727621
 30
0.0
 11
131.3732063706125
 21
161.3400197727621
 31
0.0
  0
LINE
  5
282
330
70
100
AcDbEntity
  8
Bemaßung
 62
     7
370
     9
100
AcDbLine
 10
130.2101333447294
 20
161.3679244942724
 30
0.0
 11
131.585405522659
 21
161.3679244942724
 31
0.0
  0
LWPOLYLINE
  5
283
330
70
100
AcDbEntity
  8
Bemaßung
 62
     7
370
     9
100
AcDbPolyline
 90
        4
 70
     0
 43
0.0
 10
104.1304370656334
 20
161.3679244942724
 10
105.5053531416675
 20
161.1868789433357
 10
105.5053531416675
 20
161.548970045209
 10
104.1304370656334
 20
161.3679244942724
  0
LINE
  5
284
330
70
100
AcDbEntity
  8
Bemaßung
 62
     7
370
     9
100
AcDbLine
 10
105.5053531416675
 20
161.2003197763261
 30
0.0
 11
105.4037178664827
 21
161.2003197763261
 31
0.0
  0
LINE
  5
285
330
70
100
AcDbEntity
  8
Bemaßung
 62
     7
370
     9
100
AcDbLine
 10
105.5053531416675
 20
161.2003197763261
 30
0.0
 11
105.4037178664827
 21
161.2003197763261
 31
0.0
  0
LINE
  5
286
330
70
100
AcDbEntity
  8
Bemaßung
 62
     7
370
     9
100
AcDbLine
 10
105.5053531416675
 20
161.2282244978364
 30
0.0
 11
105.1915220385629
 21
161.2282244978364
 31
0.0
  0
LINE
  5
287
330
70
100
AcDbEntity
  8
Bemaßung
 62
     7
370
     9
100
AcDbLine
 10
105.5053531416675
 20
161.2561332930194
 30
0.0
 11
104.979643710635
 21
161.2561332930194
 31
0.0
  0
LINE
  5
288
330
70
100
AcDbEntity
  8
Bemaßung
 62
     7
370
     9
100
AcDbLine
 10
105.5053531416675
 20
161.284033940857
 30
0.0
 11
104.7674126049384
 21
161.284033940857
 31
0.0
  0
LINE
  5
289
330
70
100
AcDbEntity
  8
Bemaßung
 62
     7
370
     9
100
AcDbLine
 10
105.5053531416675
 20
161.3119386623673
 30
0.0
 11
104.554866640528
 21
161.3119386623673
 31
0.0
  0
LINE
  5
28A
330
70
100
AcDbEntity
  8
Bemaßung
 62
     7
370
     9
100
AcDbLine
 10
105.5053531416675
 20
161.3400197727621
 30
0.0
 11
104.3426328935532
 21
161.3400197727621
 31
0.0
  0
LINE
  5
28B
330
70
100
AcDbEntity
  8
Bemaßung
 62
     7
370
     9
100
AcDbLine
 10
105.5053531416675
 20
161.3679244942724
 30
0.0
 11
104.1304370656334
 21
161.3679244942724
 31
0.0
  0
LINE
  5
28C
330
70
100
AcDbEntity
  8
Bemaßung
 62
     7
370
     9
100
AcDbLine
 10
105.5053531416675
 20
161.5358860707271
 30
0.0
 11
105.4037178664827
 21
161.5358860707271
 31
0.0
  0
LINE
  5
28D
330
70
100
AcDbEntity
  8
Bemaßung
 62
     7
370
     9
100
AcDbLine
 10
105.5053531416675
 20
161.5358860707271
 30
0.0
 11
105.4037178664827
 21
161.5358860707271
 31
0.0
  0
LINE
  5
28E
330
70
100
AcDbEntity
  8
Bemaßung
 62
     7
370
     9
100
AcDbLine
 10
105.5053531416675
 20
161.5078008795927
 30
0.0
 11
105.1915220385629
 21
161.5078008795927
 31
0.0
  0
LINE
  5
28F
330
70
100
AcDbEntity
  8
Bemaßung
 62
     7
370
     9
100
AcDbLine
 10
105.5053531416675
 20
161.479719769198
 30
0.0
 11
104.979643710635
 21
161.479719769198
 31
0.0
  0
LINE
  5
290
330
70
100
AcDbEntity
  8
Bemaßung
 62
     7
370
     9
100
AcDbLine
 10
105.5053531416675
 20
161.4518150476877
 30
0.0
 11
104.7674126049384
 21
161.4518150476877
 31
0.0
  0
LINE
  5
291
330
70
100
AcDbEntity
  8
Bemaßung
 62
     7
370
     9
100
AcDbLine
 10
105.5053531416675
 20
161.423733937293
 30
0.0
 11
104.554866640528
 21
161.423733937293
 31
0.0
  0
LINE
  5
292
330
70
100
AcDbEntity
  8
Bemaßung
 62
     7
370
     9
100
AcDbLine
 10
105.5053531416675
 20
161.3958332929844
 30
0.0
 11
104.3426328935532
 21
161.3958332929844
 31
0.0
  0
LINE
  5
293
330
70
100
AcDbEntity
  8
Bemaßung
 62
     7
370
     9
100
AcDbLine
 10
105.5053531416675
 20
161.3679244942724
 30
0.0
 11
104.1304370656334
 21
161.3679244942724
 31
0.0
  0
LINE
  5
294
330
70
100
AcDbEntity
  8
Bemaßung
 62
     7
370
     9
100
AcDbLine
 10
123.3361526867659
 20
187.1580960585325
 30
0.0
 11
140.5367066799842
 21
187.1580960585325
 31
0.0
  0
ENDSEC
  0
SECTION
  2
OBJECTS
  0
DICTIONARY
  5
C
330
0
100
AcDbDictionary
281
     1
  3
ACAD_COLOR
350
63
  3
ACAD_DETAILVIEWSTYLE
350
6A
  3
ACAD_GROUP
350
D
  3
ACAD_LAYOUT
350
62
  3
ACAD_MATERIAL
350
10
  3
ACAD_MLEADERSTYLE
350
66
  3
ACAD_MLINESTYLE
350
5F
  3
ACAD_PLOTSETTINGS
350
61
  3
ACAD_PLOTSTYLENAME
350
E
  3
ACAD_SCALELIST
350
42
  3
ACAD_SECTIONVIEWSTYLE
350
68
  3
ACAD_TABLESTYLE
350
64
  3
ACAD_VISUALSTYLE
350
29
  3
ACDB_RECOMPOSE_DATA
350
29D
  3
AcDbVariableDictionary
350
295
  0
DICTIONARY
  5
63
102
{ACAD_REACTORS
330
C
102
}
330
C
100
AcDbDictionary
281
     1
  0
DICTIONARY
  5
6A
102
{ACAD_REACTORS
330
C
102
}
330
C
100
AcDbDictionary
281
     1
  3
Imperial24
350
6B
  0
DICTIONARY
  5
D
102
{ACAD_REACTORS
330
C
102
}
330
C
100
AcDbDictionary
281
     1
  0
DICTIONARY
  5
62
102
{ACAD_REACTORS
330
C
102
}
330
C
100
AcDbDictionary
281
     1
  3
Layout1
350
6F
  3
Layout2
350
77
  3
Model
350
73
  0
DICTIONARY
  5
10
102
{ACAD_REACTORS
330
C
102
}
330
C
100
AcDbDictionary
281
     1
  3
ByBlock
350
19
  3
ByLayer
350
11
  3
Global
350
21
  0
DICTIONARY
  5
66
102
{ACAD_REACTORS
330
C
102
}
330
C
100
AcDbDictionary
281
     1
  3
Standard
350
67
  0
DICTIONARY
  5
5F
102
{ACAD_REACTORS
330
C
102
}
330
C
100
AcDbDictionary
281
     1
  3
Standard
350
60
  0
DICTIONARY
  5
61
102
{ACAD_REACTORS
330
C
102
}
330
C
100
AcDbDictionary
281
     1
  0
ACDBDICTIONARYWDFLT
  5
E
102
{ACAD_REACTORS
330
C
102
}
330
C
100
AcDbDictionary
281
     1
  3
Normal
350
F
100
AcDbDictionaryWithDefault
340
F
  0
DICTIONARY
  5
42
102
{ACAD_REACTORS
330
C
102
}
330
C
100
AcDbDictionary
281
     1
  3
A0
350
43
  3
A1
350
44
  3
A2
350
45
  3
A3
350
46
  3
A4
350
47
  3
A5
350
48
  3
A6
350
49
  3
A7
350
4A
  3
A8
350
4B
  3
A9
350
4C
  3
B0
350
4D
  3
B1
350
4E
  3
B2
350
4F
  3
B3
350
50
  3
B4
350
51
  3
B5
350
52
  3
B6
350
53
  0
DICTIONARY
  5
68
102
{ACAD_REACTORS
330
C
102
}
330
C
100
AcDbDictionary
281
     1
  3
Imperial24
350
69
  0
DICTIONARY
  5
64
102
{ACAD_REACTORS
330
C
102
}
330
C
100
AcDbDictionary
281
     1
  3
Standard
350
65
  0
DICTIONARY
  5
29
102
{ACAD_REACTORS
330
C
102
}
330
C
100
AcDbDictionary
281
     1
  3
2dWireframe
350
2F
  3
Basic
350
2E
  3
Brighten
350
35
  3
ColorChange
350
39
  3
Conceptual
350
32
  3
Dim
350
34
  3
EdgeColorOff
350
41
  3
Facepattern
350
38
  3
Flat
350
2A
  3
FlatWithEdges
350
2B
  3
Gouraud
350
2C
  3
GouraudWithEdges
350
2D
  3
Hidden
350
31
  3
JitterOff
350
3F
  3
Linepattern
350
37
  3
OverhangOff
350
40
  3
Realistic
350
33
  3
Shaded
350
3E
  3
Shaded with edges
350
3D
  3
Shades of Gray
350
3A
  3
Sketchy
350
3B
  3
Thicken
350
36
  3
Wireframe
350
30
  3
X-Ray
350
3C
  0
XRECORD
  5
29D
102
{ACAD_REACTORS
330
C
102
}
330
C
100
AcDbXrecord
280
     1
 90
        1
330
65
  0
DICTIONARY
  5
295
102
{ACAD_REACTORS
330
C
102
}
330
C
100
AcDbDictionary
281
     1
  3
CANNOSCALE
350
29A
  3
CMLEADERSTYLE
350
297
  3
CTABLESTYLE
350
296
  3
CVIEWDETAILSTYLE
350
298
  3
CVIEWSECTIONSTYLE
350
299
  0
ACDBDETAILVIEWSTYLE
  5
6B
102
{ACAD_REACTORS
330
6A
102
}
330
6A
100
AcDbModelDocViewStyle
 70
     0
  3
Imperial24
290
     1
300
Imperial24
 90
        0
100
AcDbDetailViewStyle
 70
     0
 71
     0
 90
        3
 71
     1
340
55
 62
   256
 40
0.24
340
0
 62
   256
 40
0.24
300

 40
0.36
280
     3
 71
     2
340
5D
 90
       25
 62
   256
 71
     3
340
55
 62
   256
 40
0.24
 90
        1
 40
0.75
 90
        1
300
%<\AcVar ViewType \f "%tc1">% %<\AcVar ViewDetailId>%\PSCALE %<\AcVar ViewScale \f "%sn">%
 71
     4
340
5D
 90
       25
 62
   256
340
5D
 90
       25
 62
   256
280
     0
  0
LAYOUT
  5
6F
102
{ACAD_REACTORS
330
62
102
}
330
62
100
AcDbPlotSettings
  1

  2

  4

  6

 40
0.0
 41
0.0
 42
0.0
 43
0.0
 44
0.0
 45
0.0
 46
0.0
 47
0.0
 48
0.0
 49
0.0
140
0.0
141
0.0
142
1.0
143
1.0
 70
   688
 72
     0
 73
     0
 74
     5
  7

 75
    16
147
1.0
 76
     0
 77
     2
 78
   300
148
0.0
149
0.0
100
AcDbLayout
  1
Layout1
 70
     1
 71
     1
 10
0.0
 20
0.0
 11
12.0
 21
9.0
 12
0.0
 22
0.0
 32
0.0
 14
0.0
 24
0.0
 34
0.0
 15
0.0
 25
0.0
 35
0.0
146
0.0
 13
0.0
 23
0.0
 33
0.0
 16
1.0
 26
0.0
 36
0.0
 17
0.0
 27
1.0
 37
0.0
 76
     0
330
6C
  0
LAYOUT
  5
77
102
{ACAD_REACTORS
330
62
102
}
330
62
100
AcDbPlotSettings
  1

  2

  4

  6

 40
0.0
 41
0.0
 42
0.0
 43
0.0
 44
0.0
 45
0.0
 46
0.0
 47
0.0
 48
0.0
 49
0.0
140
0.0
141
0.0
142
1.0
143
1.0
 70
   688
 72
     0
 73
     0
 74
     5
  7

 75
    16
147
1.0
 76
     0
 77
     2
 78
   300
148
0.0
149
0.0
100
AcDbLayout
  1
Layout2
 70
     1
 71
     2
 10
0.0
 20
0.0
 11
12.0
 21
9.0
 12
0.0
 22
0.0
 32
0.0
 14
0.0
 24
0.0
 34
0.0
 15
0.0
 25
0.0
 35
0.0
146
0.0
 13
0.0
 23
0.0
 33
0.0
 16
1.0
 26
0.0
 36
0.0
 17
0.0
 27
1.0
 37
0.0
 76
     0
330
74
  0
LAYOUT
  5
73
102
{ACAD_REACTORS
330
62
102
}
330
62
100
AcDbPlotSettings
  1

  2

  4

  6

 40
0.0
 41
0.0
 42
0.0
 43
0.0
 44
0.0
 45
0.0
 46
0.0
 47
0.0
 48
0.0
 49
0.0
140
0.0
141
0.0
142
1.0
143
1.0
 70
  1712
 72
     0
 73
     0
 74
     0
  7

 75
     0
147
1.0
 76
     0
 77
     2
 78
   300
148
0.0
149
0.0
100
AcDbLayout
  1
Model
 70
     1
 71
     0
 10
0.0
 20
0.0
 11
12.0
 21
9.0
 12
0.0
 22
0.0
 32
0.0
 14
0.0
 24
0.0
 34
0.0
 15
0.0
 25
0.0
 35
0.0
146
0.0
 13
0.0
 23
0.0
 33
0.0
 16
1.0
 26
0.0
 36
0.0
 17
0.0
 27
1.0
 37
0.0
 76
     0
330
70
  0
MATERIAL
  5
19
102
{ACAD_XDICTIONARY
360
1A
102
}
102
{ACAD_REACTORS
330
10
102
}
330
10
100
AcDbMaterial
  1
ByBlock
 72
     0
 43
0.0208333333333333
 43
0.0
 43
0.0
 43
0.0
 43
0.0
 43
0.0208333333333333
 43
0.0
 43
0.0
 43
0.0
 43
0.0
 43
1.0
 43
0.0
 43
0.0
 43
0.0
 43
0.0
 43
1.0
 77
     0
 47
0.0208333333333333
 47
0.0
 47
0.0
 47
0.0
 47
0.0
 47
0.0208333333333333
 47
0.0
 47
0.0
 47
0.0
 47
0.0
 47
1.0
 47
0.0
 47
0.0
 47
0.0
 47
0.0
 47
1.0
171
     0
 49
0.0208333333333333
 49
0.0
 49
0.0
 49
0.0
 49
0.0
 49
0.0208333333333333
 49
0.0
 49
0.0
 49
0.0
 49
0.0
 49
1.0
 49
0.0
 49
0.0
 49
0.0
 49
0.0
 49
1.0
175
     0
142
0.0208333333333333
142
0.0
142
0.0
142
0.0
142
0.0
142
0.0208333333333333
142
0.0
142
0.0
142
0.0
142
0.0
142
1.0
142
0.0
142
0.0
142
0.0
142
0.0
142
1.0
179
     0
144
0.0208333333333333
144
0.0
144
0.0
144
0.0
144
0.0
144
0.0208333333333333
144
0.0
144
0.0
144
0.0
144
0.0
144
1.0
144
0.0
144
0.0
144
0.0
144
0.0
144
1.0
147
0.0208333333333333
147
0.0
147
0.0
147
0.0
147
0.0
147
0.0208333333333333
147
0.0
147
0.0
147
0.0
147
0.0
147
1.0
147
0.0
147
0.0
147
0.0
147
0.0
147
1.0
  0
MATERIAL
  5
11
102
{ACAD_XDICTIONARY
360
12
102
}
102
{ACAD_REACTORS
330
10
102
}
330
10
100
AcDbMaterial
  1
ByLayer
 72
     0
 43
0.0208333333333333
 43
0.0
 43
0.0
 43
0.0
 43
0.0
 43
0.0208333333333333
 43
0.0
 43
0.0
 43
0.0
 43
0.0
 43
1.0
 43
0.0
 43
0.0
 43
0.0
 43
0.0
 43
1.0
 77
     0
 47
0.0208333333333333
 47
0.0
 47
0.0
 47
0.0
 47
0.0
 47
0.0208333333333333
 47
0.0
 47
0.0
 47
0.0
 47
0.0
 47
1.0
 47
0.0
 47
0.0
 47
0.0
 47
0.0
 47
1.0
171
     0
 49
0.0208333333333333
 49
0.0
 49
0.0
 49
0.0
 49
0.0
 49
0.0208333333333333
 49
0.0
 49
0.0
 49
0.0
 49
0.0
 49
1.0
 49
0.0
 49
0.0
 49
0.0
 49
0.0
 49
1.0
175
     0
142
0.0208333333333333
142
0.0
142
0.0
142
0.0
142
0.0
142
0.0208333333333333
142
0.0
142
0.0
142
0.0
142
0.0
142
1.0
142
0.0
142
0.0
142
0.0
142
0.0
142
1.0
179
     0
144
0.0208333333333333
144
0.0
144
0.0
144
0.0
144
0.0
144
0.0208333333333333
144
0.0
144
0.0
144
0.0
144
0.0
144
1.0
144
0.0
144
0.0
144
0.0
144
0.0
144
1.0
147
0.0208333333333333
147
0.0
147
0.0
147
0.0
147
0.0
147
0.0208333333333333
147
0.0
147
0.0
147
0.0
147
0.0
147
1.0
147
0.0
147
0.0
147
0.0
147
0.0
147
1.0
  0
MATERIAL
  5
21
102
{ACAD_XDICTIONARY
360
22
102
}
102
{ACAD_REACTORS
330
10
102
}
330
10
100
AcDbMaterial
  1
Global
 72
     0
 43
0.0208333333333333
 43
0.0
 43
0.0
 43
0.0
 43
0.0
 43
0.0208333333333333
 43
0.0
 43
0.0
 43
0.0
 43
0.0
 43
1.0
 43
0.0
 43
0.0
 43
0.0
 43
0.0
 43
1.0
 77
     0
 47
0.0208333333333333
 47
0.0
 47
0.0
 47
0.0
 47
0.0
 47
0.0208333333333333
 47
0.0
 47
0.0
 47
0.0
 47
0.0
 47
1.0
 47
0.0
 47
0.0
 47
0.0
 47
0.0
 47
1.0
171
     0
 49
0.0208333333333333
 49
0.0
 49
0.0
 49
0.0
 49
0.0
 49
0.0208333333333333
 49
0.0
 49
0.0
 49
0.0
 49
0.0
 49
1.0
 49
0.0
 49
0.0
 49
0.0
 49
0.0
 49
1.0
175
     0
142
0.0208333333333333
142
0.0
142
0.0
142
0.0
142
0.0
142
0.0208333333333333
142
0.0
142
0.0
142
0.0
142
0.0
142
1.0
142
0.0
142
0.0
142
0.0
142
0.0
142
1.0
179
     0
144
0.0208333333333333
144
0.0
144
0.0
144
0.0
144
0.0
144
0.0208333333333333
144
0.0
144
0.0
144
0.0
144
0.0
144
1.0
144
0.0
144
0.0
144
0.0
144
0.0
144
1.0
147
0.0208333333333333
147
0.0
147
0.0
147
0.0
147
0.0
147
0.0208333333333333
147
0.0
147
0.0
147
0.0
147
0.0
147
1.0
147
0.0
147
0.0
147
0.0
147
0.0
147
1.0
  0
MLEADERSTYLE
  5
67
102
{ACAD_REACTORS
330
66
102
}
330
66
100
AcDbMLeaderStyle
179
     2
170
     2
171
     1
172
     0
 90
        2
 40
0.0
 41
0.0
173
     1
 91
-1056964608
340
5B
 92
       -2
290
     1
 42
0.09
291
     1
 43
0.36
  3
Standard
 44
0.18
300

342
55
174
     1
178
     6
175
     1
176
     0
 93
-1056964608
 45
0.18
292
     0
297
     0
 46
0.18
 94
-1056964608
 47
1.0
 49
1.0
140
1.0
293
     1
141
0.0
294
     1
177
     0
142
1.0
295
     1
296
     0
143
0.125
271
     0
272
     9
273
     9
298
     1
  0
MLINESTYLE
  5
60
102
{ACAD_REACTORS
330
5F
102
}
330
5F
100
AcDbMlineStyle
  2
STANDARD
 70
     0
  3

 62
   256
 51
90.0
 52
90.0
 71
     2
 49
0.5
 62
   256
  6
BYLAYER
 49
-0.5
 62
   256
  6
BYLAYER
  0
ACDBPLACEHOLDER
  5
F
102
{ACAD_REACTORS
330
E
102
}
330
E
  0
SCALE
  5
43
102
{ACAD_REACTORS
330
42
102
}
330
42
100
AcDbScale
 70
     0
300
1:1
140
1.0
141
1.0
290
     1
  0
SCALE
  5
44
102
{ACAD_REACTORS
330
42
102
}
330
42
100
AcDbScale
 70
     0
300
1/128" = 1'-0"
140
0.0078125
141
12.0
290
     0
  0
SCALE
  5
45
102
{ACAD_REACTORS
330
42
102
}
330
42
100
AcDbScale
 70
     0
300
1/64" = 1'-0"
140
0.015625
141
12.0
290
     0
  0
SCALE
  5
46
102
{ACAD_REACTORS
330
42
102
}
330
42
100
AcDbScale
 70
     0
300
1/32" = 1'-0"
140
0.03125
141
12.0
290
     0
  0
SCALE
  5
47
102
{ACAD_REACTORS
330
42
102
}
330
42
100
AcDbScale
 70
     0
300
1/16" = 1'-0"
140
0.0625
141
12.0
290
     0
  0
SCALE
  5
48
102
{ACAD_REACTORS
330
42
102
}
330
42
100
AcDbScale
 70
     0
300
3/32" = 1'-0"
140
0.09375
141
12.0
290
     0
  0
SCALE
  5
49
102
{ACAD_REACTORS
330
42
102
}
330
42
100
AcDbScale
 70
     0
300
1/8" = 1'-0"
140
0.125
141
12.0
290
     0
  0
SCALE
  5
4A
102
{ACAD_REACTORS
330
42
102
}
330
42
100
AcDbScale
 70
     0
300
3/16" = 1'-0"
140
0.1875
141
12.0
290
     0
  0
SCALE
  5
4B
102
{ACAD_REACTORS
330
42
102
}
330
42
100
AcDbScale
 70
     0
300
1/4" = 1'-0"
140
0.25
141
12.0
290
     0
  0
SCALE
  5
4C
102
{ACAD_REACTORS
330
42
102
}
330
42
100
AcDbScale
 70
     0
300
3/8" = 1'-0"
140
0.375
141
12.0
290
     0
  0
SCALE
  5
4D
102
{ACAD_REACTORS
330
42
102
}
330
42
100
AcDbScale
 70
     0
300
1/2" = 1'-0"
140
0.5
141
12.0
290
     0
  0
SCALE
  5
4E
102
{ACAD_REACTORS
330
42
102
}
330
42
100
AcDbScale
 70
     0
300
3/4" = 1'-0"
140
0.75
141
12.0
290
     0
  0
SCALE
  5
4F
102
{ACAD_REACTORS
330
42
102
}
330
42
100
AcDbScale
 70
     0
300
1" = 1'-0"
140
1.0
141
12.0
290
     0
  0
SCALE
  5
50
102
{ACAD_REACTORS
330
42
102
}
330
42
100
AcDbScale
 70
     0
300
1-1/2" = 1'-0"
140
1.5
141
12.0
290
     0
  0
SCALE
  5
51
102
{ACAD_REACTORS
330
42
102
}
330
42
100
AcDbScale
 70
     0
300
3" = 1'-0"
140
3.0
141
12.0
290
     0
  0
SCALE
  5
52
102
{ACAD_REACTORS
330
42
102
}
330
42
100
AcDbScale
 70
     0
300
6" = 1'-0"
140
6.0
141
12.0
290
     0
  0
SCALE
  5
53
102
{ACAD_REACTORS
330
42
102
}
330
42
100
AcDbScale
 70
     0
300
1'-0" = 1'-0"
140
12.0
141
12.0
290
     0
  0
ACDBSECTIONVIEWSTYLE
  5
69
102
{ACAD_REACTORS
330
68
102
}
330
68
100
AcDbModelDocViewStyle
 70
     0
  3
Imperial24
290
     1
300
Imperial24
 90
        0
100
AcDbSectionViewStyle
 70
     0
 71
     0
 90
       78
 71
     1
340
55
 62
   256
 40
0.24
340
0
340
0
 62
   256
 40
0.24
300
I, O, Q, S, X, Z
 40
0.48
 90
        3
 40
0.18
 90
        1
 71
     2
340
5D
 90
       25
 62
   256
340
5D
 90
       50
 62
   256
 40
0.24
 40
0.0
 40
0.24
 71
     3
340
55
 62
   256
 40
0.24
 90
        1
 40
0.75
 90
        1
300
%<\AcVar ViewType \f "%tc1">% %<\AcVar ViewSectionStartId>%-%<\AcVar ViewSectionEndId>%\PSCALE %<\AcVar ViewScale \f "%sn">%
 71
     4
 62
   256
 62
   257
300
ANSI31
 40
1.0
 90
        0
290
     0
290
     0
 90
        6
 40
0.0
 40
1.570796326794896
 40
0.2617993877991494
 40
1.308996938995747
 40
-0.2617993877991494
 40
1.832595714594046
  0
TABLESTYLE
  5
65
102
{ACAD_XDICTIONARY
360
29B
102
}
102
{ACAD_REACTORS
330
64
102
}
330
64
100
AcDbTableStyle
280
     0
  3
Standard
 70
     0
 71
     0
 40
0.06
 41
0.06
280
     0
281
     0
  7
Standard
140
0.18
170
     2
 62
     0
 63
     7
283
     0
 90
      512
 91
        0
  1

274
    -2
284
     1
 64
     0
275
    -2
285
     1
 65
     0
276
    -2
286
     1
 66
     0
277
    -2
287
     1
 67
     0
278
    -2
288
     1
 68
     0
279
    -2
289
     1
 69
     0
  7
Standard
140
0.25
170
     5
 62
     0
 63
     7
283
     0
 90
      512
 91
        0
  1

274
    -2
284
     1
 64
     0
275
    -2
285
     1
 65
     0
276
    -2
286
     1
 66
     0
277
    -2
287
     1
 67
     0
278
    -2
288
     1
 68
     0
279
    -2
289
     1
 69
     0
  7
Standard
140
0.18
170
     5
 62
     0
 63
     7
283
     0
 90
      512
 91
        0
  1

274
    -2
284
     1
 64
     0
275
    -2
285
     1
 65
     0
276
    -2
286
     1
 66
     0
277
    -2
287
     1
 67
     0
278
    -2
288
     1
 68
     0
279
    -2
289
     1
 69
     0
  0
VISUALSTYLE
  5
2F
102
{ACAD_REACTORS
330
29
102
}
330
29
100
AcDbVisualStyle
  2
2dWireframe
 70
     4
177
     3
291
     0
 70
    58
 90
        0
176
     1
 90
        2
176
     1
 90
        0
176
     1
 90
        0
176
     1
 40
0.6
176
     1
 40
30.0
176
     1
 62
     7
420
 16777215
176
     1
 90
        1
176
     1
 90
        4
176
     1
 62
     7
176
     1
 62
   257
176
     1
 90
        1
176
     1
 90
        1
176
     1
 40
1.0
176
     1
 90
        0
176
     1
 62
   257
176
     1
 40
1.0
176
     1
 90
        1
176
     1
 90
        6
176
     1
 90
        2
176
     1
 62
     7
176
     1
 90
        5
176
     1
 90
        0
176
     1
 90
        0
176
     1
290
     0
176
     1
 90
        1
176
     1
 40
0.0
176
     1
 90
        0
176
     1
290
     1
176
     1
290
     1
176
     1
290
     0
176
     1
290
     0
176
     1
290
     0
176
     1
290
     0
176
     1
290
     0
176
     1
290
     0
176
     1
290
     0
176
     1
 90
       50
176
     1
 40
0.0
176
     1
 40
1.0
176
     1
 90
        0
176
     1
 62
    18
420
        0
176
     1
 90
       50
176
     1
 90
        3
176
     1
 62
     5
420
      255
176
     1
290
     0
176
     1
 90
       50
176
     1
 90
       50
176
     1
 90
       50
176
     1
290
     0
176
     1
 90
       50
176
     1
 62
   256
176
     0
 40
1.0
176
     0
 90
        2
176
     1
  1
strokes_ogs.tif
176
     1
290
     0
176
     1
 40
1.0
176
     1
 40
1.0
176
     1
  0
VISUALSTYLE
  5
2E
102
{ACAD_REACTORS
330
29
102
}
330
29
100
AcDbVisualStyle
  2
Basic
 70
     7
177
     3
291
     1
 70
    58
 90
        1
176
     1
 90
        0
176
     1
 90
        1
176
     1
 90
        0
176
     1
 40
0.6
176
     1
 40
30.0
176
     1
 62
     7
420
 16777215
176
     1
 90
        0
176
     1
 90
        4
176
     1
 62
     7
176
     1
 62
   257
176
     1
 90
        1
176
     1
 90
        1
176
     1
 40
1.0
176
     1
 90
        8
176
     1
 62
     7
176
     1
 40
1.0
176
     1
 90
        1
176
     1
 90
        6
176
     1
 90
        2
176
     1
 62
     7
176
     1
 90
        5
176
     1
 90
        0
176
     1
 90
        0
176
     1
290
     0
176
     1
 90
        1
176
     1
 40
0.0
176
     1
 90
        0
176
     1
290
     0
176
     1
290
     1
176
     1
290
     1
176
     1
290
     0
176
     1
290
     0
176
     1
290
     0
176
     1
290
     0
176
     1
290
     0
176
     1
290
     0
176
     1
 90
       50
176
     1
 40
0.0
176
     1
 40
1.0
176
     1
 90
        0
176
     1
 62
    18
420
        0
176
     1
 90
       50
176
     1
 90
        3
176
     1
 62
     5
420
      255
176
     1
290
     0
176
     1
 90
       50
176
     1
 90
       50
176
     1
 90
       50
176
     1
290
     0
176
     1
 90
       50
176
     1
 62
   256
176
     0
 40
1.0
176
     0
 90
        2
176
     1
  1
strokes_ogs.tif
176
     1
290
     0
176
     1
 40
1.0
176
     1
 40
1.0
176
     1
  0
VISUALSTYLE
  5
35
102
{ACAD_REACTORS
330
29
102
}
330
29
100
AcDbVisualStyle
  2
Brighten
 70
    12
177
     3
291
     1
 70
    58
 90
        2
176
     1
 90
        2
176
     1
 90
        0
176
     1
 90
        0
176
     1
 40
0.6
176
     1
 40
30.0
176
     1
 62
     7
420
 16777215
176
     1
 90
        1
176
     1
 90
        4
176
     1
 62
     7
176
     1
 62
   257
176
     1
 90
        1
176
     1
 90
        1
176
     1
 40
1.0
176
     1
 90
        8
176
     1
 62
     7
176
     1
 40
1.0
176
     1
 90
        1
176
     1
 90
        6
176
     1
 90
        2
176
     1
 62
     7
176
     1
 90
        5
176
     1
 90
        0
176
     1
 90
        0
176
     1
290
     0
176
     1
 90
        1
176
     1
 40
50.0
176
     1
 90
        0
176
     1
290
     0
176
     1
290
     1
176
     1
290
     1
176
     1
290
     0
176
     1
290
     0
176
     1
290
     0
176
     1
290
     0
176
     1
290
     0
176
     1
290
     0
176
     1
 90
       50
176
     1
 40
0.0
176
     1
 40
1.0
176
     1
 90
        0
176
     1
 62
    18
420
        0
176
     1
 90
       50
176
     1
 90
        3
176
     1
 62
     5
420
      255
176
     1
290
     0
176
     1
 90
       50
176
     1
 90
       50
176
     1
 90
       50
176
     1
290
     0
176
     1
 90
       50
176
     1
 62
   256
176
     0
 40
1.0
176
     0
 90
        2
176
     1
  1
strokes_ogs.tif
176
     1
290
     0
176
     1
 40
1.0
176
     1
 40
1.0
176
     1
  0
VISUALSTYLE
  5
39
102
{ACAD_REACTORS
330
29
102
}
330
29
100
AcDbVisualStyle
  2
ColorChange
 70
    16
177
     3
291
     1
 70
    58
 90
        2
176
     1
 90
        2
176
     1
 90
        3
176
     1
 90
        0
176
     1
 40
0.6
176
     1
 40
30.0
176
     1
 62
     8
420
  8421504
176
     1
 90
        1
176
     1
 90
        4
176
     1
 62
     7
176
     1
 62
   257
176
     1
 90
        1
176
     1
 90
        1
176
     1
 40
1.0
176
     1
 90
        8
176
     1
 62
     8
420
  8421504
176
     1
 40
1.0
176
     1
 90
        1
176
     1
 90
        6
176
     1
 90
        2
176
     1
 62
     7
176
     1
 90
        5
176
     1
 90
        0
176
     1
 90
        0
176
     1
290
     0
176
     1
 90
        1
176
     1
 40
0.0
176
     1
 90
        0
176
     1
290
     0
176
     1
290
     1
176
     1
290
     1
176
     1
290
     0
176
     1
290
     0
176
     1
290
     0
176
     1
290
     0
176
     1
290
     0
176
     1
290
     0
176
     1
 90
       50
176
     1
 40
0.0
176
     1
 40
1.0
176
     1
 90
        0
176
     1
 62
    18
420
        0
176
     1
 90
       50
176
     1
 90
        3
176
     1
 62
     5
420
      255
176
     1
290
     0
176
     1
 90
       50
176
     1
 90
       50
176
     1
 90
       50
176
     1
290
     0
176
     1
 90
       50
176
     1
 62
   256
176
     0
 40
1.0
176
     0
 90
        2
176
     1
  1
strokes_ogs.tif
176
     1
290
     0
176
     1
 40
1.0
176
     1
 40
1.0
176
     1
  0
VISUALSTYLE
  5
32
102
{ACAD_REACTORS
330
29
102
}
330
29
100
AcDbVisualStyle
  2
Conceptual
 70
     9
177
     3
291
     0
 70
    58
 90
        3
176
     1
 90
        2
176
     1
 90
        0
176
     1
 90
        0
176
     1
 40
0.6
176
     1
 40
30.0
176
     1
 62
     7
420
 16777215
176
     1
 90
        2
176
     1
 90
        2
176
     1
 62
     7
176
     1
 62
   257
176
     1
 90
        1
176
     1
 90
        1
176
     1
 40
179.0
176
     1
 90
        8
176
     1
 62
     7
176
     1
 40
1.0
176
     1
 90
        1
176
     1
 90
        6
176
     1
 90
        2
176
     1
 62
     7
176
     1
 90
        3
176
     1
 90
        0
176
     1
 90
        0
176
     1
290
     0
176
     1
 90
        1
176
     1
 40
0.0
176
     1
 90
        0
176
     1
290
     0
176
     1
290
     1
176
     1
290
     1
176
     1
290
     0
176
     1
290
     0
176
     1
290
     0
176
     1
290
     0
176
     1
290
     0
176
     1
290
     0
176
     1
 90
       50
176
     1
 40
0.0
176
     1
 40
1.0
176
     1
 90
        0
176
     1
 62
    18
420
        0
176
     1
 90
       50
176
     1
 90
        3
176
     1
 62
     5
420
      255
176
     1
290
     0
176
     1
 90
       50
176
     1
 90
       50
176
     1
 90
       50
176
     1
290
     0
176
     1
 90
       50
176
     1
 62
   256
176
     0
 40
1.0
176
     0
 90
        2
176
     1
  1
strokes_ogs.tif
176
     1
290
     0
176
     1
 40
1.0
176
     1
 40
1.0
176
     1
  0
VISUALSTYLE
  5
34
102
{ACAD_REACTORS
330
29
102
}
330
29
100
AcDbVisualStyle
  2
Dim
 70
    11
177
     3
291
     1
 70
    58
 90
        2
176
     1
 90
        2
176
     1
 90
        0
176
     1
 90
        0
176
     1
 40
0.6
176
     1
 40
30.0
176
     1
 62
     7
420
 16777215
176
     1
 90
        1
176
     1
 90
        4
176
     1
 62
     7
176
     1
 62
   257
176
     1
 90
        1
176
     1
 90
        1
176
     1
 40
1.0
176
     1
 90
        8
176
     1
 62
     7
176
     1
 40
1.0
176
     1
 90
        1
176
     1
 90
        6
176
     1
 90
        2
176
     1
 62
     7
176
     1
 90
        5
176
     1
 90
        0
176
     1
 90
        0
176
     1
290
     0
176
     1
 90
        1
176
     1
 40
-50.0
176
     1
 90
        0
176
     1
290
     0
176
     1
290
     1
176
     1
290
     1
176
     1
290
     0
176
     1
290
     0
176
     1
290
     0
176
     1
290
     0
176
     1
290
     0
176
     1
290
     0
176
     1
 90
       50
176
     1
 40
0.0
176
     1
 40
1.0
176
     1
 90
        0
176
     1
 62
    18
420
        0
176
     1
 90
       50
176
     1
 90
        3
176
     1
 62
     5
420
      255
176
     1
290
     0
176
     1
 90
       50
176
     1
 90
       50
176
     1
 90
       50
176
     1
290
     0
176
     1
 90
       50
176
     1
 62
   256
176
     0
 40
1.0
176
     0
 90
        2
176
     1
  1
strokes_ogs.tif
176
     1
290
     0
176
     1
 40
1.0
176
     1
 40
1.0
176
     1
  0
VISUALSTYLE
  5
41
102
{ACAD_REACTORS
330
29
102
}
330
29
100
AcDbVisualStyle
  2
EdgeColorOff
 70
    22
177
     3
291
     1
 70
    58
 90
        2
176
     0
 90
        2
176
     0
 90
        0
176
     0
 90
        0
176
     0
 40
0.6
176
     0
 40
30.0
176
     0
 62
     7
420
 16777215
176
     0
 90
        1
176
     0
 90
        4
176
     0
 62
     7
176
     0
 62
   257
176
     0
 90
        1
176
     0
 90
        1
176
     0
 40
1.0
176
     0
 90
        8
176
     2
 62
     7
176
     0
 40
1.0
176
     0
 90
        1
176
     0
 90
        6
176
     0
 90
        2
176
     0
 62
     7
176
     0
 90
        5
176
     0
 90
        0
176
     0
 90
        0
176
     0
290
     0
176
     0
 90
        1
176
     0
 40
0.0
176
     0
 90
        0
176
     0
290
     0
176
     0
290
     1
176
     0
290
     1
176
     0
290
     0
176
     0
290
     0
176
     0
290
     0
176
     0
290
     0
176
     0
290
     0
176
     0
290
     0
176
     0
 90
       50
176
     0
 40
0.0
176
     0
 40
1.0
176
     0
 90
        0
176
     0
 62
    18
420
        0
176
     0
 90
       50
176
     0
 90
        3
176
     0
 62
     5
420
      255
176
     0
290
     0
176
     0
 90
       50
176
     0
 90
       50
176
     0
 90
       50
176
     0
290
     0
176
     0
 90
       50
176
     0
 62
   256
176
     0
 40
1.0
176
     0
 90
        2
176
     0
  1
strokes_ogs.tif
176
     0
290
     0
176
     0
 40
1.0
176
     0
 40
1.0
176
     0
  0
VISUALSTYLE
  5
38
102
{ACAD_REACTORS
330
29
102
}
330
29
100
AcDbVisualStyle
  2
Facepattern
 70
    15
177
     3
291
     1
 70
    58
 90
        2
176
     1
 90
        2
176
     1
 90
        0
176
     1
 90
        0
176
     1
 40
0.6
176
     1
 40
30.0
176
     1
 62
     7
420
 16777215
176
     1
 90
        1
176
     1
 90
        4
176
     1
 62
     7
176
     1
 62
   257
176
     1
 90
        1
176
     1
 90
        1
176
     1
 40
1.0
176
     1
 90
        8
176
     1
 62
     7
176
     1
 40
1.0
176
     1
 90
        1
176
     1
 90
        6
176
     1
 90
        2
176
     1
 62
     7
176
     1
 90
        5
176
     1
 90
        0
176
     1
 90
        0
176
     1
290
     0
176
     1
 90
        1
176
     1
 40
0.0
176
     1
 90
        0
176
     1
290
     0
176
     1
290
     1
176
     1
290
     1
176
     1
290
     0
176
     1
290
     0
176
     1
290
     0
176
     1
290
     0
176
     1
290
     0
176
     1
290
     0
176
     1
 90
       50
176
     1
 40
0.0
176
     1
 40
1.0
176
     1
 90
        0
176
     1
 62
    18
420
        0
176
     1
 90
       50
176
     1
 90
        3
176
     1
 62
     5
420
      255
176
     1
290
     0
176
     1
 90
       50
176
     1
 90
       50
176
     1
 90
       50
176
     1
290
     0
176
     1
 90
       50
176
     1
 62
   256
176
     0
 40
1.0
176
     0
 90
        2
176
     1
  1
strokes_ogs.tif
176
     1
290
     0
176
     1
 40
1.0
176
     1
 40
1.0
176
     1
  0
VISUALSTYLE
  5
2A
102
{ACAD_REACTORS
330
29
102
}
330
29
100
AcDbVisualStyle
  2
Flat
 70
     0
177
     3
291
     1
 70
    58
 90
        2
176
     1
 90
        1
176
     1
 90
        1
176
     1
 90
        2
176
     1
 40
0.6
176
     1
 40
30.0
176
     1
 62
     7
420
 16777215
176
     1
 90
        0
176
     1
 90
        0
176
     1
 62
     7
176
     1
 62
   257
176
     1
 90
        1
176
     1
 90
        1
176
     1
 40
1.0
176
     1
 90
        8
176
     1
 62
     7
176
     1
 40
1.0
176
     1
 90
        1
176
     1
 90
        6
176
     1
 90
        2
176
     1
 62
     7
176
     1
 90
        5
176
     1
 90
        0
176
     1
 90
        0
176
     1
290
     0
176
     1
 90
       13
176
     1
 40
0.0
176
     1
 90
        0
176
     1
290
     0
176
     1
290
     1
176
     1
290
     1
176
     1
290
     0
176
     1
290
     0
176
     1
290
     0
176
     1
290
     0
176
     1
290
     0
176
     1
290
     0
176
     1
 90
       50
176
     1
 40
0.0
176
     1
 40
1.0
176
     1
 90
        0
176
     1
 62
    18
420
        0
176
     1
 90
       50
176
     1
 90
        3
176
     1
 62
     5
420
      255
176
     1
290
     0
176
     1
 90
       50
176
     1
 90
       50
176
     1
 90
       50
176
     1
290
     0
176
     1
 90
       50
176
     1
 62
   256
176
     0
 40
1.0
176
     0
 90
        2
176
     1
  1
strokes_ogs.tif
176
     1
290
     0
176
     1
 40
1.0
176
     1
 40
1.0
176
     1
  0
VISUALSTYLE
  5
2B
102
{ACAD_REACTORS
330
29
102
}
330
29
100
AcDbVisualStyle
  2
FlatWithEdges
 70
     1
177
     3
291
     1
 70
    58
 90
        2
176
     1
 90
        1
176
     1
 90
        1
176
     1
 90
        2
176
     1
 40
0.6
176
     1
 40
30.0
176
     1
 62
     7
420
 16777215
176
     1
 90
        1
176
     1
 90
        0
176
     1
 62
     7
176
     1
 62
   257
176
     1
 90
        1
176
     1
 90
        1
176
     1
 40
1.0
176
     1
 90
        0
176
     1
 62
   257
176
     1
 40
1.0
176
     1
 90
        1
176
     1
 90
        6
176
     1
 90
        2
176
     1
 62
     7
176
     1
 90
        5
176
     1
 90
        0
176
     1
 90
        0
176
     1
290
     0
176
     1
 90
       13
176
     1
 40
0.0
176
     1
 90
        0
176
     1
290
     0
176
     1
290
     1
176
     1
290
     1
176
     1
290
     0
176
     1
290
     0
176
     1
290
     0
176
     1
290
     0
176
     1
290
     0
176
     1
290
     0
176
     1
 90
       50
176
     1
 40
0.0
176
     1
 40
1.0
176
     1
 90
        0
176
     1
 62
    18
420
        0
176
     1
 90
       50
176
     1
 90
        3
176
     1
 62
     5
420
      255
176
     1
290
     0
176
     1
 90
       50
176
     1
 90
       50
176
     1
 90
       50
176
     1
290
     0
176
     1
 90
       50
176
     1
 62
   256
176
     0
 40
1.0
176
     0
 90
        2
176
     1
  1
strokes_ogs.tif
176
     1
290
     0
176
     1
 40
1.0
176
     1
 40
1.0
176
     1
  0
VISUALSTYLE
  5
2C
102
{ACAD_REACTORS
330
29
102
}
330
29
100
AcDbVisualStyle
  2
Gouraud
 70
     2
177
     3
291
     1
 70
    58
 90
        2
176
     1
 90
        2
176
     1
 90
        1
176
     1
 90
        2
176
     1
 40
0.6
176
     1
 40
30.0
176
     1
 62
     7
420
 16777215
176
     1
 90
        0
176
     1
 90
        0
176
     1
 62
     7
176
     1
 62
   257
176
     1
 90
        1
176
     1
 90
        1
176
     1
 40
1.0
176
     1
 90
        0
176
     1
 62
     7
176
     1
 40
1.0
176
     1
 90
        1
176
     1
 90
        6
176
     1
 90
        2
176
     1
 62
     7
176
     1
 90
        5
176
     1
 90
        0
176
     1
 90
        0
176
     1
290
     0
176
     1
 90
       13
176
     1
 40
0.0
176
     1
 90
        0
176
     1
290
     0
176
     1
290
     1
176
     1
290
     1
176
     1
290
     0
176
     1
290
     0
176
     1
290
     0
176
     1
290
     0
176
     1
290
     0
176
     1
290
     0
176
     1
 90
       50
176
     1
 40
0.0
176
     1
 40
1.0
176
     1
 90
        0
176
     1
 62
    18
420
        0
176
     1
 90
       50
176
     1
 90
        3
176
     1
 62
     5
420
      255
176
     1
290
     0
176
     1
 90
       50
176
     1
 90
       50
176
     1
 90
       50
176
     1
290
     0
176
     1
 90
       50
176
     1
 62
   256
176
     0
 40
1.0
176
     0
 90
        2
176
     1
  1
strokes_ogs.tif
176
     1
290
     0
176
     1
 40
1.0
176
     1
 40
1.0
176
     1
  0
VISUALSTYLE
  5
2D
102
{ACAD_REACTORS
330
29
102
}
330
29
100
AcDbVisualStyle
  2
GouraudWithEdges
 70
     3
177
     3
291
     1
 70
    58
 90
        2
176
     1
 90
        2
176
     1
 90
        1
176
     1
 90
        2
176
     1
 40
0.6
176
     1
 40
30.0
176
     1
 62
     7
420
 16777215
176
     1
 90
        1
176
     1
 90
        0
176
     1
 62
     7
176
     1
 62
   257
176
     1
 90
        1
176
     1
 90
        1
176
     1
 40
1.0
176
     1
 90
        0
176
     1
 62
   257
176
     1
 40
1.0
176
     1
 90
        1
176
     1
 90
        6
176
     1
 90
        2
176
     1
 62
     7
176
     1
 90
        5
176
     1
 90
        0
176
     1
 90
        0
176
     1
290
     0
176
     1
 90
       13
176
     1
 40
0.0
176
     1
 90
        0
176
     1
290
     0
176
     1
290
     1
176
     1
290
     1
176
     1
290
     0
176
     1
290
     0
176
     1
290
     0
176
     1
290
     0
176
     1
290
     0
176
     1
290
     0
176
     1
 90
       50
176
     1
 40
0.0
176
     1
 40
1.0
176
     1
 90
        0
176
     1
 62
    18
420
        0
176
     1
 90
       50
176
     1
 90
        3
176
     1
 62
     5
420
      255
176
     1
290
     0
176
     1
 90
       50
176
     1
 90
       50
176
     1
 90
       50
176
     1
290
     0
176
     1
 90
       50
176
     1
 62
   256
176
     0
 40
1.0
176
     0
 90
        2
176
     1
  1
strokes_ogs.tif
176
     1
290
     0
176
     1
 40
1.0
176
     1
 40
1.0
176
     1
  0
VISUALSTYLE
  5
31
102
{ACAD_REACTORS
330
29
102
}
330
29
100
AcDbVisualStyle
  2
Hidden
 70
     6
177
     3
291
     0
 70
    58
 90
        1
176
     1
 90
        2
176
     1
 90
        2
176
     1
 90
        0
176
     1
 40
0.6
176
     1
 40
30.0
176
     1
 62
     7
420
 16777215
176
     1
 90
        2
176
     1
 90
        2
176
     1
 62
     7
176
     1
 62
   257
176
     1
 90
        2
176
     1
 90
        1
176
     1
 40
40.0
176
     1
 90
        0
176
     1
 62
   257
176
     1
 40
1.0
176
     1
 90
        1
176
     1
 90
        6
176
     1
 90
        2
176
     1
 62
     7
176
     1
 90
        3
176
     1
 90
        0
176
     1
 90
        0
176
     1
290
     0
176
     1
 90
        1
176
     1
 40
0.0
176
     1
 90
        0
176
     1
290
     0
176
     1
290
     1
176
     1
290
     1
176
     1
290
     0
176
     1
290
     0
176
     1
290
     0
176
     1
290
     0
176
     1
290
     0
176
     1
290
     0
176
     1
 90
       50
176
     1
 40
0.0
176
     1
 40
1.0
176
     1
 90
        0
176
     1
 62
    18
420
        0
176
     1
 90
       50
176
     1
 90
        3
176
     1
 62
     5
420
      255
176
     1
290
     0
176
     1
 90
       50
176
     1
 90
       50
176
     1
 90
       50
176
     1
290
     0
176
     1
 90
       50
176
     1
 62
   256
176
     0
 40
1.0
176
     0
 90
        2
176
     1
  1
strokes_ogs.tif
176
     1
290
     0
176
     1
 40
1.0
176
     1
 40
1.0
176
     1
  0
VISUALSTYLE
  5
3F
102
{ACAD_REACTORS
330
29
102
}
330
29
100
AcDbVisualStyle
  2
JitterOff
 70
    20
177
     3
291
     1
 70
    58
 90
        2
176
     0
 90
        2
176
     0
 90
        0
176
     0
 90
        0
176
     0
 40
0.6
176
     0
 40
30.0
176
     0
 62
     7
420
 16777215
176
     0
 90
        1
176
     0
 90
        4
176
     0
 62
     7
176
     0
 62
   257
176
     0
 90
        1
176
     0
 90
        1
176
     0
 40
1.0
176
     0
 90
       10
176
     2
 62
     7
176
     0
 40
1.0
176
     0
 90
        1
176
     0
 90
        6
176
     0
 90
        2
176
     0
 62
     7
176
     0
 90
        5
176
     0
 90
        0
176
     0
 90
        0
176
     0
290
     0
176
     0
 90
        1
176
     0
 40
0.0
176
     0
 90
        0
176
     0
290
     0
176
     0
290
     1
176
     0
290
     1
176
     0
290
     0
176
     0
290
     0
176
     0
290
     0
176
     0
290
     0
176
     0
290
     0
176
     0
290
     0
176
     0
 90
       50
176
     0
 40
0.0
176
     0
 40
1.0
176
     0
 90
        0
176
     0
 62
    18
420
        0
176
     0
 90
       50
176
     0
 90
        3
176
     0
 62
     5
420
      255
176
     0
290
     0
176
     0
 90
       50
176
     0
 90
       50
176
     0
 90
       50
176
     0
290
     0
176
     0
 90
       50
176
     0
 62
   256
176
     0
 40
1.0
176
     0
 90
        2
176
     0
  1
strokes_ogs.tif
176
     0
290
     0
176
     0
 40
1.0
176
     0
 40
1.0
176
     0
  0
VISUALSTYLE
  5
37
102
{ACAD_REACTORS
330
29
102
}
330
29
100
AcDbVisualStyle
  2
Linepattern
 70
    14
177
     3
291
     1
 70
    58
 90
        2
176
     1
 90
        2
176
     1
 90
        0
176
     1
 90
        0
176
     1
 40
0.6
176
     1
 40
30.0
176
     1
 62
     7
420
 16777215
176
     1
 90
        1
176
     1
 90
        4
176
     1
 62
     7
176
     1
 62
   257
176
     1
 90
        7
176
     1
 90
        7
176
     1
 40
1.0
176
     1
 90
        8
176
     1
 62
     7
176
     1
 40
1.0
176
     1
 90
        1
176
     1
 90
        6
176
     1
 90
        2
176
     1
 62
     7
176
     1
 90
        5
176
     1
 90
        0
176
     1
 90
        0
176
     1
290
     0
176
     1
 90
        1
176
     1
 40
0.0
176
     1
 90
        0
176
     1
290
     0
176
     1
290
     1
176
     1
290
     1
176
     1
290
     0
176
     1
290
     0
176
     1
290
     0
176
     1
290
     0
176
     1
290
     0
176
     1
290
     0
176
     1
 90
       50
176
     1
 40
0.0
176
     1
 40
1.0
176
     1
 90
        0
176
     1
 62
    18
420
        0
176
     1
 90
       50
176
     1
 90
        3
176
     1
 62
     5
420
      255
176
     1
290
     0
176
     1
 90
       50
176
     1
 90
       50
176
     1
 90
       50
176
     1
290
     0
176
     1
 90
       50
176
     1
 62
   256
176
     0
 40
1.0
176
     0
 90
        2
176
     1
  1
strokes_ogs.tif
176
     1
290
     0
176
     1
 40
1.0
176
     1
 40
1.0
176
     1
  0
VISUALSTYLE
  5
40
102
{ACAD_REACTORS
330
29
102
}
330
29
100
AcDbVisualStyle
  2
OverhangOff
 70
    21
177
     3
291
     1
 70
    58
 90
        2
176
     0
 90
        2
176
     0
 90
        0
176
     0
 90
        0
176
     0
 40
0.6
176
     0
 40
30.0
176
     0
 62
     7
420
 16777215
176
     0
 90
        1
176
     0
 90
        4
176
     0
 62
     7
176
     0
 62
   257
176
     0
 90
        1
176
     0
 90
        1
176
     0
 40
1.0
176
     0
 90
        9
176
     2
 62
     7
176
     0
 40
1.0
176
     0
 90
        1
176
     0
 90
        6
176
     0
 90
        2
176
     0
 62
     7
176
     0
 90
        5
176
     0
 90
        0
176
     0
 90
        0
176
     0
290
     0
176
     0
 90
        1
176
     0
 40
0.0
176
     0
 90
        0
176
     0
290
     0
176
     0
290
     1
176
     0
290
     1
176
     0
290
     0
176
     0
290
     0
176
     0
290
     0
176
     0
290
     0
176
     0
290
     0
176
     0
290
     0
176
     0
 90
       50
176
     0
 40
0.0
176
     0
 40
1.0
176
     0
 90
        0
176
     0
 62
    18
420
        0
176
     0
 90
       50
176
     0
 90
        3
176
     0
 62
     5
420
      255
176
     0
290
     0
176
     0
 90
       50
176
     0
 90
       50
176
     0
 90
       50
176
     0
290
     0
176
     0
 90
       50
176
     0
 62
   256
176
     0
 40
1.0
176
     0
 90
        2
176
     0
  1
strokes_ogs.tif
176
     0
290
     0
176
     0
 40
1.0
176
     0
 40
1.0
176
     0
  0
VISUALSTYLE
  5
33
102
{ACAD_REACTORS
330
29
102
}
330
29
100
AcDbVisualStyle
  2
Realistic
 70
     8
177
     3
291
     0
 70
    58
 90
        2
176
     1
 90
        3
176
     1
 90
        0
176
     1
 90
        2
176
     1
 40
0.6
176
     1
 40
30.0
176
     1
 62
     7
420
 16777215
176
     1
 90
        0
176
     1
 90
        0
176
     1
 62
     7
176
     1
 62
   257
176
     1
 90
        1
176
     1
 90
        1
176
     1
 40
1.0
176
     1
 90
        8
176
     1
 62
   257
176
     1
 40
1.0
176
     1
 90
        1
176
     1
 90
        6
176
     1
 90
        2
176
     1
 62
     7
176
     1
 90
        3
176
     1
 90
        0
176
     1
 90
        0
176
     1
290
     0
176
     1
 90
       13
176
     1
 40
0.0
176
     1
 90
        0
176
     1
290
     0
176
     1
290
     1
176
     1
290
     1
176
     1
290
     0
176
     1
290
     0
176
     1
290
     0
176
     1
290
     0
176
     1
290
     0
176
     1
290
     0
176
     1
 90
       50
176
     1
 40
0.0
176
     1
 40
1.0
176
     1
 90
        0
176
     1
 62
    18
420
        0
176
     1
 90
       50
176
     1
 90
        3
176
     1
 62
     5
420
      255
176
     1
290
     0
176
     1
 90
       50
176
     1
 90
       50
176
     1
 90
       50
176
     1
290
     0
176
     1
 90
       50
176
     1
 62
   256
176
     0
 40
1.0
176
     0
 90
        2
176
     1
  1
strokes_ogs.tif
176
     1
290
     0
176
     1
 40
1.0
176
     1
 40
1.0
176
     1
  0
VISUALSTYLE
  5
3E
102
{ACAD_REACTORS
330
29
102
}
330
29
100
AcDbVisualStyle
  2
Shaded
 70
    27
177
     3
291
     0
 70
    58
 90
        2
176
     1
 90
        2
176
     1
 90
        1
176
     1
 90
        2
176
     1
 40
0.6
176
     1
 40
30.0
176
     1
 62
     7
420
 16777215
176
     1
 90
        0
176
     1
 90
        4
176
     1
 62
     7
176
     1
 62
   257
176
     1
 90
        1
176
     1
 90
        1
176
     1
 40
1.0
176
     1
 90
        8
176
     1
 62
   257
176
     1
 40
1.0
176
     1
 90
        1
176
     1
 90
        6
176
     1
 90
        2
176
     1
 62
     8
420
  7895160
176
     1
 90
        3
176
     1
 90
        0
176
     1
 90
        0
176
     1
290
     0
176
     1
 90
        5
176
     1
 40
0.0
176
     1
 90
        0
176
     1
290
     0
176
     1
290
     1
176
     1
290
     1
176
     1
290
     0
176
     1
290
     0
176
     1
290
     0
176
     1
290
     0
176
     1
290
     0
176
     1
290
     0
176
     1
 90
       50
176
     1
 40
0.0
176
     1
 40
1.0
176
     1
 90
        0
176
     1
 62
    18
420
        0
176
     1
 90
       50
176
     1
 90
        3
176
     1
 62
     5
420
      255
176
     1
290
     0
176
     1
 90
       50
176
     1
 90
       50
176
     1
 90
       50
176
     1
290
     0
176
     1
 90
       50
176
     1
 62
   256
176
     0
 40
1.0
176
     0
 90
        2
176
     1
  1
strokes_ogs.tif
176
     1
290
     0
176
     1
 40
1.0
176
     1
 40
1.0
176
     1
  0
VISUALSTYLE
  5
3D
102
{ACAD_REACTORS
330
29
102
}
330
29
100
AcDbVisualStyle
  2
Shaded with edges
 70
    26
177
     3
291
     0
 70
    58
 90
        2
176
     1
 90
        2
176
     1
 90
        1
176
     1
 90
        2
176
     1
 40
0.6
176
     1
 40
30.0
176
     1
 62
     7
420
 16777215
176
     1
 90
        1
176
     1
 90
        2
176
     1
 62
     7
176
     1
 62
   257
176
     1
 90
        2
176
     1
 90
        1
176
     1
 40
1.0
176
     1
 90
        8
176
     1
 62
   257
176
     1
 40
1.0
176
     1
 90
        1
176
     1
 90
        6
176
     1
 90
        2
176
     1
 62
     7
176
     1
 90
        3
176
     1
 90
        0
176
     1
 90
        0
176
     1
290
     0
176
     1
 90
        5
176
     1
 40
0.0
176
     1
 90
        0
176
     1
290
     0
176
     1
290
     1
176
     1
290
     1
176
     1
290
     0
176
     1
290
     0
176
     1
290
     0
176
     1
290
     0
176
     1
290
     0
176
     1
290
     0
176
     1
 90
       50
176
     1
 40
0.0
176
     1
 40
1.0
176
     1
 90
        0
176
     1
 62
    18
420
        0
176
     1
 90
       50
176
     1
 90
        3
176
     1
 62
     5
420
      255
176
     1
290
     0
176
     1
 90
       50
176
     1
 90
       50
176
     1
 90
       50
176
     1
290
     0
176
     1
 90
       50
176
     1
 62
   256
176
     0
 40
1.0
176
     0
 90
        2
176
     1
  1
strokes_ogs.tif
176
     1
290
     0
176
     1
 40
1.0
176
     1
 40
1.0
176
     1
  0
VISUALSTYLE
  5
3A
102
{ACAD_REACTORS
330
29
102
}
330
29
100
AcDbVisualStyle
  2
Shades of Gray
 70
    23
177
     3
291
     0
 70
    58
 90
        2
176
     1
 90
        2
176
     1
 90
        3
176
     1
 90
        0
176
     1
 40
0.6
176
     1
 40
30.0
176
     1
 62
     7
420
 16777215
176
     1
 90
        2
176
     1
 90
        2
176
     1
 62
     7
176
     1
 62
     7
176
     1
 90
        1
176
     1
 90
        1
176
     1
 40
40.0
176
     1
 90
        8
176
     1
 62
     7
176
     1
 40
1.0
176
     1
 90
        1
176
     1
 90
        6
176
     1
 90
        2
176
     1
 62
     7
176
     1
 90
        3
176
     1
 90
        0
176
     1
 90
        0
176
     1
290
     0
176
     1
 90
        1
176
     1
 40
0.0
176
     1
 90
        0
176
     1
290
     0
176
     1
290
     1
176
     1
290
     1
176
     1
290
     0
176
     1
290
     0
176
     1
290
     0
176
     1
290
     0
176
     1
290
     0
176
     1
290
     0
176
     1
 90
       50
176
     1
 40
0.0
176
     1
 40
1.0
176
     1
 90
        0
176
     1
 62
    18
420
        0
176
     1
 90
       50
176
     1
 90
        3
176
     1
 62
     5
420
      255
176
     1
290
     0
176
     1
 90
       50
176
     1
 90
       50
176
     1
 90
       50
176
     1
290
     0
176
     1
 90
       50
176
     1
 62
   256
176
     0
 40
1.0
176
     0
 90
        2
176
     1
  1
strokes_ogs.tif
176
     1
290
     0
176
     1
 40
1.0
176
     1
 40
1.0
176
     1
  0
VISUALSTYLE
  5
3B
102
{ACAD_REACTORS
330
29
102
}
330
29
100
AcDbVisualStyle
  2
Sketchy
 70
    24
177
     3
291
     0
 70
    58
 90
        1
176
     1
 90
        2
176
     1
 90
        2
176
     1
 90
        0
176
     1
 40
0.6
176
     1
 40
30.0
176
     1
 62
     7
420
 16777215
176
     1
 90
        2
176
     1
 90
        2
176
     1
 62
     7
176
     1
 62
     7
176
     1
 90
        1
176
     1
 90
        1
176
     1
 40
40.0
176
     1
 90
       11
176
     1
 62
     7
176
     1
 40
1.0
176
     1
 90
        1
176
     1
 90
        6
176
     1
 90
        2
176
     1
 62
     7
176
     1
 90
        6
176
     1
 90
        0
176
     1
 90
        0
176
     1
290
     0
176
     1
 90
        1
176
     1
 40
0.0
176
     1
 90
        0
176
     1
290
     0
176
     1
290
     1
176
     1
290
     1
176
     1
290
     0
176
     1
290
     0
176
     1
290
     0
176
     1
290
     0
176
     1
290
     0
176
     1
290
     0
176
     1
 90
       50
176
     1
 40
0.0
176
     1
 40
1.0
176
     1
 90
        0
176
     1
 62
    18
420
        0
176
     1
 90
       50
176
     1
 90
        3
176
     1
 62
     5
420
      255
176
     1
290
     0
176
     1
 90
       50
176
     1
 90
       50
176
     1
 90
       50
176
     1
290
     0
176
     1
 90
       50
176
     1
 62
   256
176
     0
 40
1.0
176
     0
 90
        2
176
     1
  1
strokes_ogs.tif
176
     1
290
     0
176
     1
 40
1.0
176
     1
 40
1.0
176
     1
  0
VISUALSTYLE
  5
36
102
{ACAD_REACTORS
330
29
102
}
330
29
100
AcDbVisualStyle
  2
Thicken
 70
    13
177
     3
291
     1
 70
    58
 90
        2
176
     1
 90
        2
176
     1
 90
        0
176
     1
 90
        0
176
     1
 40
0.6
176
     1
 40
30.0
176
     1
 62
     7
420
 16777215
176
     1
 90
        1
176
     1
 90
        4
176
     1
 62
     7
176
     1
 62
   257
176
     1
 90
        1
176
     1
 90
        1
176
     1
 40
1.0
176
     1
 90
       12
176
     1
 62
     7
176
     1
 40
1.0
176
     1
 90
        1
176
     1
 90
        6
176
     1
 90
        2
176
     1
 62
     7
176
     1
 90
        5
176
     1
 90
        0
176
     1
 90
        0
176
     1
290
     0
176
     1
 90
        1
176
     1
 40
0.0
176
     1
 90
        0
176
     1
290
     0
176
     1
290
     1
176
     1
290
     1
176
     1
290
     0
176
     1
290
     0
176
     1
290
     0
176
     1
290
     0
176
     1
290
     0
176
     1
290
     0
176
     1
 90
       50
176
     1
 40
0.0
176
     1
 40
1.0
176
     1
 90
        0
176
     1
 62
    18
420
        0
176
     1
 90
       50
176
     1
 90
        3
176
     1
 62
     5
420
      255
176
     1
290
     0
176
     1
 90
       50
176
     1
 90
       50
176
     1
 90
       50
176
     1
290
     0
176
     1
 90
       50
176
     1
 62
   256
176
     0
 40
1.0
176
     0
 90
        2
176
     1
  1
strokes_ogs.tif
176
     1
290
     0
176
     1
 40
1.0
176
     1
 40
1.0
176
     1
  0
VISUALSTYLE
  5
30
102
{ACAD_REACTORS
330
29
102
}
330
29
100
AcDbVisualStyle
  2
Wireframe
 70
     5
177
     3
291
     0
 70
    58
 90
        0
176
     1
 90
        2
176
     1
 90
        0
176
     1
 90
        0
176
     1
 40
0.6
176
     1
 40
30.0
176
     1
 62
     7
420
 16777215
176
     1
 90
        1
176
     1
 90
        4
176
     1
 62
     7
176
     1
 62
   257
176
     1
 90
        1
176
     1
 90
        1
176
     1
 40
1.0
176
     1
 90
        0
176
     1
 62
   257
176
     1
 40
1.0
176
     1
 90
        1
176
     1
 90
        6
176
     1
 90
        2
176
     1
 62
     7
176
     1
 90
        3
176
     1
 90
        0
176
     1
 90
        0
176
     1
290
     0
176
     1
 90
        1
176
     1
 40
0.0
176
     1
 90
        0
176
     1
290
     0
176
     1
290
     1
176
     1
290
     1
176
     1
290
     0
176
     1
290
     0
176
     1
290
     0
176
     1
290
     0
176
     1
290
     0
176
     1
290
     0
176
     1
 90
       50
176
     1
 40
0.0
176
     1
 40
1.0
176
     1
 90
        0
176
     1
 62
    18
420
        0
176
     1
 90
       50
176
     1
 90
        3
176
     1
 62
     5
420
      255
176
     1
290
     0
176
     1
 90
       50
176
     1
 90
       50
176
     1
 90
       50
176
     1
290
     0
176
     1
 90
       50
176
     1
 62
   256
176
     0
 40
1.0
176
     0
 90
        2
176
     1
  1
strokes_ogs.tif
176
     1
290
     0
176
     1
 40
1.0
176
     1
 40
1.0
176
     1
  0
VISUALSTYLE
  5
3C
102
{ACAD_REACTORS
330
29
102
}
330
29
100
AcDbVisualStyle
  2
X-Ray
 70
    25
177
     3
291
     0
 70
    58
 90
        2
176
     1
 90
        2
176
     1
 90
        1
176
     1
 90
        1
176
     1
 40
0.5
176
     1
 40
30.0
176
     1
 62
     7
420
 16777215
176
     1
 90
        1
176
     1
 90
        0
176
     1
 62
     7
176
     1
 62
   257
176
     1
 90
        1
176
     1
 90
        1
176
     1
 40
1.0
176
     1
 90
        8
176
     1
 62
     7
176
     1
 40
1.0
176
     1
 90
        1
176
     1
 90
        6
176
     1
 90
        2
176
     1
 62
     7
176
     1
 90
        3
176
     1
 90
        0
176
     1
 90
        0
176
     1
290
     0
176
     1
 90
       13
176
     1
 40
0.0
176
     1
 90
        0
176
     1
290
     0
176
     1
290
     1
176
     1
290
     1
176
     1
290
     0
176
     1
290
     0
176
     1
290
     0
176
     1
290
     0
176
     1
290
     0
176
     1
290
     0
176
     1
 90
       50
176
     1
 40
0.0
176
     1
 40
1.0
176
     1
 90
        0
176
     1
 62
    18
420
        0
176
     1
 90
       50
176
     1
 90
        3
176
     1
 62
     5
420
      255
176
     1
290
     0
176
     1
 90
       50
176
     1
 90
       50
176
     1
 90
       50
176
     1
290
     0
176
     1
 90
       50
176
     1
 62
   256
176
     0
 40
1.0
176
     0
 90
        2
176
     1
  1
strokes_ogs.tif
176
     1
290
     0
176
     1
 40
1.0
176
     1
 40
1.0
176
     1
  0
DICTIONARYVAR
  5
29A
102
{ACAD_REACTORS
330
295
102
}
330
295
100
DictionaryVariables
280
     0
  1
1:1
  0
DICTIONARYVAR
  5
297
102
{ACAD_REACTORS
330
295
102
}
330
295
100
DictionaryVariables
280
     0
  1
STANDARD
  0
DICTIONARYVAR
  5
296
102
{ACAD_REACTORS
330
295
102
}
330
295
100
DictionaryVariables
280
     0
  1
STANDARD
  0
DICTIONARYVAR
  5
298
102
{ACAD_REACTORS
330
295
102
}
330
295
100
DictionaryVariables
280
     0
  1
Imperial24
  0
DICTIONARYVAR
  5
299
102
{ACAD_REACTORS
330
295
102
}
330
295
100
DictionaryVariables
280
     0
  1
Imperial24
  0
DICTIONARY
  5
1A
330
19
100
AcDbDictionary
280
     1
281
     1
  3
BUMPTILE
360
1C
  3
DIFFUSETILE
360
1B
  3
OPACITYTILE
360
1F
  3
REFLECTIONTILE
360
1E
  3
REFRACTIONTILE
360
20
  3
SPECULARTILE
360
1D
  0
DICTIONARY
  5
12
330
11
100
AcDbDictionary
280
     1
281
     1
  3
BUMPTILE
360
14
  3
DIFFUSETILE
360
13
  3
OPACITYTILE
360
17
  3
REFLECTIONTILE
360
16
  3
REFRACTIONTILE
360
18
  3
SPECULARTILE
360
15
  0
DICTIONARY
  5
22
330
21
100
AcDbDictionary
280
     1
281
     1
  3
BUMPTILE
360
24
  3
DIFFUSETILE
360
23
  3
OPACITYTILE
360
27
  3
REFLECTIONTILE
360
26
  3
REFRACTIONTILE
360
28
  3
SPECULARTILE
360
25
  0
DICTIONARY
  5
29B
330
65
100
AcDbDictionary
280
     1
281
     1
  3
ACAD_ROUNDTRIP_2008_TABLESTYLE_CELLSTYLEMAP
360
29C
  0
XRECORD
  5
1C
102
{ACAD_REACTORS
330
1A
102
}
330
1A
100
AcDbXrecord
280
     1
270
     1
271
     1
  0
XRECORD
  5
1B
102
{ACAD_REACTORS
330
1A
102
}
330
1A
100
AcDbXrecord
280
     1
270
     1
271
     1
  0
XRECORD
  5
1F
102
{ACAD_REACTORS
330
1A
102
}
330
1A
100
AcDbXrecord
280
     1
270
     1
271
     1
  0
XRECORD
  5
1E
102
{ACAD_REACTORS
330
1A
102
}
330
1A
100
AcDbXrecord
280
     1
270
     1
271
     1
  0
XRECORD
  5
20
102
{ACAD_REACTORS
330
1A
102
}
330
1A
100
AcDbXrecord
280
     1
270
     1
271
     1
  0
XRECORD
  5
1D
102
{ACAD_REACTORS
330
1A
102
}
330
1A
100
AcDbXrecord
280
     1
270
     1
271
     1
  0
XRECORD
  5
14
102
{ACAD_REACTORS
330
12
102
}
330
12
100
AcDbXrecord
280
     1
270
     1
271
     1
  0
XRECORD
  5
13
102
{ACAD_REACTORS
330
12
102
}
330
12
100
AcDbXrecord
280
     1
270
     1
271
     1
  0
XRECORD
  5
17
102
{ACAD_REACTORS
330
12
102
}
330
12
100
AcDbXrecord
280
     1
270
     1
271
     1
  0
XRECORD
  5
16
102
{ACAD_REACTORS
330
12
102
}
330
12
100
AcDbXrecord
280
     1
270
     1
271
     1
  0
XRECORD
  5
18
102
{ACAD_REACTORS
330
12
102
}
330
12
100
AcDbXrecord
280
     1
270
     1
271
     1
  0
XRECORD
  5
15
102
{ACAD_REACTORS
330
12
102
}
330
12
100
AcDbXrecord
280
     1
270
     1
271
     1
  0
XRECORD
  5
24
102
{ACAD_REACTORS
330
22
102
}
330
22
100
AcDbXrecord
280
     1
270
     1
271
     1
  0
XRECORD
  5
23
102
{ACAD_REACTORS
330
22
102
}
330
22
100
AcDbXrecord
280
     1
270
     1
271
     1
  0
XRECORD
  5
27
102
{ACAD_REACTORS
330
22
102
}
330
22
100
AcDbXrecord
280
     1
270
     1
271
     1
  0
XRECORD
  5
26
102
{ACAD_REACTORS
330
22
102
}
330
22
100
AcDbXrecord
280
     1
270
     1
271
     1
  0
XRECORD
  5
28
102
{ACAD_REACTORS
330
22
102
}
330
22
100
AcDbXrecord
280
     1
270
     1
271
     1
  0
XRECORD
  5
25
102
{ACAD_REACTORS
330
22
102
}
330
22
100
AcDbXrecord
280
     1
270
     1
271
     1
  0
CELLSTYLEMAP
  5
29C
102
{ACAD_REACTORS
330
29B
102
}
330
29B
100
AcDbCellStyleMap
 90
        3
300
CELLSTYLE
  1
TABLEFORMAT_BEGIN
 90
        5
170
     1
 91
        0
 92
    32768
 62
   257
 93
        1
300
CONTENTFORMAT
  1
CONTENTFORMAT_BEGIN
 90
        0
 91
        0
 92
      512
 93
        0
300

 40
0.0
140
1.0
 94
        5
 62
     0
340
55
144
0.25
309
CONTENTFORMAT_END
171
     0
 94
        0
309
TABLEFORMAT_END
  1
CELLSTYLE_BEGIN
 90
        1
 91
        1
300
_TITLE
309
CELLSTYLE_END
300
CELLSTYLE
  1
TABLEFORMAT_BEGIN
 90
        5
170
     1
 91
        0
 92
        0
 62
   257
 93
        1
300
CONTENTFORMAT
  1
CONTENTFORMAT_BEGIN
 90
        0
 91
        0
 92
      512
 93
        0
300

 40
0.0
140
1.0
 94
        5
 62
     0
340
55
144
0.18
309
CONTENTFORMAT_END
171
     0
 94
        0
309
TABLEFORMAT_END
  1
CELLSTYLE_BEGIN
 90
        2
 91
        1
300
_HEADER
309
CELLSTYLE_END
300
CELLSTYLE
  1
TABLEFORMAT_BEGIN
 90
        5
170
     1
 91
        0
 92
        0
 62
   257
 93
        1
300
CONTENTFORMAT
  1
CONTENTFORMAT_BEGIN
 90
        0
 91
        0
 92
      512
 93
        0
300

 40
0.0
140
1.0
 94
        2
 62
     0
340
55
144
0.18
309
CONTENTFORMAT_END
171
     0
 94
        0
309
TABLEFORMAT_END
  1
CELLSTYLE_BEGIN
 90
        3
 91
        2
300
_DATA
309
CELLSTYLE_END
  0
ENDSEC
  0
EOF
