  0
SECTION
  2
HEADER
  9
$ACADVER
  1
AC1014
  9
$ACADMAINTVER
 70
     9
  9
$DWGCODEPAGE
  3
ASCII
  9
$INSBASE
 10
0.0
 20
0.0
 30
0.0
  9
$EXTMIN
 10
1.000000000000000E+20
 20
1.000000000000000E+20
 30
1.000000000000000E+20
  9
$EXTMAX
 10
-1.000000000000000E+20
 20
-1.000000000000000E+20
 30
-1.000000000000000E+20
  9
$LIMMIN
 10
0.0
 20
0.0
  9
$LIMMAX
 10
12.0
 20
9.0
  9
$ORTHOMODE
 70
     0
  9
$REGENMODE
 70
     1
  9
$FILLMODE
 70
     1
  9
$QTEXTMODE
 70
     0
  9
$MIRRTEXT
 70
     1
  9
$DRAGMODE
 70
     2
  9
$LTSCALE
 40
1.0
  9
$OSMODE
 70
    37
  9
$ATTMODE
 70
     1
  9
$TEXTSIZE
 40
0.2
  9
$TRACEWID
 40
0.05
  9
$TEXTSTYLE
  7
STANDARD
  9
$CLAYER
  8
0
  9
$CELTYPE
  6
BYLAYER
  9
$CECOLOR
 62
   256
  9
$CELTSCALE
 40
1.0
  9
$DELOBJ
 70
     1
  9
$DISPSILH
 70
     0
  9
$DIMSCALE
 40
1.0
  9
$DIMASZ
 40
0.18
  9
$DIMEXO
 40
0.0625
  9
$DIMDLI
 40
0.38
  9
$DIMRND
 40
0.0
  9
$DIMDLE
 40
0.0
  9
$DIMEXE
 40
0.18
  9
$DIMTP
 40
0.0
  9
$DIMTM
 40
0.0
  9
$DIMTXT
 40
0.18
  9
$DIMCEN
 40
0.09
  9
$DIMTSZ
 40
0.0
  9
$DIMTOL
 70
     0
  9
$DIMLIM
 70
     0
  9
$DIMTIH
 70
     1
  9
$DIMTOH
 70
     1
  9
$DIMSE1
 70
     0
  9
$DIMSE2
 70
     0
  9
$DIMTAD
 70
     0
  9
$DIMZIN
 70
     0
  9
$DIMBLK
  1

  9
$DIMASO
 70
     1
  9
$DIMSHO
 70
     1
  9
$DIMPOST
  1

  9
$DIMAPOST
  1

  9
$DIMALT
 70
     0
  9
$DIMALTD
 70
     2
  9
$DIMALTF
 40
25.4
  9
$DIMLFAC
 40
1.0
  9
$DIMTOFL
 70
     0
  9
$DIMTVP
 40
0.0
  9
$DIMTIX
 70
     0
  9
$DIMSOXD
 70
     0
  9
$DIMSAH
 70
     0
  9
$DIMBLK1
  1

  9
$DIMBLK2
  1

  9
$DIMSTYLE
  2
STANDARD
  9
$DIMCLRD
 70
     0
  9
$DIMCLRE
 70
     0
  9
$DIMCLRT
 70
     0
  9
$DIMTFAC
 40
1.0
  9
$DIMGAP
 40
0.09
  9
$DIMJUST
 70
     0
  9
$DIMSD1
 70
     0
  9
$DIMSD2
 70
     0
  9
$DIMTOLJ
 70
     1
  9
$DIMTZIN
 70
     0
  9
$DIMALTZ
 70
     0
  9
$DIMALTTZ
 70
     0
  9
$DIMFIT
 70
     3
  9
$DIMUPT
 70
     0
  9
$DIMUNIT
 70
     2
  9
$DIMDEC
 70
     4
  9
$DIMTDEC
 70
     4
  9
$DIMALTU
 70
     2
  9
$DIMALTTD
 70
     2
  9
$DIMTXSTY
  7
STANDARD
  9
$DIMAUNIT
 70
     0
  9
$LUNITS
 70
     2
  9
$LUPREC
 70
     4
  9
$SKETCHINC
 40
0.1
  9
$FILLETRAD
 40
0.5
  9
$AUNITS
 70
     0
  9
$AUPREC
 70
     0
  9
$MENU
  1
.
  9
$ELEVATION
 40
0.0
  9
$PELEVATION
 40
0.0
  9
$THICKNESS
 40
0.0
  9
$LIMCHECK
 70
     0
  9
$CHAMFERA
 40
0.5
  9
$CHAMFERB
 40
0.5
  9
$CHAMFERC
 40
1.0
  9
$CHAMFERD
 40
0.0
  9
$SKPOLY
 70
     0
  9
$TDCREATE
 40
2455854.437948646
  9
$TDUPDATE
 40
2455854.437948657
  9
$TDINDWG
 40
0.0000000116
  9
$TDUSRTIMER
 40
0.0000000116
  9
$USRTIMER
 70
     1
  9
$ANGBASE
 50
0.0
  9
$ANGDIR
 70
     0
  9
$PDMODE
 70
     0
  9
$PDSIZE
 40
0.0
  9
$PLINEWID
 40
0.0
  9
$COORDS
 70
     1
  9
$SPLFRAME
 70
     0
  9
$SPLINETYPE
 70
     6
  9
$SPLINESEGS
 70
     8
  9
$ATTDIA
 70
     0
  9
$ATTREQ
 70
     1
  9
$HANDLING
 70
     1
  9
$HANDSEED
  5
85B
  9
$SURFTAB1
 70
     6
  9
$SURFTAB2
 70
     6
  9
$SURFTYPE
 70
     6
  9
$SURFU
 70
     6
  9
$SURFV
 70
     6
  9
$UCSNAME
  2

  9
$UCSORG
 10
0.0
 20
0.0
 30
0.0
  9
$UCSXDIR
 10
1.0
 20
0.0
 30
0.0
  9
$UCSYDIR
 10
0.0
 20
1.0
 30
0.0
  9
$PUCSNAME
  2

  9
$PUCSORG
 10
0.0
 20
0.0
 30
0.0
  9
$PUCSXDIR
 10
1.0
 20
0.0
 30
0.0
  9
$PUCSYDIR
 10
0.0
 20
1.0
 30
0.0
  9
$USERI1
 70
     0
  9
$USERI2
 70
     0
  9
$USERI3
 70
     0
  9
$USERI4
 70
     0
  9
$USERI5
 70
     0
  9
$USERR1
 40
0.0
  9
$USERR2
 40
0.0
  9
$USERR3
 40
0.0
  9
$USERR4
 40
0.0
  9
$USERR5
 40
0.0
  9
$WORLDVIEW
 70
     1
  9
$SHADEDGE
 70
     3
  9
$SHADEDIF
 70
    70
  9
$TILEMODE
 70
     1
  9
$MAXACTVP
 70
    64
  9
$PINSBASE
 10
0.0
 20
0.0
 30
0.0
  9
$PLIMCHECK
 70
     0
  9
$PEXTMIN
 10
1.000000000000000E+20
 20
1.000000000000000E+20
 30
1.000000000000000E+20
  9
$PEXTMAX
 10
-1.000000000000000E+20
 20
-1.000000000000000E+20
 30
-1.000000000000000E+20
  9
$PLIMMIN
 10
0.0
 20
0.0
  9
$PLIMMAX
 10
12.0
 20
9.0
  9
$UNITMODE
 70
     0
  9
$VISRETAIN
 70
     1
  9
$PLINEGEN
 70
     0
  9
$PSLTSCALE
 70
     1
  9
$TREEDEPTH
 70
  3020
  9
$PICKSTYLE
 70
     1
  9
$CMLSTYLE
  2
STANDARD
  9
$CMLJUST
 70
     0
  9
$CMLSCALE
 40
1.0
  9
$PROXYGRAPHICS
 70
     1
  9
$MEASUREMENT
 70
     0
  0
ENDSEC
  0
SECTION
  2
CLASSES
  0
CLASS
  1
ACDBDICTIONARYWDFLT
  2
AcDbDictionaryWithDefault
  3
ObjectDBX Classes
 90
        0
280
     0
281
     0
  0
CLASS
  1
VISUALSTYLE
  2
AcDbVisualStyle
  3
ObjectDBX Classes
 90
     4095
280
     0
281
     0
  0
CLASS
  1
XRECORD
  2
AcDbXrecord
  3
AutoCAD 2000
 90
        0
280
     0
281
     0
  0
CLASS
  1
LWPOLYLINE
  2
AcDbPolyline
  3
AutoCAD 2000
 90
        0
280
     0
281
     1
  0
CLASS
  1
HATCH
  2
AcDbHatch
  3
AutoCAD 2000
 90
        0
280
     0
281
     1
  0
CLASS
  1
ACDBPLACEHOLDER
  2
AcDbPlaceHolder
  3
ObjectDBX Classes
 90
        0
280
     0
281
     0
  0
CLASS
  1
LAYOUT
  2
AcDbLayout
  3
ObjectDBX Classes
 90
        0
280
     0
281
     0
  0
ENDSEC
  0
SECTION
  2
TABLES
  0
TABLE
  2
VPORT
  5
8
330
0
100
AcDbSymbolTable
 70
     1
  0
VPORT
  5
29
330
8
100
AcDbSymbolTableRecord
100
AcDbViewportTableRecord
  2
*ACTIVE
 70
     0
 10
0.0
 20
0.0
 11
1.0
 21
1.0
 12
0.0
 22
0.0
 13
0.0
 23
0.0
 14
0.5
 24
0.5
 15
0.5
 25
0.5
 16
0.0
 26
0.0
 36
1.0
 17
14.65992448945437
 27
38.34032069346773
 37
0.0
 40
198.499167194746
 41
0.5992925943694336
 42
50.0
 43
0.0
 44
0.0
 50
0.0
 51
0.0
 71
     0
 72
   100
 73
     1
 74
     3
 75
     0
 76
     0
 77
     0
 78
     0
  0
ENDTAB
  0
TABLE
  2
LTYPE
  5
5
330
0
100
AcDbSymbolTable
 70
     5
  0
LTYPE
  5
14
330
5
100
AcDbSymbolTableRecord
100
AcDbLinetypeTableRecord
  2
BYBLOCK
 70
     0
  3

 72
    65
 73
     0
 40
0.0
  0
LTYPE
  5
15
330
5
100
AcDbSymbolTableRecord
100
AcDbLinetypeTableRecord
  2
BYLAYER
 70
     0
  3

 72
    65
 73
     0
 40
0.0
  0
LTYPE
  5
16
330
5
100
AcDbSymbolTableRecord
100
AcDbLinetypeTableRecord
  2
CONTINUOUS
 70
     0
  3
Solid line
 72
    65
 73
     0
 40
0.0
  0
LTYPE
  5
3F2
330
5
100
AcDbSymbolTableRecord
100
AcDbLinetypeTableRecord
  2
AI-LINETYPE-1
 70
     0
  3
Adobe Illustrator Linetype No. 1
 72
    65
 73
     4
 40
8.819450260381924
 49
7.055560208305538
 74
     0
 49
-0.7055560208305538
 74
     0
 49
0.3527780104152769
 74
     0
 49
-0.7055560208305538
 74
     0
  0
LTYPE
  5
3F7
330
5
100
AcDbSymbolTableRecord
100
AcDbLinetypeTableRecord
  2
AI-LINETYPE-2
 70
     0
  3
Adobe Illustrator Linetype No. 2
 72
    65
 73
     4
 40
8.819450260381924
 49
7.055560208305538
 74
     0
 49
-0.7055560208305538
 74
     0
 49
0.3527780104152769
 74
     0
 49
-0.7055560208305538
 74
     0
  0
LTYPE
  5
3FC
330
5
100
AcDbSymbolTableRecord
100
AcDbLinetypeTableRecord
  2
AI-LINETYPE-3
 70
     0
  3
Adobe Illustrator Linetype No. 3
 72
    65
 73
     4
 40
8.819450260381924
 49
7.055560208305538
 74
     0
 49
-0.7055560208305538
 74
     0
 49
0.3527780104152769
 74
     0
 49
-0.7055560208305538
 74
     0
  0
LTYPE
  5
5C0
330
5
100
AcDbSymbolTableRecord
100
AcDbLinetypeTableRecord
  2
AI-LINETYPE-4
 70
     0
  3
Adobe Illustrator Linetype No. 4
 72
    65
 73
     4
 40
8.819450260381924
 49
7.055560208305538
 74
     0
 49
-0.7055560208305538
 74
     0
 49
0.3527780104152769
 74
     0
 49
-0.7055560208305538
 74
     0
  0
ENDTAB
  0
TABLE
  2
LAYER
  5
2
330
0
100
AcDbSymbolTable
 70
     5
  0
LAYER
  5
10
330
2
100
AcDbSymbolTableRecord
100
AcDbLayerTableRecord
  2
0
 70
     0
 62
     7
  6
CONTINUOUS
  0
LAYER
  5
3B
330
2
100
AcDbSymbolTableRecord
100
AcDbLayerTableRecord
  2
GRAU_10_
 70
     0
 62
     7
  6
CONTINUOUS
  0
LAYER
  5
3C
330
2
100
AcDbSymbolTableRecord
100
AcDbLayerTableRecord
  2
STANDARDEBENE
 70
     0
 62
     7
  6
CONTINUOUS
  0
LAYER
  5
5C1
330
2
100
AcDbSymbolTableRecord
100
AcDbLayerTableRecord
  2
BEMA_UNG
 70
     1
 62
     7
  6
CONTINUOUS
  0
LAYER
  5
822
330
2
100
AcDbSymbolTableRecord
100
AcDbLayerTableRecord
  2
TEXT
 70
     1
 62
     7
  6
CONTINUOUS
  0
ENDTAB
  0
TABLE
  2
STYLE
  5
3
330
0
100
AcDbSymbolTable
 70
     1
  0
STYLE
  5
11
330
3
100
AcDbSymbolTableRecord
100
AcDbTextStyleTableRecord
  2
STANDARD
 70
     0
 40
0.0
 41
1.0
 50
0.0
 71
     0
 42
0.2
  3
txt
  4

  0
ENDTAB
  0
TABLE
  2
VIEW
  5
6
330
0
100
AcDbSymbolTable
 70
     0
  0
ENDTAB
  0
TABLE
  2
UCS
  5
7
330
0
100
AcDbSymbolTable
 70
     0
  0
ENDTAB
  0
TABLE
  2
APPID
  5
9
330
0
100
AcDbSymbolTable
 70
     1
  0
APPID
  5
12
330
9
100
AcDbSymbolTableRecord
100
AcDbRegAppTableRecord
  2
ACAD
 70
     0
  0
ENDTAB
  0
TABLE
  2
DIMSTYLE
  5
A
330
0
100
AcDbSymbolTable
 70
     1
  0
DIMSTYLE
105
27
330
A
100
AcDbSymbolTableRecord
100
AcDbDimStyleTableRecord
  2
STANDARD
 70
     0
  3

  4

  5

  6

  7

 40
1.0
 41
0.18
 42
0.0625
 43
0.38
 44
0.18
 45
0.0
 46
0.0
 47
0.0
 48
0.0
140
0.18
141
0.09
142
0.0
143
25.4
144
1.0
145
0.0
146
1.0
147
0.09
 71
     0
 72
     0
 73
     1
 74
     1
 75
     0
 76
     0
 77
     0
 78
     0
170
     0
171
     2
172
     0
173
     0
174
     0
175
     0
176
     0
177
     0
178
     0
270
     2
271
     4
272
     4
273
     2
274
     2
340
11
275
     0
280
     0
281
     0
282
     0
283
     1
284
     0
285
     0
286
     0
287
     3
288
     0
  0
ENDTAB
  0
TABLE
  2
BLOCK_RECORD
  5
1
330
0
100
AcDbSymbolTable
 70
     1
  0
BLOCK_RECORD
  5
1F
330
1
100
AcDbSymbolTableRecord
100
AcDbBlockTableRecord
  2
*MODEL_SPACE
  0
BLOCK_RECORD
  5
1B
330
1
100
AcDbSymbolTableRecord
100
AcDbBlockTableRecord
  2
*PAPER_SPACE
  0
ENDTAB
  0
ENDSEC
  0
SECTION
  2
BLOCKS
  0
BLOCK
  5
20
330
1F
100
AcDbEntity
  8
0
100
AcDbBlockBegin
  2
*MODEL_SPACE
 70
     0
 71
     0
 10
0.0
 20
0.0
 30
0.0
  3
*MODEL_SPACE
  1

  0
ENDBLK
  5
21
330
1F
100
AcDbEntity
  8
0
100
AcDbBlockEnd
  0
BLOCK
  5
1C
330
1B
100
AcDbEntity
 67
     1
  8
0
100
AcDbBlockBegin
  2
*PAPER_SPACE
 70
     0
 71
     0
 10
0.0
 20
0.0
 30
0.0
  3
*PAPER_SPACE
  1

  0
ENDBLK
  5
1D
330
1B
100
AcDbEntity
 67
     1
  8
0
100
AcDbBlockEnd
  0
ENDSEC
  0
SECTION
  2
ENTITIES
  0
POLYLINE
  5
3D
330
1F
100
AcDbEntity
  8
STANDARDEBENE
 62
     7
100
AcDb2dPolyline
 66
     1
 10
0.0
 20
0.0
 30
0.0
  0
VERTEX
  5
3E
330
3D
100
AcDbEntity
  8
STANDARDEBENE
 62
     7
100
AcDbVertex
100
AcDb2dVertex
 10
-5.653233165927233
 20
-0.5002281944560372
 30
0.0
  0
VERTEX
  5
3F
330
3D
100
AcDbEntity
  8
STANDARDEBENE
 62
     7
100
AcDbVertex
100
AcDb2dVertex
 10
-5.739705119652071
 20
-0.3498496773210095
 30
0.0
  0
SEQEND
  5
40
330
3D
100
AcDbEntity
  8
STANDARDEBENE
  0
POLYLINE
  5
41
330
1F
100
AcDbEntity
  8
STANDARDEBENE
 62
     7
100
AcDb2dPolyline
 66
     1
 10
0.0
 20
0.0
 30
0.0
  0
VERTEX
  5
42
330
41
100
AcDbEntity
  8
STANDARDEBENE
 62
     7
100
AcDbVertex
100
AcDb2dVertex
 10
-5.912993536877544
 20
-0.0504706821541387
 30
0.0
  0
VERTEX
  5
43
330
41
100
AcDbEntity
  8
STANDARDEBENE
 62
     7
100
AcDbVertex
100
AcDb2dVertex
 10
-6.000154510153974
 20
0.0995633252050928
 30
0.0
  0
SEQEND
  5
44
330
41
100
AcDbEntity
  8
STANDARDEBENE
  0
POLYLINE
  5
45
330
1F
100
AcDbEntity
  8
STANDARDEBENE
 62
     7
100
AcDb2dPolyline
 66
     1
 10
0.0
 20
0.0
 30
0.0
  0
VERTEX
  5
46
330
45
100
AcDbEntity
  8
STANDARDEBENE
 62
     7
100
AcDbVertex
100
AcDb2dVertex
 10
-21.99953300790385
 20
0.0995633252050928
 30
0.0
  0
VERTEX
  5
47
330
45
100
AcDbEntity
  8
STANDARDEBENE
 62
     7
100
AcDbVertex
100
AcDb2dVertex
 10
-22.08669398118028
 20
-0.0504706821541387
 30
0.0
  0
SEQEND
  5
48
330
45
100
AcDbEntity
  8
STANDARDEBENE
  0
POLYLINE
  5
49
330
1F
100
AcDbEntity
  8
STANDARDEBENE
 62
     7
100
AcDb2dPolyline
 66
     1
 10
0.0
 20
0.0
 30
0.0
  0
VERTEX
  5
4A
330
49
100
AcDbEntity
  8
STANDARDEBENE
 62
     7
100
AcDbVertex
100
AcDb2dVertex
 10
-22.25963788862996
 20
-0.3498496773210095
 30
0.0
  0
VERTEX
  5
4B
330
49
100
AcDbEntity
  8
STANDARDEBENE
 62
     7
100
AcDbVertex
100
AcDb2dVertex
 10
-22.3461098423548
 20
-0.5002281944560372
 30
0.0
  0
SEQEND
  5
4C
330
49
100
AcDbEntity
  8
STANDARDEBENE
  0
POLYLINE
  5
4D
330
1F
100
AcDbEntity
  8
STANDARDEBENE
 62
     7
100
AcDb2dPolyline
 66
     1
 10
0.0
 20
0.0
 30
0.0
  0
VERTEX
  5
4E
330
4D
100
AcDbEntity
  8
STANDARDEBENE
 62
     7
100
AcDbVertex
100
AcDb2dVertex
 10
-22.20003769741722
 20
9.273514144881274
 30
0.0
  0
VERTEX
  5
4F
330
4D
100
AcDbEntity
  8
STANDARDEBENE
 62
     7
100
AcDbVertex
100
AcDb2dVertex
 10
-22.20003769741722
 20
9.03011798828128
 30
0.0
  0
SEQEND
  5
50
330
4D
100
AcDbEntity
  8
STANDARDEBENE
  0
POLYLINE
  5
51
330
1F
100
AcDbEntity
  8
STANDARDEBENE
 62
     7
100
AcDb2dPolyline
 66
     1
 10
0.0
 20
0.0
 30
0.0
  0
VERTEX
  5
52
330
51
100
AcDbEntity
  8
STANDARDEBENE
 62
     7
100
AcDbVertex
100
AcDb2dVertex
 10
-22.20003769741722
 20
8.542636655529702
 30
0.0
  0
VERTEX
  5
53
330
51
100
AcDbEntity
  8
STANDARDEBENE
 62
     7
100
AcDbVertex
100
AcDb2dVertex
 10
-22.20003769741722
 20
8.299240498929707
 30
0.0
  0
SEQEND
  5
54
330
51
100
AcDbEntity
  8
STANDARDEBENE
  0
POLYLINE
  5
55
330
1F
100
AcDbEntity
  8
STANDARDEBENE
 62
     7
100
AcDb2dPolyline
 66
     1
 10
0.0
 20
0.0
 30
0.0
  0
VERTEX
  5
56
330
55
100
AcDbEntity
  8
STANDARDEBENE
 62
     7
100
AcDbVertex
100
AcDb2dVertex
 10
-5.799994330416401
 20
8.299240498929707
 30
0.0
  0
VERTEX
  5
57
330
55
100
AcDbEntity
  8
STANDARDEBENE
 62
     7
100
AcDbVertex
100
AcDb2dVertex
 10
-5.799994330416401
 20
8.542636655529702
 30
0.0
  0
SEQEND
  5
58
330
55
100
AcDbEntity
  8
STANDARDEBENE
  0
POLYLINE
  5
59
330
1F
100
AcDbEntity
  8
STANDARDEBENE
 62
     7
100
AcDb2dPolyline
 66
     1
 10
0.0
 20
0.0
 30
0.0
  0
VERTEX
  5
5A
330
59
100
AcDbEntity
  8
STANDARDEBENE
 62
     7
100
AcDbVertex
100
AcDb2dVertex
 10
-5.799994330416401
 20
9.03011798828128
 30
0.0
  0
VERTEX
  5
5B
330
59
100
AcDbEntity
  8
STANDARDEBENE
 62
     7
100
AcDbVertex
100
AcDb2dVertex
 10
-5.799994330416401
 20
9.273514144881274
 30
0.0
  0
SEQEND
  5
5C
330
59
100
AcDbEntity
  8
STANDARDEBENE
  0
POLYLINE
  5
5D
330
1F
100
AcDbEntity
  8
STANDARDEBENE
 62
     7
100
AcDb2dPolyline
 66
     1
 10
0.0
 20
0.0
 30
0.0
  0
VERTEX
  5
5E
330
5D
100
AcDbEntity
  8
STANDARDEBENE
 62
     7
100
AcDbVertex
100
AcDb2dVertex
 10
-22.18625730638538
 20
8.195370801527163
 30
0.0
  0
VERTEX
  5
5F
330
5D
100
AcDbEntity
  8
STANDARDEBENE
 62
     7
100
AcDbVertex
100
AcDb2dVertex
 10
-22.13974848665289
 20
8.021565619637995
 30
0.0
  0
SEQEND
  5
60
330
5D
100
AcDbEntity
  8
STANDARDEBENE
  0
POLYLINE
  5
61
330
1F
100
AcDbEntity
  8
STANDARDEBENE
 62
     7
100
AcDb2dPolyline
 66
     1
 10
0.0
 20
0.0
 30
0.0
  0
VERTEX
  5
62
330
61
100
AcDbEntity
  8
STANDARDEBENE
 62
     7
100
AcDbVertex
100
AcDb2dVertex
 10
-22.04621408252423
 20
7.673955255859661
 30
0.0
  0
VERTEX
  5
63
330
61
100
AcDbEntity
  8
STANDARDEBENE
 62
     7
100
AcDbVertex
100
AcDb2dVertex
 10
-21.99953300790385
 20
7.500150073970494
 30
0.0
  0
SEQEND
  5
64
330
61
100
AcDbEntity
  8
STANDARDEBENE
  0
POLYLINE
  5
65
330
1F
100
AcDbEntity
  8
STANDARDEBENE
 62
     7
100
AcDb2dPolyline
 66
     1
 10
0.0
 20
0.0
 30
0.0
  0
VERTEX
  5
66
330
65
100
AcDbEntity
  8
STANDARDEBENE
 62
     7
100
AcDbVertex
100
AcDb2dVertex
 10
-6.000154510153974
 20
7.500150073970494
 30
0.0
  0
VERTEX
  5
67
330
65
100
AcDbEntity
  8
STANDARDEBENE
 62
     7
100
AcDbVertex
100
AcDb2dVertex
 10
-5.953473435533594
 20
7.673955255859661
 30
0.0
  0
SEQEND
  5
68
330
65
100
AcDbEntity
  8
STANDARDEBENE
  0
POLYLINE
  5
69
330
1F
100
AcDbEntity
  8
STANDARDEBENE
 62
     7
100
AcDb2dPolyline
 66
     1
 10
0.0
 20
0.0
 30
0.0
  0
VERTEX
  5
6A
330
69
100
AcDbEntity
  8
STANDARDEBENE
 62
     7
100
AcDbVertex
100
AcDb2dVertex
 10
-5.859939031404934
 20
8.021565619637995
 30
0.0
  0
VERTEX
  5
6B
330
69
100
AcDbEntity
  8
STANDARDEBENE
 62
     7
100
AcDbVertex
100
AcDb2dVertex
 10
-5.813430211672451
 20
8.195370801527163
 30
0.0
  0
SEQEND
  5
6C
330
69
100
AcDbEntity
  8
STANDARDEBENE
  0
POLYLINE
  5
6D
330
1F
100
AcDbEntity
  8
STANDARDEBENE
 62
     7
100
AcDb2dPolyline
 66
     1
 10
0.0
 20
0.0
 30
0.0
  0
VERTEX
  5
6E
330
6D
100
AcDbEntity
  8
STANDARDEBENE
 62
     7
100
AcDbVertex
100
AcDb2dVertex
 10
-5.994125589077542
 20
9.616129116910564
 30
0.0
  0
VERTEX
  5
6F
330
6D
100
AcDbEntity
  8
STANDARDEBENE
 62
     7
100
AcDbVertex
100
AcDb2dVertex
 10
-6.620272106587079
 20
9.992506046967877
 30
0.0
  0
SEQEND
  5
70
330
6D
100
AcDbEntity
  8
STANDARDEBENE
  0
POLYLINE
  5
71
330
1F
100
AcDbEntity
  8
STANDARDEBENE
 62
     7
100
AcDb2dPolyline
 66
     1
 10
0.0
 20
0.0
 30
0.0
  0
VERTEX
  5
72
330
71
100
AcDbEntity
  8
STANDARDEBENE
 62
     7
100
AcDbVertex
100
AcDb2dVertex
 10
-7.873254161157745
 20
10.7456044168583
 30
0.0
  0
VERTEX
  5
73
330
71
100
AcDbEntity
  8
STANDARDEBENE
 62
     7
100
AcDbVertex
100
AcDb2dVertex
 10
-8.49957293355518
 20
11.12215360180351
 30
0.0
  0
SEQEND
  5
74
330
71
100
AcDbEntity
  8
STANDARDEBENE
  0
POLYLINE
  5
75
330
1F
100
AcDbEntity
  8
STANDARDEBENE
 62
     7
100
AcDb2dPolyline
 66
     1
 10
0.0
 20
0.0
 30
0.0
  0
VERTEX
  5
76
330
75
100
AcDbEntity
  8
STANDARDEBENE
 62
     7
100
AcDbVertex
100
AcDb2dVertex
 10
-19.49977007472685
 20
11.12215360180351
 30
0.0
  0
VERTEX
  5
77
330
75
100
AcDbEntity
  8
STANDARDEBENE
 62
     7
100
AcDbVertex
100
AcDb2dVertex
 10
-20.12608884712429
 20
10.7456044168583
 30
0.0
  0
SEQEND
  5
78
330
75
100
AcDbEntity
  8
STANDARDEBENE
  0
POLYLINE
  5
79
330
1F
100
AcDbEntity
  8
STANDARDEBENE
 62
     7
100
AcDb2dPolyline
 66
     1
 10
0.0
 20
0.0
 30
0.0
  0
VERTEX
  5
7A
330
79
100
AcDbEntity
  8
STANDARDEBENE
 62
     7
100
AcDbVertex
100
AcDb2dVertex
 10
-21.37941541147075
 20
9.992506046967877
 30
0.0
  0
VERTEX
  5
7B
330
79
100
AcDbEntity
  8
STANDARDEBENE
 62
     7
100
AcDbVertex
100
AcDb2dVertex
 10
-22.00556192898028
 20
9.616129116910564
 30
0.0
  0
SEQEND
  5
7C
330
79
100
AcDbEntity
  8
STANDARDEBENE
  0
POLYLINE
  5
7D
330
1F
100
AcDbEntity
  8
STANDARDEBENE
 62
     7
100
AcDb2dPolyline
 66
     1
 10
0.0
 20
0.0
 30
0.0
  0
VERTEX
  5
7E
330
7D
100
AcDbEntity
  8
STANDARDEBENE
 62
     7
100
AcDbVertex
100
AcDb2dVertex
 10
-21.99953300790385
 20
7.500150073970494
 30
0.0
  0
VERTEX
  5
7F
330
7D
100
AcDbEntity
  8
STANDARDEBENE
 62
     7
100
AcDbVertex
100
AcDb2dVertex
 10
-21.99953300790385
 20
7.037301190188341
 30
0.0
  0
SEQEND
  5
80
330
7D
100
AcDbEntity
  8
STANDARDEBENE
  0
POLYLINE
  5
81
330
1F
100
AcDbEntity
  8
STANDARDEBENE
 62
     7
100
AcDb2dPolyline
 66
     1
 10
0.0
 20
0.0
 30
0.0
  0
VERTEX
  5
82
330
81
100
AcDbEntity
  8
STANDARDEBENE
 62
     7
100
AcDbVertex
100
AcDb2dVertex
 10
-21.99953300790385
 20
6.112636951951424
 30
0.0
  0
VERTEX
  5
83
330
81
100
AcDbEntity
  8
STANDARDEBENE
 62
     7
100
AcDbVertex
100
AcDb2dVertex
 10
-21.99953300790385
 20
5.18762820393871
 30
0.0
  0
SEQEND
  5
84
330
81
100
AcDbEntity
  8
STANDARDEBENE
  0
POLYLINE
  5
85
330
1F
100
AcDbEntity
  8
STANDARDEBENE
 62
     7
100
AcDb2dPolyline
 66
     1
 10
0.0
 20
0.0
 30
0.0
  0
VERTEX
  5
86
330
85
100
AcDbEntity
  8
STANDARDEBENE
 62
     7
100
AcDbVertex
100
AcDb2dVertex
 10
-21.99953300790385
 20
4.262274946150201
 30
0.0
  0
VERTEX
  5
87
330
85
100
AcDbEntity
  8
STANDARDEBENE
 62
     7
100
AcDbVertex
100
AcDb2dVertex
 10
-21.99953300790385
 20
3.337266198137488
 30
0.0
  0
SEQEND
  5
88
330
85
100
AcDbEntity
  8
STANDARDEBENE
  0
POLYLINE
  5
89
330
1F
100
AcDbEntity
  8
STANDARDEBENE
 62
     7
100
AcDb2dPolyline
 66
     1
 10
0.0
 20
0.0
 30
0.0
  0
VERTEX
  5
8A
330
89
100
AcDbEntity
  8
STANDARDEBENE
 62
     7
100
AcDbVertex
100
AcDb2dVertex
 10
-21.99953300790385
 20
2.411912940348978
 30
0.0
  0
VERTEX
  5
8B
330
89
100
AcDbEntity
  8
STANDARDEBENE
 62
     7
100
AcDbVertex
100
AcDb2dVertex
 10
-21.99953300790385
 20
1.487076447224163
 30
0.0
  0
SEQEND
  5
8C
330
89
100
AcDbEntity
  8
STANDARDEBENE
  0
POLYLINE
  5
8D
330
1F
100
AcDbEntity
  8
STANDARDEBENE
 62
     7
100
AcDb2dPolyline
 66
     1
 10
0.0
 20
0.0
 30
0.0
  0
VERTEX
  5
8E
330
8D
100
AcDbEntity
  8
STANDARDEBENE
 62
     7
100
AcDbVertex
100
AcDb2dVertex
 10
-21.99953300790385
 20
0.5624122089872456
 30
0.0
  0
VERTEX
  5
8F
330
8D
100
AcDbEntity
  8
STANDARDEBENE
 62
     7
100
AcDbVertex
100
AcDb2dVertex
 10
-21.99953300790385
 20
0.0995633252050928
 30
0.0
  0
SEQEND
  5
90
330
8D
100
AcDbEntity
  8
STANDARDEBENE
  0
POLYLINE
  5
91
330
1F
100
AcDbEntity
  8
STANDARDEBENE
 62
     7
100
AcDb2dPolyline
 66
     1
 10
0.0
 20
0.0
 30
0.0
  0
VERTEX
  5
92
330
91
100
AcDbEntity
  8
STANDARDEBENE
 62
     7
100
AcDbVertex
100
AcDb2dVertex
 10
-6.000154510153974
 20
0.0995633252050928
 30
0.0
  0
VERTEX
  5
93
330
91
100
AcDbEntity
  8
STANDARDEBENE
 62
     7
100
AcDbVertex
100
AcDb2dVertex
 10
-6.000154510153974
 20
0.5624122089872456
 30
0.0
  0
SEQEND
  5
94
330
91
100
AcDbEntity
  8
STANDARDEBENE
  0
POLYLINE
  5
95
330
1F
100
AcDbEntity
  8
STANDARDEBENE
 62
     7
100
AcDb2dPolyline
 66
     1
 10
0.0
 20
0.0
 30
0.0
  0
VERTEX
  5
96
330
95
100
AcDbEntity
  8
STANDARDEBENE
 62
     7
100
AcDbVertex
100
AcDb2dVertex
 10
-6.000154510153974
 20
1.487076447224163
 30
0.0
  0
VERTEX
  5
97
330
95
100
AcDbEntity
  8
STANDARDEBENE
 62
     7
100
AcDbVertex
100
AcDb2dVertex
 10
-6.000154510153974
 20
2.411912940348978
 30
0.0
  0
SEQEND
  5
98
330
95
100
AcDbEntity
  8
STANDARDEBENE
  0
POLYLINE
  5
99
330
1F
100
AcDbEntity
  8
STANDARDEBENE
 62
     7
100
AcDb2dPolyline
 66
     1
 10
0.0
 20
0.0
 30
0.0
  0
VERTEX
  5
9A
330
99
100
AcDbEntity
  8
STANDARDEBENE
 62
     7
100
AcDbVertex
100
AcDb2dVertex
 10
-6.000154510153974
 20
3.337266198137488
 30
0.0
  0
VERTEX
  5
9B
330
99
100
AcDbEntity
  8
STANDARDEBENE
 62
     7
100
AcDbVertex
100
AcDb2dVertex
 10
-6.000154510153974
 20
4.262274946150201
 30
0.0
  0
SEQEND
  5
9C
330
99
100
AcDbEntity
  8
STANDARDEBENE
  0
POLYLINE
  5
9D
330
1F
100
AcDbEntity
  8
STANDARDEBENE
 62
     7
100
AcDb2dPolyline
 66
     1
 10
0.0
 20
0.0
 30
0.0
  0
VERTEX
  5
9E
330
9D
100
AcDbEntity
  8
STANDARDEBENE
 62
     7
100
AcDbVertex
100
AcDb2dVertex
 10
-6.000154510153974
 20
5.18762820393871
 30
0.0
  0
VERTEX
  5
9F
330
9D
100
AcDbEntity
  8
STANDARDEBENE
 62
     7
100
AcDbVertex
100
AcDb2dVertex
 10
-6.000154510153974
 20
6.112636951951424
 30
0.0
  0
SEQEND
  5
A0
330
9D
100
AcDbEntity
  8
STANDARDEBENE
  0
POLYLINE
  5
A1
330
1F
100
AcDbEntity
  8
STANDARDEBENE
 62
     7
100
AcDb2dPolyline
 66
     1
 10
0.0
 20
0.0
 30
0.0
  0
VERTEX
  5
A2
330
A1
100
AcDbEntity
  8
STANDARDEBENE
 62
     7
100
AcDbVertex
100
AcDb2dVertex
 10
-6.000154510153974
 20
7.037301190188341
 30
0.0
  0
VERTEX
  5
A3
330
A1
100
AcDbEntity
  8
STANDARDEBENE
 62
     7
100
AcDbVertex
100
AcDb2dVertex
 10
-6.000154510153974
 20
7.500150073970494
 30
0.0
  0
SEQEND
  5
A4
330
A1
100
AcDbEntity
  8
STANDARDEBENE
  0
POLYLINE
  5
A5
330
1F
100
AcDbEntity
  8
STANDARDEBENE
 62
     7
100
AcDb2dPolyline
 66
     1
 10
0.0
 20
0.0
 30
0.0
  0
VERTEX
  5
A6
330
A5
100
AcDbEntity
  8
STANDARDEBENE
 62
     7
100
AcDbVertex
100
AcDb2dVertex
 10
-19.49977007472685
 20
29.49968308187434
 30
0.0
  0
VERTEX
  5
A7
330
A5
100
AcDbEntity
  8
STANDARDEBENE
 62
     7
100
AcDbVertex
100
AcDb2dVertex
 10
-19.49977007472685
 20
28.98929184903232
 30
0.0
  0
SEQEND
  5
A8
330
A5
100
AcDbEntity
  8
STANDARDEBENE
  0
POLYLINE
  5
A9
330
1F
100
AcDbEntity
  8
STANDARDEBENE
 62
     7
100
AcDb2dPolyline
 66
     1
 10
0.0
 20
0.0
 30
0.0
  0
VERTEX
  5
AA
330
A9
100
AcDbEntity
  8
STANDARDEBENE
 62
     7
100
AcDbVertex
100
AcDb2dVertex
 10
-19.49977007472685
 20
27.96833712846038
 30
0.0
  0
VERTEX
  5
AB
330
A9
100
AcDbEntity
  8
STANDARDEBENE
 62
     7
100
AcDbVertex
100
AcDb2dVertex
 10
-19.49977007472685
 20
26.94772691766423
 30
0.0
  0
SEQEND
  5
AC
330
A9
100
AcDbEntity
  8
STANDARDEBENE
  0
POLYLINE
  5
AD
330
1F
100
AcDbEntity
  8
STANDARDEBENE
 62
     7
100
AcDb2dPolyline
 66
     1
 10
0.0
 20
0.0
 30
0.0
  0
VERTEX
  5
AE
330
AD
100
AcDbEntity
  8
STANDARDEBENE
 62
     7
100
AcDbVertex
100
AcDb2dVertex
 10
-19.49977007472685
 20
25.92608317754069
 30
0.0
  0
VERTEX
  5
AF
330
AD
100
AcDbEntity
  8
STANDARDEBENE
 62
     7
100
AcDbVertex
100
AcDb2dVertex
 10
-19.49977007472685
 20
24.90512845696874
 30
0.0
  0
SEQEND
  5
B0
330
AD
100
AcDbEntity
  8
STANDARDEBENE
  0
POLYLINE
  5
B1
330
1F
100
AcDbEntity
  8
STANDARDEBENE
 62
     7
100
AcDb2dPolyline
 66
     1
 10
0.0
 20
0.0
 30
0.0
  0
VERTEX
  5
B2
330
B1
100
AcDbEntity
  8
STANDARDEBENE
 62
     7
100
AcDbVertex
100
AcDb2dVertex
 10
-19.49977007472685
 20
23.88417373639679
 30
0.0
  0
VERTEX
  5
B3
330
B1
100
AcDbEntity
  8
STANDARDEBENE
 62
     7
100
AcDbVertex
100
AcDb2dVertex
 10
-19.49977007472685
 20
22.86356352560064
 30
0.0
  0
SEQEND
  5
B4
330
B1
100
AcDbEntity
  8
STANDARDEBENE
  0
POLYLINE
  5
B5
330
1F
100
AcDbEntity
  8
STANDARDEBENE
 62
     7
100
AcDb2dPolyline
 66
     1
 10
0.0
 20
0.0
 30
0.0
  0
VERTEX
  5
B6
330
B5
100
AcDbEntity
  8
STANDARDEBENE
 62
     7
100
AcDbVertex
100
AcDb2dVertex
 10
-19.49977007472685
 20
21.8426088050287
 30
0.0
  0
VERTEX
  5
B7
330
B5
100
AcDbEntity
  8
STANDARDEBENE
 62
     7
100
AcDbVertex
100
AcDb2dVertex
 10
-19.49977007472685
 20
20.82165408445675
 30
0.0
  0
SEQEND
  5
B8
330
B5
100
AcDbEntity
  8
STANDARDEBENE
  0
POLYLINE
  5
B9
330
1F
100
AcDbEntity
  8
STANDARDEBENE
 62
     7
100
AcDb2dPolyline
 66
     1
 10
0.0
 20
0.0
 30
0.0
  0
VERTEX
  5
BA
330
B9
100
AcDbEntity
  8
STANDARDEBENE
 62
     7
100
AcDbVertex
100
AcDb2dVertex
 10
-19.49977007472685
 20
19.8006993638848
 30
0.0
  0
VERTEX
  5
BB
330
B9
100
AcDbEntity
  8
STANDARDEBENE
 62
     7
100
AcDbVertex
100
AcDb2dVertex
 10
-19.49977007472685
 20
18.77991689820076
 30
0.0
  0
SEQEND
  5
BC
330
B9
100
AcDbEntity
  8
STANDARDEBENE
  0
POLYLINE
  5
BD
330
1F
100
AcDbEntity
  8
STANDARDEBENE
 62
     7
100
AcDb2dPolyline
 66
     1
 10
0.0
 20
0.0
 30
0.0
  0
VERTEX
  5
BE
330
BD
100
AcDbEntity
  8
STANDARDEBENE
 62
     7
100
AcDbVertex
100
AcDb2dVertex
 10
-19.49977007472685
 20
17.75861766785301
 30
0.0
  0
VERTEX
  5
BF
330
BD
100
AcDbEntity
  8
STANDARDEBENE
 62
     7
100
AcDbVertex
100
AcDb2dVertex
 10
-19.49977007472685
 20
16.73766294728107
 30
0.0
  0
SEQEND
  5
C0
330
BD
100
AcDbEntity
  8
STANDARDEBENE
  0
POLYLINE
  5
C1
330
1F
100
AcDbEntity
  8
STANDARDEBENE
 62
     7
100
AcDb2dPolyline
 66
     1
 10
0.0
 20
0.0
 30
0.0
  0
VERTEX
  5
C2
330
C1
100
AcDbEntity
  8
STANDARDEBENE
 62
     7
100
AcDbVertex
100
AcDb2dVertex
 10
-19.49977007472685
 20
15.71670822670912
 30
0.0
  0
VERTEX
  5
C3
330
C1
100
AcDbEntity
  8
STANDARDEBENE
 62
     7
100
AcDbVertex
100
AcDb2dVertex
 10
-19.49977007472685
 20
14.69575350613717
 30
0.0
  0
SEQEND
  5
C4
330
C1
100
AcDbEntity
  8
STANDARDEBENE
  0
POLYLINE
  5
C5
330
1F
100
AcDbEntity
  8
STANDARDEBENE
 62
     7
100
AcDb2dPolyline
 66
     1
 10
0.0
 20
0.0
 30
0.0
  0
VERTEX
  5
C6
330
C5
100
AcDbEntity
  8
STANDARDEBENE
 62
     7
100
AcDbVertex
100
AcDb2dVertex
 10
-19.49977007472685
 20
13.67479878556523
 30
0.0
  0
VERTEX
  5
C7
330
C5
100
AcDbEntity
  8
STANDARDEBENE
 62
     7
100
AcDbVertex
100
AcDb2dVertex
 10
-19.49977007472685
 20
12.65349955521749
 30
0.0
  0
SEQEND
  5
C8
330
C5
100
AcDbEntity
  8
STANDARDEBENE
  0
POLYLINE
  5
C9
330
1F
100
AcDbEntity
  8
STANDARDEBENE
 62
     7
100
AcDb2dPolyline
 66
     1
 10
0.0
 20
0.0
 30
0.0
  0
VERTEX
  5
CA
330
C9
100
AcDbEntity
  8
STANDARDEBENE
 62
     7
100
AcDbVertex
100
AcDb2dVertex
 10
-19.49977007472685
 20
11.63254483464554
 30
0.0
  0
VERTEX
  5
CB
330
C9
100
AcDbEntity
  8
STANDARDEBENE
 62
     7
100
AcDbVertex
100
AcDb2dVertex
 10
-19.49977007472685
 20
11.12215360180351
 30
0.0
  0
SEQEND
  5
CC
330
C9
100
AcDbEntity
  8
STANDARDEBENE
  0
POLYLINE
  5
CD
330
1F
100
AcDbEntity
  8
STANDARDEBENE
 62
     7
100
AcDb2dPolyline
 66
     1
 10
0.0
 20
0.0
 30
0.0
  0
VERTEX
  5
CE
330
CD
100
AcDbEntity
  8
STANDARDEBENE
 62
     7
100
AcDbVertex
100
AcDb2dVertex
 10
-8.49957293355518
 20
11.12215360180351
 30
0.0
  0
VERTEX
  5
CF
330
CD
100
AcDbEntity
  8
STANDARDEBENE
 62
     7
100
AcDbVertex
100
AcDb2dVertex
 10
-8.49957293355518
 20
11.63254483464554
 30
0.0
  0
SEQEND
  5
D0
330
CD
100
AcDbEntity
  8
STANDARDEBENE
  0
POLYLINE
  5
D1
330
1F
100
AcDbEntity
  8
STANDARDEBENE
 62
     7
100
AcDb2dPolyline
 66
     1
 10
0.0
 20
0.0
 30
0.0
  0
VERTEX
  5
D2
330
D1
100
AcDbEntity
  8
STANDARDEBENE
 62
     7
100
AcDbVertex
100
AcDb2dVertex
 10
-8.49957293355518
 20
12.65349955521749
 30
0.0
  0
VERTEX
  5
D3
330
D1
100
AcDbEntity
  8
STANDARDEBENE
 62
     7
100
AcDbVertex
100
AcDb2dVertex
 10
-8.49957293355518
 20
13.67479878556523
 30
0.0
  0
SEQEND
  5
D4
330
D1
100
AcDbEntity
  8
STANDARDEBENE
  0
POLYLINE
  5
D5
330
1F
100
AcDbEntity
  8
STANDARDEBENE
 62
     7
100
AcDb2dPolyline
 66
     1
 10
0.0
 20
0.0
 30
0.0
  0
VERTEX
  5
D6
330
D5
100
AcDbEntity
  8
STANDARDEBENE
 62
     7
100
AcDbVertex
100
AcDb2dVertex
 10
-8.49957293355518
 20
14.69575350613717
 30
0.0
  0
VERTEX
  5
D7
330
D5
100
AcDbEntity
  8
STANDARDEBENE
 62
     7
100
AcDbVertex
100
AcDb2dVertex
 10
-8.49957293355518
 20
15.71670822670912
 30
0.0
  0
SEQEND
  5
D8
330
D5
100
AcDbEntity
  8
STANDARDEBENE
  0
POLYLINE
  5
D9
330
1F
100
AcDbEntity
  8
STANDARDEBENE
 62
     7
100
AcDb2dPolyline
 66
     1
 10
0.0
 20
0.0
 30
0.0
  0
VERTEX
  5
DA
330
D9
100
AcDbEntity
  8
STANDARDEBENE
 62
     7
100
AcDbVertex
100
AcDb2dVertex
 10
-8.49957293355518
 20
16.73766294728107
 30
0.0
  0
VERTEX
  5
DB
330
D9
100
AcDbEntity
  8
STANDARDEBENE
 62
     7
100
AcDbVertex
100
AcDb2dVertex
 10
-8.49957293355518
 20
17.75861766785301
 30
0.0
  0
SEQEND
  5
DC
330
D9
100
AcDbEntity
  8
STANDARDEBENE
  0
POLYLINE
  5
DD
330
1F
100
AcDbEntity
  8
STANDARDEBENE
 62
     7
100
AcDb2dPolyline
 66
     1
 10
0.0
 20
0.0
 30
0.0
  0
VERTEX
  5
DE
330
DD
100
AcDbEntity
  8
STANDARDEBENE
 62
     7
100
AcDbVertex
100
AcDb2dVertex
 10
-8.49957293355518
 20
18.77991689820076
 30
0.0
  0
VERTEX
  5
DF
330
DD
100
AcDbEntity
  8
STANDARDEBENE
 62
     7
100
AcDbVertex
100
AcDb2dVertex
 10
-8.49957293355518
 20
19.8006993638848
 30
0.0
  0
SEQEND
  5
E0
330
DD
100
AcDbEntity
  8
STANDARDEBENE
  0
POLYLINE
  5
E1
330
1F
100
AcDbEntity
  8
STANDARDEBENE
 62
     7
100
AcDb2dPolyline
 66
     1
 10
0.0
 20
0.0
 30
0.0
  0
VERTEX
  5
E2
330
E1
100
AcDbEntity
  8
STANDARDEBENE
 62
     7
100
AcDbVertex
100
AcDb2dVertex
 10
-8.49957293355518
 20
20.82165408445675
 30
0.0
  0
VERTEX
  5
E3
330
E1
100
AcDbEntity
  8
STANDARDEBENE
 62
     7
100
AcDbVertex
100
AcDb2dVertex
 10
-8.49957293355518
 20
21.8426088050287
 30
0.0
  0
SEQEND
  5
E4
330
E1
100
AcDbEntity
  8
STANDARDEBENE
  0
POLYLINE
  5
E5
330
1F
100
AcDbEntity
  8
STANDARDEBENE
 62
     7
100
AcDb2dPolyline
 66
     1
 10
0.0
 20
0.0
 30
0.0
  0
VERTEX
  5
E6
330
E5
100
AcDbEntity
  8
STANDARDEBENE
 62
     7
100
AcDbVertex
100
AcDb2dVertex
 10
-8.49957293355518
 20
22.86356352560064
 30
0.0
  0
VERTEX
  5
E7
330
E5
100
AcDbEntity
  8
STANDARDEBENE
 62
     7
100
AcDbVertex
100
AcDb2dVertex
 10
-8.49957293355518
 20
23.88417373639679
 30
0.0
  0
SEQEND
  5
E8
330
E5
100
AcDbEntity
  8
STANDARDEBENE
  0
POLYLINE
  5
E9
330
1F
100
AcDbEntity
  8
STANDARDEBENE
 62
     7
100
AcDb2dPolyline
 66
     1
 10
0.0
 20
0.0
 30
0.0
  0
VERTEX
  5
EA
330
E9
100
AcDbEntity
  8
STANDARDEBENE
 62
     7
100
AcDbVertex
100
AcDb2dVertex
 10
-8.49957293355518
 20
24.90512845696874
 30
0.0
  0
VERTEX
  5
EB
330
E9
100
AcDbEntity
  8
STANDARDEBENE
 62
     7
100
AcDbVertex
100
AcDb2dVertex
 10
-8.49957293355518
 20
25.92608317754069
 30
0.0
  0
SEQEND
  5
EC
330
E9
100
AcDbEntity
  8
STANDARDEBENE
  0
POLYLINE
  5
ED
330
1F
100
AcDbEntity
  8
STANDARDEBENE
 62
     7
100
AcDb2dPolyline
 66
     1
 10
0.0
 20
0.0
 30
0.0
  0
VERTEX
  5
EE
330
ED
100
AcDbEntity
  8
STANDARDEBENE
 62
     7
100
AcDbVertex
100
AcDb2dVertex
 10
-8.49957293355518
 20
26.94772691766423
 30
0.0
  0
VERTEX
  5
EF
330
ED
100
AcDbEntity
  8
STANDARDEBENE
 62
     7
100
AcDbVertex
100
AcDb2dVertex
 10
-8.49957293355518
 20
27.96833712846038
 30
0.0
  0
SEQEND
  5
F0
330
ED
100
AcDbEntity
  8
STANDARDEBENE
  0
POLYLINE
  5
F1
330
1F
100
AcDbEntity
  8
STANDARDEBENE
 62
     7
100
AcDb2dPolyline
 66
     1
 10
0.0
 20
0.0
 30
0.0
  0
VERTEX
  5
F2
330
F1
100
AcDbEntity
  8
STANDARDEBENE
 62
     7
100
AcDbVertex
100
AcDb2dVertex
 10
-8.49957293355518
 20
28.98929184903232
 30
0.0
  0
VERTEX
  5
F3
330
F1
100
AcDbEntity
  8
STANDARDEBENE
 62
     7
100
AcDbVertex
100
AcDb2dVertex
 10
-8.49957293355518
 20
29.49968308187434
 30
0.0
  0
VERTEX
  5
F4
330
F1
100
AcDbEntity
  8
STANDARDEBENE
 62
     7
100
AcDbVertex
100
AcDb2dVertex
 10
-8.625146746832883
 20
29.57513072277371
 30
0.0
  0
SEQEND
  5
F5
330
F1
100
AcDbEntity
  8
STANDARDEBENE
  0
POLYLINE
  5
F6
330
1F
100
AcDbEntity
  8
STANDARDEBENE
 62
     7
100
AcDb2dPolyline
 66
     1
 10
0.0
 20
0.0
 30
0.0
  0
VERTEX
  5
F7
330
F6
100
AcDbEntity
  8
STANDARDEBENE
 62
     7
100
AcDbVertex
100
AcDb2dVertex
 10
-8.874916334285105
 20
29.72516473013294
 30
0.0
  0
VERTEX
  5
F8
330
F6
100
AcDbEntity
  8
STANDARDEBENE
 62
     7
100
AcDbVertex
100
AcDb2dVertex
 10
-8.999801128011217
 20
29.8006123710323
 30
0.0
  0
SEQEND
  5
F9
330
F6
100
AcDbEntity
  8
STANDARDEBENE
  0
POLYLINE
  5
FA
330
1F
100
AcDbEntity
  8
STANDARDEBENE
 62
     7
100
AcDb2dPolyline
 66
     1
 10
0.0
 20
0.0
 30
0.0
  0
VERTEX
  5
FB
330
FA
100
AcDbEntity
  8
STANDARDEBENE
 62
     7
100
AcDbVertex
100
AcDb2dVertex
 10
-18.99988639004661
 20
29.8006123710323
 30
0.0
  0
VERTEX
  5
FC
330
FA
100
AcDbEntity
  8
STANDARDEBENE
 62
     7
100
AcDbVertex
100
AcDb2dVertex
 10
-19.12442667399693
 20
29.72516473013294
 30
0.0
  0
SEQEND
  5
FD
330
FA
100
AcDbEntity
  8
STANDARDEBENE
  0
POLYLINE
  5
FE
330
1F
100
AcDbEntity
  8
STANDARDEBENE
 62
     7
100
AcDb2dPolyline
 66
     1
 10
0.0
 20
0.0
 30
0.0
  0
VERTEX
  5
FF
330
FE
100
AcDbEntity
  8
STANDARDEBENE
 62
     7
100
AcDbVertex
100
AcDb2dVertex
 10
-19.37454077122494
 20
29.57513072277371
 30
0.0
  0
VERTEX
  5
100
330
FE
100
AcDbEntity
  8
STANDARDEBENE
 62
     7
100
AcDbVertex
100
AcDb2dVertex
 10
-19.49977007472685
 20
29.49968308187434
 30
0.0
  0
SEQEND
  5
101
330
FE
100
AcDbEntity
  8
STANDARDEBENE
  0
POLYLINE
  5
102
330
1F
100
AcDbEntity
  8
STANDARDEBENE
 62
     7
100
AcDb2dPolyline
 66
     1
 10
0.0
 20
0.0
 30
0.0
  0
VERTEX
  5
103
330
102
100
AcDbEntity
  8
STANDARDEBENE
 62
     7
100
AcDbVertex
100
AcDb2dVertex
 10
-18.99988639004661
 20
119.5001059304171
 30
0.0
  0
VERTEX
  5
104
330
102
100
AcDbEntity
  8
STANDARDEBENE
 62
     7
100
AcDbVertex
100
AcDb2dVertex
 10
-18.99988639004661
 20
119.00160028484
 30
0.0
  0
SEQEND
  5
105
330
102
100
AcDbEntity
  8
STANDARDEBENE
  0
POLYLINE
  5
106
330
1F
100
AcDbEntity
  8
STANDARDEBENE
 62
     7
100
AcDb2dPolyline
 66
     1
 10
0.0
 20
0.0
 30
0.0
  0
VERTEX
  5
107
330
106
100
AcDbEntity
  8
STANDARDEBENE
 62
     7
100
AcDbVertex
100
AcDb2dVertex
 10
-18.99988639004661
 20
118.0045889936859
 30
0.0
  0
VERTEX
  5
108
330
106
100
AcDbEntity
  8
STANDARDEBENE
 62
     7
100
AcDbVertex
100
AcDb2dVertex
 10
-18.99988639004661
 20
117.0084389769713
 30
0.0
  0
SEQEND
  5
109
330
106
100
AcDbEntity
  8
STANDARDEBENE
  0
POLYLINE
  5
10A
330
1F
100
AcDbEntity
  8
STANDARDEBENE
 62
     7
100
AcDb2dPolyline
 66
     1
 10
0.0
 20
0.0
 30
0.0
  0
VERTEX
  5
10B
330
10A
100
AcDbEntity
  8
STANDARDEBENE
 62
     7
100
AcDbVertex
100
AcDb2dVertex
 10
-18.99988639004661
 20
116.011772195593
 30
0.0
  0
VERTEX
  5
10C
330
10A
100
AcDbEntity
  8
STANDARDEBENE
 62
     7
100
AcDbVertex
100
AcDb2dVertex
 10
-18.99988639004661
 20
115.0147609044389
 30
0.0
  0
SEQEND
  5
10D
330
10A
100
AcDbEntity
  8
STANDARDEBENE
  0
POLYLINE
  5
10E
330
1F
100
AcDbEntity
  8
STANDARDEBENE
 62
     7
100
AcDb2dPolyline
 66
     1
 10
0.0
 20
0.0
 30
0.0
  0
VERTEX
  5
10F
330
10E
100
AcDbEntity
  8
STANDARDEBENE
 62
     7
100
AcDbVertex
100
AcDb2dVertex
 10
-18.99988639004661
 20
114.0186108877243
 30
0.0
  0
VERTEX
  5
110
330
10E
100
AcDbEntity
  8
STANDARDEBENE
 62
     7
100
AcDbVertex
100
AcDb2dVertex
 10
-18.99988639004661
 20
113.0215995965701
 30
0.0
  0
SEQEND
  5
111
330
10E
100
AcDbEntity
  8
STANDARDEBENE
  0
POLYLINE
  5
112
330
1F
100
AcDbEntity
  8
STANDARDEBENE
 62
     7
100
AcDb2dPolyline
 66
     1
 10
0.0
 20
0.0
 30
0.0
  0
VERTEX
  5
113
330
112
100
AcDbEntity
  8
STANDARDEBENE
 62
     7
100
AcDbVertex
100
AcDb2dVertex
 10
-18.99988639004661
 20
112.0247605603039
 30
0.0
  0
VERTEX
  5
114
330
112
100
AcDbEntity
  8
STANDARDEBENE
 62
     7
100
AcDbVertex
100
AcDb2dVertex
 10
-18.99988639004661
 20
111.0284382887014
 30
0.0
  0
SEQEND
  5
115
330
112
100
AcDbEntity
  8
STANDARDEBENE
  0
POLYLINE
  5
116
330
1F
100
AcDbEntity
  8
STANDARDEBENE
 62
     7
100
AcDb2dPolyline
 66
     1
 10
0.0
 20
0.0
 30
0.0
  0
VERTEX
  5
117
330
116
100
AcDbEntity
  8
STANDARDEBENE
 62
     7
100
AcDbVertex
100
AcDb2dVertex
 10
-18.99988639004661
 20
110.0314269975473
 30
0.0
  0
VERTEX
  5
118
330
116
100
AcDbEntity
  8
STANDARDEBENE
 62
     7
100
AcDbVertex
100
AcDb2dVertex
 10
-18.99988639004661
 20
109.0352769808327
 30
0.0
  0
SEQEND
  5
119
330
116
100
AcDbEntity
  8
STANDARDEBENE
  0
POLYLINE
  5
11A
330
1F
100
AcDbEntity
  8
STANDARDEBENE
 62
     7
100
AcDb2dPolyline
 66
     1
 10
0.0
 20
0.0
 30
0.0
  0
VERTEX
  5
11B
330
11A
100
AcDbEntity
  8
STANDARDEBENE
 62
     7
100
AcDbVertex
100
AcDb2dVertex
 10
-18.99988639004661
 20
108.0382656896786
 30
0.0
  0
VERTEX
  5
11C
330
11A
100
AcDbEntity
  8
STANDARDEBENE
 62
     7
100
AcDbVertex
100
AcDb2dVertex
 10
-18.99988639004661
 20
107.0414266534123
 30
0.0
  0
SEQEND
  5
11D
330
11A
100
AcDbEntity
  8
STANDARDEBENE
  0
POLYLINE
  5
11E
330
1F
100
AcDbEntity
  8
STANDARDEBENE
 62
     7
100
AcDb2dPolyline
 66
     1
 10
0.0
 20
0.0
 30
0.0
  0
VERTEX
  5
11F
330
11E
100
AcDbEntity
  8
STANDARDEBENE
 62
     7
100
AcDbVertex
100
AcDb2dVertex
 10
-18.99988639004661
 20
106.0451043818098
 30
0.0
  0
VERTEX
  5
120
330
11E
100
AcDbEntity
  8
STANDARDEBENE
 62
     7
100
AcDbVertex
100
AcDb2dVertex
 10
-18.99988639004661
 20
105.0484376004315
 30
0.0
  0
SEQEND
  5
121
330
11E
100
AcDbEntity
  8
STANDARDEBENE
  0
POLYLINE
  5
122
330
1F
100
AcDbEntity
  8
STANDARDEBENE
 62
     7
100
AcDb2dPolyline
 66
     1
 10
0.0
 20
0.0
 30
0.0
  0
VERTEX
  5
123
330
122
100
AcDbEntity
  8
STANDARDEBENE
 62
     7
100
AcDbVertex
100
AcDb2dVertex
 10
-18.99988639004661
 20
104.0515985641653
 30
0.0
  0
VERTEX
  5
124
330
122
100
AcDbEntity
  8
STANDARDEBENE
 62
     7
100
AcDbVertex
100
AcDb2dVertex
 10
-18.99988639004661
 20
103.0552762925628
 30
0.0
  0
SEQEND
  5
125
330
122
100
AcDbEntity
  8
STANDARDEBENE
  0
POLYLINE
  5
126
330
1F
100
AcDbEntity
  8
STANDARDEBENE
 62
     7
100
AcDb2dPolyline
 66
     1
 10
0.0
 20
0.0
 30
0.0
  0
VERTEX
  5
127
330
126
100
AcDbEntity
  8
STANDARDEBENE
 62
     7
100
AcDbVertex
100
AcDb2dVertex
 10
-18.99988639004661
 20
102.0584372562965
 30
0.0
  0
VERTEX
  5
128
330
126
100
AcDbEntity
  8
STANDARDEBENE
 62
     7
100
AcDbVertex
100
AcDb2dVertex
 10
-18.99988639004661
 20
101.0614259651424
 30
0.0
  0
SEQEND
  5
129
330
126
100
AcDbEntity
  8
STANDARDEBENE
  0
POLYLINE
  5
12A
330
1F
100
AcDbEntity
  8
STANDARDEBENE
 62
     7
100
AcDb2dPolyline
 66
     1
 10
0.0
 20
0.0
 30
0.0
  0
VERTEX
  5
12B
330
12A
100
AcDbEntity
  8
STANDARDEBENE
 62
     7
100
AcDbVertex
100
AcDb2dVertex
 10
-18.99988639004661
 20
100.0652759484278
 30
0.0
  0
VERTEX
  5
12C
330
12A
100
AcDbEntity
  8
STANDARDEBENE
 62
     7
100
AcDbVertex
100
AcDb2dVertex
 10
-18.99988639004661
 20
99.0682646572737
 30
0.0
  0
SEQEND
  5
12D
330
12A
100
AcDbEntity
  8
STANDARDEBENE
  0
POLYLINE
  5
12E
330
1F
100
AcDbEntity
  8
STANDARDEBENE
 62
     7
100
AcDb2dPolyline
 66
     1
 10
0.0
 20
0.0
 30
0.0
  0
VERTEX
  5
12F
330
12E
100
AcDbEntity
  8
STANDARDEBENE
 62
     7
100
AcDbVertex
100
AcDb2dVertex
 10
-18.99988639004661
 20
98.07194238567118
 30
0.0
  0
VERTEX
  5
130
330
12E
100
AcDbEntity
  8
STANDARDEBENE
 62
     7
100
AcDbVertex
100
AcDb2dVertex
 10
-18.99988639004661
 20
97.07493109451707
 30
0.0
  0
SEQEND
  5
131
330
12E
100
AcDbEntity
  8
STANDARDEBENE
  0
POLYLINE
  5
132
330
1F
100
AcDbEntity
  8
STANDARDEBENE
 62
     7
100
AcDb2dPolyline
 66
     1
 10
0.0
 20
0.0
 30
0.0
  0
VERTEX
  5
133
330
132
100
AcDbEntity
  8
STANDARDEBENE
 62
     7
100
AcDbVertex
100
AcDb2dVertex
 10
-18.99988639004661
 20
96.07809205825086
 30
0.0
  0
VERTEX
  5
134
330
132
100
AcDbEntity
  8
STANDARDEBENE
 62
     7
100
AcDbVertex
100
AcDb2dVertex
 10
-18.99988639004661
 20
95.08194204153624
 30
0.0
  0
SEQEND
  5
135
330
132
100
AcDbEntity
  8
STANDARDEBENE
  0
POLYLINE
  5
136
330
1F
100
AcDbEntity
  8
STANDARDEBENE
 62
     7
100
AcDb2dPolyline
 66
     1
 10
0.0
 20
0.0
 30
0.0
  0
VERTEX
  5
137
330
136
100
AcDbEntity
  8
STANDARDEBENE
 62
     7
100
AcDbVertex
100
AcDb2dVertex
 10
-18.99988639004661
 20
94.08527526015791
 30
0.0
  0
VERTEX
  5
138
330
136
100
AcDbEntity
  8
STANDARDEBENE
 62
     7
100
AcDbVertex
100
AcDb2dVertex
 10
-18.99988639004661
 20
93.0882639690038
 30
0.0
  0
SEQEND
  5
139
330
136
100
AcDbEntity
  8
STANDARDEBENE
  0
POLYLINE
  5
13A
330
1F
100
AcDbEntity
  8
STANDARDEBENE
 62
     7
100
AcDb2dPolyline
 66
     1
 10
0.0
 20
0.0
 30
0.0
  0
VERTEX
  5
13B
330
13A
100
AcDbEntity
  8
STANDARDEBENE
 62
     7
100
AcDbVertex
100
AcDb2dVertex
 10
-18.99988639004661
 20
92.09159718762548
 30
0.0
  0
VERTEX
  5
13C
330
13A
100
AcDbEntity
  8
STANDARDEBENE
 62
     7
100
AcDbVertex
100
AcDb2dVertex
 10
-18.99988639004661
 20
91.09510266113507
 30
0.0
  0
SEQEND
  5
13D
330
13A
100
AcDbEntity
  8
STANDARDEBENE
  0
POLYLINE
  5
13E
330
1F
100
AcDbEntity
  8
STANDARDEBENE
 62
     7
100
AcDb2dPolyline
 66
     1
 10
0.0
 20
0.0
 30
0.0
  0
VERTEX
  5
13F
330
13E
100
AcDbEntity
  8
STANDARDEBENE
 62
     7
100
AcDbVertex
100
AcDb2dVertex
 10
-18.99988639004661
 20
90.09809136998095
 30
0.0
  0
VERTEX
  5
140
330
13E
100
AcDbEntity
  8
STANDARDEBENE
 62
     7
100
AcDbVertex
100
AcDb2dVertex
 10
-18.99988639004661
 20
89.10194135326633
 30
0.0
  0
SEQEND
  5
141
330
13E
100
AcDbEntity
  8
STANDARDEBENE
  0
POLYLINE
  5
142
330
1F
100
AcDbEntity
  8
STANDARDEBENE
 62
     7
100
AcDb2dPolyline
 66
     1
 10
0.0
 20
0.0
 30
0.0
  0
VERTEX
  5
143
330
142
100
AcDbEntity
  8
STANDARDEBENE
 62
     7
100
AcDbVertex
100
AcDb2dVertex
 10
-18.99988639004661
 20
88.10493006211222
 30
0.0
  0
VERTEX
  5
144
330
142
100
AcDbEntity
  8
STANDARDEBENE
 62
     7
100
AcDbVertex
100
AcDb2dVertex
 10
-18.99988639004661
 20
87.1086077905097
 30
0.0
  0
SEQEND
  5
145
330
142
100
AcDbEntity
  8
STANDARDEBENE
  0
POLYLINE
  5
146
330
1F
100
AcDbEntity
  8
STANDARDEBENE
 62
     7
100
AcDb2dPolyline
 66
     1
 10
0.0
 20
0.0
 30
0.0
  0
VERTEX
  5
147
330
146
100
AcDbEntity
  8
STANDARDEBENE
 62
     7
100
AcDbVertex
100
AcDb2dVertex
 10
-18.99988639004661
 20
86.11176875424349
 30
0.0
  0
VERTEX
  5
148
330
146
100
AcDbEntity
  8
STANDARDEBENE
 62
     7
100
AcDbVertex
100
AcDb2dVertex
 10
-18.99988639004661
 20
85.11475746308938
 30
0.0
  0
SEQEND
  5
149
330
146
100
AcDbEntity
  8
STANDARDEBENE
  0
POLYLINE
  5
14A
330
1F
100
AcDbEntity
  8
STANDARDEBENE
 62
     7
100
AcDb2dPolyline
 66
     1
 10
0.0
 20
0.0
 30
0.0
  0
VERTEX
  5
14B
330
14A
100
AcDbEntity
  8
STANDARDEBENE
 62
     7
100
AcDbVertex
100
AcDb2dVertex
 10
-18.99988639004661
 20
84.11860744637475
 30
0.0
  0
VERTEX
  5
14C
330
14A
100
AcDbEntity
  8
STANDARDEBENE
 62
     7
100
AcDbVertex
100
AcDb2dVertex
 10
-18.99988639004661
 20
83.12194066499643
 30
0.0
  0
SEQEND
  5
14D
330
14A
100
AcDbEntity
  8
STANDARDEBENE
  0
POLYLINE
  5
14E
330
1F
100
AcDbEntity
  8
STANDARDEBENE
 62
     7
100
AcDb2dPolyline
 66
     1
 10
0.0
 20
0.0
 30
0.0
  0
VERTEX
  5
14F
330
14E
100
AcDbEntity
  8
STANDARDEBENE
 62
     7
100
AcDbVertex
100
AcDb2dVertex
 10
-18.99988639004661
 20
82.12510162873022
 30
0.0
  0
VERTEX
  5
150
330
14E
100
AcDbEntity
  8
STANDARDEBENE
 62
     7
100
AcDbVertex
100
AcDb2dVertex
 10
-18.99988639004661
 20
81.1284348473519
 30
0.0
  0
SEQEND
  5
151
330
14E
100
AcDbEntity
  8
STANDARDEBENE
  0
POLYLINE
  5
152
330
1F
100
AcDbEntity
  8
STANDARDEBENE
 62
     7
100
AcDb2dPolyline
 66
     1
 10
0.0
 20
0.0
 30
0.0
  0
VERTEX
  5
153
330
152
100
AcDbEntity
  8
STANDARDEBENE
 62
     7
100
AcDbVertex
100
AcDb2dVertex
 10
-18.99988639004661
 20
80.13176806597359
 30
0.0
  0
VERTEX
  5
154
330
152
100
AcDbEntity
  8
STANDARDEBENE
 62
     7
100
AcDbVertex
100
AcDb2dVertex
 10
-18.99988639004661
 20
79.13492902970738
 30
0.0
  0
SEQEND
  5
155
330
152
100
AcDbEntity
  8
STANDARDEBENE
  0
POLYLINE
  5
156
330
1F
100
AcDbEntity
  8
STANDARDEBENE
 62
     7
100
AcDb2dPolyline
 66
     1
 10
0.0
 20
0.0
 30
0.0
  0
VERTEX
  5
157
330
156
100
AcDbEntity
  8
STANDARDEBENE
 62
     7
100
AcDbVertex
100
AcDb2dVertex
 10
-18.99988639004661
 20
78.13860675810486
 30
0.0
  0
VERTEX
  5
158
330
156
100
AcDbEntity
  8
STANDARDEBENE
 62
     7
100
AcDbVertex
100
AcDb2dVertex
 10
-18.99988639004661
 20
77.14159546695073
 30
0.0
  0
SEQEND
  5
159
330
156
100
AcDbEntity
  8
STANDARDEBENE
  0
POLYLINE
  5
15A
330
1F
100
AcDbEntity
  8
STANDARDEBENE
 62
     7
100
AcDb2dPolyline
 66
     1
 10
0.0
 20
0.0
 30
0.0
  0
VERTEX
  5
15B
330
15A
100
AcDbEntity
  8
STANDARDEBENE
 62
     7
100
AcDbVertex
100
AcDb2dVertex
 10
-18.99988639004661
 20
76.14544545023612
 30
0.0
  0
VERTEX
  5
15C
330
15A
100
AcDbEntity
  8
STANDARDEBENE
 62
     7
100
AcDbVertex
100
AcDb2dVertex
 10
-18.99988639004661
 20
75.148434159082
 30
0.0
  0
SEQEND
  5
15D
330
15A
100
AcDbEntity
  8
STANDARDEBENE
  0
POLYLINE
  5
15E
330
1F
100
AcDbEntity
  8
STANDARDEBENE
 62
     7
100
AcDb2dPolyline
 66
     1
 10
0.0
 20
0.0
 30
0.0
  0
VERTEX
  5
15F
330
15E
100
AcDbEntity
  8
STANDARDEBENE
 62
     7
100
AcDbVertex
100
AcDb2dVertex
 10
-18.99988639004661
 20
74.15142286792789
 30
0.0
  0
VERTEX
  5
160
330
15E
100
AcDbEntity
  8
STANDARDEBENE
 62
     7
100
AcDbVertex
100
AcDb2dVertex
 10
-18.99988639004661
 20
73.15527285121327
 30
0.0
  0
SEQEND
  5
161
330
15E
100
AcDbEntity
  8
STANDARDEBENE
  0
POLYLINE
  5
162
330
1F
100
AcDbEntity
  8
STANDARDEBENE
 62
     7
100
AcDb2dPolyline
 66
     1
 10
0.0
 20
0.0
 30
0.0
  0
VERTEX
  5
163
330
162
100
AcDbEntity
  8
STANDARDEBENE
 62
     7
100
AcDbVertex
100
AcDb2dVertex
 10
-18.99988639004661
 20
72.15860606983496
 30
0.0
  0
VERTEX
  5
164
330
162
100
AcDbEntity
  8
STANDARDEBENE
 62
     7
100
AcDbVertex
100
AcDb2dVertex
 10
-18.99988639004661
 20
71.16176703356874
 30
0.0
  0
SEQEND
  5
165
330
162
100
AcDbEntity
  8
STANDARDEBENE
  0
POLYLINE
  5
166
330
1F
100
AcDbEntity
  8
STANDARDEBENE
 62
     7
100
AcDb2dPolyline
 66
     1
 10
0.0
 20
0.0
 30
0.0
  0
VERTEX
  5
167
330
166
100
AcDbEntity
  8
STANDARDEBENE
 62
     7
100
AcDbVertex
100
AcDb2dVertex
 10
-18.99988639004661
 20
70.16510025219043
 30
0.0
  0
VERTEX
  5
168
330
166
100
AcDbEntity
  8
STANDARDEBENE
 62
     7
100
AcDbVertex
100
AcDb2dVertex
 10
-18.99988639004661
 20
69.1686057257
 30
0.0
  0
SEQEND
  5
169
330
166
100
AcDbEntity
  8
STANDARDEBENE
  0
POLYLINE
  5
16A
330
1F
100
AcDbEntity
  8
STANDARDEBENE
 62
     7
100
AcDb2dPolyline
 66
     1
 10
0.0
 20
0.0
 30
0.0
  0
VERTEX
  5
16B
330
16A
100
AcDbEntity
  8
STANDARDEBENE
 62
     7
100
AcDbVertex
100
AcDb2dVertex
 10
-18.99988639004661
 20
68.1715944345459
 30
0.0
  0
VERTEX
  5
16C
330
16A
100
AcDbEntity
  8
STANDARDEBENE
 62
     7
100
AcDbVertex
100
AcDb2dVertex
 10
-18.99988639004661
 20
67.17527216294337
 30
0.0
  0
SEQEND
  5
16D
330
16A
100
AcDbEntity
  8
STANDARDEBENE
  0
POLYLINE
  5
16E
330
1F
100
AcDbEntity
  8
STANDARDEBENE
 62
     7
100
AcDb2dPolyline
 66
     1
 10
0.0
 20
0.0
 30
0.0
  0
VERTEX
  5
16F
330
16E
100
AcDbEntity
  8
STANDARDEBENE
 62
     7
100
AcDbVertex
100
AcDb2dVertex
 10
-18.99988639004661
 20
66.17843312667716
 30
0.0
  0
VERTEX
  5
170
330
16E
100
AcDbEntity
  8
STANDARDEBENE
 62
     7
100
AcDbVertex
100
AcDb2dVertex
 10
-18.99988639004661
 20
65.18211085507464
 30
0.0
  0
SEQEND
  5
171
330
16E
100
AcDbEntity
  8
STANDARDEBENE
  0
POLYLINE
  5
172
330
1F
100
AcDbEntity
  8
STANDARDEBENE
 62
     7
100
AcDb2dPolyline
 66
     1
 10
0.0
 20
0.0
 30
0.0
  0
VERTEX
  5
173
330
172
100
AcDbEntity
  8
STANDARDEBENE
 62
     7
100
AcDbVertex
100
AcDb2dVertex
 10
-18.99988639004661
 20
64.18527181880842
 30
0.0
  0
VERTEX
  5
174
330
172
100
AcDbEntity
  8
STANDARDEBENE
 62
     7
100
AcDbVertex
100
AcDb2dVertex
 10
-18.99988639004661
 20
63.18826052765431
 30
0.0
  0
SEQEND
  5
175
330
172
100
AcDbEntity
  8
STANDARDEBENE
  0
POLYLINE
  5
176
330
1F
100
AcDbEntity
  8
STANDARDEBENE
 62
     7
100
AcDb2dPolyline
 66
     1
 10
0.0
 20
0.0
 30
0.0
  0
VERTEX
  5
177
330
176
100
AcDbEntity
  8
STANDARDEBENE
 62
     7
100
AcDbVertex
100
AcDb2dVertex
 10
-18.99988639004661
 20
62.19193825605179
 30
0.0
  0
VERTEX
  5
178
330
176
100
AcDbEntity
  8
STANDARDEBENE
 62
     7
100
AcDbVertex
100
AcDb2dVertex
 10
-18.99988639004661
 20
61.19544372956137
 30
0.0
  0
SEQEND
  5
179
330
176
100
AcDbEntity
  8
STANDARDEBENE
  0
POLYLINE
  5
17A
330
1F
100
AcDbEntity
  8
STANDARDEBENE
 62
     7
100
AcDb2dPolyline
 66
     1
 10
0.0
 20
0.0
 30
0.0
  0
VERTEX
  5
17B
330
17A
100
AcDbEntity
  8
STANDARDEBENE
 62
     7
100
AcDbVertex
100
AcDb2dVertex
 10
-18.99988639004661
 20
60.19843243840726
 30
0.0
  0
VERTEX
  5
17C
330
17A
100
AcDbEntity
  8
STANDARDEBENE
 62
     7
100
AcDbVertex
100
AcDb2dVertex
 10
-18.99988639004661
 20
59.20193791191684
 30
0.0
  0
SEQEND
  5
17D
330
17A
100
AcDbEntity
  8
STANDARDEBENE
  0
POLYLINE
  5
17E
330
1F
100
AcDbEntity
  8
STANDARDEBENE
 62
     7
100
AcDb2dPolyline
 66
     1
 10
0.0
 20
0.0
 30
0.0
  0
VERTEX
  5
17F
330
17E
100
AcDbEntity
  8
STANDARDEBENE
 62
     7
100
AcDbVertex
100
AcDb2dVertex
 10
-18.99988639004661
 20
58.20527113053852
 30
0.0
  0
VERTEX
  5
180
330
17E
100
AcDbEntity
  8
STANDARDEBENE
 62
     7
100
AcDbVertex
100
AcDb2dVertex
 10
-18.99988639004661
 20
57.20825983938441
 30
0.0
  0
SEQEND
  5
181
330
17E
100
AcDbEntity
  8
STANDARDEBENE
  0
POLYLINE
  5
182
330
1F
100
AcDbEntity
  8
STANDARDEBENE
 62
     7
100
AcDb2dPolyline
 66
     1
 10
0.0
 20
0.0
 30
0.0
  0
VERTEX
  5
183
330
182
100
AcDbEntity
  8
STANDARDEBENE
 62
     7
100
AcDbVertex
100
AcDb2dVertex
 10
-18.99988639004661
 20
56.21210982266979
 30
0.0
  0
VERTEX
  5
184
330
182
100
AcDbEntity
  8
STANDARDEBENE
 62
     7
100
AcDbVertex
100
AcDb2dVertex
 10
-18.99988639004661
 20
55.21509853151568
 30
0.0
  0
SEQEND
  5
185
330
182
100
AcDbEntity
  8
STANDARDEBENE
  0
POLYLINE
  5
186
330
1F
100
AcDbEntity
  8
STANDARDEBENE
 62
     7
100
AcDb2dPolyline
 66
     1
 10
0.0
 20
0.0
 30
0.0
  0
VERTEX
  5
187
330
186
100
AcDbEntity
  8
STANDARDEBENE
 62
     7
100
AcDbVertex
100
AcDb2dVertex
 10
-18.99988639004661
 20
54.21808724036156
 30
0.0
  0
VERTEX
  5
188
330
186
100
AcDbEntity
  8
STANDARDEBENE
 62
     7
100
AcDbVertex
100
AcDb2dVertex
 10
-18.99988639004661
 20
53.22193722364694
 30
0.0
  0
SEQEND
  5
189
330
186
100
AcDbEntity
  8
STANDARDEBENE
  0
POLYLINE
  5
18A
330
1F
100
AcDbEntity
  8
STANDARDEBENE
 62
     7
100
AcDb2dPolyline
 66
     1
 10
0.0
 20
0.0
 30
0.0
  0
VERTEX
  5
18B
330
18A
100
AcDbEntity
  8
STANDARDEBENE
 62
     7
100
AcDbVertex
100
AcDb2dVertex
 10
-18.99988639004661
 20
52.22492593249283
 30
0.0
  0
VERTEX
  5
18C
330
18A
100
AcDbEntity
  8
STANDARDEBENE
 62
     7
100
AcDbVertex
100
AcDb2dVertex
 10
-18.99988639004661
 20
51.22843140600241
 30
0.0
  0
SEQEND
  5
18D
330
18A
100
AcDbEntity
  8
STANDARDEBENE
  0
POLYLINE
  5
18E
330
1F
100
AcDbEntity
  8
STANDARDEBENE
 62
     7
100
AcDb2dPolyline
 66
     1
 10
0.0
 20
0.0
 30
0.0
  0
VERTEX
  5
18F
330
18E
100
AcDbEntity
  8
STANDARDEBENE
 62
     7
100
AcDbVertex
100
AcDb2dVertex
 10
-18.99988639004661
 20
50.23210913439989
 30
0.0
  0
VERTEX
  5
190
330
18E
100
AcDbEntity
  8
STANDARDEBENE
 62
     7
100
AcDbVertex
100
AcDb2dVertex
 10
-18.99988639004661
 20
49.23509784324578
 30
0.0
  0
SEQEND
  5
191
330
18E
100
AcDbEntity
  8
STANDARDEBENE
  0
POLYLINE
  5
192
330
1F
100
AcDbEntity
  8
STANDARDEBENE
 62
     7
100
AcDb2dPolyline
 66
     1
 10
0.0
 20
0.0
 30
0.0
  0
VERTEX
  5
193
330
192
100
AcDbEntity
  8
STANDARDEBENE
 62
     7
100
AcDbVertex
100
AcDb2dVertex
 10
-18.99988639004661
 20
48.23825880697956
 30
0.0
  0
VERTEX
  5
194
330
192
100
AcDbEntity
  8
STANDARDEBENE
 62
     7
100
AcDbVertex
100
AcDb2dVertex
 10
-18.99988639004661
 20
47.24193653537704
 30
0.0
  0
SEQEND
  5
195
330
192
100
AcDbEntity
  8
STANDARDEBENE
  0
POLYLINE
  5
196
330
1F
100
AcDbEntity
  8
STANDARDEBENE
 62
     7
100
AcDb2dPolyline
 66
     1
 10
0.0
 20
0.0
 30
0.0
  0
VERTEX
  5
197
330
196
100
AcDbEntity
  8
STANDARDEBENE
 62
     7
100
AcDbVertex
100
AcDb2dVertex
 10
-18.99988639004661
 20
46.24492524422293
 30
0.0
  0
VERTEX
  5
198
330
196
100
AcDbEntity
  8
STANDARDEBENE
 62
     7
100
AcDbVertex
100
AcDb2dVertex
 10
-18.99988639004661
 20
45.24843071773251
 30
0.0
  0
SEQEND
  5
199
330
196
100
AcDbEntity
  8
STANDARDEBENE
  0
POLYLINE
  5
19A
330
1F
100
AcDbEntity
  8
STANDARDEBENE
 62
     7
100
AcDb2dPolyline
 66
     1
 10
0.0
 20
0.0
 30
0.0
  0
VERTEX
  5
19B
330
19A
100
AcDbEntity
  8
STANDARDEBENE
 62
     7
100
AcDbVertex
100
AcDb2dVertex
 10
-18.99988639004661
 20
44.25176393635419
 30
0.0
  0
VERTEX
  5
19C
330
19A
100
AcDbEntity
  8
STANDARDEBENE
 62
     7
100
AcDbVertex
100
AcDb2dVertex
 10
-18.99988639004661
 20
43.25561391963957
 30
0.0
  0
SEQEND
  5
19D
330
19A
100
AcDbEntity
  8
STANDARDEBENE
  0
POLYLINE
  5
19E
330
1F
100
AcDbEntity
  8
STANDARDEBENE
 62
     7
100
AcDb2dPolyline
 66
     1
 10
0.0
 20
0.0
 30
0.0
  0
VERTEX
  5
19F
330
19E
100
AcDbEntity
  8
STANDARDEBENE
 62
     7
100
AcDbVertex
100
AcDb2dVertex
 10
-18.99988639004661
 20
42.25825811870966
 30
0.0
  0
VERTEX
  5
1A0
330
19E
100
AcDbEntity
  8
STANDARDEBENE
 62
     7
100
AcDbVertex
100
AcDb2dVertex
 10
-18.99988639004661
 20
41.26159133733135
 30
0.0
  0
SEQEND
  5
1A1
330
19E
100
AcDbEntity
  8
STANDARDEBENE
  0
POLYLINE
  5
1A2
330
1F
100
AcDbEntity
  8
STANDARDEBENE
 62
     7
100
AcDb2dPolyline
 66
     1
 10
0.0
 20
0.0
 30
0.0
  0
VERTEX
  5
1A3
330
1A2
100
AcDbEntity
  8
STANDARDEBENE
 62
     7
100
AcDbVertex
100
AcDb2dVertex
 10
-18.99988639004661
 20
40.26544132061672
 30
0.0
  0
VERTEX
  5
1A4
330
1A2
100
AcDbEntity
  8
STANDARDEBENE
 62
     7
100
AcDbVertex
100
AcDb2dVertex
 10
-18.99988639004661
 20
39.26877453923841
 30
0.0
  0
SEQEND
  5
1A5
330
1A2
100
AcDbEntity
  8
STANDARDEBENE
  0
POLYLINE
  5
1A6
330
1F
100
AcDbEntity
  8
STANDARDEBENE
 62
     7
100
AcDb2dPolyline
 66
     1
 10
0.0
 20
0.0
 30
0.0
  0
VERTEX
  5
1A7
330
1A6
100
AcDbEntity
  8
STANDARDEBENE
 62
     7
100
AcDbVertex
100
AcDb2dVertex
 10
-18.99988639004661
 20
38.27228001274799
 30
0.0
  0
VERTEX
  5
1A8
330
1A6
100
AcDbEntity
  8
STANDARDEBENE
 62
     7
100
AcDbVertex
100
AcDb2dVertex
 10
-18.99988639004661
 20
37.27526872159387
 30
0.0
  0
SEQEND
  5
1A9
330
1A6
100
AcDbEntity
  8
STANDARDEBENE
  0
POLYLINE
  5
1AA
330
1F
100
AcDbEntity
  8
STANDARDEBENE
 62
     7
100
AcDb2dPolyline
 66
     1
 10
0.0
 20
0.0
 30
0.0
  0
VERTEX
  5
1AB
330
1AA
100
AcDbEntity
  8
STANDARDEBENE
 62
     7
100
AcDbVertex
100
AcDb2dVertex
 10
-18.99988639004661
 20
36.27860194021556
 30
0.0
  0
VERTEX
  5
1AC
330
1AA
100
AcDbEntity
  8
STANDARDEBENE
 62
     7
100
AcDbVertex
100
AcDb2dVertex
 10
-18.99988639004661
 20
35.28210741372514
 30
0.0
  0
SEQEND
  5
1AD
330
1AA
100
AcDbEntity
  8
STANDARDEBENE
  0
POLYLINE
  5
1AE
330
1F
100
AcDbEntity
  8
STANDARDEBENE
 62
     7
100
AcDb2dPolyline
 66
     1
 10
0.0
 20
0.0
 30
0.0
  0
VERTEX
  5
1AF
330
1AE
100
AcDbEntity
  8
STANDARDEBENE
 62
     7
100
AcDbVertex
100
AcDb2dVertex
 10
-18.99988639004661
 20
34.28509612257103
 30
0.0
  0
VERTEX
  5
1B0
330
1AE
100
AcDbEntity
  8
STANDARDEBENE
 62
     7
100
AcDbVertex
100
AcDb2dVertex
 10
-18.99988639004661
 20
33.28860159608061
 30
0.0
  0
SEQEND
  5
1B1
330
1AE
100
AcDbEntity
  8
STANDARDEBENE
  0
POLYLINE
  5
1B2
330
1F
100
AcDbEntity
  8
STANDARDEBENE
 62
     7
100
AcDb2dPolyline
 66
     1
 10
0.0
 20
0.0
 30
0.0
  0
VERTEX
  5
1B3
330
1B2
100
AcDbEntity
  8
STANDARDEBENE
 62
     7
100
AcDbVertex
100
AcDb2dVertex
 10
-18.99988639004661
 20
32.29193481470229
 30
0.0
  0
VERTEX
  5
1B4
330
1B2
100
AcDbEntity
  8
STANDARDEBENE
 62
     7
100
AcDbVertex
100
AcDb2dVertex
 10
-18.99988639004661
 20
31.29492352354818
 30
0.0
  0
SEQEND
  5
1B5
330
1B2
100
AcDbEntity
  8
STANDARDEBENE
  0
POLYLINE
  5
1B6
330
1F
100
AcDbEntity
  8
STANDARDEBENE
 62
     7
100
AcDb2dPolyline
 66
     1
 10
0.0
 20
0.0
 30
0.0
  0
VERTEX
  5
1B7
330
1B6
100
AcDbEntity
  8
STANDARDEBENE
 62
     7
100
AcDbVertex
100
AcDb2dVertex
 10
-18.99988639004661
 20
30.29842899705776
 30
0.0
  0
VERTEX
  5
1B8
330
1B6
100
AcDbEntity
  8
STANDARDEBENE
 62
     7
100
AcDbVertex
100
AcDb2dVertex
 10
-18.99988639004661
 20
29.8006123710323
 30
0.0
  0
SEQEND
  5
1B9
330
1B6
100
AcDbEntity
  8
STANDARDEBENE
  0
POLYLINE
  5
1BA
330
1F
100
AcDbEntity
  8
STANDARDEBENE
 62
     7
100
AcDb2dPolyline
 66
     1
 10
0.0
 20
0.0
 30
0.0
  0
VERTEX
  5
1BB
330
1BA
100
AcDbEntity
  8
STANDARDEBENE
 62
     7
100
AcDbVertex
100
AcDb2dVertex
 10
-8.999801128011217
 20
29.8006123710323
 30
0.0
  0
VERTEX
  5
1BC
330
1BA
100
AcDbEntity
  8
STANDARDEBENE
 62
     7
100
AcDbVertex
100
AcDb2dVertex
 10
-8.999801128011217
 20
30.29842899705776
 30
0.0
  0
SEQEND
  5
1BD
330
1BA
100
AcDbEntity
  8
STANDARDEBENE
  0
POLYLINE
  5
1BE
330
1F
100
AcDbEntity
  8
STANDARDEBENE
 62
     7
100
AcDb2dPolyline
 66
     1
 10
0.0
 20
0.0
 30
0.0
  0
VERTEX
  5
1BF
330
1BE
100
AcDbEntity
  8
STANDARDEBENE
 62
     7
100
AcDbVertex
100
AcDb2dVertex
 10
-8.999801128011217
 20
31.29492352354818
 30
0.0
  0
VERTEX
  5
1C0
330
1BE
100
AcDbEntity
  8
STANDARDEBENE
 62
     7
100
AcDbVertex
100
AcDb2dVertex
 10
-8.999801128011217
 20
32.29193481470229
 30
0.0
  0
SEQEND
  5
1C1
330
1BE
100
AcDbEntity
  8
STANDARDEBENE
  0
POLYLINE
  5
1C2
330
1F
100
AcDbEntity
  8
STANDARDEBENE
 62
     7
100
AcDb2dPolyline
 66
     1
 10
0.0
 20
0.0
 30
0.0
  0
VERTEX
  5
1C3
330
1C2
100
AcDbEntity
  8
STANDARDEBENE
 62
     7
100
AcDbVertex
100
AcDb2dVertex
 10
-8.999801128011217
 20
33.28860159608061
 30
0.0
  0
VERTEX
  5
1C4
330
1C2
100
AcDbEntity
  8
STANDARDEBENE
 62
     7
100
AcDbVertex
100
AcDb2dVertex
 10
-8.999801128011217
 20
34.28509612257103
 30
0.0
  0
SEQEND
  5
1C5
330
1C2
100
AcDbEntity
  8
STANDARDEBENE
  0
POLYLINE
  5
1C6
330
1F
100
AcDbEntity
  8
STANDARDEBENE
 62
     7
100
AcDb2dPolyline
 66
     1
 10
0.0
 20
0.0
 30
0.0
  0
VERTEX
  5
1C7
330
1C6
100
AcDbEntity
  8
STANDARDEBENE
 62
     7
100
AcDbVertex
100
AcDb2dVertex
 10
-8.999801128011217
 20
35.28210741372514
 30
0.0
  0
VERTEX
  5
1C8
330
1C6
100
AcDbEntity
  8
STANDARDEBENE
 62
     7
100
AcDbVertex
100
AcDb2dVertex
 10
-8.999801128011217
 20
36.27860194021556
 30
0.0
  0
SEQEND
  5
1C9
330
1C6
100
AcDbEntity
  8
STANDARDEBENE
  0
POLYLINE
  5
1CA
330
1F
100
AcDbEntity
  8
STANDARDEBENE
 62
     7
100
AcDb2dPolyline
 66
     1
 10
0.0
 20
0.0
 30
0.0
  0
VERTEX
  5
1CB
330
1CA
100
AcDbEntity
  8
STANDARDEBENE
 62
     7
100
AcDbVertex
100
AcDb2dVertex
 10
-8.999801128011217
 20
37.27526872159387
 30
0.0
  0
VERTEX
  5
1CC
330
1CA
100
AcDbEntity
  8
STANDARDEBENE
 62
     7
100
AcDbVertex
100
AcDb2dVertex
 10
-8.999801128011217
 20
38.27228001274799
 30
0.0
  0
SEQEND
  5
1CD
330
1CA
100
AcDbEntity
  8
STANDARDEBENE
  0
POLYLINE
  5
1CE
330
1F
100
AcDbEntity
  8
STANDARDEBENE
 62
     7
100
AcDb2dPolyline
 66
     1
 10
0.0
 20
0.0
 30
0.0
  0
VERTEX
  5
1CF
330
1CE
100
AcDbEntity
  8
STANDARDEBENE
 62
     7
100
AcDbVertex
100
AcDb2dVertex
 10
-8.999801128011217
 20
39.26877453923841
 30
0.0
  0
VERTEX
  5
1D0
330
1CE
100
AcDbEntity
  8
STANDARDEBENE
 62
     7
100
AcDbVertex
100
AcDb2dVertex
 10
-8.999801128011217
 20
40.26544132061672
 30
0.0
  0
SEQEND
  5
1D1
330
1CE
100
AcDbEntity
  8
STANDARDEBENE
  0
POLYLINE
  5
1D2
330
1F
100
AcDbEntity
  8
STANDARDEBENE
 62
     7
100
AcDb2dPolyline
 66
     1
 10
0.0
 20
0.0
 30
0.0
  0
VERTEX
  5
1D3
330
1D2
100
AcDbEntity
  8
STANDARDEBENE
 62
     7
100
AcDbVertex
100
AcDb2dVertex
 10
-8.999801128011217
 20
41.26159133733135
 30
0.0
  0
VERTEX
  5
1D4
330
1D2
100
AcDbEntity
  8
STANDARDEBENE
 62
     7
100
AcDbVertex
100
AcDb2dVertex
 10
-8.999801128011217
 20
42.25825811870966
 30
0.0
  0
SEQEND
  5
1D5
330
1D2
100
AcDbEntity
  8
STANDARDEBENE
  0
POLYLINE
  5
1D6
330
1F
100
AcDbEntity
  8
STANDARDEBENE
 62
     7
100
AcDb2dPolyline
 66
     1
 10
0.0
 20
0.0
 30
0.0
  0
VERTEX
  5
1D7
330
1D6
100
AcDbEntity
  8
STANDARDEBENE
 62
     7
100
AcDbVertex
100
AcDb2dVertex
 10
-8.999801128011217
 20
43.25561391963957
 30
0.0
  0
VERTEX
  5
1D8
330
1D6
100
AcDbEntity
  8
STANDARDEBENE
 62
     7
100
AcDbVertex
100
AcDb2dVertex
 10
-8.999801128011217
 20
44.25176393635419
 30
0.0
  0
SEQEND
  5
1D9
330
1D6
100
AcDbEntity
  8
STANDARDEBENE
  0
POLYLINE
  5
1DA
330
1F
100
AcDbEntity
  8
STANDARDEBENE
 62
     7
100
AcDb2dPolyline
 66
     1
 10
0.0
 20
0.0
 30
0.0
  0
VERTEX
  5
1DB
330
1DA
100
AcDbEntity
  8
STANDARDEBENE
 62
     7
100
AcDbVertex
100
AcDb2dVertex
 10
-8.999801128011217
 20
45.24843071773251
 30
0.0
  0
VERTEX
  5
1DC
330
1DA
100
AcDbEntity
  8
STANDARDEBENE
 62
     7
100
AcDbVertex
100
AcDb2dVertex
 10
-8.999801128011217
 20
46.24492524422293
 30
0.0
  0
SEQEND
  5
1DD
330
1DA
100
AcDbEntity
  8
STANDARDEBENE
  0
POLYLINE
  5
1DE
330
1F
100
AcDbEntity
  8
STANDARDEBENE
 62
     7
100
AcDb2dPolyline
 66
     1
 10
0.0
 20
0.0
 30
0.0
  0
VERTEX
  5
1DF
330
1DE
100
AcDbEntity
  8
STANDARDEBENE
 62
     7
100
AcDbVertex
100
AcDb2dVertex
 10
-8.999801128011217
 20
47.24193653537704
 30
0.0
  0
VERTEX
  5
1E0
330
1DE
100
AcDbEntity
  8
STANDARDEBENE
 62
     7
100
AcDbVertex
100
AcDb2dVertex
 10
-8.999801128011217
 20
48.23825880697956
 30
0.0
  0
SEQEND
  5
1E1
330
1DE
100
AcDbEntity
  8
STANDARDEBENE
  0
POLYLINE
  5
1E2
330
1F
100
AcDbEntity
  8
STANDARDEBENE
 62
     7
100
AcDb2dPolyline
 66
     1
 10
0.0
 20
0.0
 30
0.0
  0
VERTEX
  5
1E3
330
1E2
100
AcDbEntity
  8
STANDARDEBENE
 62
     7
100
AcDbVertex
100
AcDb2dVertex
 10
-8.999801128011217
 20
49.23509784324578
 30
0.0
  0
VERTEX
  5
1E4
330
1E2
100
AcDbEntity
  8
STANDARDEBENE
 62
     7
100
AcDbVertex
100
AcDb2dVertex
 10
-8.999801128011217
 20
50.23210913439989
 30
0.0
  0
SEQEND
  5
1E5
330
1E2
100
AcDbEntity
  8
STANDARDEBENE
  0
POLYLINE
  5
1E6
330
1F
100
AcDbEntity
  8
STANDARDEBENE
 62
     7
100
AcDb2dPolyline
 66
     1
 10
0.0
 20
0.0
 30
0.0
  0
VERTEX
  5
1E7
330
1E6
100
AcDbEntity
  8
STANDARDEBENE
 62
     7
100
AcDbVertex
100
AcDb2dVertex
 10
-8.999801128011217
 20
51.22843140600241
 30
0.0
  0
VERTEX
  5
1E8
330
1E6
100
AcDbEntity
  8
STANDARDEBENE
 62
     7
100
AcDbVertex
100
AcDb2dVertex
 10
-8.999801128011217
 20
52.22492593249283
 30
0.0
  0
SEQEND
  5
1E9
330
1E6
100
AcDbEntity
  8
STANDARDEBENE
  0
POLYLINE
  5
1EA
330
1F
100
AcDbEntity
  8
STANDARDEBENE
 62
     7
100
AcDb2dPolyline
 66
     1
 10
0.0
 20
0.0
 30
0.0
  0
VERTEX
  5
1EB
330
1EA
100
AcDbEntity
  8
STANDARDEBENE
 62
     7
100
AcDbVertex
100
AcDb2dVertex
 10
-8.999801128011217
 20
53.22193722364694
 30
0.0
  0
VERTEX
  5
1EC
330
1EA
100
AcDbEntity
  8
STANDARDEBENE
 62
     7
100
AcDbVertex
100
AcDb2dVertex
 10
-8.999801128011217
 20
54.21808724036156
 30
0.0
  0
SEQEND
  5
1ED
330
1EA
100
AcDbEntity
  8
STANDARDEBENE
  0
POLYLINE
  5
1EE
330
1F
100
AcDbEntity
  8
STANDARDEBENE
 62
     7
100
AcDb2dPolyline
 66
     1
 10
0.0
 20
0.0
 30
0.0
  0
VERTEX
  5
1EF
330
1EE
100
AcDbEntity
  8
STANDARDEBENE
 62
     7
100
AcDbVertex
100
AcDb2dVertex
 10
-8.999801128011217
 20
55.21509853151568
 30
0.0
  0
VERTEX
  5
1F0
330
1EE
100
AcDbEntity
  8
STANDARDEBENE
 62
     7
100
AcDbVertex
100
AcDb2dVertex
 10
-8.999801128011217
 20
56.21210982266979
 30
0.0
  0
SEQEND
  5
1F1
330
1EE
100
AcDbEntity
  8
STANDARDEBENE
  0
POLYLINE
  5
1F2
330
1F
100
AcDbEntity
  8
STANDARDEBENE
 62
     7
100
AcDb2dPolyline
 66
     1
 10
0.0
 20
0.0
 30
0.0
  0
VERTEX
  5
1F3
330
1F2
100
AcDbEntity
  8
STANDARDEBENE
 62
     7
100
AcDbVertex
100
AcDb2dVertex
 10
-8.999801128011217
 20
57.20825983938441
 30
0.0
  0
VERTEX
  5
1F4
330
1F2
100
AcDbEntity
  8
STANDARDEBENE
 62
     7
100
AcDbVertex
100
AcDb2dVertex
 10
-8.999801128011217
 20
58.20527113053852
 30
0.0
  0
SEQEND
  5
1F5
330
1F2
100
AcDbEntity
  8
STANDARDEBENE
  0
POLYLINE
  5
1F6
330
1F
100
AcDbEntity
  8
STANDARDEBENE
 62
     7
100
AcDb2dPolyline
 66
     1
 10
0.0
 20
0.0
 30
0.0
  0
VERTEX
  5
1F7
330
1F6
100
AcDbEntity
  8
STANDARDEBENE
 62
     7
100
AcDbVertex
100
AcDb2dVertex
 10
-8.999801128011217
 20
59.20193791191684
 30
0.0
  0
VERTEX
  5
1F8
330
1F6
100
AcDbEntity
  8
STANDARDEBENE
 62
     7
100
AcDbVertex
100
AcDb2dVertex
 10
-8.999801128011217
 20
60.19843243840726
 30
0.0
  0
SEQEND
  5
1F9
330
1F6
100
AcDbEntity
  8
STANDARDEBENE
  0
POLYLINE
  5
1FA
330
1F
100
AcDbEntity
  8
STANDARDEBENE
 62
     7
100
AcDb2dPolyline
 66
     1
 10
0.0
 20
0.0
 30
0.0
  0
VERTEX
  5
1FB
330
1FA
100
AcDbEntity
  8
STANDARDEBENE
 62
     7
100
AcDbVertex
100
AcDb2dVertex
 10
-8.999801128011217
 20
61.19544372956137
 30
0.0
  0
VERTEX
  5
1FC
330
1FA
100
AcDbEntity
  8
STANDARDEBENE
 62
     7
100
AcDbVertex
100
AcDb2dVertex
 10
-8.999801128011217
 20
62.19193825605179
 30
0.0
  0
SEQEND
  5
1FD
330
1FA
100
AcDbEntity
  8
STANDARDEBENE
  0
POLYLINE
  5
1FE
330
1F
100
AcDbEntity
  8
STANDARDEBENE
 62
     7
100
AcDb2dPolyline
 66
     1
 10
0.0
 20
0.0
 30
0.0
  0
VERTEX
  5
1FF
330
1FE
100
AcDbEntity
  8
STANDARDEBENE
 62
     7
100
AcDbVertex
100
AcDb2dVertex
 10
-8.999801128011217
 20
63.18826052765431
 30
0.0
  0
VERTEX
  5
200
330
1FE
100
AcDbEntity
  8
STANDARDEBENE
 62
     7
100
AcDbVertex
100
AcDb2dVertex
 10
-8.999801128011217
 20
64.18527181880842
 30
0.0
  0
SEQEND
  5
201
330
1FE
100
AcDbEntity
  8
STANDARDEBENE
  0
POLYLINE
  5
202
330
1F
100
AcDbEntity
  8
STANDARDEBENE
 62
     7
100
AcDb2dPolyline
 66
     1
 10
0.0
 20
0.0
 30
0.0
  0
VERTEX
  5
203
330
202
100
AcDbEntity
  8
STANDARDEBENE
 62
     7
100
AcDbVertex
100
AcDb2dVertex
 10
-8.999801128011217
 20
65.18211085507464
 30
0.0
  0
VERTEX
  5
204
330
202
100
AcDbEntity
  8
STANDARDEBENE
 62
     7
100
AcDbVertex
100
AcDb2dVertex
 10
-8.999801128011217
 20
66.17843312667716
 30
0.0
  0
SEQEND
  5
205
330
202
100
AcDbEntity
  8
STANDARDEBENE
  0
POLYLINE
  5
206
330
1F
100
AcDbEntity
  8
STANDARDEBENE
 62
     7
100
AcDb2dPolyline
 66
     1
 10
0.0
 20
0.0
 30
0.0
  0
VERTEX
  5
207
330
206
100
AcDbEntity
  8
STANDARDEBENE
 62
     7
100
AcDbVertex
100
AcDb2dVertex
 10
-8.999801128011217
 20
67.17527216294337
 30
0.0
  0
VERTEX
  5
208
330
206
100
AcDbEntity
  8
STANDARDEBENE
 62
     7
100
AcDbVertex
100
AcDb2dVertex
 10
-8.999801128011217
 20
68.1715944345459
 30
0.0
  0
SEQEND
  5
209
330
206
100
AcDbEntity
  8
STANDARDEBENE
  0
POLYLINE
  5
20A
330
1F
100
AcDbEntity
  8
STANDARDEBENE
 62
     7
100
AcDb2dPolyline
 66
     1
 10
0.0
 20
0.0
 30
0.0
  0
VERTEX
  5
20B
330
20A
100
AcDbEntity
  8
STANDARDEBENE
 62
     7
100
AcDbVertex
100
AcDb2dVertex
 10
-8.999801128011217
 20
69.1686057257
 30
0.0
  0
VERTEX
  5
20C
330
20A
100
AcDbEntity
  8
STANDARDEBENE
 62
     7
100
AcDbVertex
100
AcDb2dVertex
 10
-8.999801128011217
 20
70.16510025219043
 30
0.0
  0
SEQEND
  5
20D
330
20A
100
AcDbEntity
  8
STANDARDEBENE
  0
POLYLINE
  5
20E
330
1F
100
AcDbEntity
  8
STANDARDEBENE
 62
     7
100
AcDb2dPolyline
 66
     1
 10
0.0
 20
0.0
 30
0.0
  0
VERTEX
  5
20F
330
20E
100
AcDbEntity
  8
STANDARDEBENE
 62
     7
100
AcDbVertex
100
AcDb2dVertex
 10
-8.999801128011217
 20
71.16176703356874
 30
0.0
  0
VERTEX
  5
210
330
20E
100
AcDbEntity
  8
STANDARDEBENE
 62
     7
100
AcDbVertex
100
AcDb2dVertex
 10
-8.999801128011217
 20
72.15860606983496
 30
0.0
  0
SEQEND
  5
211
330
20E
100
AcDbEntity
  8
STANDARDEBENE
  0
POLYLINE
  5
212
330
1F
100
AcDbEntity
  8
STANDARDEBENE
 62
     7
100
AcDb2dPolyline
 66
     1
 10
0.0
 20
0.0
 30
0.0
  0
VERTEX
  5
213
330
212
100
AcDbEntity
  8
STANDARDEBENE
 62
     7
100
AcDbVertex
100
AcDb2dVertex
 10
-8.999801128011217
 20
73.15527285121327
 30
0.0
  0
VERTEX
  5
214
330
212
100
AcDbEntity
  8
STANDARDEBENE
 62
     7
100
AcDbVertex
100
AcDb2dVertex
 10
-8.999801128011217
 20
74.15142286792789
 30
0.0
  0
SEQEND
  5
215
330
212
100
AcDbEntity
  8
STANDARDEBENE
  0
POLYLINE
  5
216
330
1F
100
AcDbEntity
  8
STANDARDEBENE
 62
     7
100
AcDb2dPolyline
 66
     1
 10
0.0
 20
0.0
 30
0.0
  0
VERTEX
  5
217
330
216
100
AcDbEntity
  8
STANDARDEBENE
 62
     7
100
AcDbVertex
100
AcDb2dVertex
 10
-8.999801128011217
 20
75.148434159082
 30
0.0
  0
VERTEX
  5
218
330
216
100
AcDbEntity
  8
STANDARDEBENE
 62
     7
100
AcDbVertex
100
AcDb2dVertex
 10
-8.999801128011217
 20
76.14544545023612
 30
0.0
  0
SEQEND
  5
219
330
216
100
AcDbEntity
  8
STANDARDEBENE
  0
POLYLINE
  5
21A
330
1F
100
AcDbEntity
  8
STANDARDEBENE
 62
     7
100
AcDb2dPolyline
 66
     1
 10
0.0
 20
0.0
 30
0.0
  0
VERTEX
  5
21B
330
21A
100
AcDbEntity
  8
STANDARDEBENE
 62
     7
100
AcDbVertex
100
AcDb2dVertex
 10
-8.999801128011217
 20
77.14159546695073
 30
0.0
  0
VERTEX
  5
21C
330
21A
100
AcDbEntity
  8
STANDARDEBENE
 62
     7
100
AcDbVertex
100
AcDb2dVertex
 10
-8.999801128011217
 20
78.13860675810486
 30
0.0
  0
SEQEND
  5
21D
330
21A
100
AcDbEntity
  8
STANDARDEBENE
  0
POLYLINE
  5
21E
330
1F
100
AcDbEntity
  8
STANDARDEBENE
 62
     7
100
AcDb2dPolyline
 66
     1
 10
0.0
 20
0.0
 30
0.0
  0
VERTEX
  5
21F
330
21E
100
AcDbEntity
  8
STANDARDEBENE
 62
     7
100
AcDbVertex
100
AcDb2dVertex
 10
-8.999801128011217
 20
79.13492902970738
 30
0.0
  0
VERTEX
  5
220
330
21E
100
AcDbEntity
  8
STANDARDEBENE
 62
     7
100
AcDbVertex
100
AcDb2dVertex
 10
-8.999801128011217
 20
80.13176806597359
 30
0.0
  0
SEQEND
  5
221
330
21E
100
AcDbEntity
  8
STANDARDEBENE
  0
POLYLINE
  5
222
330
1F
100
AcDbEntity
  8
STANDARDEBENE
 62
     7
100
AcDb2dPolyline
 66
     1
 10
0.0
 20
0.0
 30
0.0
  0
VERTEX
  5
223
330
222
100
AcDbEntity
  8
STANDARDEBENE
 62
     7
100
AcDbVertex
100
AcDb2dVertex
 10
-8.999801128011217
 20
81.1284348473519
 30
0.0
  0
VERTEX
  5
224
330
222
100
AcDbEntity
  8
STANDARDEBENE
 62
     7
100
AcDbVertex
100
AcDb2dVertex
 10
-8.999801128011217
 20
82.12510162873022
 30
0.0
  0
SEQEND
  5
225
330
222
100
AcDbEntity
  8
STANDARDEBENE
  0
POLYLINE
  5
226
330
1F
100
AcDbEntity
  8
STANDARDEBENE
 62
     7
100
AcDb2dPolyline
 66
     1
 10
0.0
 20
0.0
 30
0.0
  0
VERTEX
  5
227
330
226
100
AcDbEntity
  8
STANDARDEBENE
 62
     7
100
AcDbVertex
100
AcDb2dVertex
 10
-8.999801128011217
 20
83.12194066499643
 30
0.0
  0
VERTEX
  5
228
330
226
100
AcDbEntity
  8
STANDARDEBENE
 62
     7
100
AcDbVertex
100
AcDb2dVertex
 10
-8.999801128011217
 20
84.11860744637475
 30
0.0
  0
SEQEND
  5
229
330
226
100
AcDbEntity
  8
STANDARDEBENE
  0
POLYLINE
  5
22A
330
1F
100
AcDbEntity
  8
STANDARDEBENE
 62
     7
100
AcDb2dPolyline
 66
     1
 10
0.0
 20
0.0
 30
0.0
  0
VERTEX
  5
22B
330
22A
100
AcDbEntity
  8
STANDARDEBENE
 62
     7
100
AcDbVertex
100
AcDb2dVertex
 10
-8.999801128011217
 20
85.11475746308938
 30
0.0
  0
VERTEX
  5
22C
330
22A
100
AcDbEntity
  8
STANDARDEBENE
 62
     7
100
AcDbVertex
100
AcDb2dVertex
 10
-8.999801128011217
 20
86.11176875424349
 30
0.0
  0
SEQEND
  5
22D
330
22A
100
AcDbEntity
  8
STANDARDEBENE
  0
POLYLINE
  5
22E
330
1F
100
AcDbEntity
  8
STANDARDEBENE
 62
     7
100
AcDb2dPolyline
 66
     1
 10
0.0
 20
0.0
 30
0.0
  0
VERTEX
  5
22F
330
22E
100
AcDbEntity
  8
STANDARDEBENE
 62
     7
100
AcDbVertex
100
AcDb2dVertex
 10
-8.999801128011217
 20
87.1086077905097
 30
0.0
  0
VERTEX
  5
230
330
22E
100
AcDbEntity
  8
STANDARDEBENE
 62
     7
100
AcDbVertex
100
AcDb2dVertex
 10
-8.999801128011217
 20
88.10493006211222
 30
0.0
  0
SEQEND
  5
231
330
22E
100
AcDbEntity
  8
STANDARDEBENE
  0
POLYLINE
  5
232
330
1F
100
AcDbEntity
  8
STANDARDEBENE
 62
     7
100
AcDb2dPolyline
 66
     1
 10
0.0
 20
0.0
 30
0.0
  0
VERTEX
  5
233
330
232
100
AcDbEntity
  8
STANDARDEBENE
 62
     7
100
AcDbVertex
100
AcDb2dVertex
 10
-8.999801128011217
 20
89.10194135326633
 30
0.0
  0
VERTEX
  5
234
330
232
100
AcDbEntity
  8
STANDARDEBENE
 62
     7
100
AcDbVertex
100
AcDb2dVertex
 10
-8.999801128011217
 20
90.09809136998095
 30
0.0
  0
SEQEND
  5
235
330
232
100
AcDbEntity
  8
STANDARDEBENE
  0
POLYLINE
  5
236
330
1F
100
AcDbEntity
  8
STANDARDEBENE
 62
     7
100
AcDb2dPolyline
 66
     1
 10
0.0
 20
0.0
 30
0.0
  0
VERTEX
  5
237
330
236
100
AcDbEntity
  8
STANDARDEBENE
 62
     7
100
AcDbVertex
100
AcDb2dVertex
 10
-8.999801128011217
 20
91.09510266113507
 30
0.0
  0
VERTEX
  5
238
330
236
100
AcDbEntity
  8
STANDARDEBENE
 62
     7
100
AcDbVertex
100
AcDb2dVertex
 10
-8.999801128011217
 20
92.09159718762548
 30
0.0
  0
SEQEND
  5
239
330
236
100
AcDbEntity
  8
STANDARDEBENE
  0
POLYLINE
  5
23A
330
1F
100
AcDbEntity
  8
STANDARDEBENE
 62
     7
100
AcDb2dPolyline
 66
     1
 10
0.0
 20
0.0
 30
0.0
  0
VERTEX
  5
23B
330
23A
100
AcDbEntity
  8
STANDARDEBENE
 62
     7
100
AcDbVertex
100
AcDb2dVertex
 10
-8.999801128011217
 20
93.0882639690038
 30
0.0
  0
VERTEX
  5
23C
330
23A
100
AcDbEntity
  8
STANDARDEBENE
 62
     7
100
AcDbVertex
100
AcDb2dVertex
 10
-8.999801128011217
 20
94.08527526015791
 30
0.0
  0
SEQEND
  5
23D
330
23A
100
AcDbEntity
  8
STANDARDEBENE
  0
POLYLINE
  5
23E
330
1F
100
AcDbEntity
  8
STANDARDEBENE
 62
     7
100
AcDb2dPolyline
 66
     1
 10
0.0
 20
0.0
 30
0.0
  0
VERTEX
  5
23F
330
23E
100
AcDbEntity
  8
STANDARDEBENE
 62
     7
100
AcDbVertex
100
AcDb2dVertex
 10
-8.999801128011217
 20
95.08194204153624
 30
0.0
  0
VERTEX
  5
240
330
23E
100
AcDbEntity
  8
STANDARDEBENE
 62
     7
100
AcDbVertex
100
AcDb2dVertex
 10
-8.999801128011217
 20
96.07809205825086
 30
0.0
  0
SEQEND
  5
241
330
23E
100
AcDbEntity
  8
STANDARDEBENE
  0
POLYLINE
  5
242
330
1F
100
AcDbEntity
  8
STANDARDEBENE
 62
     7
100
AcDb2dPolyline
 66
     1
 10
0.0
 20
0.0
 30
0.0
  0
VERTEX
  5
243
330
242
100
AcDbEntity
  8
STANDARDEBENE
 62
     7
100
AcDbVertex
100
AcDb2dVertex
 10
-8.999801128011217
 20
97.07493109451707
 30
0.0
  0
VERTEX
  5
244
330
242
100
AcDbEntity
  8
STANDARDEBENE
 62
     7
100
AcDbVertex
100
AcDb2dVertex
 10
-8.999801128011217
 20
98.07194238567118
 30
0.0
  0
SEQEND
  5
245
330
242
100
AcDbEntity
  8
STANDARDEBENE
  0
POLYLINE
  5
246
330
1F
100
AcDbEntity
  8
STANDARDEBENE
 62
     7
100
AcDb2dPolyline
 66
     1
 10
0.0
 20
0.0
 30
0.0
  0
VERTEX
  5
247
330
246
100
AcDbEntity
  8
STANDARDEBENE
 62
     7
100
AcDbVertex
100
AcDb2dVertex
 10
-8.999801128011217
 20
99.0682646572737
 30
0.0
  0
VERTEX
  5
248
330
246
100
AcDbEntity
  8
STANDARDEBENE
 62
     7
100
AcDbVertex
100
AcDb2dVertex
 10
-8.999801128011217
 20
100.0652759484278
 30
0.0
  0
SEQEND
  5
249
330
246
100
AcDbEntity
  8
STANDARDEBENE
  0
POLYLINE
  5
24A
330
1F
100
AcDbEntity
  8
STANDARDEBENE
 62
     7
100
AcDb2dPolyline
 66
     1
 10
0.0
 20
0.0
 30
0.0
  0
VERTEX
  5
24B
330
24A
100
AcDbEntity
  8
STANDARDEBENE
 62
     7
100
AcDbVertex
100
AcDb2dVertex
 10
-8.999801128011217
 20
101.0614259651424
 30
0.0
  0
VERTEX
  5
24C
330
24A
100
AcDbEntity
  8
STANDARDEBENE
 62
     7
100
AcDbVertex
100
AcDb2dVertex
 10
-8.999801128011217
 20
102.0584372562965
 30
0.0
  0
SEQEND
  5
24D
330
24A
100
AcDbEntity
  8
STANDARDEBENE
  0
POLYLINE
  5
24E
330
1F
100
AcDbEntity
  8
STANDARDEBENE
 62
     7
100
AcDb2dPolyline
 66
     1
 10
0.0
 20
0.0
 30
0.0
  0
VERTEX
  5
24F
330
24E
100
AcDbEntity
  8
STANDARDEBENE
 62
     7
100
AcDbVertex
100
AcDb2dVertex
 10
-8.999801128011217
 20
103.0552762925628
 30
0.0
  0
VERTEX
  5
250
330
24E
100
AcDbEntity
  8
STANDARDEBENE
 62
     7
100
AcDbVertex
100
AcDb2dVertex
 10
-8.999801128011217
 20
104.0515985641653
 30
0.0
  0
SEQEND
  5
251
330
24E
100
AcDbEntity
  8
STANDARDEBENE
  0
POLYLINE
  5
252
330
1F
100
AcDbEntity
  8
STANDARDEBENE
 62
     7
100
AcDb2dPolyline
 66
     1
 10
0.0
 20
0.0
 30
0.0
  0
VERTEX
  5
253
330
252
100
AcDbEntity
  8
STANDARDEBENE
 62
     7
100
AcDbVertex
100
AcDb2dVertex
 10
-8.999801128011217
 20
105.0484376004315
 30
0.0
  0
VERTEX
  5
254
330
252
100
AcDbEntity
  8
STANDARDEBENE
 62
     7
100
AcDbVertex
100
AcDb2dVertex
 10
-8.999801128011217
 20
106.0451043818098
 30
0.0
  0
SEQEND
  5
255
330
252
100
AcDbEntity
  8
STANDARDEBENE
  0
POLYLINE
  5
256
330
1F
100
AcDbEntity
  8
STANDARDEBENE
 62
     7
100
AcDb2dPolyline
 66
     1
 10
0.0
 20
0.0
 30
0.0
  0
VERTEX
  5
257
330
256
100
AcDbEntity
  8
STANDARDEBENE
 62
     7
100
AcDbVertex
100
AcDb2dVertex
 10
-8.999801128011217
 20
107.0414266534123
 30
0.0
  0
VERTEX
  5
258
330
256
100
AcDbEntity
  8
STANDARDEBENE
 62
     7
100
AcDbVertex
100
AcDb2dVertex
 10
-8.999801128011217
 20
108.0382656896786
 30
0.0
  0
SEQEND
  5
259
330
256
100
AcDbEntity
  8
STANDARDEBENE
  0
POLYLINE
  5
25A
330
1F
100
AcDbEntity
  8
STANDARDEBENE
 62
     7
100
AcDb2dPolyline
 66
     1
 10
0.0
 20
0.0
 30
0.0
  0
VERTEX
  5
25B
330
25A
100
AcDbEntity
  8
STANDARDEBENE
 62
     7
100
AcDbVertex
100
AcDb2dVertex
 10
-8.999801128011217
 20
109.0352769808327
 30
0.0
  0
VERTEX
  5
25C
330
25A
100
AcDbEntity
  8
STANDARDEBENE
 62
     7
100
AcDbVertex
100
AcDb2dVertex
 10
-8.999801128011217
 20
110.0314269975473
 30
0.0
  0
SEQEND
  5
25D
330
25A
100
AcDbEntity
  8
STANDARDEBENE
  0
POLYLINE
  5
25E
330
1F
100
AcDbEntity
  8
STANDARDEBENE
 62
     7
100
AcDb2dPolyline
 66
     1
 10
0.0
 20
0.0
 30
0.0
  0
VERTEX
  5
25F
330
25E
100
AcDbEntity
  8
STANDARDEBENE
 62
     7
100
AcDbVertex
100
AcDb2dVertex
 10
-8.999801128011217
 20
111.0284382887014
 30
0.0
  0
VERTEX
  5
260
330
25E
100
AcDbEntity
  8
STANDARDEBENE
 62
     7
100
AcDbVertex
100
AcDb2dVertex
 10
-8.999801128011217
 20
112.0247605603039
 30
0.0
  0
SEQEND
  5
261
330
25E
100
AcDbEntity
  8
STANDARDEBENE
  0
POLYLINE
  5
262
330
1F
100
AcDbEntity
  8
STANDARDEBENE
 62
     7
100
AcDb2dPolyline
 66
     1
 10
0.0
 20
0.0
 30
0.0
  0
VERTEX
  5
263
330
262
100
AcDbEntity
  8
STANDARDEBENE
 62
     7
100
AcDbVertex
100
AcDb2dVertex
 10
-8.999801128011217
 20
113.0215995965701
 30
0.0
  0
VERTEX
  5
264
330
262
100
AcDbEntity
  8
STANDARDEBENE
 62
     7
100
AcDbVertex
100
AcDb2dVertex
 10
-8.999801128011217
 20
114.0186108877243
 30
0.0
  0
SEQEND
  5
265
330
262
100
AcDbEntity
  8
STANDARDEBENE
  0
POLYLINE
  5
266
330
1F
100
AcDbEntity
  8
STANDARDEBENE
 62
     7
100
AcDb2dPolyline
 66
     1
 10
0.0
 20
0.0
 30
0.0
  0
VERTEX
  5
267
330
266
100
AcDbEntity
  8
STANDARDEBENE
 62
     7
100
AcDbVertex
100
AcDb2dVertex
 10
-8.999801128011217
 20
115.0147609044389
 30
0.0
  0
VERTEX
  5
268
330
266
100
AcDbEntity
  8
STANDARDEBENE
 62
     7
100
AcDbVertex
100
AcDb2dVertex
 10
-8.999801128011217
 20
116.011772195593
 30
0.0
  0
SEQEND
  5
269
330
266
100
AcDbEntity
  8
STANDARDEBENE
  0
POLYLINE
  5
26A
330
1F
100
AcDbEntity
  8
STANDARDEBENE
 62
     7
100
AcDb2dPolyline
 66
     1
 10
0.0
 20
0.0
 30
0.0
  0
VERTEX
  5
26B
330
26A
100
AcDbEntity
  8
STANDARDEBENE
 62
     7
100
AcDbVertex
100
AcDb2dVertex
 10
-8.999801128011217
 20
117.0084389769713
 30
0.0
  0
VERTEX
  5
26C
330
26A
100
AcDbEntity
  8
STANDARDEBENE
 62
     7
100
AcDbVertex
100
AcDb2dVertex
 10
-8.999801128011217
 20
118.0045889936859
 30
0.0
  0
SEQEND
  5
26D
330
26A
100
AcDbEntity
  8
STANDARDEBENE
  0
POLYLINE
  5
26E
330
1F
100
AcDbEntity
  8
STANDARDEBENE
 62
     7
100
AcDb2dPolyline
 66
     1
 10
0.0
 20
0.0
 30
0.0
  0
VERTEX
  5
26F
330
26E
100
AcDbEntity
  8
STANDARDEBENE
 62
     7
100
AcDbVertex
100
AcDb2dVertex
 10
-8.999801128011217
 20
119.00160028484
 30
0.0
  0
VERTEX
  5
270
330
26E
100
AcDbEntity
  8
STANDARDEBENE
 62
     7
100
AcDbVertex
100
AcDb2dVertex
 10
-8.999801128011217
 20
119.5001059304171
 30
0.0
  0
SEQEND
  5
271
330
26E
100
AcDbEntity
  8
STANDARDEBENE
  0
POLYLINE
  5
272
330
1F
100
AcDbEntity
  8
STANDARDEBENE
 62
     7
100
AcDb2dPolyline
 66
     1
 10
0.0
 20
0.0
 30
0.0
  0
VERTEX
  5
273
330
272
100
AcDbEntity
  8
STANDARDEBENE
 62
     7
100
AcDbVertex
100
AcDb2dVertex
 10
-8.803602810695299
 20
8.246530503232893
 30
0.0
  0
VERTEX
  5
274
330
272
100
AcDbEntity
  8
STANDARDEBENE
 62
     7
100
AcDbVertex
100
AcDb2dVertex
 10
-9.322951297708023
 20
8.246530503232893
 30
0.0
  0
SEQEND
  5
275
330
272
100
AcDbEntity
  8
STANDARDEBENE
  0
POLYLINE
  5
276
330
1F
100
AcDbEntity
  8
STANDARDEBENE
 62
     7
100
AcDb2dPolyline
 66
     1
 10
0.0
 20
0.0
 30
0.0
  0
VERTEX
  5
277
330
276
100
AcDbEntity
  8
STANDARDEBENE
 62
     7
100
AcDbVertex
100
AcDb2dVertex
 10
-10.36216503639717
 20
8.246530503232893
 30
0.0
  0
VERTEX
  5
278
330
276
100
AcDbEntity
  8
STANDARDEBENE
 62
     7
100
AcDbVertex
100
AcDb2dVertex
 10
-11.40137877508631
 20
8.246530503232893
 30
0.0
  0
SEQEND
  5
279
330
276
100
AcDbEntity
  8
STANDARDEBENE
  0
POLYLINE
  5
27A
330
1F
100
AcDbEntity
  8
STANDARDEBENE
 62
     7
100
AcDb2dPolyline
 66
     1
 10
0.0
 20
0.0
 30
0.0
  0
VERTEX
  5
27B
330
27A
100
AcDbEntity
  8
STANDARDEBENE
 62
     7
100
AcDbVertex
100
AcDb2dVertex
 10
-12.44076476866335
 20
8.246530503232893
 30
0.0
  0
VERTEX
  5
27C
330
27A
100
AcDbEntity
  8
STANDARDEBENE
 62
     7
100
AcDbVertex
100
AcDb2dVertex
 10
-13.4799785073525
 20
8.246530503232893
 30
0.0
  0
SEQEND
  5
27D
330
27A
100
AcDbEntity
  8
STANDARDEBENE
  0
POLYLINE
  5
27E
330
1F
100
AcDbEntity
  8
STANDARDEBENE
 62
     7
100
AcDb2dPolyline
 66
     1
 10
0.0
 20
0.0
 30
0.0
  0
VERTEX
  5
27F
330
27E
100
AcDbEntity
  8
STANDARDEBENE
 62
     7
100
AcDbVertex
100
AcDb2dVertex
 10
-14.51936450092954
 20
8.246530503232893
 30
0.0
  0
VERTEX
  5
280
330
27E
100
AcDbEntity
  8
STANDARDEBENE
 62
     7
100
AcDbVertex
100
AcDb2dVertex
 10
-15.55892274939448
 20
8.246530503232893
 30
0.0
  0
SEQEND
  5
281
330
27E
100
AcDbEntity
  8
STANDARDEBENE
  0
POLYLINE
  5
282
330
1F
100
AcDbEntity
  8
STANDARDEBENE
 62
     7
100
AcDb2dPolyline
 66
     1
 10
0.0
 20
0.0
 30
0.0
  0
VERTEX
  5
283
330
282
100
AcDbEntity
  8
STANDARDEBENE
 62
     7
100
AcDbVertex
100
AcDb2dVertex
 10
-16.59830874297152
 20
8.246530503232893
 30
0.0
  0
VERTEX
  5
284
330
282
100
AcDbEntity
  8
STANDARDEBENE
 62
     7
100
AcDbVertex
100
AcDb2dVertex
 10
-17.63752248166066
 20
8.246530503232893
 30
0.0
  0
SEQEND
  5
285
330
282
100
AcDbEntity
  8
STANDARDEBENE
  0
POLYLINE
  5
286
330
1F
100
AcDbEntity
  8
STANDARDEBENE
 62
     7
100
AcDb2dPolyline
 66
     1
 10
0.0
 20
0.0
 30
0.0
  0
VERTEX
  5
287
330
286
100
AcDbEntity
  8
STANDARDEBENE
 62
     7
100
AcDbVertex
100
AcDb2dVertex
 10
-18.6767362203498
 20
8.246530503232893
 30
0.0
  0
VERTEX
  5
288
330
286
100
AcDbEntity
  8
STANDARDEBENE
 62
     7
100
AcDbVertex
100
AcDb2dVertex
 10
-19.19608470736253
 20
8.246530503232893
 30
0.0
  0
SEQEND
  5
289
330
286
100
AcDbEntity
  8
STANDARDEBENE
  0
POLYLINE
  5
28A
330
1F
100
AcDbEntity
  8
STANDARDEBENE
 62
     7
100
AcDb2dPolyline
 66
     1
 10
0.0
 20
0.0
 30
0.0
  0
VERTEX
  5
28B
330
28A
100
AcDbEntity
  8
STANDARDEBENE
 62
     7
100
AcDbVertex
100
AcDb2dVertex
 10
-19.12942206574597
 20
9.499684812691457
 30
0.0
  0
VERTEX
  5
28C
330
28A
100
AcDbEntity
  8
STANDARDEBENE
 62
     7
100
AcDbVertex
100
AcDb2dVertex
 10
-18.61644700958547
 20
9.499684812691457
 30
0.0
  0
SEQEND
  5
28D
330
28A
100
AcDbEntity
  8
STANDARDEBENE
  0
POLYLINE
  5
28E
330
1F
100
AcDbEntity
  8
STANDARDEBENE
 62
     7
100
AcDb2dPolyline
 66
     1
 10
0.0
 20
0.0
 30
0.0
  0
VERTEX
  5
28F
330
28E
100
AcDbEntity
  8
STANDARDEBENE
 62
     7
100
AcDbVertex
100
AcDb2dVertex
 10
-17.59032464237659
 20
9.499684812691457
 30
0.0
  0
VERTEX
  5
290
330
28E
100
AcDbEntity
  8
STANDARDEBENE
 62
     7
100
AcDbVertex
100
AcDb2dVertex
 10
-16.56471903983139
 20
9.499684812691457
 30
0.0
  0
SEQEND
  5
291
330
28E
100
AcDbEntity
  8
STANDARDEBENE
  0
POLYLINE
  5
292
330
1F
100
AcDbEntity
  8
STANDARDEBENE
 62
     7
100
AcDb2dPolyline
 66
     1
 10
0.0
 20
0.0
 30
0.0
  0
VERTEX
  5
293
330
292
100
AcDbEntity
  8
STANDARDEBENE
 62
     7
100
AcDbVertex
100
AcDb2dVertex
 10
-15.5384244177346
 20
9.499684812691457
 30
0.0
  0
VERTEX
  5
294
330
292
100
AcDbEntity
  8
STANDARDEBENE
 62
     7
100
AcDbVertex
100
AcDb2dVertex
 10
-14.51299107007731
 20
9.499684812691457
 30
0.0
  0
SEQEND
  5
295
330
292
100
AcDbEntity
  8
STANDARDEBENE
  0
POLYLINE
  5
296
330
1F
100
AcDbEntity
  8
STANDARDEBENE
 62
     7
100
AcDb2dPolyline
 66
     1
 10
0.0
 20
0.0
 30
0.0
  0
VERTEX
  5
297
330
296
100
AcDbEntity
  8
STANDARDEBENE
 62
     7
100
AcDbVertex
100
AcDb2dVertex
 10
-13.48669644798052
 20
9.499684812691457
 30
0.0
  0
VERTEX
  5
298
330
296
100
AcDbEntity
  8
STANDARDEBENE
 62
     7
100
AcDbVertex
100
AcDb2dVertex
 10
-12.46126310032322
 20
9.499684812691457
 30
0.0
  0
SEQEND
  5
299
330
296
100
AcDbEntity
  8
STANDARDEBENE
  0
POLYLINE
  5
29A
330
1F
100
AcDbEntity
  8
STANDARDEBENE
 62
     7
100
AcDb2dPolyline
 66
     1
 10
0.0
 20
0.0
 30
0.0
  0
VERTEX
  5
29B
330
29A
100
AcDbEntity
  8
STANDARDEBENE
 62
     7
100
AcDbVertex
100
AcDb2dVertex
 10
-11.43462396845064
 20
9.499684812691457
 30
0.0
  0
VERTEX
  5
29C
330
29A
100
AcDbEntity
  8
STANDARDEBENE
 62
     7
100
AcDbVertex
100
AcDb2dVertex
 10
-10.40867385612965
 20
9.499684812691457
 30
0.0
  0
SEQEND
  5
29D
330
29A
100
AcDbEntity
  8
STANDARDEBENE
  0
POLYLINE
  5
29E
330
1F
100
AcDbEntity
  8
STANDARDEBENE
 62
     7
100
AcDb2dPolyline
 66
     1
 10
0.0
 20
0.0
 30
0.0
  0
VERTEX
  5
29F
330
29E
100
AcDbEntity
  8
STANDARDEBENE
 62
     7
100
AcDbVertex
100
AcDb2dVertex
 10
-9.383240508472353
 20
9.499684812691457
 30
0.0
  0
VERTEX
  5
2A0
330
29E
100
AcDbEntity
  8
STANDARDEBENE
 62
     7
100
AcDbVertex
100
AcDb2dVertex
 10
-8.870265452311857
 20
9.499684812691457
 30
0.0
  0
SEQEND
  5
2A1
330
29E
100
AcDbEntity
  8
STANDARDEBENE
  0
POLYLINE
  5
2A2
330
1F
100
AcDbEntity
  8
STANDARDEBENE
 62
     7
100
AcDb2dPolyline
 66
     1
 10
0.0
 20
0.0
 30
0.0
  0
VERTEX
  5
2A3
330
2A2
100
AcDbEntity
  8
STANDARDEBENE
 62
     7
100
AcDbVertex
100
AcDb2dVertex
 10
-19.99999826918289
 20
10.82191333219715
 30
0.0
  0
VERTEX
  5
2A4
330
2A2
100
AcDbEntity
  8
STANDARDEBENE
 62
     7
100
AcDbVertex
100
AcDb2dVertex
 10
-19.99999826918289
 20
11.30594956719077
 30
0.0
  0
SEQEND
  5
2A5
330
2A2
100
AcDbEntity
  8
STANDARDEBENE
  0
POLYLINE
  5
2A6
330
1F
100
AcDbEntity
  8
STANDARDEBENE
 62
     7
100
AcDb2dPolyline
 66
     1
 10
0.0
 20
0.0
 30
0.0
  0
VERTEX
  5
2A7
330
2A6
100
AcDbEntity
  8
STANDARDEBENE
 62
     7
100
AcDbVertex
100
AcDb2dVertex
 10
-19.99999826918289
 20
12.27350527251431
 30
0.0
  0
VERTEX
  5
2A8
330
2A6
100
AcDbEntity
  8
STANDARDEBENE
 62
     7
100
AcDbVertex
100
AcDb2dVertex
 10
-19.99999826918289
 20
13.24123323272575
 30
0.0
  0
SEQEND
  5
2A9
330
2A6
100
AcDbEntity
  8
STANDARDEBENE
  0
POLYLINE
  5
2AA
330
1F
100
AcDbEntity
  8
STANDARDEBENE
 62
     7
100
AcDb2dPolyline
 66
     1
 10
0.0
 20
0.0
 30
0.0
  0
VERTEX
  5
2AB
330
2AA
100
AcDbEntity
  8
STANDARDEBENE
 62
     7
100
AcDbVertex
100
AcDb2dVertex
 10
-19.99999826918289
 20
14.20896119293719
 30
0.0
  0
VERTEX
  5
2AC
330
2AA
100
AcDbEntity
  8
STANDARDEBENE
 62
     7
100
AcDbVertex
100
AcDb2dVertex
 10
-19.99999826918289
 20
15.17651689826073
 30
0.0
  0
SEQEND
  5
2AD
330
2AA
100
AcDbEntity
  8
STANDARDEBENE
  0
POLYLINE
  5
2AE
330
1F
100
AcDbEntity
  8
STANDARDEBENE
 62
     7
100
AcDb2dPolyline
 66
     1
 10
0.0
 20
0.0
 30
0.0
  0
VERTEX
  5
2AF
330
2AE
100
AcDbEntity
  8
STANDARDEBENE
 62
     7
100
AcDbVertex
100
AcDb2dVertex
 10
-19.99999826918289
 20
16.14493387802376
 30
0.0
  0
VERTEX
  5
2B0
330
2AE
100
AcDbEntity
  8
STANDARDEBENE
 62
     7
100
AcDbVertex
100
AcDb2dVertex
 10
-19.99999826918289
 20
17.1126618382352
 30
0.0
  0
SEQEND
  5
2B1
330
2AE
100
AcDbEntity
  8
STANDARDEBENE
  0
POLYLINE
  5
2B2
330
1F
100
AcDbEntity
  8
STANDARDEBENE
 62
     7
100
AcDb2dPolyline
 66
     1
 10
0.0
 20
0.0
 30
0.0
  0
VERTEX
  5
2B3
330
2B2
100
AcDbEntity
  8
STANDARDEBENE
 62
     7
100
AcDbVertex
100
AcDb2dVertex
 10
-19.99999826918289
 20
18.08021754355874
 30
0.0
  0
VERTEX
  5
2B4
330
2B2
100
AcDbEntity
  8
STANDARDEBENE
 62
     7
100
AcDbVertex
100
AcDb2dVertex
 10
-19.99999826918289
 20
19.04794550377018
 30
0.0
  0
SEQEND
  5
2B5
330
2B2
100
AcDbEntity
  8
STANDARDEBENE
  0
POLYLINE
  5
2B6
330
1F
100
AcDbEntity
  8
STANDARDEBENE
 62
     7
100
AcDb2dPolyline
 66
     1
 10
0.0
 20
0.0
 30
0.0
  0
VERTEX
  5
2B7
330
2B6
100
AcDbEntity
  8
STANDARDEBENE
 62
     7
100
AcDbVertex
100
AcDb2dVertex
 10
-19.99999826918289
 20
20.01601797375741
 30
0.0
  0
VERTEX
  5
2B8
330
2B6
100
AcDbEntity
  8
STANDARDEBENE
 62
     7
100
AcDbVertex
100
AcDb2dVertex
 10
-19.99999826918289
 20
20.49970969897523
 30
0.0
  0
SEQEND
  5
2B9
330
2B6
100
AcDbEntity
  8
STANDARDEBENE
  0
POLYLINE
  5
2BA
330
1F
100
AcDbEntity
  8
STANDARDEBENE
 62
     7
100
AcDb2dPolyline
 66
     1
 10
0.0
 20
0.0
 30
0.0
  0
VERTEX
  5
2BB
330
2BA
100
AcDbEntity
  8
STANDARDEBENE
 62
     7
100
AcDbVertex
100
AcDb2dVertex
 10
-19.49977007472685
 20
20.49970969897523
 30
0.0
  0
VERTEX
  5
2BC
330
2BA
100
AcDbEntity
  8
STANDARDEBENE
 62
     7
100
AcDbVertex
100
AcDb2dVertex
 10
-19.62465486845296
 20
20.49970969897523
 30
0.0
  0
SEQEND
  5
2BD
330
2BA
100
AcDbEntity
  8
STANDARDEBENE
  0
POLYLINE
  5
2BE
330
1F
100
AcDbEntity
  8
STANDARDEBENE
 62
     7
100
AcDb2dPolyline
 66
     1
 10
0.0
 20
0.0
 30
0.0
  0
VERTEX
  5
2BF
330
2BE
100
AcDbEntity
  8
STANDARDEBENE
 62
     7
100
AcDbVertex
100
AcDb2dVertex
 10
-19.87442445590519
 20
20.49970969897523
 30
0.0
  0
VERTEX
  5
2C0
330
2BE
100
AcDbEntity
  8
STANDARDEBENE
 62
     7
100
AcDbVertex
100
AcDb2dVertex
 10
-19.99999826918289
 20
20.49970969897523
 30
0.0
  0
SEQEND
  5
2C1
330
2BE
100
AcDbEntity
  8
STANDARDEBENE
  0
POLYLINE
  5
2C2
330
1F
100
AcDbEntity
  8
STANDARDEBENE
 62
     7
100
AcDb2dPolyline
 66
     1
 10
0.0
 20
0.0
 30
0.0
  0
VERTEX
  5
2C3
330
2C2
100
AcDbEntity
  8
STANDARDEBENE
 62
     7
100
AcDbVertex
100
AcDb2dVertex
 10
-8.49957293355518
 20
20.49970969897523
 30
0.0
  0
VERTEX
  5
2C4
330
2C2
100
AcDbEntity
  8
STANDARDEBENE
 62
     7
100
AcDbVertex
100
AcDb2dVertex
 10
-8.375032649604865
 20
20.49970969897523
 30
0.0
  0
SEQEND
  5
2C5
330
2C2
100
AcDbEntity
  8
STANDARDEBENE
  0
POLYLINE
  5
2C6
330
1F
100
AcDbEntity
  8
STANDARDEBENE
 62
     7
100
AcDb2dPolyline
 66
     1
 10
0.0
 20
0.0
 30
0.0
  0
VERTEX
  5
2C7
330
2C6
100
AcDbEntity
  8
STANDARDEBENE
 62
     7
100
AcDbVertex
100
AcDb2dVertex
 10
-8.124918552376846
 20
20.49970969897523
 30
0.0
  0
VERTEX
  5
2C8
330
2C6
100
AcDbEntity
  8
STANDARDEBENE
 62
     7
100
AcDbVertex
100
AcDb2dVertex
 10
-7.999689248874938
 20
20.49970969897523
 30
0.0
  0
SEQEND
  5
2C9
330
2C6
100
AcDbEntity
  8
STANDARDEBENE
  0
POLYLINE
  5
2CA
330
1F
100
AcDbEntity
  8
STANDARDEBENE
 62
     7
100
AcDb2dPolyline
 66
     1
 10
0.0
 20
0.0
 30
0.0
  0
VERTEX
  5
2CB
330
2CA
100
AcDbEntity
  8
STANDARDEBENE
 62
     7
100
AcDbVertex
100
AcDb2dVertex
 10
-19.49977007472685
 20
20.49970969897523
 30
0.0
  0
VERTEX
  5
2CC
330
2CA
100
AcDbEntity
  8
STANDARDEBENE
 62
     7
100
AcDbVertex
100
AcDb2dVertex
 10
-18.94993247255617
 20
20.49970969897523
 30
0.0
  0
SEQEND
  5
2CD
330
2CA
100
AcDbEntity
  8
STANDARDEBENE
  0
POLYLINE
  5
2CE
330
1F
100
AcDbEntity
  8
STANDARDEBENE
 62
     7
100
AcDb2dPolyline
 66
     1
 10
0.0
 20
0.0
 30
0.0
  0
VERTEX
  5
2CF
330
2CE
100
AcDbEntity
  8
STANDARDEBENE
 62
     7
100
AcDbVertex
100
AcDb2dVertex
 10
-17.849912758439
 20
20.49970969897523
 30
0.0
  0
VERTEX
  5
2D0
330
2CE
100
AcDbEntity
  8
STANDARDEBENE
 62
     7
100
AcDbVertex
100
AcDb2dVertex
 10
-16.74954853454604
 20
20.49970969897523
 30
0.0
  0
SEQEND
  5
2D1
330
2CE
100
AcDbEntity
  8
STANDARDEBENE
  0
POLYLINE
  5
2D2
330
1F
100
AcDbEntity
  8
STANDARDEBENE
 62
     7
100
AcDb2dPolyline
 66
     1
 10
0.0
 20
0.0
 30
0.0
  0
VERTEX
  5
2D3
330
2D2
100
AcDbEntity
  8
STANDARDEBENE
 62
     7
100
AcDbVertex
100
AcDb2dVertex
 10
-15.64952882042887
 20
20.49970969897523
 30
0.0
  0
VERTEX
  5
2D4
330
2D2
100
AcDbEntity
  8
STANDARDEBENE
 62
     7
100
AcDbVertex
100
AcDb2dVertex
 10
-14.5496813611996
 20
20.49970969897523
 30
0.0
  0
SEQEND
  5
2D5
330
2D2
100
AcDbEntity
  8
STANDARDEBENE
  0
POLYLINE
  5
2D6
330
1F
100
AcDbEntity
  8
STANDARDEBENE
 62
     7
100
AcDb2dPolyline
 66
     1
 10
0.0
 20
0.0
 30
0.0
  0
VERTEX
  5
2D7
330
2D6
100
AcDbEntity
  8
STANDARDEBENE
 62
     7
100
AcDbVertex
100
AcDb2dVertex
 10
-13.45000615685823
 20
20.49970969897523
 30
0.0
  0
VERTEX
  5
2D8
330
2D6
100
AcDbEntity
  8
STANDARDEBENE
 62
     7
100
AcDbVertex
100
AcDb2dVertex
 10
-12.35015869762896
 20
20.49970969897523
 30
0.0
  0
SEQEND
  5
2D9
330
2D6
100
AcDbEntity
  8
STANDARDEBENE
  0
POLYLINE
  5
2DA
330
1F
100
AcDbEntity
  8
STANDARDEBENE
 62
     7
100
AcDb2dPolyline
 66
     1
 10
0.0
 20
0.0
 30
0.0
  0
VERTEX
  5
2DB
330
2DA
100
AcDbEntity
  8
STANDARDEBENE
 62
     7
100
AcDbVertex
100
AcDb2dVertex
 10
-11.25013898351179
 20
20.49970969897523
 30
0.0
  0
VERTEX
  5
2DC
330
2DA
100
AcDbEntity
  8
STANDARDEBENE
 62
     7
100
AcDbVertex
100
AcDb2dVertex
 10
-10.14977475961883
 20
20.49970969897523
 30
0.0
  0
SEQEND
  5
2DD
330
2DA
100
AcDbEntity
  8
STANDARDEBENE
  0
POLYLINE
  5
2DE
330
1F
100
AcDbEntity
  8
STANDARDEBENE
 62
     7
100
AcDb2dPolyline
 66
     1
 10
0.0
 20
0.0
 30
0.0
  0
VERTEX
  5
2DF
330
2DE
100
AcDbEntity
  8
STANDARDEBENE
 62
     7
100
AcDbVertex
100
AcDb2dVertex
 10
-9.049410535725865
 20
20.49970969897523
 30
0.0
  0
VERTEX
  5
2E0
330
2DE
100
AcDbEntity
  8
STANDARDEBENE
 62
     7
100
AcDbVertex
100
AcDb2dVertex
 10
-8.49957293355518
 20
20.49970969897523
 30
0.0
  0
SEQEND
  5
2E1
330
2DE
100
AcDbEntity
  8
STANDARDEBENE
  0
POLYLINE
  5
2E2
330
1F
100
AcDbEntity
  8
STANDARDEBENE
 62
     7
100
AcDb2dPolyline
 66
     1
 10
0.0
 20
0.0
 30
0.0
  0
VERTEX
  5
2E3
330
2E2
100
AcDbEntity
  8
STANDARDEBENE
 62
     7
100
AcDbVertex
100
AcDb2dVertex
 10
-7.999689248874938
 20
10.82191333219715
 30
0.0
  0
VERTEX
  5
2E4
330
2E2
100
AcDbEntity
  8
STANDARDEBENE
 62
     7
100
AcDbVertex
100
AcDb2dVertex
 10
-7.999689248874938
 20
11.30594956719077
 30
0.0
  0
SEQEND
  5
2E5
330
2E2
100
AcDbEntity
  8
STANDARDEBENE
  0
POLYLINE
  5
2E6
330
1F
100
AcDbEntity
  8
STANDARDEBENE
 62
     7
100
AcDb2dPolyline
 66
     1
 10
0.0
 20
0.0
 30
0.0
  0
VERTEX
  5
2E7
330
2E6
100
AcDbEntity
  8
STANDARDEBENE
 62
     7
100
AcDbVertex
100
AcDb2dVertex
 10
-7.999689248874938
 20
12.27350527251431
 30
0.0
  0
VERTEX
  5
2E8
330
2E6
100
AcDbEntity
  8
STANDARDEBENE
 62
     7
100
AcDbVertex
100
AcDb2dVertex
 10
-7.999689248874938
 20
13.24123323272575
 30
0.0
  0
SEQEND
  5
2E9
330
2E6
100
AcDbEntity
  8
STANDARDEBENE
  0
POLYLINE
  5
2EA
330
1F
100
AcDbEntity
  8
STANDARDEBENE
 62
     7
100
AcDb2dPolyline
 66
     1
 10
0.0
 20
0.0
 30
0.0
  0
VERTEX
  5
2EB
330
2EA
100
AcDbEntity
  8
STANDARDEBENE
 62
     7
100
AcDbVertex
100
AcDb2dVertex
 10
-7.999689248874938
 20
14.20896119293719
 30
0.0
  0
VERTEX
  5
2EC
330
2EA
100
AcDbEntity
  8
STANDARDEBENE
 62
     7
100
AcDbVertex
100
AcDb2dVertex
 10
-7.999689248874938
 20
15.17651689826073
 30
0.0
  0
SEQEND
  5
2ED
330
2EA
100
AcDbEntity
  8
STANDARDEBENE
  0
POLYLINE
  5
2EE
330
1F
100
AcDbEntity
  8
STANDARDEBENE
 62
     7
100
AcDb2dPolyline
 66
     1
 10
0.0
 20
0.0
 30
0.0
  0
VERTEX
  5
2EF
330
2EE
100
AcDbEntity
  8
STANDARDEBENE
 62
     7
100
AcDbVertex
100
AcDb2dVertex
 10
-7.999689248874938
 20
16.14493387802376
 30
0.0
  0
VERTEX
  5
2F0
330
2EE
100
AcDbEntity
  8
STANDARDEBENE
 62
     7
100
AcDbVertex
100
AcDb2dVertex
 10
-7.999689248874938
 20
17.1126618382352
 30
0.0
  0
SEQEND
  5
2F1
330
2EE
100
AcDbEntity
  8
STANDARDEBENE
  0
POLYLINE
  5
2F2
330
1F
100
AcDbEntity
  8
STANDARDEBENE
 62
     7
100
AcDb2dPolyline
 66
     1
 10
0.0
 20
0.0
 30
0.0
  0
VERTEX
  5
2F3
330
2F2
100
AcDbEntity
  8
STANDARDEBENE
 62
     7
100
AcDbVertex
100
AcDb2dVertex
 10
-7.999689248874938
 20
18.08021754355874
 30
0.0
  0
VERTEX
  5
2F4
330
2F2
100
AcDbEntity
  8
STANDARDEBENE
 62
     7
100
AcDbVertex
100
AcDb2dVertex
 10
-7.999689248874938
 20
19.04794550377018
 30
0.0
  0
SEQEND
  5
2F5
330
2F2
100
AcDbEntity
  8
STANDARDEBENE
  0
POLYLINE
  5
2F6
330
1F
100
AcDbEntity
  8
STANDARDEBENE
 62
     7
100
AcDb2dPolyline
 66
     1
 10
0.0
 20
0.0
 30
0.0
  0
VERTEX
  5
2F7
330
2F6
100
AcDbEntity
  8
STANDARDEBENE
 62
     7
100
AcDbVertex
100
AcDb2dVertex
 10
-7.999689248874938
 20
20.01601797375741
 30
0.0
  0
VERTEX
  5
2F8
330
2F6
100
AcDbEntity
  8
STANDARDEBENE
 62
     7
100
AcDbVertex
100
AcDb2dVertex
 10
-7.999689248874938
 20
20.49970969897523
 30
0.0
  0
SEQEND
  5
2F9
330
2F6
100
AcDbEntity
  8
STANDARDEBENE
  0
POLYLINE
  5
2FA
330
1F
100
AcDbEntity
  8
STANDARDEBENE
 62
     7
100
AcDb2dPolyline
 66
     1
 10
0.0
 20
0.0
 30
0.0
  0
VERTEX
  5
2FB
330
2FA
100
AcDbEntity
  8
STANDARDEBENE
 62
     7
100
AcDbVertex
100
AcDb2dVertex
 10
-19.99999826918289
 20
20.49970969897523
 30
0.0
  0
VERTEX
  5
2FC
330
2FA
100
AcDbEntity
  8
STANDARDEBENE
 62
     7
100
AcDbVertex
100
AcDb2dVertex
 10
-19.87442445590519
 20
20.71657860283892
 30
0.0
  0
SEQEND
  5
2FD
330
2FA
100
AcDbEntity
  8
STANDARDEBENE
  0
POLYLINE
  5
2FE
330
1F
100
AcDbEntity
  8
STANDARDEBENE
 62
     7
100
AcDb2dPolyline
 66
     1
 10
0.0
 20
0.0
 30
0.0
  0
VERTEX
  5
2FF
330
2FE
100
AcDbEntity
  8
STANDARDEBENE
 62
     7
100
AcDbVertex
100
AcDb2dVertex
 10
-19.62465486845296
 20
21.14911062635101
 30
0.0
  0
VERTEX
  5
300
330
2FE
100
AcDbEntity
  8
STANDARDEBENE
 62
     7
100
AcDbVertex
100
AcDb2dVertex
 10
-19.49977007472685
 20
21.3659795302147
 30
0.0
  0
SEQEND
  5
301
330
2FE
100
AcDbEntity
  8
STANDARDEBENE
  0
POLYLINE
  5
302
330
1F
100
AcDbEntity
  8
STANDARDEBENE
 62
     7
100
AcDb2dPolyline
 66
     1
 10
0.0
 20
0.0
 30
0.0
  0
VERTEX
  5
303
330
302
100
AcDbEntity
  8
STANDARDEBENE
 62
     7
100
AcDbVertex
100
AcDb2dVertex
 10
-7.999689248874938
 20
20.49970969897523
 30
0.0
  0
VERTEX
  5
304
330
302
100
AcDbEntity
  8
STANDARDEBENE
 62
     7
100
AcDbVertex
100
AcDb2dVertex
 10
-8.124918552376846
 20
20.71657860283892
 30
0.0
  0
SEQEND
  5
305
330
302
100
AcDbEntity
  8
STANDARDEBENE
  0
POLYLINE
  5
306
330
1F
100
AcDbEntity
  8
STANDARDEBENE
 62
     7
100
AcDb2dPolyline
 66
     1
 10
0.0
 20
0.0
 30
0.0
  0
VERTEX
  5
307
330
306
100
AcDbEntity
  8
STANDARDEBENE
 62
     7
100
AcDbVertex
100
AcDb2dVertex
 10
-8.375032649604865
 20
21.14911062635101
 30
0.0
  0
VERTEX
  5
308
330
306
100
AcDbEntity
  8
STANDARDEBENE
 62
     7
100
AcDbVertex
100
AcDb2dVertex
 10
-8.49957293355518
 20
21.3659795302147
 30
0.0
  0
SEQEND
  5
309
330
306
100
AcDbEntity
  8
STANDARDEBENE
  0
POLYLINE
  5
30A
330
1F
100
AcDbEntity
  8
STANDARDEBENE
 62
     7
100
AcDb2dPolyline
 66
     1
 10
0.0
 20
0.0
 30
0.0
  0
VERTEX
  5
30B
330
30A
100
AcDbEntity
  8
STANDARDEBENE
 62
     7
100
AcDbVertex
100
AcDb2dVertex
 10
-22.00556192898028
 20
9.616129116910564
 30
0.0
  0
VERTEX
  5
30C
330
30A
100
AcDbEntity
  8
STANDARDEBENE
 62
     7
100
AcDbVertex
100
AcDb2dVertex
 10
-22.07687545257009
 20
9.543782063993367
 30
0.0
  0
SEQEND
  5
30D
330
30A
100
AcDbEntity
  8
STANDARDEBENE
  0
POLYLINE
  5
30E
330
1F
100
AcDbEntity
  8
STANDARDEBENE
 62
     7
100
AcDb2dPolyline
 66
     1
 10
0.0
 20
0.0
 30
0.0
  0
VERTEX
  5
30F
330
30E
100
AcDbEntity
  8
STANDARDEBENE
 62
     7
100
AcDbVertex
100
AcDb2dVertex
 10
-22.17351044468092
 20
9.37187168587108
 30
0.0
  0
VERTEX
  5
310
330
30E
100
AcDbEntity
  8
STANDARDEBENE
 62
     7
100
AcDbVertex
100
AcDb2dVertex
 10
-22.20003769741722
 20
9.273514144881274
 30
0.0
  0
SEQEND
  5
311
330
30E
100
AcDbEntity
  8
STANDARDEBENE
  0
POLYLINE
  5
312
330
1F
100
AcDbEntity
  8
STANDARDEBENE
 62
     7
100
AcDb2dPolyline
 66
     1
 10
0.0
 20
0.0
 30
0.0
  0
VERTEX
  5
313
330
312
100
AcDbEntity
  8
STANDARDEBENE
 62
     7
100
AcDbVertex
100
AcDb2dVertex
 10
-5.799994330416401
 20
9.273514144881274
 30
0.0
  0
VERTEX
  5
314
330
312
100
AcDbEntity
  8
STANDARDEBENE
 62
     7
100
AcDbVertex
100
AcDb2dVertex
 10
-5.825488053825318
 20
9.37187168587108
 30
0.0
  0
SEQEND
  5
315
330
312
100
AcDbEntity
  8
STANDARDEBENE
  0
POLYLINE
  5
316
330
1F
100
AcDbEntity
  8
STANDARDEBENE
 62
     7
100
AcDb2dPolyline
 66
     1
 10
0.0
 20
0.0
 30
0.0
  0
VERTEX
  5
317
330
316
100
AcDbEntity
  8
STANDARDEBENE
 62
     7
100
AcDbVertex
100
AcDb2dVertex
 10
-5.922467555711939
 20
9.543782063993367
 30
0.0
  0
VERTEX
  5
318
330
316
100
AcDbEntity
  8
STANDARDEBENE
 62
     7
100
AcDbVertex
100
AcDb2dVertex
 10
-5.994125589077542
 20
9.616129116910564
 30
0.0
  0
SEQEND
  5
319
330
316
100
AcDbEntity
  8
STANDARDEBENE
  0
POLYLINE
  5
31A
330
1F
100
AcDbEntity
  8
STANDARDEBENE
 62
     7
100
AcDb2dPolyline
 66
     1
 10
0.0
 20
0.0
 30
0.0
  0
VERTEX
  5
31B
330
31A
100
AcDbEntity
  8
STANDARDEBENE
 62
     7
100
AcDbVertex
100
AcDb2dVertex
 10
-22.20003769741722
 20
8.299240498929707
 30
0.0
  0
VERTEX
  5
31C
330
31A
100
AcDbEntity
  8
STANDARDEBENE
 62
     7
100
AcDbVertex
100
AcDb2dVertex
 10
-22.19831514853824
 20
8.272713246193403
 30
0.0
  0
SEQEND
  5
31D
330
31A
100
AcDbEntity
  8
STANDARDEBENE
  0
POLYLINE
  5
31E
330
1F
100
AcDbEntity
  8
STANDARDEBENE
 62
     7
100
AcDb2dPolyline
 66
     1
 10
0.0
 20
0.0
 30
0.0
  0
VERTEX
  5
31F
330
31E
100
AcDbEntity
  8
STANDARDEBENE
 62
     7
100
AcDbVertex
100
AcDb2dVertex
 10
-22.19159720791022
 20
8.22086452493608
 30
0.0
  0
VERTEX
  5
320
330
31E
100
AcDbEntity
  8
STANDARDEBENE
 62
     7
100
AcDbVertex
100
AcDb2dVertex
 10
-22.18625730638538
 20
8.195370801527163
 30
0.0
  0
SEQEND
  5
321
330
31E
100
AcDbEntity
  8
STANDARDEBENE
  0
POLYLINE
  5
322
330
1F
100
AcDbEntity
  8
STANDARDEBENE
 62
     7
100
AcDb2dPolyline
 66
     1
 10
0.0
 20
0.0
 30
0.0
  0
VERTEX
  5
323
330
322
100
AcDbEntity
  8
STANDARDEBENE
 62
     7
100
AcDbVertex
100
AcDb2dVertex
 10
-5.813430211672451
 20
8.195370801527163
 30
0.0
  0
VERTEX
  5
324
330
322
100
AcDbEntity
  8
STANDARDEBENE
 62
     7
100
AcDbVertex
100
AcDb2dVertex
 10
-5.808607074811305
 20
8.22086452493608
 30
0.0
  0
SEQEND
  5
325
330
322
100
AcDbEntity
  8
STANDARDEBENE
  0
POLYLINE
  5
326
330
1F
100
AcDbEntity
  8
STANDARDEBENE
 62
     7
100
AcDb2dPolyline
 66
     1
 10
0.0
 20
0.0
 30
0.0
  0
VERTEX
  5
327
330
326
100
AcDbEntity
  8
STANDARDEBENE
 62
     7
100
AcDbVertex
100
AcDb2dVertex
 10
-5.801372369519585
 20
8.272713246193403
 30
0.0
  0
VERTEX
  5
328
330
326
100
AcDbEntity
  8
STANDARDEBENE
 62
     7
100
AcDbVertex
100
AcDb2dVertex
 10
-5.799994330416401
 20
8.299240498929707
 30
0.0
  0
SEQEND
  5
329
330
326
100
AcDbEntity
  8
STANDARDEBENE
  0
POLYLINE
  5
32A
330
1F
100
AcDbEntity
  8
STANDARDEBENE
 62
     7
100
AcDb2dPolyline
 66
     1
 10
0.0
 20
0.0
 30
0.0
  0
VERTEX
  5
32B
330
32A
100
AcDbEntity
  8
STANDARDEBENE
 62
     7
100
AcDbVertex
100
AcDb2dVertex
 10
-21.99953300790385
 20
0.0995633252050928
 30
0.0
  0
VERTEX
  5
32C
330
32A
100
AcDbEntity
  8
STANDARDEBENE
 62
     7
100
AcDbVertex
100
AcDb2dVertex
 10
-21.89066791875226
 20
0.0995633252050928
 30
0.0
  0
VERTEX
  5
32D
330
32A
100
AcDbEntity
  8
STANDARDEBENE
 62
     7
100
AcDbVertex
100
AcDb2dVertex
 10
-21.56648421972807
 20
0.0995633252050928
 30
0.0
  0
VERTEX
  5
32E
330
32A
100
AcDbEntity
  8
STANDARDEBENE
 62
     7
100
AcDbVertex
100
AcDb2dVertex
 10
-21.49964932322361
 20
0.0995633252050928
 30
0.0
  0
SEQEND
  5
32F
330
32A
100
AcDbEntity
  8
STANDARDEBENE
  0
POLYLINE
  5
330
330
1F
100
AcDbEntity
  8
STANDARDEBENE
 62
     7
100
AcDb2dPolyline
 66
     1
 10
0.0
 20
0.0
 30
0.0
  0
VERTEX
  5
331
330
330
100
AcDbEntity
  8
STANDARDEBENE
 62
     7
100
AcDbVertex
100
AcDb2dVertex
 10
-20.49988195386313
 20
0.0995633252050928
 30
0.0
  0
VERTEX
  5
332
330
330
100
AcDbEntity
  8
STANDARDEBENE
 62
     7
100
AcDbVertex
100
AcDb2dVertex
 10
-20.31298540049371
 20
0.0995633252050928
 30
0.0
  0
VERTEX
  5
333
330
330
100
AcDbEntity
  8
STANDARDEBENE
 62
     7
100
AcDbVertex
100
AcDb2dVertex
 10
-19.49977007472685
 20
0.0995633252050928
 30
0.0
  0
SEQEND
  5
334
330
330
100
AcDbEntity
  8
STANDARDEBENE
  0
POLYLINE
  5
335
330
1F
100
AcDbEntity
  8
STANDARDEBENE
 62
     7
100
AcDb2dPolyline
 66
     1
 10
0.0
 20
0.0
 30
0.0
  0
VERTEX
  5
336
330
335
100
AcDbEntity
  8
STANDARDEBENE
 62
     7
100
AcDbVertex
100
AcDb2dVertex
 10
-18.50000270536637
 20
0.0995633252050928
 30
0.0
  0
VERTEX
  5
337
330
335
100
AcDbEntity
  8
STANDARDEBENE
 62
     7
100
AcDbVertex
100
AcDb2dVertex
 10
-18.37511791164026
 20
0.0995633252050928
 30
0.0
  0
VERTEX
  5
338
330
335
100
AcDbEntity
  8
STANDARDEBENE
 62
     7
100
AcDbVertex
100
AcDb2dVertex
 10
-17.4995463164543
 20
0.0995633252050928
 30
0.0
  0
SEQEND
  5
339
330
335
100
AcDbEntity
  8
STANDARDEBENE
  0
POLYLINE
  5
33A
330
1F
100
AcDbEntity
  8
STANDARDEBENE
 62
     7
100
AcDb2dPolyline
 66
     1
 10
0.0
 20
0.0
 30
0.0
  0
VERTEX
  5
33B
330
33A
100
AcDbEntity
  8
STANDARDEBENE
 62
     7
100
AcDbVertex
100
AcDb2dVertex
 10
-16.49977894709381
 20
0.0995633252050928
 30
0.0
  0
VERTEX
  5
33C
330
33A
100
AcDbEntity
  8
STANDARDEBENE
 62
     7
100
AcDbVertex
100
AcDb2dVertex
 10
-15.96389399084287
 20
0.0995633252050928
 30
0.0
  0
VERTEX
  5
33D
330
33A
100
AcDbEntity
  8
STANDARDEBENE
 62
     7
100
AcDbVertex
100
AcDb2dVertex
 10
-15.50001157773333
 20
0.0995633252050928
 30
0.0
  0
SEQEND
  5
33E
330
33A
100
AcDbEntity
  8
STANDARDEBENE
  0
POLYLINE
  5
33F
330
1F
100
AcDbEntity
  8
STANDARDEBENE
 62
     7
100
AcDb2dPolyline
 66
     1
 10
0.0
 20
0.0
 30
0.0
  0
VERTEX
  5
340
330
33F
100
AcDbEntity
  8
STANDARDEBENE
 62
     7
100
AcDbVertex
100
AcDb2dVertex
 10
-14.49989969859705
 20
0.0995633252050928
 30
0.0
  0
VERTEX
  5
341
330
33F
100
AcDbEntity
  8
STANDARDEBENE
 62
     7
100
AcDbVertex
100
AcDb2dVertex
 10
-13.49978781946077
 20
0.0995633252050928
 30
0.0
  0
SEQEND
  5
342
330
33F
100
AcDbEntity
  8
STANDARDEBENE
  0
POLYLINE
  5
343
330
1F
100
AcDbEntity
  8
STANDARDEBENE
 62
     7
100
AcDb2dPolyline
 66
     1
 10
0.0
 20
0.0
 30
0.0
  0
VERTEX
  5
344
330
343
100
AcDbEntity
  8
STANDARDEBENE
 62
     7
100
AcDbVertex
100
AcDb2dVertex
 10
-12.4996759403245
 20
0.0995633252050928
 30
0.0
  0
VERTEX
  5
345
330
343
100
AcDbEntity
  8
STANDARDEBENE
 62
     7
100
AcDbVertex
100
AcDb2dVertex
 10
-12.03579352721495
 20
0.0995633252050928
 30
0.0
  0
VERTEX
  5
346
330
343
100
AcDbEntity
  8
STANDARDEBENE
 62
     7
100
AcDbVertex
100
AcDb2dVertex
 10
-11.49990857096401
 20
0.0995633252050928
 30
0.0
  0
SEQEND
  5
347
330
343
100
AcDbEntity
  8
STANDARDEBENE
  0
POLYLINE
  5
348
330
1F
100
AcDbEntity
  8
STANDARDEBENE
 62
     7
100
AcDb2dPolyline
 66
     1
 10
0.0
 20
0.0
 30
0.0
  0
VERTEX
  5
349
330
348
100
AcDbEntity
  8
STANDARDEBENE
 62
     7
100
AcDbVertex
100
AcDb2dVertex
 10
-10.50014120160353
 20
0.0995633252050928
 30
0.0
  0
VERTEX
  5
34A
330
348
100
AcDbEntity
  8
STANDARDEBENE
 62
     7
100
AcDbVertex
100
AcDb2dVertex
 10
-9.62456960641757
 20
0.0995633252050928
 30
0.0
  0
VERTEX
  5
34B
330
348
100
AcDbEntity
  8
STANDARDEBENE
 62
     7
100
AcDbVertex
100
AcDb2dVertex
 10
-9.500029322467254
 20
0.0995633252050928
 30
0.0
  0
SEQEND
  5
34C
330
348
100
AcDbEntity
  8
STANDARDEBENE
  0
POLYLINE
  5
34D
330
1F
100
AcDbEntity
  8
STANDARDEBENE
 62
     7
100
AcDb2dPolyline
 66
     1
 10
0.0
 20
0.0
 30
0.0
  0
VERTEX
  5
34E
330
34D
100
AcDbEntity
  8
STANDARDEBENE
 62
     7
100
AcDbVertex
100
AcDb2dVertex
 10
-8.49957293355518
 20
0.0995633252050928
 30
0.0
  0
VERTEX
  5
34F
330
34D
100
AcDbEntity
  8
STANDARDEBENE
 62
     7
100
AcDbVertex
100
AcDb2dVertex
 10
-7.686357607788323
 20
0.0995633252050928
 30
0.0
  0
VERTEX
  5
350
330
34D
100
AcDbEntity
  8
STANDARDEBENE
 62
     7
100
AcDbVertex
100
AcDb2dVertex
 10
-7.499805564194697
 20
0.0995633252050928
 30
0.0
  0
SEQEND
  5
351
330
34D
100
AcDbEntity
  8
STANDARDEBENE
  0
POLYLINE
  5
352
330
1F
100
AcDbEntity
  8
STANDARDEBENE
 62
     7
100
AcDb2dPolyline
 66
     1
 10
0.0
 20
0.0
 30
0.0
  0
VERTEX
  5
353
330
352
100
AcDbEntity
  8
STANDARDEBENE
 62
     7
100
AcDbVertex
100
AcDb2dVertex
 10
-6.500038194834215
 20
0.0995633252050928
 30
0.0
  0
VERTEX
  5
354
330
352
100
AcDbEntity
  8
STANDARDEBENE
 62
     7
100
AcDbVertex
100
AcDb2dVertex
 10
-6.432858788553963
 20
0.0995633252050928
 30
0.0
  0
VERTEX
  5
355
330
352
100
AcDbEntity
  8
STANDARDEBENE
 62
     7
100
AcDbVertex
100
AcDb2dVertex
 10
-6.109019599305564
 20
0.0995633252050928
 30
0.0
  0
VERTEX
  5
356
330
352
100
AcDbEntity
  8
STANDARDEBENE
 62
     7
100
AcDbVertex
100
AcDb2dVertex
 10
-6.000154510153974
 20
0.0995633252050928
 30
0.0
  0
SEQEND
  5
357
330
352
100
AcDbEntity
  8
STANDARDEBENE
  0
POLYLINE
  5
358
330
1F
100
AcDbEntity
  8
STANDARDEBENE
 62
     7
100
AcDb2dPolyline
 66
     1
 10
0.0
 20
0.0
 30
0.0
  0
VERTEX
  5
359
330
358
100
AcDbEntity
  8
STANDARDEBENE
 62
     7
100
AcDbVertex
100
AcDb2dVertex
 10
-21.99953300790385
 20
7.500150073970494
 30
0.0
  0
VERTEX
  5
35A
330
358
100
AcDbEntity
  8
STANDARDEBENE
 62
     7
100
AcDbVertex
100
AcDb2dVertex
 10
-21.89066791875226
 20
7.500150073970494
 30
0.0
  0
VERTEX
  5
35B
330
358
100
AcDbEntity
  8
STANDARDEBENE
 62
     7
100
AcDbVertex
100
AcDb2dVertex
 10
-21.56648421972807
 20
7.500150073970494
 30
0.0
  0
VERTEX
  5
35C
330
358
100
AcDbEntity
  8
STANDARDEBENE
 62
     7
100
AcDbVertex
100
AcDb2dVertex
 10
-21.49964932322361
 20
7.500150073970494
 30
0.0
  0
SEQEND
  5
35D
330
358
100
AcDbEntity
  8
STANDARDEBENE
  0
POLYLINE
  5
35E
330
1F
100
AcDbEntity
  8
STANDARDEBENE
 62
     7
100
AcDb2dPolyline
 66
     1
 10
0.0
 20
0.0
 30
0.0
  0
VERTEX
  5
35F
330
35E
100
AcDbEntity
  8
STANDARDEBENE
 62
     7
100
AcDbVertex
100
AcDb2dVertex
 10
-20.49988195386313
 20
7.500150073970494
 30
0.0
  0
VERTEX
  5
360
330
35E
100
AcDbEntity
  8
STANDARDEBENE
 62
     7
100
AcDbVertex
100
AcDb2dVertex
 10
-20.31298540049371
 20
7.500150073970494
 30
0.0
  0
VERTEX
  5
361
330
35E
100
AcDbEntity
  8
STANDARDEBENE
 62
     7
100
AcDbVertex
100
AcDb2dVertex
 10
-19.49977007472685
 20
7.500150073970494
 30
0.0
  0
SEQEND
  5
362
330
35E
100
AcDbEntity
  8
STANDARDEBENE
  0
POLYLINE
  5
363
330
1F
100
AcDbEntity
  8
STANDARDEBENE
 62
     7
100
AcDb2dPolyline
 66
     1
 10
0.0
 20
0.0
 30
0.0
  0
VERTEX
  5
364
330
363
100
AcDbEntity
  8
STANDARDEBENE
 62
     7
100
AcDbVertex
100
AcDb2dVertex
 10
-18.50000270536637
 20
7.500150073970494
 30
0.0
  0
VERTEX
  5
365
330
363
100
AcDbEntity
  8
STANDARDEBENE
 62
     7
100
AcDbVertex
100
AcDb2dVertex
 10
-18.37511791164026
 20
7.500150073970494
 30
0.0
  0
VERTEX
  5
366
330
363
100
AcDbEntity
  8
STANDARDEBENE
 62
     7
100
AcDbVertex
100
AcDb2dVertex
 10
-17.4995463164543
 20
7.500150073970494
 30
0.0
  0
SEQEND
  5
367
330
363
100
AcDbEntity
  8
STANDARDEBENE
  0
POLYLINE
  5
368
330
1F
100
AcDbEntity
  8
STANDARDEBENE
 62
     7
100
AcDb2dPolyline
 66
     1
 10
0.0
 20
0.0
 30
0.0
  0
VERTEX
  5
369
330
368
100
AcDbEntity
  8
STANDARDEBENE
 62
     7
100
AcDbVertex
100
AcDb2dVertex
 10
-16.49977894709381
 20
7.500150073970494
 30
0.0
  0
VERTEX
  5
36A
330
368
100
AcDbEntity
  8
STANDARDEBENE
 62
     7
100
AcDbVertex
100
AcDb2dVertex
 10
-15.96389399084287
 20
7.500150073970494
 30
0.0
  0
VERTEX
  5
36B
330
368
100
AcDbEntity
  8
STANDARDEBENE
 62
     7
100
AcDbVertex
100
AcDb2dVertex
 10
-15.50001157773333
 20
7.500150073970494
 30
0.0
  0
SEQEND
  5
36C
330
368
100
AcDbEntity
  8
STANDARDEBENE
  0
POLYLINE
  5
36D
330
1F
100
AcDbEntity
  8
STANDARDEBENE
 62
     7
100
AcDb2dPolyline
 66
     1
 10
0.0
 20
0.0
 30
0.0
  0
VERTEX
  5
36E
330
36D
100
AcDbEntity
  8
STANDARDEBENE
 62
     7
100
AcDbVertex
100
AcDb2dVertex
 10
-14.49989969859705
 20
7.500150073970494
 30
0.0
  0
VERTEX
  5
36F
330
36D
100
AcDbEntity
  8
STANDARDEBENE
 62
     7
100
AcDbVertex
100
AcDb2dVertex
 10
-13.49978781946077
 20
7.500150073970494
 30
0.0
  0
SEQEND
  5
370
330
36D
100
AcDbEntity
  8
STANDARDEBENE
  0
POLYLINE
  5
371
330
1F
100
AcDbEntity
  8
STANDARDEBENE
 62
     7
100
AcDb2dPolyline
 66
     1
 10
0.0
 20
0.0
 30
0.0
  0
VERTEX
  5
372
330
371
100
AcDbEntity
  8
STANDARDEBENE
 62
     7
100
AcDbVertex
100
AcDb2dVertex
 10
-12.4996759403245
 20
7.500150073970494
 30
0.0
  0
VERTEX
  5
373
330
371
100
AcDbEntity
  8
STANDARDEBENE
 62
     7
100
AcDbVertex
100
AcDb2dVertex
 10
-12.03579352721495
 20
7.500150073970494
 30
0.0
  0
VERTEX
  5
374
330
371
100
AcDbEntity
  8
STANDARDEBENE
 62
     7
100
AcDbVertex
100
AcDb2dVertex
 10
-11.49990857096401
 20
7.500150073970494
 30
0.0
  0
SEQEND
  5
375
330
371
100
AcDbEntity
  8
STANDARDEBENE
  0
POLYLINE
  5
376
330
1F
100
AcDbEntity
  8
STANDARDEBENE
 62
     7
100
AcDb2dPolyline
 66
     1
 10
0.0
 20
0.0
 30
0.0
  0
VERTEX
  5
377
330
376
100
AcDbEntity
  8
STANDARDEBENE
 62
     7
100
AcDbVertex
100
AcDb2dVertex
 10
-10.50014120160353
 20
7.500150073970494
 30
0.0
  0
VERTEX
  5
378
330
376
100
AcDbEntity
  8
STANDARDEBENE
 62
     7
100
AcDbVertex
100
AcDb2dVertex
 10
-9.62456960641757
 20
7.500150073970494
 30
0.0
  0
VERTEX
  5
379
330
376
100
AcDbEntity
  8
STANDARDEBENE
 62
     7
100
AcDbVertex
100
AcDb2dVertex
 10
-9.500029322467254
 20
7.500150073970494
 30
0.0
  0
SEQEND
  5
37A
330
376
100
AcDbEntity
  8
STANDARDEBENE
  0
POLYLINE
  5
37B
330
1F
100
AcDbEntity
  8
STANDARDEBENE
 62
     7
100
AcDb2dPolyline
 66
     1
 10
0.0
 20
0.0
 30
0.0
  0
VERTEX
  5
37C
330
37B
100
AcDbEntity
  8
STANDARDEBENE
 62
     7
100
AcDbVertex
100
AcDb2dVertex
 10
-8.49957293355518
 20
7.500150073970494
 30
0.0
  0
VERTEX
  5
37D
330
37B
100
AcDbEntity
  8
STANDARDEBENE
 62
     7
100
AcDbVertex
100
AcDb2dVertex
 10
-7.686357607788323
 20
7.500150073970494
 30
0.0
  0
VERTEX
  5
37E
330
37B
100
AcDbEntity
  8
STANDARDEBENE
 62
     7
100
AcDbVertex
100
AcDb2dVertex
 10
-7.499805564194697
 20
7.500150073970494
 30
0.0
  0
SEQEND
  5
37F
330
37B
100
AcDbEntity
  8
STANDARDEBENE
  0
POLYLINE
  5
380
330
1F
100
AcDbEntity
  8
STANDARDEBENE
 62
     7
100
AcDb2dPolyline
 66
     1
 10
0.0
 20
0.0
 30
0.0
  0
VERTEX
  5
381
330
380
100
AcDbEntity
  8
STANDARDEBENE
 62
     7
100
AcDbVertex
100
AcDb2dVertex
 10
-6.500038194834215
 20
7.500150073970494
 30
0.0
  0
VERTEX
  5
382
330
380
100
AcDbEntity
  8
STANDARDEBENE
 62
     7
100
AcDbVertex
100
AcDb2dVertex
 10
-6.432858788553963
 20
7.500150073970494
 30
0.0
  0
VERTEX
  5
383
330
380
100
AcDbEntity
  8
STANDARDEBENE
 62
     7
100
AcDbVertex
100
AcDb2dVertex
 10
-6.109019599305564
 20
7.500150073970494
 30
0.0
  0
VERTEX
  5
384
330
380
100
AcDbEntity
  8
STANDARDEBENE
 62
     7
100
AcDbVertex
100
AcDb2dVertex
 10
-6.000154510153974
 20
7.500150073970494
 30
0.0
  0
SEQEND
  5
385
330
380
100
AcDbEntity
  8
STANDARDEBENE
  0
POLYLINE
  5
386
330
1F
100
AcDbEntity
  8
STANDARDEBENE
 62
     7
100
AcDb2dPolyline
 66
     1
 10
0.0
 20
0.0
 30
0.0
  0
VERTEX
  5
387
330
386
100
AcDbEntity
  8
STANDARDEBENE
 62
     7
100
AcDbVertex
100
AcDb2dVertex
 10
-19.49977007472685
 20
11.12215360180351
 30
0.0
  0
VERTEX
  5
388
330
386
100
AcDbEntity
  8
STANDARDEBENE
 62
     7
100
AcDbVertex
100
AcDb2dVertex
 10
-19.39400557355743
 20
11.12215360180351
 30
0.0
  0
VERTEX
  5
389
330
386
100
AcDbEntity
  8
STANDARDEBENE
 62
     7
100
AcDbVertex
100
AcDb2dVertex
 10
-19.08101844224661
 20
11.12215360180351
 30
0.0
  0
VERTEX
  5
38A
330
386
100
AcDbEntity
  8
STANDARDEBENE
 62
     7
100
AcDbVertex
100
AcDb2dVertex
 10
-18.94993247255617
 20
11.12215360180351
 30
0.0
  0
SEQEND
  5
38B
330
386
100
AcDbEntity
  8
STANDARDEBENE
  0
POLYLINE
  5
38C
330
1F
100
AcDbEntity
  8
STANDARDEBENE
 62
     7
100
AcDb2dPolyline
 66
     1
 10
0.0
 20
0.0
 30
0.0
  0
VERTEX
  5
38D
330
38C
100
AcDbEntity
  8
STANDARDEBENE
 62
     7
100
AcDbVertex
100
AcDb2dVertex
 10
-17.849912758439
 20
11.12215360180351
 30
0.0
  0
VERTEX
  5
38E
330
38C
100
AcDbEntity
  8
STANDARDEBENE
 62
     7
100
AcDbVertex
100
AcDb2dVertex
 10
-17.05581772522883
 20
11.12215360180351
 30
0.0
  0
VERTEX
  5
38F
330
38C
100
AcDbEntity
  8
STANDARDEBENE
 62
     7
100
AcDbVertex
100
AcDb2dVertex
 10
-16.74954853454604
 20
11.12215360180351
 30
0.0
  0
SEQEND
  5
390
330
38C
100
AcDbEntity
  8
STANDARDEBENE
  0
POLYLINE
  5
391
330
1F
100
AcDbEntity
  8
STANDARDEBENE
 62
     7
100
AcDb2dPolyline
 66
     1
 10
0.0
 20
0.0
 30
0.0
  0
VERTEX
  5
392
330
391
100
AcDbEntity
  8
STANDARDEBENE
 62
     7
100
AcDbVertex
100
AcDb2dVertex
 10
-15.64952882042887
 20
11.12215360180351
 30
0.0
  0
VERTEX
  5
393
330
391
100
AcDbEntity
  8
STANDARDEBENE
 62
     7
100
AcDbVertex
100
AcDb2dVertex
 10
-15.07247494597028
 20
11.12215360180351
 30
0.0
  0
VERTEX
  5
394
330
391
100
AcDbEntity
  8
STANDARDEBENE
 62
     7
100
AcDbVertex
100
AcDb2dVertex
 10
-14.5496813611996
 20
11.12215360180351
 30
0.0
  0
SEQEND
  5
395
330
391
100
AcDbEntity
  8
STANDARDEBENE
  0
POLYLINE
  5
396
330
1F
100
AcDbEntity
  8
STANDARDEBENE
 62
     7
100
AcDb2dPolyline
 66
     1
 10
0.0
 20
0.0
 30
0.0
  0
VERTEX
  5
397
330
396
100
AcDbEntity
  8
STANDARDEBENE
 62
     7
100
AcDbVertex
100
AcDb2dVertex
 10
-13.45000615685823
 20
11.12215360180351
 30
0.0
  0
VERTEX
  5
398
330
396
100
AcDbEntity
  8
STANDARDEBENE
 62
     7
100
AcDbVertex
100
AcDb2dVertex
 10
-12.92652355253595
 20
11.12215360180351
 30
0.0
  0
VERTEX
  5
399
330
396
100
AcDbEntity
  8
STANDARDEBENE
 62
     7
100
AcDbVertex
100
AcDb2dVertex
 10
-12.35015869762896
 20
11.12215360180351
 30
0.0
  0
SEQEND
  5
39A
330
396
100
AcDbEntity
  8
STANDARDEBENE
  0
POLYLINE
  5
39B
330
1F
100
AcDbEntity
  8
STANDARDEBENE
 62
     7
100
AcDb2dPolyline
 66
     1
 10
0.0
 20
0.0
 30
0.0
  0
VERTEX
  5
39C
330
39B
100
AcDbEntity
  8
STANDARDEBENE
 62
     7
100
AcDbVertex
100
AcDb2dVertex
 10
-11.25013898351179
 20
11.12215360180351
 30
0.0
  0
VERTEX
  5
39D
330
39B
100
AcDbEntity
  8
STANDARDEBENE
 62
     7
100
AcDbVertex
100
AcDb2dVertex
 10
-10.943869792829
 20
11.12215360180351
 30
0.0
  0
VERTEX
  5
39E
330
39B
100
AcDbEntity
  8
STANDARDEBENE
 62
     7
100
AcDbVertex
100
AcDb2dVertex
 10
-10.14977475961883
 20
11.12215360180351
 30
0.0
  0
SEQEND
  5
39F
330
39B
100
AcDbEntity
  8
STANDARDEBENE
  0
POLYLINE
  5
3A0
330
1F
100
AcDbEntity
  8
STANDARDEBENE
 62
     7
100
AcDb2dPolyline
 66
     1
 10
0.0
 20
0.0
 30
0.0
  0
VERTEX
  5
3A1
330
3A0
100
AcDbEntity
  8
STANDARDEBENE
 62
     7
100
AcDbVertex
100
AcDb2dVertex
 10
-9.049410535725865
 20
11.12215360180351
 30
0.0
  0
VERTEX
  5
3A2
330
3A0
100
AcDbEntity
  8
STANDARDEBENE
 62
     7
100
AcDbVertex
100
AcDb2dVertex
 10
-8.91866907581122
 20
11.12215360180351
 30
0.0
  0
VERTEX
  5
3A3
330
3A0
100
AcDbEntity
  8
STANDARDEBENE
 62
     7
100
AcDbVertex
100
AcDb2dVertex
 10
-8.6056819445004
 20
11.12215360180351
 30
0.0
  0
VERTEX
  5
3A4
330
3A0
100
AcDbEntity
  8
STANDARDEBENE
 62
     7
100
AcDbVertex
100
AcDb2dVertex
 10
-8.49957293355518
 20
11.12215360180351
 30
0.0
  0
SEQEND
  5
3A5
330
3A0
100
AcDbEntity
  8
STANDARDEBENE
  0
POLYLINE
  5
3A6
330
1F
100
AcDbEntity
  8
STANDARDEBENE
 62
     7
100
AcDb2dPolyline
 66
     1
 10
0.0
 20
0.0
 30
0.0
  0
VERTEX
  5
3A7
330
3A6
100
AcDbEntity
  8
STANDARDEBENE
 62
     7
100
AcDbVertex
100
AcDb2dVertex
 10
-19.49977007472685
 20
29.49968308187434
 30
0.0
  0
VERTEX
  5
3A8
330
3A6
100
AcDbEntity
  8
STANDARDEBENE
 62
     7
100
AcDbVertex
100
AcDb2dVertex
 10
-19.39400557355743
 20
29.49968308187434
 30
0.0
  0
VERTEX
  5
3A9
330
3A6
100
AcDbEntity
  8
STANDARDEBENE
 62
     7
100
AcDbVertex
100
AcDb2dVertex
 10
-19.08101844224661
 20
29.49968308187434
 30
0.0
  0
VERTEX
  5
3AA
330
3A6
100
AcDbEntity
  8
STANDARDEBENE
 62
     7
100
AcDbVertex
100
AcDb2dVertex
 10
-18.94993247255617
 20
29.49968308187434
 30
0.0
  0
SEQEND
  5
3AB
330
3A6
100
AcDbEntity
  8
STANDARDEBENE
  0
POLYLINE
  5
3AC
330
1F
100
AcDbEntity
  8
STANDARDEBENE
 62
     7
100
AcDb2dPolyline
 66
     1
 10
0.0
 20
0.0
 30
0.0
  0
VERTEX
  5
3AD
330
3AC
100
AcDbEntity
  8
STANDARDEBENE
 62
     7
100
AcDbVertex
100
AcDb2dVertex
 10
-17.849912758439
 20
29.49968308187434
 30
0.0
  0
VERTEX
  5
3AE
330
3AC
100
AcDbEntity
  8
STANDARDEBENE
 62
     7
100
AcDbVertex
100
AcDb2dVertex
 10
-17.05581772522883
 20
29.49968308187434
 30
0.0
  0
VERTEX
  5
3AF
330
3AC
100
AcDbEntity
  8
STANDARDEBENE
 62
     7
100
AcDbVertex
100
AcDb2dVertex
 10
-16.74954853454604
 20
29.49968308187434
 30
0.0
  0
SEQEND
  5
3B0
330
3AC
100
AcDbEntity
  8
STANDARDEBENE
  0
POLYLINE
  5
3B1
330
1F
100
AcDbEntity
  8
STANDARDEBENE
 62
     7
100
AcDb2dPolyline
 66
     1
 10
0.0
 20
0.0
 30
0.0
  0
VERTEX
  5
3B2
330
3B1
100
AcDbEntity
  8
STANDARDEBENE
 62
     7
100
AcDbVertex
100
AcDb2dVertex
 10
-15.64952882042887
 20
29.49968308187434
 30
0.0
  0
VERTEX
  5
3B3
330
3B1
100
AcDbEntity
  8
STANDARDEBENE
 62
     7
100
AcDbVertex
100
AcDb2dVertex
 10
-15.07247494597028
 20
29.49968308187434
 30
0.0
  0
VERTEX
  5
3B4
330
3B1
100
AcDbEntity
  8
STANDARDEBENE
 62
     7
100
AcDbVertex
100
AcDb2dVertex
 10
-14.5496813611996
 20
29.49968308187434
 30
0.0
  0
SEQEND
  5
3B5
330
3B1
100
AcDbEntity
  8
STANDARDEBENE
  0
POLYLINE
  5
3B6
330
1F
100
AcDbEntity
  8
STANDARDEBENE
 62
     7
100
AcDb2dPolyline
 66
     1
 10
0.0
 20
0.0
 30
0.0
  0
VERTEX
  5
3B7
330
3B6
100
AcDbEntity
  8
STANDARDEBENE
 62
     7
100
AcDbVertex
100
AcDb2dVertex
 10
-13.45000615685823
 20
29.49968308187434
 30
0.0
  0
VERTEX
  5
3B8
330
3B6
100
AcDbEntity
  8
STANDARDEBENE
 62
     7
100
AcDbVertex
100
AcDb2dVertex
 10
-12.92652355253595
 20
29.49968308187434
 30
0.0
  0
VERTEX
  5
3B9
330
3B6
100
AcDbEntity
  8
STANDARDEBENE
 62
     7
100
AcDbVertex
100
AcDb2dVertex
 10
-12.35015869762896
 20
29.49968308187434
 30
0.0
  0
SEQEND
  5
3BA
330
3B6
100
AcDbEntity
  8
STANDARDEBENE
  0
POLYLINE
  5
3BB
330
1F
100
AcDbEntity
  8
STANDARDEBENE
 62
     7
100
AcDb2dPolyline
 66
     1
 10
0.0
 20
0.0
 30
0.0
  0
VERTEX
  5
3BC
330
3BB
100
AcDbEntity
  8
STANDARDEBENE
 62
     7
100
AcDbVertex
100
AcDb2dVertex
 10
-11.25013898351179
 20
29.49968308187434
 30
0.0
  0
VERTEX
  5
3BD
330
3BB
100
AcDbEntity
  8
STANDARDEBENE
 62
     7
100
AcDbVertex
100
AcDb2dVertex
 10
-10.943869792829
 20
29.49968308187434
 30
0.0
  0
VERTEX
  5
3BE
330
3BB
100
AcDbEntity
  8
STANDARDEBENE
 62
     7
100
AcDbVertex
100
AcDb2dVertex
 10
-10.14977475961883
 20
29.49968308187434
 30
0.0
  0
SEQEND
  5
3BF
330
3BB
100
AcDbEntity
  8
STANDARDEBENE
  0
POLYLINE
  5
3C0
330
1F
100
AcDbEntity
  8
STANDARDEBENE
 62
     7
100
AcDb2dPolyline
 66
     1
 10
0.0
 20
0.0
 30
0.0
  0
VERTEX
  5
3C1
330
3C0
100
AcDbEntity
  8
STANDARDEBENE
 62
     7
100
AcDbVertex
100
AcDb2dVertex
 10
-9.049410535725865
 20
29.49968308187434
 30
0.0
  0
VERTEX
  5
3C2
330
3C0
100
AcDbEntity
  8
STANDARDEBENE
 62
     7
100
AcDbVertex
100
AcDb2dVertex
 10
-8.91866907581122
 20
29.49968308187434
 30
0.0
  0
VERTEX
  5
3C3
330
3C0
100
AcDbEntity
  8
STANDARDEBENE
 62
     7
100
AcDbVertex
100
AcDb2dVertex
 10
-8.6056819445004
 20
29.49968308187434
 30
0.0
  0
VERTEX
  5
3C4
330
3C0
100
AcDbEntity
  8
STANDARDEBENE
 62
     7
100
AcDbVertex
100
AcDb2dVertex
 10
-8.49957293355518
 20
29.49968308187434
 30
0.0
  0
SEQEND
  5
3C5
330
3C0
100
AcDbEntity
  8
STANDARDEBENE
  0
POLYLINE
  5
3C6
330
1F
100
AcDbEntity
  8
STANDARDEBENE
 62
     7
100
AcDb2dPolyline
 66
     1
 10
0.0
 20
0.0
 30
0.0
  0
VERTEX
  5
3C7
330
3C6
100
AcDbEntity
  8
STANDARDEBENE
 62
     7
100
AcDbVertex
100
AcDb2dVertex
 10
-18.99988639004661
 20
29.8006123710323
 30
0.0
  0
VERTEX
  5
3C8
330
3C6
100
AcDbEntity
  8
STANDARDEBENE
 62
     7
100
AcDbVertex
100
AcDb2dVertex
 10
-18.89050453623133
 20
29.8006123710323
 30
0.0
  0
VERTEX
  5
3C9
330
3C6
100
AcDbEntity
  8
STANDARDEBENE
 62
     7
100
AcDbVertex
100
AcDb2dVertex
 10
-18.56787113119821
 20
29.8006123710323
 30
0.0
  0
VERTEX
  5
3CA
330
3C6
100
AcDbEntity
  8
STANDARDEBENE
 62
     7
100
AcDbVertex
100
AcDb2dVertex
 10
-18.50000270536637
 20
29.8006123710323
 30
0.0
  0
SEQEND
  5
3CB
330
3C6
100
AcDbEntity
  8
STANDARDEBENE
  0
POLYLINE
  5
3CC
330
1F
100
AcDbEntity
  8
STANDARDEBENE
 62
     7
100
AcDb2dPolyline
 66
     1
 10
0.0
 20
0.0
 30
0.0
  0
VERTEX
  5
3CD
330
3CC
100
AcDbEntity
  8
STANDARDEBENE
 62
     7
100
AcDbVertex
100
AcDb2dVertex
 10
-17.4995463164543
 20
29.8006123710323
 30
0.0
  0
VERTEX
  5
3CE
330
3CC
100
AcDbEntity
  8
STANDARDEBENE
 62
     7
100
AcDbVertex
100
AcDb2dVertex
 10
-17.3457227015613
 20
29.8006123710323
 30
0.0
  0
VERTEX
  5
3CF
330
3CC
100
AcDbEntity
  8
STANDARDEBENE
 62
     7
100
AcDbVertex
100
AcDb2dVertex
 10
-16.49977894709381
 20
29.8006123710323
 30
0.0
  0
SEQEND
  5
3D0
330
3CC
100
AcDbEntity
  8
STANDARDEBENE
  0
POLYLINE
  5
3D1
330
1F
100
AcDbEntity
  8
STANDARDEBENE
 62
     7
100
AcDb2dPolyline
 66
     1
 10
0.0
 20
0.0
 30
0.0
  0
VERTEX
  5
3D2
330
3D1
100
AcDbEntity
  8
STANDARDEBENE
 62
     7
100
AcDbVertex
100
AcDb2dVertex
 10
-15.50001157773333
 20
29.8006123710323
 30
0.0
  0
VERTEX
  5
3D3
330
3D1
100
AcDbEntity
  8
STANDARDEBENE
 62
     7
100
AcDbVertex
100
AcDb2dVertex
 10
-14.5221205791359
 20
29.8006123710323
 30
0.0
  0
VERTEX
  5
3D4
330
3D1
100
AcDbEntity
  8
STANDARDEBENE
 62
     7
100
AcDbVertex
100
AcDb2dVertex
 10
-14.49989969859705
 20
29.8006123710323
 30
0.0
  0
SEQEND
  5
3D5
330
3D1
100
AcDbEntity
  8
STANDARDEBENE
  0
POLYLINE
  5
3D6
330
1F
100
AcDbEntity
  8
STANDARDEBENE
 62
     7
100
AcDb2dPolyline
 66
     1
 10
0.0
 20
0.0
 30
0.0
  0
VERTEX
  5
3D7
330
3D6
100
AcDbEntity
  8
STANDARDEBENE
 62
     7
100
AcDbVertex
100
AcDb2dVertex
 10
-13.49978781946077
 20
29.8006123710323
 30
0.0
  0
VERTEX
  5
3D8
330
3D6
100
AcDbEntity
  8
STANDARDEBENE
 62
     7
100
AcDbVertex
100
AcDb2dVertex
 10
-13.47722242914613
 20
29.8006123710323
 30
0.0
  0
VERTEX
  5
3D9
330
3D6
100
AcDbEntity
  8
STANDARDEBENE
 62
     7
100
AcDbVertex
100
AcDb2dVertex
 10
-12.4996759403245
 20
29.8006123710323
 30
0.0
  0
SEQEND
  5
3DA
330
3D6
100
AcDbEntity
  8
STANDARDEBENE
  0
POLYLINE
  5
3DB
330
1F
100
AcDbEntity
  8
STANDARDEBENE
 62
     7
100
AcDb2dPolyline
 66
     1
 10
0.0
 20
0.0
 30
0.0
  0
VERTEX
  5
3DC
330
3DB
100
AcDbEntity
  8
STANDARDEBENE
 62
     7
100
AcDbVertex
100
AcDb2dVertex
 10
-11.49990857096401
 20
29.8006123710323
 30
0.0
  0
VERTEX
  5
3DD
330
3DB
100
AcDbEntity
  8
STANDARDEBENE
 62
     7
100
AcDbVertex
100
AcDb2dVertex
 10
-10.65396481649652
 20
29.8006123710323
 30
0.0
  0
VERTEX
  5
3DE
330
3DB
100
AcDbEntity
  8
STANDARDEBENE
 62
     7
100
AcDbVertex
100
AcDb2dVertex
 10
-10.50014120160353
 20
29.8006123710323
 30
0.0
  0
SEQEND
  5
3DF
330
3DB
100
AcDbEntity
  8
STANDARDEBENE
  0
POLYLINE
  5
3E0
330
1F
100
AcDbEntity
  8
STANDARDEBENE
 62
     7
100
AcDb2dPolyline
 66
     1
 10
0.0
 20
0.0
 30
0.0
  0
VERTEX
  5
3E1
330
3E0
100
AcDbEntity
  8
STANDARDEBENE
 62
     7
100
AcDbVertex
100
AcDb2dVertex
 10
-9.500029322467254
 20
29.8006123710323
 30
0.0
  0
VERTEX
  5
3E2
330
3E0
100
AcDbEntity
  8
STANDARDEBENE
 62
     7
100
AcDbVertex
100
AcDb2dVertex
 10
-9.431816386859612
 20
29.8006123710323
 30
0.0
  0
VERTEX
  5
3E3
330
3E0
100
AcDbEntity
  8
STANDARDEBENE
 62
     7
100
AcDbVertex
100
AcDb2dVertex
 10
-9.108838472050705
 20
29.8006123710323
 30
0.0
  0
VERTEX
  5
3E4
330
3E0
100
AcDbEntity
  8
STANDARDEBENE
 62
     7
100
AcDbVertex
100
AcDb2dVertex
 10
-8.999801128011217
 20
29.8006123710323
 30
0.0
  0
SEQEND
  5
3E5
330
3E0
100
AcDbEntity
  8
STANDARDEBENE
  0
POLYLINE
  5
3E6
330
1F
100
AcDbEntity
  8
STANDARDEBENE
 62
   250
100
AcDb2dPolyline
 66
     1
 10
0.0
 20
0.0
 30
0.0
  0
VERTEX
  5
3E7
330
3E6
100
AcDbEntity
  8
STANDARDEBENE
 62
   250
100
AcDbVertex
100
AcDb2dVertex
 10
53.83602589900361
 20
83.37050446823336
 30
0.0
  0
VERTEX
  5
3E8
330
3E6
100
AcDbEntity
  8
STANDARDEBENE
 62
   250
100
AcDbVertex
100
AcDb2dVertex
 10
63.73689234560971
 20
11.7443382568914
 30
0.0
  0
SEQEND
  5
3E9
330
3E6
100
AcDbEntity
  8
STANDARDEBENE
  0
POLYLINE
  5
3EA
330
1F
100
AcDbEntity
  8
STANDARDEBENE
 62
   250
100
AcDb2dPolyline
 66
     1
 10
0.0
 20
0.0
 30
0.0
  0
VERTEX
  5
3EB
330
3EA
100
AcDbEntity
  8
STANDARDEBENE
 62
   250
100
AcDbVertex
100
AcDb2dVertex
 10
63.73689234560971
 20
83.21564732401299
 30
0.0
  0
VERTEX
  5
3EC
330
3EA
100
AcDbEntity
  8
STANDARDEBENE
 62
   250
100
AcDbVertex
100
AcDb2dVertex
 10
53.79365119658068
 20
11.6270326782328
 30
0.0
  0
SEQEND
  5
3ED
330
3EA
100
AcDbEntity
  8
STANDARDEBENE
  0
POLYLINE
  5
3EE
330
1F
100
AcDbEntity
  8
STANDARDEBENE
  6
AI-LINETYPE-1
 62
     7
100
AcDb2dPolyline
 66
     1
 10
0.0
 20
0.0
 30
0.0
  0
VERTEX
  5
3EF
330
3EE
100
AcDbEntity
  8
STANDARDEBENE
  6
AI-LINETYPE-1
 62
     7
100
AcDbVertex
100
AcDb2dVertex
 10
58.79696667046844
 20
-2.000912777824149
 30
0.0
  0
VERTEX
  5
3F0
330
3EE
100
AcDbEntity
  8
STANDARDEBENE
  6
AI-LINETYPE-1
 62
     7
100
AcDbVertex
100
AcDb2dVertex
 10
58.79696667046844
 20
121.1186128571075
 30
0.0
  0
SEQEND
  5
3F1
330
3EE
100
AcDbEntity
  8
STANDARDEBENE
  6
AI-LINETYPE-1
  0
POLYLINE
  5
3F3
330
1F
100
AcDbEntity
  8
STANDARDEBENE
  6
AI-LINETYPE-2
 62
     7
100
AcDb2dPolyline
 66
     1
 10
0.0
 20
0.0
 30
0.0
  0
VERTEX
  5
3F4
330
3F3
100
AcDbEntity
  8
STANDARDEBENE
  6
AI-LINETYPE-2
 62
     7
100
AcDbVertex
100
AcDb2dVertex
 10
-14.00001601391681
 20
-58.91909538598819
 30
0.0
  0
VERTEX
  5
3F5
330
3F3
100
AcDbEntity
  8
STANDARDEBENE
  6
AI-LINETYPE-2
 62
     7
100
AcDbVertex
100
AcDb2dVertex
 10
-14.00001601391681
 20
-28.76002059323997
 30
0.0
  0
SEQEND
  5
3F6
330
3F3
100
AcDbEntity
  8
STANDARDEBENE
  6
AI-LINETYPE-2
  0
POLYLINE
  5
3F8
330
1F
100
AcDbEntity
  8
STANDARDEBENE
  6
AI-LINETYPE-3
 62
     7
100
AcDb2dPolyline
 66
     1
 10
0.0
 20
0.0
 30
0.0
  0
VERTEX
  5
3F9
330
3F8
100
AcDbEntity
  8
STANDARDEBENE
  6
AI-LINETYPE-3
 62
     7
100
AcDbVertex
100
AcDb2dVertex
 10
1.255565877889137
 20
-43.92465190423573
 30
0.0
  0
VERTEX
  5
3FA
330
3F8
100
AcDbEntity
  8
STANDARDEBENE
  6
AI-LINETYPE-3
 62
     7
100
AcDbVertex
100
AcDb2dVertex
 10
-29.22166369280684
 20
-43.92465190423573
 30
0.0
  0
SEQEND
  5
3FB
330
3F8
100
AcDbEntity
  8
STANDARDEBENE
  6
AI-LINETYPE-3
  0
POLYLINE
  5
3FD
330
1F
100
AcDbEntity
  8
STANDARDEBENE
 62
     7
100
AcDb2dPolyline
 66
     1
 10
0.0
 20
0.0
 30
0.0
  0
VERTEX
  5
3FE
330
3FD
100
AcDbEntity
  8
STANDARDEBENE
 62
     7
100
AcDbVertex
100
AcDb2dVertex
 10
44.79677840166374
 20
117.5002266819203
 30
0.0
  0
VERTEX
  5
3FF
330
3FD
100
AcDbEntity
  8
STANDARDEBENE
 62
     7
100
AcDbVertex
100
AcDb2dVertex
 10
44.79677840166374
 20
0.0
 30
0.0
  0
SEQEND
  5
400
330
3FD
100
AcDbEntity
  8
STANDARDEBENE
  0
POLYLINE
  5
401
330
1F
100
AcDbEntity
  8
STANDARDEBENE
 62
     7
100
AcDb2dPolyline
 66
     1
 10
0.0
 20
0.0
 30
0.0
  0
VERTEX
  5
402
330
401
100
AcDbEntity
  8
STANDARDEBENE
 62
     7
100
AcDbVertex
100
AcDb2dVertex
 10
72.79681042949736
 20
0.0
 30
0.0
  0
VERTEX
  5
403
330
401
100
AcDbEntity
  8
STANDARDEBENE
 62
     7
100
AcDbVertex
100
AcDb2dVertex
 10
72.79681042949736
 20
117.5002266819203
 30
0.0
  0
SEQEND
  5
404
330
401
100
AcDbEntity
  8
STANDARDEBENE
  0
POLYLINE
  5
405
330
1F
100
AcDbEntity
  8
STANDARDEBENE
 62
     7
100
AcDb2dPolyline
 66
     1
 10
0.0
 20
0.0
 30
0.0
  0
VERTEX
  5
406
330
405
100
AcDbEntity
  8
STANDARDEBENE
 62
     7
100
AcDbVertex
100
AcDb2dVertex
 10
44.79677840166374
 20
0.0
 30
0.0
  0
VERTEX
  5
407
330
405
100
AcDbEntity
  8
STANDARDEBENE
 62
     7
100
AcDbVertex
100
AcDb2dVertex
 10
45.29700659611977
 20
-0.5002281944560372
 30
0.0
  0
SEQEND
  5
408
330
405
100
AcDbEntity
  8
STANDARDEBENE
  0
POLYLINE
  5
409
330
1F
100
AcDbEntity
  8
STANDARDEBENE
 62
     7
100
AcDb2dPolyline
 66
     1
 10
0.0
 20
0.0
 30
0.0
  0
VERTEX
  5
40A
330
409
100
AcDbEntity
  8
STANDARDEBENE
 62
     7
100
AcDbVertex
100
AcDb2dVertex
 10
72.29692674481711
 20
-0.5002281944560372
 30
0.0
  0
VERTEX
  5
40B
330
409
100
AcDbEntity
  8
STANDARDEBENE
 62
     7
100
AcDbVertex
100
AcDb2dVertex
 10
72.79681042949736
 20
0.0
 30
0.0
  0
SEQEND
  5
40C
330
409
100
AcDbEntity
  8
STANDARDEBENE
  0
POLYLINE
  5
40D
330
1F
100
AcDbEntity
  8
STANDARDEBENE
 62
     7
100
AcDb2dPolyline
 66
     1
 10
0.0
 20
0.0
 30
0.0
  0
VERTEX
  5
40E
330
40D
100
AcDbEntity
  8
STANDARDEBENE
 62
     7
100
AcDbVertex
100
AcDb2dVertex
 10
46.79665765016049
 20
119.5001059304171
 30
0.0
  0
VERTEX
  5
40F
330
40D
100
AcDbEntity
  8
STANDARDEBENE
 62
     7
100
AcDbVertex
100
AcDb2dVertex
 10
44.79677840166374
 20
117.5002266819203
 30
0.0
  0
SEQEND
  5
410
330
40D
100
AcDbEntity
  8
STANDARDEBENE
  0
POLYLINE
  5
411
330
1F
100
AcDbEntity
  8
STANDARDEBENE
 62
     7
100
AcDb2dPolyline
 66
     1
 10
0.0
 20
0.0
 30
0.0
  0
VERTEX
  5
412
330
411
100
AcDbEntity
  8
STANDARDEBENE
 62
     7
100
AcDbVertex
100
AcDb2dVertex
 10
72.79681042949736
 20
117.5002266819203
 30
0.0
  0
VERTEX
  5
413
330
411
100
AcDbEntity
  8
STANDARDEBENE
 62
     7
100
AcDbVertex
100
AcDb2dVertex
 10
70.7969311810006
 20
119.5001059304171
 30
0.0
  0
SEQEND
  5
414
330
411
100
AcDbEntity
  8
STANDARDEBENE
  0
POLYLINE
  5
415
330
1F
100
AcDbEntity
  8
STANDARDEBENE
 62
     7
100
AcDb2dPolyline
 66
     1
 10
0.0
 20
0.0
 30
0.0
  0
VERTEX
  5
416
330
415
100
AcDbEntity
  8
STANDARDEBENE
 62
     7
100
AcDbVertex
100
AcDb2dVertex
 10
44.79677840166374
 20
117.5002266819203
 30
0.0
  0
VERTEX
  5
417
330
415
100
AcDbEntity
  8
STANDARDEBENE
 62
     7
100
AcDbVertex
100
AcDb2dVertex
 10
44.90667702014271
 20
117.5002266819203
 30
0.0
  0
VERTEX
  5
418
330
415
100
AcDbEntity
  8
STANDARDEBENE
 62
     7
100
AcDbVertex
100
AcDb2dVertex
 10
45.23430581692487
 20
117.5002266819203
 30
0.0
  0
VERTEX
  5
419
330
415
100
AcDbEntity
  8
STANDARDEBENE
 62
     7
100
AcDbVertex
100
AcDb2dVertex
 10
45.77518616492485
 20
117.5002266819203
 30
0.0
  0
VERTEX
  5
41A
330
415
100
AcDbEntity
  8
STANDARDEBENE
 62
     7
100
AcDbVertex
100
AcDb2dVertex
 10
46.51967179042038
 20
117.5002266819203
 30
0.0
  0
VERTEX
  5
41B
330
415
100
AcDbEntity
  8
STANDARDEBENE
 62
     7
100
AcDbVertex
100
AcDb2dVertex
 10
48.40448477380122
 20
119.5001059304171
 30
0.0
  0
SEQEND
  5
41C
330
415
100
AcDbEntity
  8
STANDARDEBENE
  0
POLYLINE
  5
41D
330
1F
100
AcDbEntity
  8
STANDARDEBENE
 62
     7
100
AcDb2dPolyline
 66
     1
 10
0.0
 20
0.0
 30
0.0
  0
VERTEX
  5
41E
330
41D
100
AcDbEntity
  8
STANDARDEBENE
 62
     7
100
AcDbVertex
100
AcDb2dVertex
 10
46.79665765016049
 20
119.5001059304171
 30
0.0
  0
VERTEX
  5
41F
330
41D
100
AcDbEntity
  8
STANDARDEBENE
 62
     7
100
AcDbVertex
100
AcDb2dVertex
 10
46.89966607312355
 20
119.5001059304171
 30
0.0
  0
VERTEX
  5
420
330
41D
100
AcDbEntity
  8
STANDARDEBENE
 62
     7
100
AcDbVertex
100
AcDb2dVertex
 10
47.20559075403055
 20
119.5001059304171
 30
0.0
  0
VERTEX
  5
421
330
41D
100
AcDbEntity
  8
STANDARDEBENE
 62
     7
100
AcDbVertex
100
AcDb2dVertex
 10
47.71029757557194
 20
119.5001059304171
 30
0.0
  0
VERTEX
  5
422
330
41D
100
AcDbEntity
  8
STANDARDEBENE
 62
     7
100
AcDbVertex
100
AcDb2dVertex
 10
48.40448477380122
 20
119.5001059304171
 30
0.0
  0
SEQEND
  5
423
330
41D
100
AcDbEntity
  8
STANDARDEBENE
  0
POLYLINE
  5
424
330
1F
100
AcDbEntity
  8
STANDARDEBENE
 62
     7
100
AcDb2dPolyline
 66
     1
 10
0.0
 20
0.0
 30
0.0
  0
VERTEX
  5
425
330
424
100
AcDbEntity
  8
STANDARDEBENE
 62
     7
100
AcDbVertex
100
AcDb2dVertex
 10
69.18944856713567
 20
119.5001059304171
 30
0.0
  0
VERTEX
  5
426
330
424
100
AcDbEntity
  8
STANDARDEBENE
 62
     7
100
AcDbVertex
100
AcDb2dVertex
 10
69.88329125558916
 20
119.5001059304171
 30
0.0
  0
VERTEX
  5
427
330
424
100
AcDbEntity
  8
STANDARDEBENE
 62
     7
100
AcDbVertex
100
AcDb2dVertex
 10
70.38834258690633
 20
119.5001059304171
 30
0.0
  0
VERTEX
  5
428
330
424
100
AcDbEntity
  8
STANDARDEBENE
 62
     7
100
AcDbVertex
100
AcDb2dVertex
 10
70.69426726781334
 20
119.5001059304171
 30
0.0
  0
VERTEX
  5
429
330
424
100
AcDbEntity
  8
STANDARDEBENE
 62
     7
100
AcDbVertex
100
AcDb2dVertex
 10
70.7969311810006
 20
119.5001059304171
 30
0.0
  0
SEQEND
  5
42A
330
424
100
AcDbEntity
  8
STANDARDEBENE
  0
POLYLINE
  5
42B
330
1F
100
AcDbEntity
  8
STANDARDEBENE
 62
     7
100
AcDb2dPolyline
 66
     1
 10
0.0
 20
0.0
 30
0.0
  0
VERTEX
  5
42C
330
42B
100
AcDbEntity
  8
STANDARDEBENE
 62
     7
100
AcDbVertex
100
AcDb2dVertex
 10
69.18944856713567
 20
119.5001059304171
 30
0.0
  0
VERTEX
  5
42D
330
42B
100
AcDbEntity
  8
STANDARDEBENE
 62
     7
100
AcDbVertex
100
AcDb2dVertex
 10
71.07460606029231
 20
117.5002266819203
 30
0.0
  0
VERTEX
  5
42E
330
42B
100
AcDbEntity
  8
STANDARDEBENE
 62
     7
100
AcDbVertex
100
AcDb2dVertex
 10
71.81909168578782
 20
117.5002266819203
 30
0.0
  0
VERTEX
  5
42F
330
42B
100
AcDbEntity
  8
STANDARDEBENE
 62
     7
100
AcDbVertex
100
AcDb2dVertex
 10
72.35928301423623
 20
117.5002266819203
 30
0.0
  0
VERTEX
  5
430
330
42B
100
AcDbEntity
  8
STANDARDEBENE
 62
     7
100
AcDbVertex
100
AcDb2dVertex
 10
72.68725632079418
 20
117.5002266819203
 30
0.0
  0
VERTEX
  5
431
330
42B
100
AcDbEntity
  8
STANDARDEBENE
 62
     7
100
AcDbVertex
100
AcDb2dVertex
 10
72.79681042949736
 20
117.5002266819203
 30
0.0
  0
SEQEND
  5
432
330
42B
100
AcDbEntity
  8
STANDARDEBENE
  0
POLYLINE
  5
433
330
1F
100
AcDbEntity
  8
STANDARDEBENE
 62
     7
100
AcDb2dPolyline
 66
     1
 10
0.0
 20
0.0
 30
0.0
  0
VERTEX
  5
434
330
433
100
AcDbEntity
  8
STANDARDEBENE
 62
     7
100
AcDbVertex
100
AcDb2dVertex
 10
53.60072572213483
 20
83.50004014393274
 30
0.0
  0
VERTEX
  5
435
330
433
100
AcDbEntity
  8
STANDARDEBENE
 62
     7
100
AcDbVertex
100
AcDb2dVertex
 10
53.60072572213483
 20
11.49956406118822
 30
0.0
  0
SEQEND
  5
436
330
433
100
AcDbEntity
  8
STANDARDEBENE
  0
POLYLINE
  5
437
330
1F
100
AcDbEntity
  8
STANDARDEBENE
 62
     7
100
AcDb2dPolyline
 66
     1
 10
0.0
 20
0.0
 30
0.0
  0
VERTEX
  5
438
330
437
100
AcDbEntity
  8
STANDARDEBENE
 62
     7
100
AcDbVertex
100
AcDb2dVertex
 10
63.99286310902626
 20
83.50004014393274
 30
0.0
  0
VERTEX
  5
439
330
437
100
AcDbEntity
  8
STANDARDEBENE
 62
     7
100
AcDbVertex
100
AcDb2dVertex
 10
62.30855481515879
 20
83.50004014393274
 30
0.0
  0
VERTEX
  5
43A
330
437
100
AcDbEntity
  8
STANDARDEBENE
 62
     7
100
AcDbVertex
100
AcDb2dVertex
 10
60.56671338873336
 20
83.50004014393274
 30
0.0
  0
VERTEX
  5
43B
330
437
100
AcDbEntity
  8
STANDARDEBENE
 62
     7
100
AcDbVertex
100
AcDb2dVertex
 10
58.79696667046844
 20
83.50004014393274
 30
0.0
  0
VERTEX
  5
43C
330
437
100
AcDbEntity
  8
STANDARDEBENE
 62
     7
100
AcDbVertex
100
AcDb2dVertex
 10
57.02687544242773
 20
83.50004014393274
 30
0.0
  0
VERTEX
  5
43D
330
437
100
AcDbEntity
  8
STANDARDEBENE
 62
     7
100
AcDbVertex
100
AcDb2dVertex
 10
55.28537852577809
 20
83.50004014393274
 30
0.0
  0
VERTEX
  5
43E
330
437
100
AcDbEntity
  8
STANDARDEBENE
 62
     7
100
AcDbVertex
100
AcDb2dVertex
 10
53.60072572213483
 20
83.50004014393274
 30
0.0
  0
SEQEND
  5
43F
330
437
100
AcDbEntity
  8
STANDARDEBENE
  0
POLYLINE
  5
440
330
1F
100
AcDbEntity
  8
STANDARDEBENE
 62
     7
100
AcDb2dPolyline
 66
     1
 10
0.0
 20
0.0
 30
0.0
  0
VERTEX
  5
441
330
440
100
AcDbEntity
  8
STANDARDEBENE
 62
     7
100
AcDbVertex
100
AcDb2dVertex
 10
63.99286310902626
 20
11.49956406118822
 30
0.0
  0
VERTEX
  5
442
330
440
100
AcDbEntity
  8
STANDARDEBENE
 62
     7
100
AcDbVertex
100
AcDb2dVertex
 10
63.99286310902626
 20
83.50004014393274
 30
0.0
  0
SEQEND
  5
443
330
440
100
AcDbEntity
  8
STANDARDEBENE
  0
POLYLINE
  5
444
330
1F
100
AcDbEntity
  8
STANDARDEBENE
 62
     7
100
AcDb2dPolyline
 66
     1
 10
0.0
 20
0.0
 30
0.0
  0
VERTEX
  5
445
330
444
100
AcDbEntity
  8
STANDARDEBENE
 62
     7
100
AcDbVertex
100
AcDb2dVertex
 10
53.60072572213483
 20
11.49956406118822
 30
0.0
  0
VERTEX
  5
446
330
444
100
AcDbEntity
  8
STANDARDEBENE
 62
     7
100
AcDbVertex
100
AcDb2dVertex
 10
55.28537852577809
 20
11.49956406118822
 30
0.0
  0
VERTEX
  5
447
330
444
100
AcDbEntity
  8
STANDARDEBENE
 62
     7
100
AcDbVertex
100
AcDb2dVertex
 10
57.02687544242773
 20
11.49956406118822
 30
0.0
  0
VERTEX
  5
448
330
444
100
AcDbEntity
  8
STANDARDEBENE
 62
     7
100
AcDbVertex
100
AcDb2dVertex
 10
58.79696667046844
 20
11.49956406118822
 30
0.0
  0
VERTEX
  5
449
330
444
100
AcDbEntity
  8
STANDARDEBENE
 62
     7
100
AcDbVertex
100
AcDb2dVertex
 10
60.56671338873336
 20
11.49956406118822
 30
0.0
  0
VERTEX
  5
44A
330
444
100
AcDbEntity
  8
STANDARDEBENE
 62
     7
100
AcDbVertex
100
AcDb2dVertex
 10
62.30855481515879
 20
11.49956406118822
 30
0.0
  0
VERTEX
  5
44B
330
444
100
AcDbEntity
  8
STANDARDEBENE
 62
     7
100
AcDbVertex
100
AcDb2dVertex
 10
63.99286310902626
 20
11.49956406118822
 30
0.0
  0
SEQEND
  5
44C
330
444
100
AcDbEntity
  8
STANDARDEBENE
  0
POLYLINE
  5
44D
330
1F
100
AcDbEntity
  8
STANDARDEBENE
 62
     7
100
AcDb2dPolyline
 66
     1
 10
0.0
 20
0.0
 30
0.0
  0
VERTEX
  5
44E
330
44D
100
AcDbEntity
  8
STANDARDEBENE
 62
     7
100
AcDbVertex
100
AcDb2dVertex
 10
58.79696667046844
 20
0.0
 30
0.0
  0
VERTEX
  5
44F
330
44D
100
AcDbEntity
  8
STANDARDEBENE
 62
     7
100
AcDbVertex
100
AcDb2dVertex
 10
60.48437555231808
 20
0.0
 30
0.0
  0
VERTEX
  5
450
330
44D
100
AcDbEntity
  8
STANDARDEBENE
 62
     7
100
AcDbVertex
100
AcDb2dVertex
 10
62.14697973031039
 20
0.0
 30
0.0
  0
VERTEX
  5
451
330
44D
100
AcDbEntity
  8
STANDARDEBENE
 62
     7
100
AcDbVertex
100
AcDb2dVertex
 10
63.76135253969124
 20
0.0
 30
0.0
  0
VERTEX
  5
452
330
44D
100
AcDbEntity
  8
STANDARDEBENE
 62
     7
100
AcDbVertex
100
AcDb2dVertex
 10
65.30337829615489
 20
0.0
 30
0.0
  0
VERTEX
  5
453
330
44D
100
AcDbEntity
  8
STANDARDEBENE
 62
     7
100
AcDbVertex
100
AcDb2dVertex
 10
66.7503193544988
 20
0.0
 30
0.0
  0
VERTEX
  5
454
330
44D
100
AcDbEntity
  8
STANDARDEBENE
 62
     7
100
AcDbVertex
100
AcDb2dVertex
 10
68.08047159884781
 20
0.0
 30
0.0
  0
VERTEX
  5
455
330
44D
100
AcDbEntity
  8
STANDARDEBENE
 62
     7
100
AcDbVertex
100
AcDb2dVertex
 10
69.27592052086051
 20
0.0
 30
0.0
  0
VERTEX
  5
456
330
44D
100
AcDbEntity
  8
STANDARDEBENE
 62
     7
100
AcDbVertex
100
AcDb2dVertex
 10
70.31875161219551
 20
0.0
 30
0.0
  0
VERTEX
  5
457
330
44D
100
AcDbEntity
  8
STANDARDEBENE
 62
     7
100
AcDbVertex
100
AcDb2dVertex
 10
71.19346193294199
 20
0.0
 30
0.0
  0
VERTEX
  5
458
330
44D
100
AcDbEntity
  8
STANDARDEBENE
 62
     7
100
AcDbVertex
100
AcDb2dVertex
 10
71.88730462139547
 20
0.0
 30
0.0
  0
VERTEX
  5
459
330
44D
100
AcDbEntity
  8
STANDARDEBENE
 62
     7
100
AcDbVertex
100
AcDb2dVertex
 10
72.38994438428207
 20
0.0
 30
0.0
  0
VERTEX
  5
45A
330
44D
100
AcDbEntity
  8
STANDARDEBENE
 62
     7
100
AcDbVertex
100
AcDb2dVertex
 10
72.69483553586169
 20
0.0
 30
0.0
  0
VERTEX
  5
45B
330
44D
100
AcDbEntity
  8
STANDARDEBENE
 62
     7
100
AcDbVertex
100
AcDb2dVertex
 10
72.79681042949736
 20
0.0
 30
0.0
  0
SEQEND
  5
45C
330
44D
100
AcDbEntity
  8
STANDARDEBENE
  0
POLYLINE
  5
45D
330
1F
100
AcDbEntity
  8
STANDARDEBENE
 62
     7
100
AcDb2dPolyline
 66
     1
 10
0.0
 20
0.0
 30
0.0
  0
VERTEX
  5
45E
330
45D
100
AcDbEntity
  8
STANDARDEBENE
 62
     7
100
AcDbVertex
100
AcDb2dVertex
 10
44.79677840166374
 20
0.0
 30
0.0
  0
VERTEX
  5
45F
330
45D
100
AcDbEntity
  8
STANDARDEBENE
 62
     7
100
AcDbVertex
100
AcDb2dVertex
 10
44.8987532952994
 20
0.0
 30
0.0
  0
VERTEX
  5
460
330
45D
100
AcDbEntity
  8
STANDARDEBENE
 62
     7
100
AcDbVertex
100
AcDb2dVertex
 10
45.20329993710321
 20
0.0
 30
0.0
  0
VERTEX
  5
461
330
45D
100
AcDbEntity
  8
STANDARDEBENE
 62
     7
100
AcDbVertex
100
AcDb2dVertex
 10
45.70697322931721
 20
0.0
 30
0.0
  0
VERTEX
  5
462
330
45D
100
AcDbEntity
  8
STANDARDEBENE
 62
     7
100
AcDbVertex
100
AcDb2dVertex
 10
46.40081591777069
 20
0.0
 30
0.0
  0
VERTEX
  5
463
330
45D
100
AcDbEntity
  8
STANDARDEBENE
 62
     7
100
AcDbVertex
100
AcDb2dVertex
 10
47.27483721896557
 20
0.0
 30
0.0
  0
VERTEX
  5
464
330
45D
100
AcDbEntity
  8
STANDARDEBENE
 62
     7
100
AcDbVertex
100
AcDb2dVertex
 10
48.31766831030058
 20
0.0
 30
0.0
  0
VERTEX
  5
465
330
45D
100
AcDbEntity
  8
STANDARDEBENE
 62
     7
100
AcDbVertex
100
AcDb2dVertex
 10
49.51346174208908
 20
0.0
 30
0.0
  0
VERTEX
  5
466
330
45D
100
AcDbEntity
  8
STANDARDEBENE
 62
     7
100
AcDbVertex
100
AcDb2dVertex
 10
50.84430300598968
 20
0.0
 30
0.0
  0
VERTEX
  5
467
330
45D
100
AcDbEntity
  8
STANDARDEBENE
 62
     7
100
AcDbVertex
100
AcDb2dVertex
 10
52.2908995545578
 20
0.0
 30
0.0
  0
VERTEX
  5
468
330
45D
100
AcDbEntity
  8
STANDARDEBENE
 62
     7
100
AcDbVertex
100
AcDb2dVertex
 10
53.83258080124565
 20
0.0
 30
0.0
  0
VERTEX
  5
469
330
45D
100
AcDbEntity
  8
STANDARDEBENE
 62
     7
100
AcDbVertex
100
AcDb2dVertex
 10
55.44626459107491
 20
0.0
 30
0.0
  0
VERTEX
  5
46A
330
45D
100
AcDbEntity
  8
STANDARDEBENE
 62
     7
100
AcDbVertex
100
AcDb2dVertex
 10
57.10955778861881
 20
0.0
 30
0.0
  0
VERTEX
  5
46B
330
45D
100
AcDbEntity
  8
STANDARDEBENE
 62
     7
100
AcDbVertex
100
AcDb2dVertex
 10
58.79696667046844
 20
0.0
 30
0.0
  0
SEQEND
  5
46C
330
45D
100
AcDbEntity
  8
STANDARDEBENE
  0
POLYLINE
  5
46D
330
1F
100
AcDbEntity
  8
STANDARDEBENE
 62
     7
100
AcDb2dPolyline
 66
     1
 10
0.0
 20
0.0
 30
0.0
  0
VERTEX
  5
46E
330
46D
100
AcDbEntity
  8
STANDARDEBENE
 62
     7
100
AcDbVertex
100
AcDb2dVertex
 10
71.07460606029231
 20
117.5002266819203
 30
0.0
  0
VERTEX
  5
46F
330
46D
100
AcDbEntity
  8
STANDARDEBENE
 62
     7
100
AcDbVertex
100
AcDb2dVertex
 10
70.56404257256239
 20
115.1436075605866
 30
0.0
  0
VERTEX
  5
470
330
46D
100
AcDbEntity
  8
STANDARDEBENE
 62
     7
100
AcDbVertex
100
AcDb2dVertex
 10
69.99318987406814
 20
112.8939587246377
 30
0.0
  0
VERTEX
  5
471
330
46D
100
AcDbEntity
  8
STANDARDEBENE
 62
     7
100
AcDbVertex
100
AcDb2dVertex
 10
69.3668711016707
 20
110.7607541929078
 30
0.0
  0
VERTEX
  5
472
330
46D
100
AcDbEntity
  8
STANDARDEBENE
 62
     7
100
AcDbVertex
100
AcDb2dVertex
 10
68.68543076514588
 20
108.755879552662
 30
0.0
  0
VERTEX
  5
473
330
46D
100
AcDbEntity
  8
STANDARDEBENE
 62
     7
100
AcDbVertex
100
AcDb2dVertex
 10
67.9547255306822
 20
106.8900146069499
 30
0.0
  0
VERTEX
  5
474
330
46D
100
AcDbEntity
  8
STANDARDEBENE
 62
     7
100
AcDbVertex
100
AcDb2dVertex
 10
67.17716696671025
 20
105.1715998452786
 30
0.0
  0
VERTEX
  5
475
330
46D
100
AcDbEntity
  8
STANDARDEBENE
 62
     7
100
AcDbVertex
100
AcDb2dVertex
 10
66.35688919053958
 20
103.6099370315946
 30
0.0
  0
VERTEX
  5
476
330
46D
100
AcDbEntity
  8
STANDARDEBENE
 62
     7
100
AcDbVertex
100
AcDb2dVertex
 10
65.49837082925552
 20
102.2126053809653
 30
0.0
  0
VERTEX
  5
477
330
46D
100
AcDbEntity
  8
STANDARDEBENE
 62
     7
100
AcDbVertex
100
AcDb2dVertex
 10
64.60471247084025
 20
100.9863228340189
 30
0.0
  0
VERTEX
  5
478
330
46D
100
AcDbEntity
  8
STANDARDEBENE
 62
     7
100
AcDbVertex
100
AcDb2dVertex
 10
63.68280431080971
 20
99.93849635093483
 30
0.0
  0
VERTEX
  5
479
330
46D
100
AcDbEntity
  8
STANDARDEBENE
 62
     7
100
AcDbVertex
100
AcDb2dVertex
 10
62.73540242737025
 20
99.07343230391065
 30
0.0
  0
VERTEX
  5
47A
330
46D
100
AcDbEntity
  8
STANDARDEBENE
 62
     7
100
AcDbVertex
100
AcDb2dVertex
 10
61.76905250626199
 20
98.39647059447117
 30
0.0
  0
VERTEX
  5
47B
330
46D
100
AcDbEntity
  8
STANDARDEBENE
 62
     7
100
AcDbVertex
100
AcDb2dVertex
 10
60.78685513546711
 20
97.91071181059857
 30
0.0
  0
VERTEX
  5
47C
330
46D
100
AcDbEntity
  8
STANDARDEBENE
 62
     7
100
AcDbVertex
100
AcDb2dVertex
 10
59.79466698117415
 20
97.61805075605973
 30
0.0
  0
VERTEX
  5
47D
330
46D
100
AcDbEntity
  8
STANDARDEBENE
 62
     7
100
AcDbVertex
100
AcDb2dVertex
 10
58.79696667046844
 20
97.51986546995782
 30
0.0
  0
VERTEX
  5
47E
330
46D
100
AcDbEntity
  8
STANDARDEBENE
 62
     7
100
AcDbVertex
100
AcDb2dVertex
 10
57.79995537931433
 20
97.61805075605973
 30
0.0
  0
VERTEX
  5
47F
330
46D
100
AcDbEntity
  8
STANDARDEBENE
 62
     7
100
AcDbVertex
100
AcDb2dVertex
 10
56.80742271524556
 20
97.91071181059857
 30
0.0
  0
VERTEX
  5
480
330
46D
100
AcDbEntity
  8
STANDARDEBENE
 62
     7
100
AcDbVertex
100
AcDb2dVertex
 10
55.82488083467489
 20
98.39647059447117
 30
0.0
  0
VERTEX
  5
481
330
46D
100
AcDbEntity
  8
STANDARDEBENE
 62
     7
100
AcDbVertex
100
AcDb2dVertex
 10
54.85784189401505
 20
99.07343230391065
 30
0.0
  0
VERTEX
  5
482
330
46D
100
AcDbEntity
  8
STANDARDEBENE
 62
     7
100
AcDbVertex
100
AcDb2dVertex
 10
53.91112903012718
 20
99.93849635093483
 30
0.0
  0
VERTEX
  5
483
330
46D
100
AcDbEntity
  8
STANDARDEBENE
 62
     7
100
AcDbVertex
100
AcDb2dVertex
 10
52.98853185054504
 20
100.9863228340189
 30
0.0
  0
VERTEX
  5
484
330
46D
100
AcDbEntity
  8
STANDARDEBENE
 62
     7
100
AcDbVertex
100
AcDb2dVertex
 10
52.09590702145717
 20
102.2126053809653
 30
0.0
  0
VERTEX
  5
485
330
46D
100
AcDbEntity
  8
STANDARDEBENE
 62
     7
100
AcDbVertex
100
AcDb2dVertex
 10
51.23704415039732
 20
103.6099370315946
 30
0.0
  0
VERTEX
  5
486
330
46D
100
AcDbEntity
  8
STANDARDEBENE
 62
     7
100
AcDbVertex
100
AcDb2dVertex
 10
50.41711088400243
 20
105.1715998452786
 30
0.0
  0
VERTEX
  5
487
330
46D
100
AcDbEntity
  8
STANDARDEBENE
 62
     7
100
AcDbVertex
100
AcDb2dVertex
 10
49.63955232003048
 20
106.8900146069499
 30
0.0
  0
VERTEX
  5
488
330
46D
100
AcDbEntity
  8
STANDARDEBENE
 62
     7
100
AcDbVertex
100
AcDb2dVertex
 10
48.90815806601521
 20
108.755879552662
 30
0.0
  0
VERTEX
  5
489
330
46D
100
AcDbEntity
  8
STANDARDEBENE
 62
     7
100
AcDbVertex
100
AcDb2dVertex
 10
48.22740674904198
 20
110.7607541929078
 30
0.0
  0
VERTEX
  5
48A
330
46D
100
AcDbEntity
  8
STANDARDEBENE
 62
     7
100
AcDbVertex
100
AcDb2dVertex
 10
47.60039895709296
 20
112.8939587246377
 30
0.0
  0
VERTEX
  5
48B
330
46D
100
AcDbEntity
  8
STANDARDEBENE
 62
     7
100
AcDbVertex
100
AcDb2dVertex
 10
47.03023527815029
 20
115.1436075605866
 30
0.0
  0
VERTEX
  5
48C
330
46D
100
AcDbEntity
  8
STANDARDEBENE
 62
     7
100
AcDbVertex
100
AcDb2dVertex
 10
46.51967179042038
 20
117.5002266819203
 30
0.0
  0
SEQEND
  5
48D
330
46D
100
AcDbEntity
  8
STANDARDEBENE
  0
POLYLINE
  5
48E
330
1F
100
AcDbEntity
  8
STANDARDEBENE
 62
     7
100
AcDb2dPolyline
 66
     1
 10
0.0
 20
0.0
 30
0.0
  0
VERTEX
  5
48F
330
48E
100
AcDbEntity
  8
STANDARDEBENE
 62
     7
100
AcDbVertex
100
AcDb2dVertex
 10
48.40448477380122
 20
119.5001059304171
 30
0.0
  0
VERTEX
  5
490
330
48E
100
AcDbEntity
  8
STANDARDEBENE
 62
     7
100
AcDbVertex
100
AcDb2dVertex
 10
69.18944856713567
 20
119.5001059304171
 30
0.0
  0
SEQEND
  5
491
330
48E
100
AcDbEntity
  8
STANDARDEBENE
  0
POLYLINE
  5
492
330
1F
100
AcDbEntity
  8
STANDARDEBENE
 62
     7
100
AcDb2dPolyline
 66
     1
 10
0.0
 20
0.0
 30
0.0
  0
VERTEX
  5
493
330
492
100
AcDbEntity
  8
STANDARDEBENE
 62
     7
100
AcDbVertex
100
AcDb2dVertex
 10
58.79696667046844
 20
-0.5002281944560372
 30
0.0
  0
VERTEX
  5
494
330
492
100
AcDbEntity
  8
STANDARDEBENE
 62
     7
100
AcDbVertex
100
AcDb2dVertex
 10
60.55947868344164
 20
-0.5002281944560372
 30
0.0
  0
VERTEX
  5
495
330
492
100
AcDbEntity
  8
STANDARDEBENE
 62
     7
100
AcDbVertex
100
AcDb2dVertex
 10
62.29098481659319
 20
-0.5002281944560372
 30
0.0
  0
VERTEX
  5
496
330
492
100
AcDbEntity
  8
STANDARDEBENE
 62
     7
100
AcDbVertex
100
AcDb2dVertex
 10
63.96323526830779
 20
-0.5002281944560372
 30
0.0
  0
VERTEX
  5
497
330
492
100
AcDbEntity
  8
STANDARDEBENE
 62
     7
100
AcDbVertex
100
AcDb2dVertex
 10
65.54694670764277
 20
-0.5002281944560372
 30
0.0
  0
VERTEX
  5
498
330
492
100
AcDbEntity
  8
STANDARDEBENE
 62
     7
100
AcDbVertex
100
AcDb2dVertex
 10
67.01524737208605
 20
-0.5002281944560372
 30
0.0
  0
VERTEX
  5
499
330
492
100
AcDbEntity
  8
STANDARDEBENE
 62
     7
100
AcDbVertex
100
AcDb2dVertex
 10
68.34298804800449
 20
-0.5002281944560372
 30
0.0
  0
VERTEX
  5
49A
330
492
100
AcDbEntity
  8
STANDARDEBENE
 62
     7
100
AcDbVertex
100
AcDb2dVertex
 10
69.50743109019554
 20
-0.5002281944560372
 30
0.0
  0
VERTEX
  5
49B
330
492
100
AcDbEntity
  8
STANDARDEBENE
 62
     7
100
AcDbVertex
100
AcDb2dVertex
 10
70.48825042188723
 20
-0.5002281944560372
 30
0.0
  0
VERTEX
  5
49C
330
492
100
AcDbEntity
  8
STANDARDEBENE
 62
     7
100
AcDbVertex
100
AcDb2dVertex
 10
71.26959859339294
 20
-0.5002281944560372
 30
0.0
  0
VERTEX
  5
49D
330
492
100
AcDbEntity
  8
STANDARDEBENE
 62
     7
100
AcDbVertex
100
AcDb2dVertex
 10
71.83666168435343
 20
-0.5002281944560372
 30
0.0
  0
VERTEX
  5
49E
330
492
100
AcDbEntity
  8
STANDARDEBENE
 62
     7
100
AcDbVertex
100
AcDb2dVertex
 10
72.1811714601496
 20
-0.5002281944560372
 30
0.0
  0
VERTEX
  5
49F
330
492
100
AcDbEntity
  8
STANDARDEBENE
 62
     7
100
AcDbVertex
100
AcDb2dVertex
 10
72.29692674481711
 20
-0.5002281944560372
 30
0.0
  0
SEQEND
  5
4A0
330
492
100
AcDbEntity
  8
STANDARDEBENE
  0
POLYLINE
  5
4A1
330
1F
100
AcDbEntity
  8
STANDARDEBENE
 62
     7
100
AcDb2dPolyline
 66
     1
 10
0.0
 20
0.0
 30
0.0
  0
VERTEX
  5
4A2
330
4A1
100
AcDbEntity
  8
STANDARDEBENE
 62
     7
100
AcDbVertex
100
AcDb2dVertex
 10
45.29700659611977
 20
-0.5002281944560372
 30
0.0
  0
VERTEX
  5
4A3
330
4A1
100
AcDbEntity
  8
STANDARDEBENE
 62
     7
100
AcDbVertex
100
AcDb2dVertex
 10
45.41241737101149
 20
-0.5002281944560372
 30
0.0
  0
VERTEX
  5
4A4
330
4A1
100
AcDbEntity
  8
STANDARDEBENE
 62
     7
100
AcDbVertex
100
AcDb2dVertex
 10
45.75658263703186
 20
-0.5002281944560372
 30
0.0
  0
VERTEX
  5
4A5
330
4A1
100
AcDbEntity
  8
STANDARDEBENE
 62
     7
100
AcDbVertex
100
AcDb2dVertex
 10
46.32467925731974
 20
-0.5002281944560372
 30
0.0
  0
VERTEX
  5
4A6
330
4A1
100
AcDbEntity
  8
STANDARDEBENE
 62
     7
100
AcDbVertex
100
AcDb2dVertex
 10
47.10533840927386
 20
-0.5002281944560372
 30
0.0
  0
VERTEX
  5
4A7
330
4A1
100
AcDbEntity
  8
STANDARDEBENE
 62
     7
100
AcDbVertex
100
AcDb2dVertex
 10
48.08684676051715
 20
-0.5002281944560372
 30
0.0
  0
VERTEX
  5
4A8
330
4A1
100
AcDbEntity
  8
STANDARDEBENE
 62
     7
100
AcDbVertex
100
AcDb2dVertex
 10
49.2509452929324
 20
-0.5002281944560372
 30
0.0
  0
VERTEX
  5
4A9
330
4A1
100
AcDbEntity
  8
STANDARDEBENE
 62
     7
100
AcDbVertex
100
AcDb2dVertex
 10
50.57868596885083
 20
-0.5002281944560372
 30
0.0
  0
VERTEX
  5
4AA
330
4A1
100
AcDbEntity
  8
STANDARDEBENE
 62
     7
100
AcDbVertex
100
AcDb2dVertex
 10
52.0469866332941
 20
-0.5002281944560372
 30
0.0
  0
VERTEX
  5
4AB
330
4A1
100
AcDbEntity
  8
STANDARDEBENE
 62
     7
100
AcDbVertex
100
AcDb2dVertex
 10
53.63104258240489
 20
-0.5002281944560372
 30
0.0
  0
VERTEX
  5
4AC
330
4A1
100
AcDbEntity
  8
STANDARDEBENE
 62
     7
100
AcDbVertex
100
AcDb2dVertex
 10
55.30329303411949
 20
-0.5002281944560372
 30
0.0
  0
VERTEX
  5
4AD
330
4A1
100
AcDbEntity
  8
STANDARDEBENE
 62
     7
100
AcDbVertex
100
AcDb2dVertex
 10
57.03479916727104
 20
-0.5002281944560372
 30
0.0
  0
VERTEX
  5
4AE
330
4A1
100
AcDbEntity
  8
STANDARDEBENE
 62
     7
100
AcDbVertex
100
AcDb2dVertex
 10
58.79696667046844
 20
-0.5002281944560372
 30
0.0
  0
SEQEND
  5
4AF
330
4A1
100
AcDbEntity
  8
STANDARDEBENE
  0
POLYLINE
  5
4B0
330
1F
100
AcDbEntity
  8
STANDARDEBENE
 62
     7
100
AcDb2dPolyline
 66
     1
 10
0.0
 20
0.0
 30
0.0
  0
VERTEX
  5
4B1
330
4B0
100
AcDbEntity
  8
STANDARDEBENE
 62
     7
100
AcDbVertex
100
AcDb2dVertex
 10
-28.00003202783362
 20
11.49956406118822
 30
0.0
  0
VERTEX
  5
4B2
330
4B0
100
AcDbEntity
  8
STANDARDEBENE
 62
     7
100
AcDbVertex
100
AcDb2dVertex
 10
-28.00003202783362
 20
0.0
 30
0.0
  0
SEQEND
  5
4B3
330
4B0
100
AcDbEntity
  8
STANDARDEBENE
  0
POLYLINE
  5
4B4
330
1F
100
AcDbEntity
  8
STANDARDEBENE
 62
     7
100
AcDb2dPolyline
 66
     1
 10
0.0
 20
0.0
 30
0.0
  0
VERTEX
  5
4B5
330
4B4
100
AcDbEntity
  8
STANDARDEBENE
 62
     7
100
AcDbVertex
100
AcDb2dVertex
 10
-28.00003202783362
 20
97.51986546995782
 30
0.0
  0
VERTEX
  5
4B6
330
4B4
100
AcDbEntity
  8
STANDARDEBENE
 62
     7
100
AcDbVertex
100
AcDb2dVertex
 10
-28.00003202783362
 20
83.50004014393274
 30
0.0
  0
SEQEND
  5
4B7
330
4B4
100
AcDbEntity
  8
STANDARDEBENE
  0
POLYLINE
  5
4B8
330
1F
100
AcDbEntity
  8
STANDARDEBENE
 62
     7
100
AcDb2dPolyline
 66
     1
 10
0.0
 20
0.0
 30
0.0
  0
VERTEX
  5
4B9
330
4B8
100
AcDbEntity
  8
STANDARDEBENE
 62
     7
100
AcDbVertex
100
AcDb2dVertex
 10
0.0
 20
83.50004014393274
 30
0.0
  0
VERTEX
  5
4BA
330
4B8
100
AcDbEntity
  8
STANDARDEBENE
 62
     7
100
AcDbVertex
100
AcDb2dVertex
 10
0.0
 20
97.51986546995782
 30
0.0
  0
SEQEND
  5
4BB
330
4B8
100
AcDbEntity
  8
STANDARDEBENE
  0
POLYLINE
  5
4BC
330
1F
100
AcDbEntity
  8
STANDARDEBENE
 62
     7
100
AcDb2dPolyline
 66
     1
 10
0.0
 20
0.0
 30
0.0
  0
VERTEX
  5
4BD
330
4BC
100
AcDbEntity
  8
STANDARDEBENE
 62
     7
100
AcDbVertex
100
AcDb2dVertex
 10
0.0
 20
0.0
 30
0.0
  0
VERTEX
  5
4BE
330
4BC
100
AcDbEntity
  8
STANDARDEBENE
 62
     7
100
AcDbVertex
100
AcDb2dVertex
 10
0.0
 20
11.49956406118822
 30
0.0
  0
SEQEND
  5
4BF
330
4BC
100
AcDbEntity
  8
STANDARDEBENE
  0
POLYLINE
  5
4C0
330
1F
100
AcDbEntity
  8
STANDARDEBENE
 62
     7
100
AcDb2dPolyline
 66
     1
 10
0.0
 20
0.0
 30
0.0
  0
VERTEX
  5
4C1
330
4C0
100
AcDbEntity
  8
STANDARDEBENE
 62
     7
100
AcDbVertex
100
AcDb2dVertex
 10
-28.00003202783362
 20
0.0
 30
0.0
  0
VERTEX
  5
4C2
330
4C0
100
AcDbEntity
  8
STANDARDEBENE
 62
     7
100
AcDbVertex
100
AcDb2dVertex
 10
-27.50014834315338
 20
-0.5002281944560372
 30
0.0
  0
SEQEND
  5
4C3
330
4C0
100
AcDbEntity
  8
STANDARDEBENE
  0
POLYLINE
  5
4C4
330
1F
100
AcDbEntity
  8
STANDARDEBENE
 62
     7
100
AcDb2dPolyline
 66
     1
 10
0.0
 20
0.0
 30
0.0
  0
VERTEX
  5
4C5
330
4C4
100
AcDbEntity
  8
STANDARDEBENE
 62
     7
100
AcDbVertex
100
AcDb2dVertex
 10
-0.499883684680241
 20
-0.5002281944560372
 30
0.0
  0
VERTEX
  5
4C6
330
4C4
100
AcDbEntity
  8
STANDARDEBENE
 62
     7
100
AcDbVertex
100
AcDb2dVertex
 10
0.0
 20
0.0
 30
0.0
  0
SEQEND
  5
4C7
330
4C4
100
AcDbEntity
  8
STANDARDEBENE
  0
POLYLINE
  5
4C8
330
1F
100
AcDbEntity
  8
STANDARDEBENE
 62
     7
100
AcDb2dPolyline
 66
     1
 10
0.0
 20
0.0
 30
0.0
  0
VERTEX
  5
4C9
330
4C8
100
AcDbEntity
  8
STANDARDEBENE
 62
     7
100
AcDbVertex
100
AcDb2dVertex
 10
-19.99999826918289
 20
119.5001059304171
 30
0.0
  0
VERTEX
  5
4CA
330
4C8
100
AcDbEntity
  8
STANDARDEBENE
 62
     7
100
AcDbVertex
100
AcDb2dVertex
 10
-18.59181456061605
 20
119.5001059304171
 30
0.0
  0
VERTEX
  5
4CB
330
4C8
100
AcDbEntity
  8
STANDARDEBENE
 62
     7
100
AcDbVertex
100
AcDb2dVertex
 10
-17.10594389760717
 20
119.5001059304171
 30
0.0
  0
VERTEX
  5
4CC
330
4C8
100
AcDbEntity
  8
STANDARDEBENE
 62
     7
100
AcDbVertex
100
AcDb2dVertex
 10
-15.5659851997983
 20
119.5001059304171
 30
0.0
  0
VERTEX
  5
4CD
330
4C8
100
AcDbEntity
  8
STANDARDEBENE
 62
     7
100
AcDbVertex
100
AcDb2dVertex
 10
-14.00001601391681
 20
119.5001059304171
 30
0.0
  0
VERTEX
  5
4CE
330
4C8
100
AcDbEntity
  8
STANDARDEBENE
 62
     7
100
AcDbVertex
100
AcDb2dVertex
 10
-12.43370231825953
 20
119.5001059304171
 30
0.0
  0
VERTEX
  5
4CF
330
4C8
100
AcDbEntity
  8
STANDARDEBENE
 62
     7
100
AcDbVertex
100
AcDb2dVertex
 10
-10.89374362045066
 20
119.5001059304171
 30
0.0
  0
VERTEX
  5
4D0
330
4C8
100
AcDbEntity
  8
STANDARDEBENE
 62
     7
100
AcDbVertex
100
AcDb2dVertex
 10
-9.407872957441779
 20
119.5001059304171
 30
0.0
  0
VERTEX
  5
4D1
330
4C8
100
AcDbEntity
  8
STANDARDEBENE
 62
     7
100
AcDbVertex
100
AcDb2dVertex
 10
-7.999689248874938
 20
119.5001059304171
 30
0.0
  0
SEQEND
  5
4D2
330
4C8
100
AcDbEntity
  8
STANDARDEBENE
  0
POLYLINE
  5
4D3
330
1F
100
AcDbEntity
  8
STANDARDEBENE
 62
     7
100
AcDb2dPolyline
 66
     1
 10
0.0
 20
0.0
 30
0.0
  0
VERTEX
  5
4D4
330
4D3
100
AcDbEntity
  8
STANDARDEBENE
 62
     7
100
AcDbVertex
100
AcDb2dVertex
 10
-19.99999826918289
 20
119.5001059304171
 30
0.0
  0
VERTEX
  5
4D5
330
4D3
100
AcDbEntity
  8
STANDARDEBENE
 62
     7
100
AcDbVertex
100
AcDb2dVertex
 10
-20.7274306607765
 20
117.5002266819203
 30
0.0
  0
VERTEX
  5
4D6
330
4D3
100
AcDbEntity
  8
STANDARDEBENE
 62
     7
100
AcDbVertex
100
AcDb2dVertex
 10
-19.13992961390775
 20
117.5002266819203
 30
0.0
  0
VERTEX
  5
4D7
330
4D3
100
AcDbEntity
  8
STANDARDEBENE
 62
     7
100
AcDbVertex
100
AcDb2dVertex
 10
-17.4719855343906
 20
117.5002266819203
 30
0.0
  0
VERTEX
  5
4D8
330
4D3
100
AcDbEntity
  8
STANDARDEBENE
 62
     7
100
AcDbVertex
100
AcDb2dVertex
 10
-15.74978116518555
 20
117.5002266819203
 30
0.0
  0
VERTEX
  5
4D9
330
4D3
100
AcDbEntity
  8
STANDARDEBENE
 62
     7
100
AcDbVertex
100
AcDb2dVertex
 10
-14.00001601391681
 20
117.5002266819203
 30
0.0
  0
VERTEX
  5
4DA
330
4D3
100
AcDbEntity
  8
STANDARDEBENE
 62
     7
100
AcDbVertex
100
AcDb2dVertex
 10
-12.24956184309648
 20
117.5002266819203
 30
0.0
  0
VERTEX
  5
4DB
330
4D3
100
AcDbEntity
  8
STANDARDEBENE
 62
     7
100
AcDbVertex
100
AcDb2dVertex
 10
-10.52770198366723
 20
117.5002266819203
 30
0.0
  0
VERTEX
  5
4DC
330
4D3
100
AcDbEntity
  8
STANDARDEBENE
 62
     7
100
AcDbVertex
100
AcDb2dVertex
 10
-8.859068884598482
 20
117.5002266819203
 30
0.0
  0
VERTEX
  5
4DD
330
4D3
100
AcDbEntity
  8
STANDARDEBENE
 62
     7
100
AcDbVertex
100
AcDb2dVertex
 10
-7.272256857281328
 20
117.5002266819203
 30
0.0
  0
VERTEX
  5
4DE
330
4D3
100
AcDbEntity
  8
STANDARDEBENE
 62
     7
100
AcDbVertex
100
AcDb2dVertex
 10
-7.999689248874938
 20
119.5001059304171
 30
0.0
  0
SEQEND
  5
4DF
330
4D3
100
AcDbEntity
  8
STANDARDEBENE
  0
POLYLINE
  5
4E0
330
1F
100
AcDbEntity
  8
STANDARDEBENE
 62
     7
100
AcDb2dPolyline
 66
     1
 10
0.0
 20
0.0
 30
0.0
  0
VERTEX
  5
4E1
330
4E0
100
AcDbEntity
  8
STANDARDEBENE
 62
     7
100
AcDbVertex
100
AcDb2dVertex
 10
-0.9994228595846858
 20
83.50004014393274
 30
0.0
  0
VERTEX
  5
4E2
330
4E0
100
AcDbEntity
  8
STANDARDEBENE
 62
     7
100
AcDbVertex
100
AcDb2dVertex
 10
-0.9994228595846858
 20
11.49956406118822
 30
0.0
  0
SEQEND
  5
4E3
330
4E0
100
AcDbEntity
  8
STANDARDEBENE
  0
POLYLINE
  5
4E4
330
1F
100
AcDbEntity
  8
STANDARDEBENE
 62
     7
100
AcDb2dPolyline
 66
     1
 10
0.0
 20
0.0
 30
0.0
  0
VERTEX
  5
4E5
330
4E4
100
AcDbEntity
  8
STANDARDEBENE
 62
     7
100
AcDbVertex
100
AcDb2dVertex
 10
0.0
 20
83.50004014393274
 30
0.0
  0
VERTEX
  5
4E6
330
4E4
100
AcDbEntity
  8
STANDARDEBENE
 62
     7
100
AcDbVertex
100
AcDb2dVertex
 10
-0.112137932021653
 20
83.50004014393274
 30
0.0
  0
VERTEX
  5
4E7
330
4E4
100
AcDbEntity
  8
STANDARDEBENE
 62
     7
100
AcDbVertex
100
AcDb2dVertex
 10
-0.4470014340955291
 20
83.50004014393274
 30
0.0
  0
VERTEX
  5
4E8
330
4E4
100
AcDbEntity
  8
STANDARDEBENE
 62
     7
100
AcDbVertex
100
AcDb2dVertex
 10
-0.9994228595846858
 20
83.50004014393274
 30
0.0
  0
SEQEND
  5
4E9
330
4E4
100
AcDbEntity
  8
STANDARDEBENE
  0
POLYLINE
  5
4EA
330
1F
100
AcDbEntity
  8
STANDARDEBENE
 62
     7
100
AcDb2dPolyline
 66
     1
 10
0.0
 20
0.0
 30
0.0
  0
VERTEX
  5
4EB
330
4EA
100
AcDbEntity
  8
STANDARDEBENE
 62
     7
100
AcDbVertex
100
AcDb2dVertex
 10
-0.9994228595846858
 20
11.49956406118822
 30
0.0
  0
VERTEX
  5
4EC
330
4EA
100
AcDbEntity
  8
STANDARDEBENE
 62
     7
100
AcDbVertex
100
AcDb2dVertex
 10
-0.4470014340955291
 20
11.49956406118822
 30
0.0
  0
VERTEX
  5
4ED
330
4EA
100
AcDbEntity
  8
STANDARDEBENE
 62
     7
100
AcDbVertex
100
AcDb2dVertex
 10
-0.112137932021653
 20
11.49956406118822
 30
0.0
  0
VERTEX
  5
4EE
330
4EA
100
AcDbEntity
  8
STANDARDEBENE
 62
     7
100
AcDbVertex
100
AcDb2dVertex
 10
0.0
 20
11.49956406118822
 30
0.0
  0
SEQEND
  5
4EF
330
4EA
100
AcDbEntity
  8
STANDARDEBENE
  0
POLYLINE
  5
4F0
330
1F
100
AcDbEntity
  8
STANDARDEBENE
 62
     7
100
AcDb2dPolyline
 66
     1
 10
0.0
 20
0.0
 30
0.0
  0
VERTEX
  5
4F1
330
4F0
100
AcDbEntity
  8
STANDARDEBENE
 62
     7
100
AcDbVertex
100
AcDb2dVertex
 10
-26.99957563892155
 20
83.50004014393274
 30
0.0
  0
VERTEX
  5
4F2
330
4F0
100
AcDbEntity
  8
STANDARDEBENE
 62
     7
100
AcDbVertex
100
AcDb2dVertex
 10
-27.5526860839623
 20
83.50004014393274
 30
0.0
  0
VERTEX
  5
4F3
330
4F0
100
AcDbEntity
  8
STANDARDEBENE
 62
     7
100
AcDbVertex
100
AcDb2dVertex
 10
-27.88754958603617
 20
83.50004014393274
 30
0.0
  0
VERTEX
  5
4F4
330
4F0
100
AcDbEntity
  8
STANDARDEBENE
 62
     7
100
AcDbVertex
100
AcDb2dVertex
 10
-28.00003202783362
 20
83.50004014393274
 30
0.0
  0
SEQEND
  5
4F5
330
4F0
100
AcDbEntity
  8
STANDARDEBENE
  0
POLYLINE
  5
4F6
330
1F
100
AcDbEntity
  8
STANDARDEBENE
 62
     7
100
AcDb2dPolyline
 66
     1
 10
0.0
 20
0.0
 30
0.0
  0
VERTEX
  5
4F7
330
4F6
100
AcDbEntity
  8
STANDARDEBENE
 62
     7
100
AcDbVertex
100
AcDb2dVertex
 10
-26.99957563892155
 20
11.49956406118822
 30
0.0
  0
VERTEX
  5
4F8
330
4F6
100
AcDbEntity
  8
STANDARDEBENE
 62
     7
100
AcDbVertex
100
AcDb2dVertex
 10
-26.99957563892155
 20
83.50004014393274
 30
0.0
  0
SEQEND
  5
4F9
330
4F6
100
AcDbEntity
  8
STANDARDEBENE
  0
POLYLINE
  5
4FA
330
1F
100
AcDbEntity
  8
STANDARDEBENE
 62
     7
100
AcDb2dPolyline
 66
     1
 10
0.0
 20
0.0
 30
0.0
  0
VERTEX
  5
4FB
330
4FA
100
AcDbEntity
  8
STANDARDEBENE
 62
     7
100
AcDbVertex
100
AcDb2dVertex
 10
-28.00003202783362
 20
11.49956406118822
 30
0.0
  0
VERTEX
  5
4FC
330
4FA
100
AcDbEntity
  8
STANDARDEBENE
 62
     7
100
AcDbVertex
100
AcDb2dVertex
 10
-27.88754958603617
 20
11.49956406118822
 30
0.0
  0
VERTEX
  5
4FD
330
4FA
100
AcDbEntity
  8
STANDARDEBENE
 62
     7
100
AcDbVertex
100
AcDb2dVertex
 10
-27.5526860839623
 20
11.49956406118822
 30
0.0
  0
VERTEX
  5
4FE
330
4FA
100
AcDbEntity
  8
STANDARDEBENE
 62
     7
100
AcDbVertex
100
AcDb2dVertex
 10
-26.99957563892155
 20
11.49956406118822
 30
0.0
  0
SEQEND
  5
4FF
330
4FA
100
AcDbEntity
  8
STANDARDEBENE
  0
POLYLINE
  5
500
330
1F
100
AcDbEntity
  8
STANDARDEBENE
 62
     7
100
AcDb2dPolyline
 66
     1
 10
0.0
 20
0.0
 30
0.0
  0
VERTEX
  5
501
330
500
100
AcDbEntity
  8
STANDARDEBENE
 62
     7
100
AcDbVertex
100
AcDb2dVertex
 10
-28.00003202783362
 20
0.0
 30
0.0
  0
VERTEX
  5
502
330
500
100
AcDbEntity
  8
STANDARDEBENE
 62
     7
100
AcDbVertex
100
AcDb2dVertex
 10
-27.89771262442216
 20
0.0
 30
0.0
  0
VERTEX
  5
503
330
500
100
AcDbEntity
  8
STANDARDEBENE
 62
     7
100
AcDbVertex
100
AcDb2dVertex
 10
-27.59333823750625
 20
0.0
 30
0.0
  0
VERTEX
  5
504
330
500
100
AcDbEntity
  8
STANDARDEBENE
 62
     7
100
AcDbVertex
100
AcDb2dVertex
 10
-27.08983720018015
 20
0.0
 30
0.0
  0
VERTEX
  5
505
330
500
100
AcDbEntity
  8
STANDARDEBENE
 62
     7
100
AcDbVertex
100
AcDb2dVertex
 10
-26.39633902150246
 20
0.0
 30
0.0
  0
VERTEX
  5
506
330
500
100
AcDbEntity
  8
STANDARDEBENE
 62
     7
100
AcDbVertex
100
AcDb2dVertex
 10
-25.52145644586809
 20
0.0
 30
0.0
  0
VERTEX
  5
507
330
500
100
AcDbEntity
  8
STANDARDEBENE
 62
     7
100
AcDbVertex
100
AcDb2dVertex
 10
-24.47931437408468
 20
0.0
 30
0.0
  0
VERTEX
  5
508
330
500
100
AcDbEntity
  8
STANDARDEBENE
 62
     7
100
AcDbVertex
100
AcDb2dVertex
 10
-23.28369319718407
 20
0.0
 30
0.0
  0
VERTEX
  5
509
330
500
100
AcDbEntity
  8
STANDARDEBENE
 62
     7
100
AcDbVertex
100
AcDb2dVertex
 10
-21.95302418817137
 20
0.0
 30
0.0
  0
VERTEX
  5
50A
330
500
100
AcDbEntity
  8
STANDARDEBENE
 62
     7
100
AcDbVertex
100
AcDb2dVertex
 10
-20.50591087493956
 20
0.0
 30
0.0
  0
VERTEX
  5
50B
330
500
100
AcDbEntity
  8
STANDARDEBENE
 62
     7
100
AcDbVertex
100
AcDb2dVertex
 10
-18.9644018831396
 20
0.0
 30
0.0
  0
VERTEX
  5
50C
330
500
100
AcDbEntity
  8
STANDARDEBENE
 62
     7
100
AcDbVertex
100
AcDb2dVertex
 10
-17.35002907375876
 20
0.0
 30
0.0
  0
VERTEX
  5
50D
330
500
100
AcDbEntity
  8
STANDARDEBENE
 62
     7
100
AcDbVertex
100
AcDb2dVertex
 10
-15.68708038599065
 20
0.0
 30
0.0
  0
VERTEX
  5
50E
330
500
100
AcDbEntity
  8
STANDARDEBENE
 62
     7
100
AcDbVertex
100
AcDb2dVertex
 10
-14.00001601391681
 20
0.0
 30
0.0
  0
VERTEX
  5
50F
330
500
100
AcDbEntity
  8
STANDARDEBENE
 62
     7
100
AcDbVertex
100
AcDb2dVertex
 10
-12.31226262229138
 20
0.0
 30
0.0
  0
VERTEX
  5
510
330
500
100
AcDbEntity
  8
STANDARDEBENE
 62
     7
100
AcDbVertex
100
AcDb2dVertex
 10
-10.64931393452327
 20
0.0
 30
0.0
  0
VERTEX
  5
511
330
500
100
AcDbEntity
  8
STANDARDEBENE
 62
     7
100
AcDbVertex
100
AcDb2dVertex
 10
-9.034941125142426
 20
0.0
 30
0.0
  0
VERTEX
  5
512
330
500
100
AcDbEntity
  8
STANDARDEBENE
 62
     7
100
AcDbVertex
100
AcDb2dVertex
 10
-7.493432133342469
 20
0.0
 30
0.0
  0
VERTEX
  5
513
330
500
100
AcDbEntity
  8
STANDARDEBENE
 62
     7
100
AcDbVertex
100
AcDb2dVertex
 10
-6.046663329886457
 20
0.0
 30
0.0
  0
VERTEX
  5
514
330
500
100
AcDbEntity
  8
STANDARDEBENE
 62
     7
100
AcDbVertex
100
AcDb2dVertex
 10
-4.715994320873755
 20
0.0
 30
0.0
  0
VERTEX
  5
515
330
500
100
AcDbEntity
  8
STANDARDEBENE
 62
     7
100
AcDbVertex
100
AcDb2dVertex
 10
-3.520373143973151
 20
0.0
 30
0.0
  0
VERTEX
  5
516
330
500
100
AcDbEntity
  8
STANDARDEBENE
 62
     7
100
AcDbVertex
100
AcDb2dVertex
 10
-2.47823107218974
 20
0.0
 30
0.0
  0
VERTEX
  5
517
330
500
100
AcDbEntity
  8
STANDARDEBENE
 62
     7
100
AcDbVertex
100
AcDb2dVertex
 10
-1.603693006331166
 20
0.0
 30
0.0
  0
VERTEX
  5
518
330
500
100
AcDbEntity
  8
STANDARDEBENE
 62
     7
100
AcDbVertex
100
AcDb2dVertex
 10
-0.9095058081018857
 20
0.0
 30
0.0
  0
VERTEX
  5
519
330
500
100
AcDbEntity
  8
STANDARDEBENE
 62
     7
100
AcDbVertex
100
AcDb2dVertex
 10
-0.4063492805515811
 20
0.0
 30
0.0
  0
VERTEX
  5
51A
330
500
100
AcDbEntity
  8
STANDARDEBENE
 62
     7
100
AcDbVertex
100
AcDb2dVertex
 10
-0.101974893635666
 20
0.0
 30
0.0
  0
VERTEX
  5
51B
330
500
100
AcDbEntity
  8
STANDARDEBENE
 62
     7
100
AcDbVertex
100
AcDb2dVertex
 10
0.0
 20
0.0
 30
0.0
  0
SEQEND
  5
51C
330
500
100
AcDbEntity
  8
STANDARDEBENE
  0
POLYLINE
  5
51D
330
1F
100
AcDbEntity
  8
STANDARDEBENE
 62
     7
100
AcDb2dPolyline
 66
     1
 10
0.0
 20
0.0
 30
0.0
  0
VERTEX
  5
51E
330
51D
100
AcDbEntity
  8
STANDARDEBENE
 62
     7
100
AcDbVertex
100
AcDb2dVertex
 10
-20.7274306607765
 20
117.5002266819203
 30
0.0
  0
VERTEX
  5
51F
330
51D
100
AcDbEntity
  8
STANDARDEBENE
 62
     7
100
AcDbVertex
100
AcDb2dVertex
 10
-21.58543225739686
 20
115.1436075605866
 30
0.0
  0
VERTEX
  5
520
330
51D
100
AcDbEntity
  8
STANDARDEBENE
 62
     7
100
AcDbVertex
100
AcDb2dVertex
 10
-22.40467650424015
 20
112.8939587246377
 30
0.0
  0
VERTEX
  5
521
330
51D
100
AcDbEntity
  8
STANDARDEBENE
 62
     7
100
AcDbVertex
100
AcDb2dVertex
 10
-23.18068477422102
 20
110.7607541929078
 30
0.0
  0
VERTEX
  5
522
330
51D
100
AcDbEntity
  8
STANDARDEBENE
 62
     7
100
AcDbVertex
100
AcDb2dVertex
 10
-23.90983971469361
 20
108.755879552662
 30
0.0
  0
VERTEX
  5
523
330
51D
100
AcDbEntity
  8
STANDARDEBENE
 62
     7
100
AcDbVertex
100
AcDb2dVertex
 10
-24.58972975722735
 20
106.8900146069499
 30
0.0
  0
VERTEX
  5
524
330
51D
100
AcDbEntity
  8
STANDARDEBENE
 62
     7
100
AcDbVertex
100
AcDb2dVertex
 10
-25.21484274540949
 20
105.1715998452786
 30
0.0
  0
VERTEX
  5
525
330
51D
100
AcDbEntity
  8
STANDARDEBENE
 62
     7
100
AcDbVertex
100
AcDb2dVertex
 10
-25.78311162058528
 20
103.6099370315946
 30
0.0
  0
VERTEX
  5
526
330
51D
100
AcDbEntity
  8
STANDARDEBENE
 62
     7
100
AcDbVertex
100
AcDb2dVertex
 10
-26.29178030454832
 20
102.2126053809653
 30
0.0
  0
VERTEX
  5
527
330
51D
100
AcDbEntity
  8
STANDARDEBENE
 62
     7
100
AcDbVertex
100
AcDb2dVertex
 10
-26.73843722886805
 20
100.9863228340189
 30
0.0
  0
VERTEX
  5
528
330
51D
100
AcDbEntity
  8
STANDARDEBENE
 62
     7
100
AcDbVertex
100
AcDb2dVertex
 10
-27.11946504089861
 20
99.93849635093483
 30
0.0
  0
VERTEX
  5
529
330
51D
100
AcDbEntity
  8
STANDARDEBENE
 62
     7
100
AcDbVertex
100
AcDb2dVertex
 10
-27.43417472108841
 20
99.07343230391065
 30
0.0
  0
VERTEX
  5
52A
330
51D
100
AcDbEntity
  8
STANDARDEBENE
 62
     7
100
AcDbVertex
100
AcDb2dVertex
 10
-27.68118823033427
 20
98.39647059447117
 30
0.0
  0
VERTEX
  5
52B
330
51D
100
AcDbEntity
  8
STANDARDEBENE
 62
     7
100
AcDbVertex
100
AcDb2dVertex
 10
-27.8579217453177
 20
97.91071181059857
 30
0.0
  0
VERTEX
  5
52C
330
51D
100
AcDbEntity
  8
STANDARDEBENE
 62
     7
100
AcDbVertex
100
AcDb2dVertex
 10
-27.96437526603872
 20
97.61805075605973
 30
0.0
  0
VERTEX
  5
52D
330
51D
100
AcDbEntity
  8
STANDARDEBENE
 62
     7
100
AcDbVertex
100
AcDb2dVertex
 10
-28.00003202783362
 20
97.51986546995782
 30
0.0
  0
SEQEND
  5
52E
330
51D
100
AcDbEntity
  8
STANDARDEBENE
  0
POLYLINE
  5
52F
330
1F
100
AcDbEntity
  8
STANDARDEBENE
 62
     7
100
AcDb2dPolyline
 66
     1
 10
0.0
 20
0.0
 30
0.0
  0
VERTEX
  5
530
330
52F
100
AcDbEntity
  8
STANDARDEBENE
 62
     7
100
AcDbVertex
100
AcDb2dVertex
 10
0.0
 20
97.51986546995782
 30
0.0
  0
VERTEX
  5
531
330
52F
100
AcDbEntity
  8
STANDARDEBENE
 62
     7
100
AcDbVertex
100
AcDb2dVertex
 10
-0.0356567617949035
 20
97.61805075605973
 30
0.0
  0
VERTEX
  5
532
330
52F
100
AcDbEntity
  8
STANDARDEBENE
 62
     7
100
AcDbVertex
100
AcDb2dVertex
 10
-0.1417657727401235
 20
97.91071181059857
 30
0.0
  0
VERTEX
  5
533
330
52F
100
AcDbEntity
  8
STANDARDEBENE
 62
     7
100
AcDbVertex
100
AcDb2dVertex
 10
-0.3190160523872523
 20
98.39647059447117
 30
0.0
  0
VERTEX
  5
534
330
52F
100
AcDbEntity
  8
STANDARDEBENE
 62
     7
100
AcDbVertex
100
AcDb2dVertex
 10
-0.565168287193615
 20
99.07343230391065
 30
0.0
  0
VERTEX
  5
535
330
52F
100
AcDbEntity
  8
STANDARDEBENE
 62
     7
100
AcDbVertex
100
AcDb2dVertex
 10
-0.8798779673834153
 20
99.93849635093483
 30
0.0
  0
VERTEX
  5
536
330
52F
100
AcDbEntity
  8
STANDARDEBENE
 62
     7
100
AcDbVertex
100
AcDb2dVertex
 10
-1.261250289189774
 20
100.9863228340189
 30
0.0
  0
VERTEX
  5
537
330
52F
100
AcDbEntity
  8
STANDARDEBENE
 62
     7
100
AcDbVertex
100
AcDb2dVertex
 10
-1.707562703733711
 20
102.2126053809653
 30
0.0
  0
VERTEX
  5
538
330
52F
100
AcDbEntity
  8
STANDARDEBENE
 62
     7
100
AcDbVertex
100
AcDb2dVertex
 10
-2.216231387696754
 20
103.6099370315946
 30
0.0
  0
VERTEX
  5
539
330
52F
100
AcDbEntity
  8
STANDARDEBENE
 62
     7
100
AcDbVertex
100
AcDb2dVertex
 10
-2.784500262872535
 20
105.1715998452786
 30
0.0
  0
VERTEX
  5
53A
330
52F
100
AcDbEntity
  8
STANDARDEBENE
 62
     7
100
AcDbVertex
100
AcDb2dVertex
 10
-3.410302270606275
 20
106.8900146069499
 30
0.0
  0
VERTEX
  5
53B
330
52F
100
AcDbEntity
  8
STANDARDEBENE
 62
     7
100
AcDbVertex
100
AcDb2dVertex
 10
-4.089503293588423
 20
108.755879552662
 30
0.0
  0
VERTEX
  5
53C
330
52F
100
AcDbEntity
  8
STANDARDEBENE
 62
     7
100
AcDbVertex
100
AcDb2dVertex
 10
-4.81900274383681
 20
110.7607541929078
 30
0.0
  0
VERTEX
  5
53D
330
52F
100
AcDbEntity
  8
STANDARDEBENE
 62
     7
100
AcDbVertex
100
AcDb2dVertex
 10
-5.595355523593477
 20
112.8939587246377
 30
0.0
  0
VERTEX
  5
53E
330
52F
100
AcDbEntity
  8
STANDARDEBENE
 62
     7
100
AcDbVertex
100
AcDb2dVertex
 10
-6.41425526066097
 20
115.1436075605866
 30
0.0
  0
VERTEX
  5
53F
330
52F
100
AcDbEntity
  8
STANDARDEBENE
 62
     7
100
AcDbVertex
100
AcDb2dVertex
 10
-7.272256857281328
 20
117.5002266819203
 30
0.0
  0
SEQEND
  5
540
330
52F
100
AcDbEntity
  8
STANDARDEBENE
  0
POLYLINE
  5
541
330
1F
100
AcDbEntity
  8
STANDARDEBENE
 62
     7
100
AcDb2dPolyline
 66
     1
 10
0.0
 20
0.0
 30
0.0
  0
VERTEX
  5
542
330
541
100
AcDbEntity
  8
STANDARDEBENE
 62
     7
100
AcDbVertex
100
AcDb2dVertex
 10
-27.50014834315338
 20
-0.5002281944560372
 30
0.0
  0
VERTEX
  5
543
330
541
100
AcDbEntity
  8
STANDARDEBENE
 62
     7
100
AcDbVertex
100
AcDb2dVertex
 10
-27.39352256754447
 20
-0.5002281944560372
 30
0.0
  0
VERTEX
  5
544
330
541
100
AcDbEntity
  8
STANDARDEBENE
 62
     7
100
AcDbVertex
100
AcDb2dVertex
 10
-27.0753677895967
 20
-0.5002281944560372
 30
0.0
  0
VERTEX
  5
545
330
541
100
AcDbEntity
  8
STANDARDEBENE
 62
     7
100
AcDbVertex
100
AcDb2dVertex
 10
-26.55188518527443
 20
-0.5002281944560372
 30
0.0
  0
VERTEX
  5
546
330
541
100
AcDbEntity
  8
STANDARDEBENE
 62
     7
100
AcDbVertex
100
AcDb2dVertex
 10
-25.82979269520566
 20
-0.5002281944560372
 30
0.0
  0
VERTEX
  5
547
330
541
100
AcDbEntity
  8
STANDARDEBENE
 62
     7
100
AcDbVertex
100
AcDb2dVertex
 10
-24.92166492620696
 20
-0.5002281944560372
 30
0.0
  0
VERTEX
  5
548
330
541
100
AcDbEntity
  8
STANDARDEBENE
 62
     7
100
AcDbVertex
100
AcDb2dVertex
 10
-23.84076550464648
 20
-0.5002281944560372
 30
0.0
  0
VERTEX
  5
549
330
541
100
AcDbEntity
  8
STANDARDEBENE
 62
     7
100
AcDbVertex
100
AcDb2dVertex
 10
-22.60535344864142
 20
-0.5002281944560372
 30
0.0
  0
VERTEX
  5
54A
330
541
100
AcDbEntity
  8
STANDARDEBENE
 62
     7
100
AcDbVertex
100
AcDb2dVertex
 10
-21.23334326653317
 20
-0.5002281944560372
 30
0.0
  0
VERTEX
  5
54B
330
541
100
AcDbEntity
  8
STANDARDEBENE
 62
     7
100
AcDbVertex
100
AcDb2dVertex
 10
-19.74816162307589
 20
-0.5002281944560372
 30
0.0
  0
VERTEX
  5
54C
330
541
100
AcDbEntity
  8
STANDARDEBENE
 62
     7
100
AcDbVertex
100
AcDb2dVertex
 10
-18.17134037925682
 20
-0.5002281944560372
 30
0.0
  0
VERTEX
  5
54D
330
541
100
AcDbEntity
  8
STANDARDEBENE
 62
     7
100
AcDbVertex
100
AcDb2dVertex
 10
-16.52940678781228
 20
-0.5002281944560372
 30
0.0
  0
VERTEX
  5
54E
330
541
100
AcDbEntity
  8
STANDARDEBENE
 62
     7
100
AcDbVertex
100
AcDb2dVertex
 10
-14.84733780748749
 20
-0.5002281944560372
 30
0.0
  0
VERTEX
  5
54F
330
541
100
AcDbEntity
  8
STANDARDEBENE
 62
     7
100
AcDbVertex
100
AcDb2dVertex
 10
-13.15234971057034
 20
-0.5002281944560372
 30
0.0
  0
VERTEX
  5
550
330
541
100
AcDbEntity
  8
STANDARDEBENE
 62
     7
100
AcDbVertex
100
AcDb2dVertex
 10
-11.47028073024554
 20
-0.5002281944560372
 30
0.0
  0
VERTEX
  5
551
330
541
100
AcDbEntity
  8
STANDARDEBENE
 62
     7
100
AcDbVertex
100
AcDb2dVertex
 10
-9.828347138801004
 20
-0.5002281944560372
 30
0.0
  0
VERTEX
  5
552
330
541
100
AcDbEntity
  8
STANDARDEBENE
 62
     7
100
AcDbVertex
100
AcDb2dVertex
 10
-8.251525894981938
 20
-0.5002281944560372
 30
0.0
  0
VERTEX
  5
553
330
541
100
AcDbEntity
  8
STANDARDEBENE
 62
     7
100
AcDbVertex
100
AcDb2dVertex
 10
-6.766344251524655
 20
-0.5002281944560372
 30
0.0
  0
VERTEX
  5
554
330
541
100
AcDbEntity
  8
STANDARDEBENE
 62
     7
100
AcDbVertex
100
AcDb2dVertex
 10
-5.394678579192208
 20
-0.5002281944560372
 30
0.0
  0
VERTEX
  5
555
330
541
100
AcDbEntity
  8
STANDARDEBENE
 62
     7
100
AcDbVertex
100
AcDb2dVertex
 10
-4.158922013411351
 20
-0.5002281944560372
 30
0.0
  0
VERTEX
  5
556
330
541
100
AcDbEntity
  8
STANDARDEBENE
 62
     7
100
AcDbVertex
100
AcDb2dVertex
 10
-3.078367101626667
 20
-0.5002281944560372
 30
0.0
  0
VERTEX
  5
557
330
541
100
AcDbEntity
  8
STANDARDEBENE
 62
     7
100
AcDbVertex
100
AcDb2dVertex
 10
-2.169550313076373
 20
-0.5002281944560372
 30
0.0
  0
VERTEX
  5
558
330
541
100
AcDbEntity
  8
STANDARDEBENE
 62
     7
100
AcDbVertex
100
AcDb2dVertex
 10
-1.4478023327834
 20
-0.5002281944560372
 30
0.0
  0
VERTEX
  5
559
330
541
100
AcDbEntity
  8
STANDARDEBENE
 62
     7
100
AcDbVertex
100
AcDb2dVertex
 10
-0.9236307089095287
 20
-0.5002281944560372
 30
0.0
  0
VERTEX
  5
55A
330
541
100
AcDbEntity
  8
STANDARDEBENE
 62
     7
100
AcDbVertex
100
AcDb2dVertex
 10
-0.6065094602891552
 20
-0.5002281944560372
 30
0.0
  0
VERTEX
  5
55B
330
541
100
AcDbEntity
  8
STANDARDEBENE
 62
     7
100
AcDbVertex
100
AcDb2dVertex
 10
-0.499883684680241
 20
-0.5002281944560372
 30
0.0
  0
SEQEND
  5
55C
330
541
100
AcDbEntity
  8
STANDARDEBENE
  0
SPLINE
  5
55D
330
1F
100
AcDbEntity
  8
STANDARDEBENE
 62
     7
100
AcDbSpline
210
0.0
220
0.0
230
1.0
 70
     8
 71
     3
 72
     8
 73
     4
 74
     0
 42
0.0000000001
 43
0.0000000001
 40
0.0
 40
0.0
 40
0.0
 40
0.0
 40
1.0
 40
1.0
 40
1.0
 40
1.0
 10
-7.272256857281328
 20
-31.64735702418766
 30
0.0
 10
-11.59929964128121
 20
-29.27609623738263
 30
0.0
 10
-16.63172619122374
 20
-29.43078112671511
 30
0.0
 10
-20.7274306607765
 20
-31.64735702418766
 30
0.0
  0
POLYLINE
  5
55E
330
1F
100
AcDbEntity
  8
STANDARDEBENE
 62
     7
100
AcDb2dPolyline
 66
     1
 10
0.0
 20
0.0
 30
0.0
  0
VERTEX
  5
55F
330
55E
100
AcDbEntity
  8
STANDARDEBENE
 62
     7
100
AcDbVertex
100
AcDb2dVertex
 10
-20.7274306607765
 20
-31.64735702418766
 30
0.0
  0
VERTEX
  5
560
330
55E
100
AcDbEntity
  8
STANDARDEBENE
 62
     7
100
AcDbVertex
100
AcDb2dVertex
 10
-19.99999826918289
 20
-33.53320353689589
 30
0.0
  0
SEQEND
  5
561
330
55E
100
AcDbEntity
  8
STANDARDEBENE
  0
SPLINE
  5
562
330
1F
100
AcDbEntity
  8
STANDARDEBENE
 62
     7
100
AcDbSpline
210
0.0
220
0.0
230
1.0
 70
     8
 71
     3
 72
     8
 73
     4
 74
     0
 42
0.0000000001
 43
0.0000000001
 40
0.0
 40
0.0
 40
0.0
 40
0.0
 40
1.0
 40
1.0
 40
1.0
 40
1.0
 10
-7.999689248874938
 20
-33.53320353689589
 30
0.0
 10
-11.82581481886719
 20
-31.32386234471506
 30
0.0
 10
-16.36335307587853
 20
-31.46132174525773
 30
0.0
 10
-19.99999826918289
 20
-33.53320353689589
 30
0.0
  0
POLYLINE
  5
563
330
1F
100
AcDbEntity
  8
STANDARDEBENE
 62
     7
100
AcDb2dPolyline
 66
     1
 10
0.0
 20
0.0
 30
0.0
  0
VERTEX
  5
564
330
563
100
AcDbEntity
  8
STANDARDEBENE
 62
     7
100
AcDbVertex
100
AcDb2dVertex
 10
-7.999689248874938
 20
-33.53320353689589
 30
0.0
  0
VERTEX
  5
565
330
563
100
AcDbEntity
  8
STANDARDEBENE
 62
     7
100
AcDbVertex
100
AcDb2dVertex
 10
-7.272256857281328
 20
-31.64735702418766
 30
0.0
  0
SEQEND
  5
566
330
563
100
AcDbEntity
  8
STANDARDEBENE
  0
SPLINE
  5
567
330
1F
100
AcDbEntity
  8
STANDARDEBENE
 62
     7
100
AcDbSpline
210
0.0
220
0.0
230
1.0
 70
     8
 71
     3
 72
     8
 73
     4
 74
     0
 42
0.0000000001
 43
0.0000000001
 40
0.0
 40
0.0
 40
0.0
 40
0.0
 40
1.0
 40
1.0
 40
1.0
 40
1.0
 10
-19.99999826918289
 20
-54.31713380090296
 30
0.0
 10
-16.17387269919064
 20
-56.52681950285959
 30
0.0
 10
-11.6363344421793
 20
-56.38936010231691
 30
0.0
 10
-7.999689248874938
 20
-54.31713380090296
 30
0.0
  0
POLYLINE
  5
568
330
1F
100
AcDbEntity
  8
STANDARDEBENE
 62
     7
100
AcDb2dPolyline
 66
     1
 10
0.0
 20
0.0
 30
0.0
  0
VERTEX
  5
569
330
568
100
AcDbEntity
  8
STANDARDEBENE
 62
     7
100
AcDbVertex
100
AcDb2dVertex
 10
-19.99999826918289
 20
-54.31713380090296
 30
0.0
  0
VERTEX
  5
56A
330
568
100
AcDbEntity
  8
STANDARDEBENE
 62
     7
100
AcDbVertex
100
AcDb2dVertex
 10
-20.7274306607765
 20
-56.2022912940596
 30
0.0
  0
SEQEND
  5
56B
330
568
100
AcDbEntity
  8
STANDARDEBENE
  0
SPLINE
  5
56C
330
1F
100
AcDbEntity
  8
STANDARDEBENE
 62
     7
100
AcDbSpline
210
0.0
220
0.0
230
1.0
 70
     8
 71
     3
 72
     8
 73
     4
 74
     0
 42
0.0000000001
 43
0.0000000001
 40
0.0
 40
0.0
 40
0.0
 40
0.0
 40
1.0
 40
1.0
 40
1.0
 40
1.0
 10
-20.7274306607765
 20
-56.2022912940596
 30
0.0
 10
-16.39969885722503
 20
-58.57424110041622
 30
0.0
 10
-11.36761681705829
 20
-58.41955621108374
 30
0.0
 10
-7.272256857281328
 20
-56.2022912940596
 30
0.0
  0
POLYLINE
  5
56D
330
1F
100
AcDbEntity
  8
STANDARDEBENE
 62
     7
100
AcDb2dPolyline
 66
     1
 10
0.0
 20
0.0
 30
0.0
  0
VERTEX
  5
56E
330
56D
100
AcDbEntity
  8
STANDARDEBENE
 62
     7
100
AcDbVertex
100
AcDb2dVertex
 10
-7.272256857281328
 20
-56.2022912940596
 30
0.0
  0
VERTEX
  5
56F
330
56D
100
AcDbEntity
  8
STANDARDEBENE
 62
     7
100
AcDbVertex
100
AcDb2dVertex
 10
-7.999689248874938
 20
-54.31713380090296
 30
0.0
  0
SEQEND
  5
570
330
56D
100
AcDbEntity
  8
STANDARDEBENE
  0
POLYLINE
  5
571
330
1F
100
AcDbEntity
  8
STANDARDEBENE
 62
     7
100
AcDb2dPolyline
 66
     1
 10
0.0
 20
0.0
 30
0.0
  0
VERTEX
  5
572
330
571
100
AcDbEntity
  8
STANDARDEBENE
 62
     7
100
AcDbVertex
100
AcDb2dVertex
 10
-20.7274306607765
 20
-56.2022912940596
 30
0.0
  0
VERTEX
  5
573
330
571
100
AcDbEntity
  8
STANDARDEBENE
 62
     7
100
AcDbVertex
100
AcDb2dVertex
 10
-21.58543225739686
 20
-55.69172780632967
 30
0.0
  0
VERTEX
  5
574
330
571
100
AcDbEntity
  8
STANDARDEBENE
 62
     7
100
AcDbVertex
100
AcDb2dVertex
 10
-22.40467650424015
 20
-55.12190863716281
 30
0.0
  0
VERTEX
  5
575
330
571
100
AcDbEntity
  8
STANDARDEBENE
 62
     7
100
AcDbVertex
100
AcDb2dVertex
 10
-23.18068477422102
 20
-54.49455633543799
 30
0.0
  0
VERTEX
  5
576
330
571
100
AcDbEntity
  8
STANDARDEBENE
 62
     7
100
AcDbVertex
100
AcDb2dVertex
 10
-23.90983971469361
 20
-53.81380501846476
 30
0.0
  0
VERTEX
  5
577
330
571
100
AcDbEntity
  8
STANDARDEBENE
 62
     7
100
AcDbVertex
100
AcDb2dVertex
 10
-24.58972975722735
 20
-53.0820662546737
 30
0.0
  0
VERTEX
  5
578
330
571
100
AcDbEntity
  8
STANDARDEBENE
 62
     7
100
AcDbVertex
100
AcDb2dVertex
 10
-25.21484274540949
 20
-52.30450769070174
 30
0.0
  0
VERTEX
  5
579
330
571
100
AcDbEntity
  8
STANDARDEBENE
 62
     7
100
AcDbVertex
100
AcDb2dVertex
 10
-25.78311162058528
 20
-51.48457442430686
 30
0.0
  0
VERTEX
  5
57A
330
571
100
AcDbEntity
  8
STANDARDEBENE
 62
     7
100
AcDbVertex
100
AcDb2dVertex
 10
-26.29178030454832
 20
-50.62605606302281
 30
0.0
  0
VERTEX
  5
57B
330
571
100
AcDbEntity
  8
STANDARDEBENE
 62
     7
100
AcDbVertex
100
AcDb2dVertex
 10
-26.73843722886805
 20
-49.73274221438334
 30
0.0
  0
VERTEX
  5
57C
330
571
100
AcDbEntity
  8
STANDARDEBENE
 62
     7
100
AcDbVertex
100
AcDb2dVertex
 10
-27.11946504089861
 20
-48.8108340543528
 30
0.0
  0
VERTEX
  5
57D
330
571
100
AcDbEntity
  8
STANDARDEBENE
 62
     7
100
AcDbVertex
100
AcDb2dVertex
 10
-27.43417472108841
 20
-47.86377668068913
 30
0.0
  0
VERTEX
  5
57E
330
571
100
AcDbEntity
  8
STANDARDEBENE
 62
     7
100
AcDbVertex
100
AcDb2dVertex
 10
-27.68118823033427
 20
-46.89673774002928
 30
0.0
  0
VERTEX
  5
57F
330
571
100
AcDbEntity
  8
STANDARDEBENE
 62
     7
100
AcDbVertex
100
AcDb2dVertex
 10
-27.8579217453177
 20
-45.9148848790102
 30
0.0
  0
VERTEX
  5
580
330
571
100
AcDbEntity
  8
STANDARDEBENE
 62
     7
100
AcDbVertex
100
AcDb2dVertex
 10
-27.96437526603872
 20
-44.92235221494143
 30
0.0
  0
VERTEX
  5
581
330
571
100
AcDbEntity
  8
STANDARDEBENE
 62
     7
100
AcDbVertex
100
AcDb2dVertex
 10
-28.00003202783362
 20
-43.92465190423573
 30
0.0
  0
VERTEX
  5
582
330
571
100
AcDbEntity
  8
STANDARDEBENE
 62
     7
100
AcDbVertex
100
AcDb2dVertex
 10
-27.96437526603872
 20
-42.92764061308162
 30
0.0
  0
VERTEX
  5
583
330
571
100
AcDbEntity
  8
STANDARDEBENE
 62
     7
100
AcDbVertex
100
AcDb2dVertex
 10
-27.8579217453177
 20
-41.93545245878865
 30
0.0
  0
VERTEX
  5
584
330
571
100
AcDbEntity
  8
STANDARDEBENE
 62
     7
100
AcDbVertex
100
AcDb2dVertex
 10
-27.68118823033427
 20
-40.95291057821798
 30
0.0
  0
VERTEX
  5
585
330
571
100
AcDbEntity
  8
STANDARDEBENE
 62
     7
100
AcDbVertex
100
AcDb2dVertex
 10
-27.43417472108841
 20
-39.98656065710973
 30
0.0
  0
VERTEX
  5
586
330
571
100
AcDbEntity
  8
STANDARDEBENE
 62
     7
100
AcDbVertex
100
AcDb2dVertex
 10
-27.11946504089861
 20
-39.03915877367026
 30
0.0
  0
VERTEX
  5
587
330
571
100
AcDbEntity
  8
STANDARDEBENE
 62
     7
100
AcDbVertex
100
AcDb2dVertex
 10
-26.73843722886805
 20
-38.11690610386392
 30
0.0
  0
VERTEX
  5
588
330
571
100
AcDbEntity
  8
STANDARDEBENE
 62
     7
100
AcDbVertex
100
AcDb2dVertex
 10
-26.29178030454832
 20
-37.22462578455184
 30
0.0
  0
VERTEX
  5
589
330
571
100
AcDbEntity
  8
STANDARDEBENE
 62
     7
100
AcDbVertex
100
AcDb2dVertex
 10
-25.78311162058528
 20
-36.3654184037162
 30
0.0
  0
VERTEX
  5
58A
330
571
100
AcDbEntity
  8
STANDARDEBENE
 62
     7
100
AcDbVertex
100
AcDb2dVertex
 10
-25.21484274540949
 20
-35.54582964709711
 30
0.0
  0
VERTEX
  5
58B
330
571
100
AcDbEntity
  8
STANDARDEBENE
 62
     7
100
AcDbVertex
100
AcDb2dVertex
 10
-24.58972975722735
 20
-34.76792657334936
 30
0.0
  0
VERTEX
  5
58C
330
571
100
AcDbEntity
  8
STANDARDEBENE
 62
     7
100
AcDbVertex
100
AcDb2dVertex
 10
-23.90983971469361
 20
-34.03687682910989
 30
0.0
  0
VERTEX
  5
58D
330
571
100
AcDbEntity
  8
STANDARDEBENE
 62
     7
100
AcDbVertex
100
AcDb2dVertex
 10
-23.18068477422102
 20
-33.35578100236086
 30
0.0
  0
VERTEX
  5
58E
330
571
100
AcDbEntity
  8
STANDARDEBENE
 62
     7
100
AcDbVertex
100
AcDb2dVertex
 10
-22.40467650424015
 20
-32.72808419086024
 30
0.0
  0
VERTEX
  5
58F
330
571
100
AcDbEntity
  8
STANDARDEBENE
 62
     7
100
AcDbVertex
100
AcDb2dVertex
 10
-21.58543225739686
 20
-32.15792051191759
 30
0.0
  0
VERTEX
  5
590
330
571
100
AcDbEntity
  8
STANDARDEBENE
 62
     7
100
AcDbVertex
100
AcDb2dVertex
 10
-20.7274306607765
 20
-31.64735702418766
 30
0.0
  0
SEQEND
  5
591
330
571
100
AcDbEntity
  8
STANDARDEBENE
  0
POLYLINE
  5
592
330
1F
100
AcDbEntity
  8
STANDARDEBENE
 62
     7
100
AcDb2dPolyline
 66
     1
 10
0.0
 20
0.0
 30
0.0
  0
VERTEX
  5
593
330
592
100
AcDbEntity
  8
STANDARDEBENE
 62
     7
100
AcDbVertex
100
AcDb2dVertex
 10
-7.272256857281328
 20
-31.64735702418766
 30
0.0
  0
VERTEX
  5
594
330
592
100
AcDbEntity
  8
STANDARDEBENE
 62
     7
100
AcDbVertex
100
AcDb2dVertex
 10
-6.41425526066097
 20
-32.15792051191759
 30
0.0
  0
VERTEX
  5
595
330
592
100
AcDbEntity
  8
STANDARDEBENE
 62
     7
100
AcDbVertex
100
AcDb2dVertex
 10
-5.595355523593477
 20
-32.72808419086024
 30
0.0
  0
VERTEX
  5
596
330
592
100
AcDbEntity
  8
STANDARDEBENE
 62
     7
100
AcDbVertex
100
AcDb2dVertex
 10
-4.81900274383681
 20
-33.35578100236086
 30
0.0
  0
VERTEX
  5
597
330
592
100
AcDbEntity
  8
STANDARDEBENE
 62
     7
100
AcDbVertex
100
AcDb2dVertex
 10
-4.089503293588423
 20
-34.03687682910989
 30
0.0
  0
VERTEX
  5
598
330
592
100
AcDbEntity
  8
STANDARDEBENE
 62
     7
100
AcDbVertex
100
AcDb2dVertex
 10
-3.410302270606275
 20
-34.76792657334936
 30
0.0
  0
VERTEX
  5
599
330
592
100
AcDbEntity
  8
STANDARDEBENE
 62
     7
100
AcDbVertex
100
AcDb2dVertex
 10
-2.784500262872535
 20
-35.54582964709711
 30
0.0
  0
VERTEX
  5
59A
330
592
100
AcDbEntity
  8
STANDARDEBENE
 62
     7
100
AcDbVertex
100
AcDb2dVertex
 10
-2.216231387696754
 20
-36.3654184037162
 30
0.0
  0
VERTEX
  5
59B
330
592
100
AcDbEntity
  8
STANDARDEBENE
 62
     7
100
AcDbVertex
100
AcDb2dVertex
 10
-1.707562703733711
 20
-37.22462578455184
 30
0.0
  0
VERTEX
  5
59C
330
592
100
AcDbEntity
  8
STANDARDEBENE
 62
     7
100
AcDbVertex
100
AcDb2dVertex
 10
-1.261250289189774
 20
-38.11690610386392
 30
0.0
  0
VERTEX
  5
59D
330
592
100
AcDbEntity
  8
STANDARDEBENE
 62
     7
100
AcDbVertex
100
AcDb2dVertex
 10
-0.8798779673834153
 20
-39.03915877367026
 30
0.0
  0
VERTEX
  5
59E
330
592
100
AcDbEntity
  8
STANDARDEBENE
 62
     7
100
AcDbVertex
100
AcDb2dVertex
 10
-0.565168287193615
 20
-39.98656065710973
 30
0.0
  0
VERTEX
  5
59F
330
592
100
AcDbEntity
  8
STANDARDEBENE
 62
     7
100
AcDbVertex
100
AcDb2dVertex
 10
-0.3190160523872523
 20
-40.95291057821798
 30
0.0
  0
VERTEX
  5
5A0
330
592
100
AcDbEntity
  8
STANDARDEBENE
 62
     7
100
AcDbVertex
100
AcDb2dVertex
 10
-0.1417657727401235
 20
-41.93545245878865
 30
0.0
  0
VERTEX
  5
5A1
330
592
100
AcDbEntity
  8
STANDARDEBENE
 62
     7
100
AcDbVertex
100
AcDb2dVertex
 10
-0.0356567617949035
 20
-42.92764061308162
 30
0.0
  0
VERTEX
  5
5A2
330
592
100
AcDbEntity
  8
STANDARDEBENE
 62
     7
100
AcDbVertex
100
AcDb2dVertex
 10
0.0
 20
-43.92465190423573
 30
0.0
  0
VERTEX
  5
5A3
330
592
100
AcDbEntity
  8
STANDARDEBENE
 62
     7
100
AcDbVertex
100
AcDb2dVertex
 10
-0.0356567617949035
 20
-44.92235221494143
 30
0.0
  0
VERTEX
  5
5A4
330
592
100
AcDbEntity
  8
STANDARDEBENE
 62
     7
100
AcDbVertex
100
AcDb2dVertex
 10
-0.1417657727401235
 20
-45.9148848790102
 30
0.0
  0
VERTEX
  5
5A5
330
592
100
AcDbEntity
  8
STANDARDEBENE
 62
     7
100
AcDbVertex
100
AcDb2dVertex
 10
-0.3190160523872523
 20
-46.89673774002928
 30
0.0
  0
VERTEX
  5
5A6
330
592
100
AcDbEntity
  8
STANDARDEBENE
 62
     7
100
AcDbVertex
100
AcDb2dVertex
 10
-0.565168287193615
 20
-47.86377668068913
 30
0.0
  0
VERTEX
  5
5A7
330
592
100
AcDbEntity
  8
STANDARDEBENE
 62
     7
100
AcDbVertex
100
AcDb2dVertex
 10
-0.8798779673834153
 20
-48.8108340543528
 30
0.0
  0
VERTEX
  5
5A8
330
592
100
AcDbEntity
  8
STANDARDEBENE
 62
     7
100
AcDbVertex
100
AcDb2dVertex
 10
-1.261250289189774
 20
-49.73274221438334
 30
0.0
  0
VERTEX
  5
5A9
330
592
100
AcDbEntity
  8
STANDARDEBENE
 62
     7
100
AcDbVertex
100
AcDb2dVertex
 10
-1.707562703733711
 20
-50.62605606302281
 30
0.0
  0
VERTEX
  5
5AA
330
592
100
AcDbEntity
  8
STANDARDEBENE
 62
     7
100
AcDbVertex
100
AcDb2dVertex
 10
-2.216231387696754
 20
-51.48457442430686
 30
0.0
  0
VERTEX
  5
5AB
330
592
100
AcDbEntity
  8
STANDARDEBENE
 62
     7
100
AcDbVertex
100
AcDb2dVertex
 10
-2.784500262872535
 20
-52.30450769070174
 30
0.0
  0
VERTEX
  5
5AC
330
592
100
AcDbEntity
  8
STANDARDEBENE
 62
     7
100
AcDbVertex
100
AcDb2dVertex
 10
-3.410302270606275
 20
-53.0820662546737
 30
0.0
  0
VERTEX
  5
5AD
330
592
100
AcDbEntity
  8
STANDARDEBENE
 62
     7
100
AcDbVertex
100
AcDb2dVertex
 10
-4.089503293588423
 20
-53.81380501846476
 30
0.0
  0
VERTEX
  5
5AE
330
592
100
AcDbEntity
  8
STANDARDEBENE
 62
     7
100
AcDbVertex
100
AcDb2dVertex
 10
-4.81900274383681
 20
-54.49455633543799
 30
0.0
  0
VERTEX
  5
5AF
330
592
100
AcDbEntity
  8
STANDARDEBENE
 62
     7
100
AcDbVertex
100
AcDb2dVertex
 10
-5.595355523593477
 20
-55.12190863716281
 30
0.0
  0
VERTEX
  5
5B0
330
592
100
AcDbEntity
  8
STANDARDEBENE
 62
     7
100
AcDbVertex
100
AcDb2dVertex
 10
-6.41425526066097
 20
-55.69172780632967
 30
0.0
  0
VERTEX
  5
5B1
330
592
100
AcDbEntity
  8
STANDARDEBENE
 62
     7
100
AcDbVertex
100
AcDb2dVertex
 10
-7.272256857281328
 20
-56.2022912940596
 30
0.0
  0
SEQEND
  5
5B2
330
592
100
AcDbEntity
  8
STANDARDEBENE
  0
SPLINE
  5
5B3
330
1F
100
AcDbEntity
  8
STANDARDEBENE
 62
     7
100
AcDbSpline
210
0.0
220
0.0
230
1.0
 70
    11
 71
     3
 72
    17
 73
    13
 74
     0
 42
0.0000000001
 43
0.0000000001
 40
0.0
 40
0.0
 40
0.0
 40
0.0
 40
1.0
 40
1.0
 40
1.0
 40
2.0
 40
2.0
 40
2.0
 40
3.0
 40
3.0
 40
3.0
 40
4.0
 40
4.0
 40
4.0
 40
4.0
 10
-8.999801128011217
 20
-43.92465190423573
 30
0.0
 10
-8.999801128011217
 20
-41.16375056100524
 30
0.0
 10
-11.23808114135893
 20
-38.92512603788173
 30
0.0
 10
-14.00001601391681
 20
-38.92512603788173
 30
0.0
 10
-16.76091735714731
 20
-38.92512603788173
 30
0.0
 10
-18.99988639004661
 20
-41.16375056100524
 30
0.0
 10
-18.99988639004661
 20
-43.92465190423573
 30
0.0
 10
-18.99988639004661
 20
-46.68658677679362
 30
0.0
 10
-16.76091735714731
 20
-48.92486679014133
 30
0.0
 10
-14.00001601391681
 20
-48.92486679014133
 30
0.0
 10
-11.23808114135893
 20
-48.92486679014133
 30
0.0
 10
-8.999801128011217
 20
-46.68658677679362
 30
0.0
 10
-8.999801128011217
 20
-43.92465190423573
 30
0.0
  0
POLYLINE
  5
5B4
330
1F
100
AcDbEntity
  8
STANDARDEBENE
 62
     7
100
AcDb2dPolyline
 66
     1
 10
0.0
 20
0.0
 30
0.0
  0
VERTEX
  5
5B5
330
5B4
100
AcDbEntity
  8
STANDARDEBENE
 62
     7
100
AcDbVertex
100
AcDb2dVertex
 10
-19.99999826918289
 20
-33.53320353689589
 30
0.0
  0
VERTEX
  5
5B6
330
5B4
100
AcDbEntity
  8
STANDARDEBENE
 62
     7
100
AcDbVertex
100
AcDb2dVertex
 10
-19.99999826918289
 20
-54.31713380090296
 30
0.0
  0
SEQEND
  5
5B7
330
5B4
100
AcDbEntity
  8
STANDARDEBENE
  0
POLYLINE
  5
5B8
330
1F
100
AcDbEntity
  8
STANDARDEBENE
 62
     7
100
AcDb2dPolyline
 66
     1
 10
0.0
 20
0.0
 30
0.0
  0
VERTEX
  5
5B9
330
5B8
100
AcDbEntity
  8
STANDARDEBENE
 62
     7
100
AcDbVertex
100
AcDb2dVertex
 10
-7.999689248874938
 20
-54.31713380090296
 30
0.0
  0
VERTEX
  5
5BA
330
5B8
100
AcDbEntity
  8
STANDARDEBENE
 62
     7
100
AcDbVertex
100
AcDb2dVertex
 10
-7.999689248874938
 20
-33.53320353689589
 30
0.0
  0
SEQEND
  5
5BB
330
5B8
100
AcDbEntity
  8
STANDARDEBENE
  0
POLYLINE
  5
5BC
330
1F
100
AcDbEntity
  8
STANDARDEBENE
  6
AI-LINETYPE-4
 62
     7
100
AcDb2dPolyline
 66
     1
 10
0.0
 20
0.0
 30
0.0
  0
VERTEX
  5
5BD
330
5BC
100
AcDbEntity
  8
STANDARDEBENE
  6
AI-LINETYPE-4
 62
     7
100
AcDbVertex
100
AcDb2dVertex
 10
-14.00001601391681
 20
121.4934394931737
 30
0.0
  0
VERTEX
  5
5BE
330
5BC
100
AcDbEntity
  8
STANDARDEBENE
  6
AI-LINETYPE-4
 62
     7
100
AcDbVertex
100
AcDb2dVertex
 10
-14.00001601391681
 20
-2.471340876673817
 30
0.0
  0
SEQEND
  5
5BF
330
5BC
100
AcDbEntity
  8
STANDARDEBENE
  6
AI-LINETYPE-4
  0
POLYLINE
  5
5C2
330
1F
100
AcDbEntity
  8
BEMA_UNG
 62
     7
100
AcDb2dPolyline
 66
     1
 10
0.0
 20
0.0
 30
0.0
  0
VERTEX
  5
5C3
330
5C2
100
AcDbEntity
  8
BEMA_UNG
 62
     7
100
AcDbVertex
100
AcDb2dVertex
 10
72.79681042949736
 20
0.0
 30
0.0
  0
VERTEX
  5
5C4
330
5C2
100
AcDbEntity
  8
BEMA_UNG
 62
     7
100
AcDbVertex
100
AcDb2dVertex
 10
72.79681042949736
 20
-11.98825117815508
 30
0.0
  0
SEQEND
  5
5C5
330
5C2
100
AcDbEntity
  8
BEMA_UNG
  0
POLYLINE
  5
5C6
330
1F
100
AcDbEntity
  8
BEMA_UNG
 62
     7
100
AcDb2dPolyline
 66
     1
 10
0.0
 20
0.0
 30
0.0
  0
VERTEX
  5
5C7
330
5C6
100
AcDbEntity
  8
BEMA_UNG
 62
     7
100
AcDbVertex
100
AcDb2dVertex
 10
44.79677840166374
 20
0.0
 30
0.0
  0
VERTEX
  5
5C8
330
5C6
100
AcDbEntity
  8
BEMA_UNG
 62
     7
100
AcDbVertex
100
AcDb2dVertex
 10
44.79677840166374
 20
-11.98825117815508
 30
0.0
  0
SEQEND
  5
5C9
330
5C6
100
AcDbEntity
  8
BEMA_UNG
  0
POLYLINE
  5
5CA
330
1F
100
AcDbEntity
  8
BEMA_UNG
 62
     7
100
AcDb2dPolyline
 66
     1
 10
0.0
 20
0.0
 30
0.0
  0
VERTEX
  5
5CB
330
5CA
100
AcDbEntity
  8
BEMA_UNG
 62
     7
100
AcDbVertex
100
AcDb2dVertex
 10
72.79681042949736
 20
-9.98871643943412
 30
0.0
  0
VERTEX
  5
5CC
330
5CA
100
AcDbEntity
  8
BEMA_UNG
 62
     7
100
AcDbVertex
100
AcDb2dVertex
 10
44.79677840166374
 20
-9.98871643943412
 30
0.0
  0
SEQEND
  5
5CD
330
5CA
100
AcDbEntity
  8
BEMA_UNG
  0
POLYLINE
  5
5CE
330
1F
100
AcDbEntity
  8
BEMA_UNG
 62
     7
100
AcDb2dPolyline
 66
     1
 10
0.0
 20
0.0
 30
0.0
  0
VERTEX
  5
5CF
330
5CE
100
AcDbEntity
  8
BEMA_UNG
 62
     7
100
AcDbVertex
100
AcDb2dVertex
 10
72.79681042949736
 20
-9.98871643943412
 30
0.0
  0
VERTEX
  5
5D0
330
5CE
100
AcDbEntity
  8
BEMA_UNG
 62
     7
100
AcDbVertex
100
AcDb2dVertex
 10
69.29728012695988
 20
-9.528106869194643
 30
0.0
  0
VERTEX
  5
5D1
330
5CE
100
AcDbEntity
  8
BEMA_UNG
 62
     7
100
AcDbVertex
100
AcDb2dVertex
 10
69.29728012695988
 20
-10.4493260096736
 30
0.0
  0
VERTEX
  5
5D2
330
5CE
100
AcDbEntity
  8
BEMA_UNG
 62
     7
100
AcDbVertex
100
AcDb2dVertex
 10
72.79681042949736
 20
-9.98871643943412
 30
0.0
  0
SEQEND
  5
5D3
330
5CE
100
AcDbEntity
  8
BEMA_UNG
  0
POLYLINE
  5
5D4
330
1F
100
AcDbEntity
  8
BEMA_UNG
 62
     7
100
AcDb2dPolyline
 66
     1
 10
0.0
 20
0.0
 30
0.0
  0
VERTEX
  5
5D5
330
5D4
100
AcDbEntity
  8
BEMA_UNG
 62
     7
100
AcDbVertex
100
AcDb2dVertex
 10
69.29728012695988
 20
-9.531551966952604
 30
0.0
  0
VERTEX
  5
5D6
330
5D4
100
AcDbEntity
  8
BEMA_UNG
 62
     7
100
AcDbVertex
100
AcDb2dVertex
 10
69.32449639924776
 20
-9.531551966952604
 30
0.0
  0
SEQEND
  5
5D7
330
5D4
100
AcDbEntity
  8
BEMA_UNG
  0
POLYLINE
  5
5D8
330
1F
100
AcDbEntity
  8
BEMA_UNG
 62
     7
100
AcDb2dPolyline
 66
     1
 10
0.0
 20
0.0
 30
0.0
  0
VERTEX
  5
5D9
330
5D8
100
AcDbEntity
  8
BEMA_UNG
 62
     7
100
AcDbVertex
100
AcDb2dVertex
 10
69.29728012695988
 20
-9.531551966952604
 30
0.0
  0
VERTEX
  5
5DA
330
5D8
100
AcDbEntity
  8
BEMA_UNG
 62
     7
100
AcDbVertex
100
AcDb2dVertex
 10
69.32449639924776
 20
-9.531551966952604
 30
0.0
  0
SEQEND
  5
5DB
330
5D8
100
AcDbEntity
  8
BEMA_UNG
  0
POLYLINE
  5
5DC
330
1F
100
AcDbEntity
  8
BEMA_UNG
 62
     7
100
AcDb2dPolyline
 66
     1
 10
0.0
 20
0.0
 30
0.0
  0
VERTEX
  5
5DD
330
5DC
100
AcDbEntity
  8
BEMA_UNG
 62
     7
100
AcDbVertex
100
AcDb2dVertex
 10
69.29728012695988
 20
-9.582539413770437
 30
0.0
  0
VERTEX
  5
5DE
330
5DC
100
AcDbEntity
  8
BEMA_UNG
 62
     7
100
AcDbVertex
100
AcDb2dVertex
 10
69.71000283836368
 20
-9.582539413770437
 30
0.0
  0
SEQEND
  5
5DF
330
5DC
100
AcDbEntity
  8
BEMA_UNG
  0
POLYLINE
  5
5E0
330
1F
100
AcDbEntity
  8
BEMA_UNG
 62
     7
100
AcDb2dPolyline
 66
     1
 10
0.0
 20
0.0
 30
0.0
  0
VERTEX
  5
5E1
330
5E0
100
AcDbEntity
  8
BEMA_UNG
 62
     7
100
AcDbVertex
100
AcDb2dVertex
 10
69.29728012695988
 20
-9.633182350812474
 30
0.0
  0
VERTEX
  5
5E2
330
5E0
100
AcDbEntity
  8
BEMA_UNG
 62
     7
100
AcDbVertex
100
AcDb2dVertex
 10
70.0961982970312
 20
-9.633182350812474
 30
0.0
  0
SEQEND
  5
5E3
330
5E0
100
AcDbEntity
  8
BEMA_UNG
  0
POLYLINE
  5
5E4
330
1F
100
AcDbEntity
  8
BEMA_UNG
 62
     7
100
AcDb2dPolyline
 66
     1
 10
0.0
 20
0.0
 30
0.0
  0
VERTEX
  5
5E5
330
5E4
100
AcDbEntity
  8
BEMA_UNG
 62
     7
100
AcDbVertex
100
AcDb2dVertex
 10
69.29728012695988
 20
-9.684169797630306
 30
0.0
  0
VERTEX
  5
5E6
330
5E4
100
AcDbEntity
  8
BEMA_UNG
 62
     7
100
AcDbVertex
100
AcDb2dVertex
 10
70.48136022637131
 20
-9.684169797630306
 30
0.0
  0
SEQEND
  5
5E7
330
5E4
100
AcDbEntity
  8
BEMA_UNG
  0
POLYLINE
  5
5E8
330
1F
100
AcDbEntity
  8
BEMA_UNG
 62
     7
100
AcDb2dPolyline
 66
     1
 10
0.0
 20
0.0
 30
0.0
  0
VERTEX
  5
5E9
330
5E8
100
AcDbEntity
  8
BEMA_UNG
 62
     7
100
AcDbVertex
100
AcDb2dVertex
 10
69.29728012695988
 20
-9.734812734672342
 30
0.0
  0
VERTEX
  5
5EA
330
5E8
100
AcDbEntity
  8
BEMA_UNG
 62
     7
100
AcDbVertex
100
AcDb2dVertex
 10
70.86790019481461
 20
-9.734812734672342
 30
0.0
  0
SEQEND
  5
5EB
330
5E8
100
AcDbEntity
  8
BEMA_UNG
  0
POLYLINE
  5
5EC
330
1F
100
AcDbEntity
  8
BEMA_UNG
 62
     7
100
AcDb2dPolyline
 66
     1
 10
0.0
 20
0.0
 30
0.0
  0
VERTEX
  5
5ED
330
5EC
100
AcDbEntity
  8
BEMA_UNG
 62
     7
100
AcDbVertex
100
AcDb2dVertex
 10
69.29728012695988
 20
-9.78545567171438
 30
0.0
  0
VERTEX
  5
5EE
330
5EC
100
AcDbEntity
  8
BEMA_UNG
 62
     7
100
AcDbVertex
100
AcDb2dVertex
 10
71.25340663393052
 20
-9.78545567171438
 30
0.0
  0
SEQEND
  5
5EF
330
5EC
100
AcDbEntity
  8
BEMA_UNG
  0
POLYLINE
  5
5F0
330
1F
100
AcDbEntity
  8
BEMA_UNG
 62
     7
100
AcDb2dPolyline
 66
     1
 10
0.0
 20
0.0
 30
0.0
  0
VERTEX
  5
5F1
330
5F0
100
AcDbEntity
  8
BEMA_UNG
 62
     7
100
AcDbVertex
100
AcDb2dVertex
 10
69.29728012695988
 20
-9.836098608756418
 30
0.0
  0
VERTEX
  5
5F2
330
5F0
100
AcDbEntity
  8
BEMA_UNG
 62
     7
100
AcDbVertex
100
AcDb2dVertex
 10
71.63960209259803
 20
-9.836098608756418
 30
0.0
  0
SEQEND
  5
5F3
330
5F0
100
AcDbEntity
  8
BEMA_UNG
  0
POLYLINE
  5
5F4
330
1F
100
AcDbEntity
  8
BEMA_UNG
 62
     7
100
AcDb2dPolyline
 66
     1
 10
0.0
 20
0.0
 30
0.0
  0
VERTEX
  5
5F5
330
5F4
100
AcDbEntity
  8
BEMA_UNG
 62
     7
100
AcDbVertex
100
AcDb2dVertex
 10
69.29728012695988
 20
-9.88708605557425
 30
0.0
  0
VERTEX
  5
5F6
330
5F4
100
AcDbEntity
  8
BEMA_UNG
 62
     7
100
AcDbVertex
100
AcDb2dVertex
 10
72.02476402193814
 20
-9.88708605557425
 30
0.0
  0
SEQEND
  5
5F7
330
5F4
100
AcDbEntity
  8
BEMA_UNG
  0
POLYLINE
  5
5F8
330
1F
100
AcDbEntity
  8
BEMA_UNG
 62
     7
100
AcDb2dPolyline
 66
     1
 10
0.0
 20
0.0
 30
0.0
  0
VERTEX
  5
5F9
330
5F8
100
AcDbEntity
  8
BEMA_UNG
 62
     7
100
AcDbVertex
100
AcDb2dVertex
 10
69.29728012695988
 20
-9.937728992616286
 30
0.0
  0
VERTEX
  5
5FA
330
5F8
100
AcDbEntity
  8
BEMA_UNG
 62
     7
100
AcDbVertex
100
AcDb2dVertex
 10
72.41130399038144
 20
-9.937728992616286
 30
0.0
  0
SEQEND
  5
5FB
330
5F8
100
AcDbEntity
  8
BEMA_UNG
  0
POLYLINE
  5
5FC
330
1F
100
AcDbEntity
  8
BEMA_UNG
 62
     7
100
AcDb2dPolyline
 66
     1
 10
0.0
 20
0.0
 30
0.0
  0
VERTEX
  5
5FD
330
5FC
100
AcDbEntity
  8
BEMA_UNG
 62
     7
100
AcDbVertex
100
AcDb2dVertex
 10
69.29728012695988
 20
-9.98871643943412
 30
0.0
  0
VERTEX
  5
5FE
330
5FC
100
AcDbEntity
  8
BEMA_UNG
 62
     7
100
AcDbVertex
100
AcDb2dVertex
 10
72.79681042949736
 20
-9.98871643943412
 30
0.0
  0
SEQEND
  5
5FF
330
5FC
100
AcDbEntity
  8
BEMA_UNG
  0
POLYLINE
  5
600
330
1F
100
AcDbEntity
  8
BEMA_UNG
 62
     7
100
AcDb2dPolyline
 66
     1
 10
0.0
 20
0.0
 30
0.0
  0
VERTEX
  5
601
330
600
100
AcDbEntity
  8
BEMA_UNG
 62
     7
100
AcDbVertex
100
AcDb2dVertex
 10
69.29728012695988
 20
-10.44588091191564
 30
0.0
  0
VERTEX
  5
602
330
600
100
AcDbEntity
  8
BEMA_UNG
 62
     7
100
AcDbVertex
100
AcDb2dVertex
 10
69.32449639924776
 20
-10.44588091191564
 30
0.0
  0
SEQEND
  5
603
330
600
100
AcDbEntity
  8
BEMA_UNG
  0
POLYLINE
  5
604
330
1F
100
AcDbEntity
  8
BEMA_UNG
 62
     7
100
AcDb2dPolyline
 66
     1
 10
0.0
 20
0.0
 30
0.0
  0
VERTEX
  5
605
330
604
100
AcDbEntity
  8
BEMA_UNG
 62
     7
100
AcDbVertex
100
AcDb2dVertex
 10
69.29728012695988
 20
-10.44588091191564
 30
0.0
  0
VERTEX
  5
606
330
604
100
AcDbEntity
  8
BEMA_UNG
 62
     7
100
AcDbVertex
100
AcDb2dVertex
 10
69.32449639924776
 20
-10.44588091191564
 30
0.0
  0
SEQEND
  5
607
330
604
100
AcDbEntity
  8
BEMA_UNG
  0
POLYLINE
  5
608
330
1F
100
AcDbEntity
  8
BEMA_UNG
 62
     7
100
AcDb2dPolyline
 66
     1
 10
0.0
 20
0.0
 30
0.0
  0
VERTEX
  5
609
330
608
100
AcDbEntity
  8
BEMA_UNG
 62
     7
100
AcDbVertex
100
AcDb2dVertex
 10
69.29728012695988
 20
-10.3948934650978
 30
0.0
  0
VERTEX
  5
60A
330
608
100
AcDbEntity
  8
BEMA_UNG
 62
     7
100
AcDbVertex
100
AcDb2dVertex
 10
69.71000283836368
 20
-10.3948934650978
 30
0.0
  0
SEQEND
  5
60B
330
608
100
AcDbEntity
  8
BEMA_UNG
  0
POLYLINE
  5
60C
330
1F
100
AcDbEntity
  8
BEMA_UNG
 62
     7
100
AcDb2dPolyline
 66
     1
 10
0.0
 20
0.0
 30
0.0
  0
VERTEX
  5
60D
330
60C
100
AcDbEntity
  8
BEMA_UNG
 62
     7
100
AcDbVertex
100
AcDb2dVertex
 10
69.29728012695988
 20
-10.34425052805577
 30
0.0
  0
VERTEX
  5
60E
330
60C
100
AcDbEntity
  8
BEMA_UNG
 62
     7
100
AcDbVertex
100
AcDb2dVertex
 10
70.0961982970312
 20
-10.34425052805577
 30
0.0
  0
SEQEND
  5
60F
330
60C
100
AcDbEntity
  8
BEMA_UNG
  0
POLYLINE
  5
610
330
1F
100
AcDbEntity
  8
BEMA_UNG
 62
     7
100
AcDb2dPolyline
 66
     1
 10
0.0
 20
0.0
 30
0.0
  0
VERTEX
  5
611
330
610
100
AcDbEntity
  8
BEMA_UNG
 62
     7
100
AcDbVertex
100
AcDb2dVertex
 10
69.29728012695988
 20
-10.29326308123793
 30
0.0
  0
VERTEX
  5
612
330
610
100
AcDbEntity
  8
BEMA_UNG
 62
     7
100
AcDbVertex
100
AcDb2dVertex
 10
70.48136022637131
 20
-10.29326308123793
 30
0.0
  0
SEQEND
  5
613
330
610
100
AcDbEntity
  8
BEMA_UNG
  0
POLYLINE
  5
614
330
1F
100
AcDbEntity
  8
BEMA_UNG
 62
     7
100
AcDb2dPolyline
 66
     1
 10
0.0
 20
0.0
 30
0.0
  0
VERTEX
  5
615
330
614
100
AcDbEntity
  8
BEMA_UNG
 62
     7
100
AcDbVertex
100
AcDb2dVertex
 10
69.29728012695988
 20
-10.24296465397169
 30
0.0
  0
VERTEX
  5
616
330
614
100
AcDbEntity
  8
BEMA_UNG
 62
     7
100
AcDbVertex
100
AcDb2dVertex
 10
70.86790019481461
 20
-10.24296465397169
 30
0.0
  0
SEQEND
  5
617
330
614
100
AcDbEntity
  8
BEMA_UNG
  0
POLYLINE
  5
618
330
1F
100
AcDbEntity
  8
BEMA_UNG
 62
     7
100
AcDb2dPolyline
 66
     1
 10
0.0
 20
0.0
 30
0.0
  0
VERTEX
  5
619
330
618
100
AcDbEntity
  8
BEMA_UNG
 62
     7
100
AcDbVertex
100
AcDb2dVertex
 10
69.29728012695988
 20
-10.19197720715386
 30
0.0
  0
VERTEX
  5
61A
330
618
100
AcDbEntity
  8
BEMA_UNG
 62
     7
100
AcDbVertex
100
AcDb2dVertex
 10
71.25340663393052
 20
-10.19197720715386
 30
0.0
  0
SEQEND
  5
61B
330
618
100
AcDbEntity
  8
BEMA_UNG
  0
POLYLINE
  5
61C
330
1F
100
AcDbEntity
  8
BEMA_UNG
 62
     7
100
AcDb2dPolyline
 66
     1
 10
0.0
 20
0.0
 30
0.0
  0
VERTEX
  5
61D
330
61C
100
AcDbEntity
  8
BEMA_UNG
 62
     7
100
AcDbVertex
100
AcDb2dVertex
 10
69.29728012695988
 20
-10.14133427011182
 30
0.0
  0
VERTEX
  5
61E
330
61C
100
AcDbEntity
  8
BEMA_UNG
 62
     7
100
AcDbVertex
100
AcDb2dVertex
 10
71.63960209259803
 20
-10.14133427011182
 30
0.0
  0
SEQEND
  5
61F
330
61C
100
AcDbEntity
  8
BEMA_UNG
  0
POLYLINE
  5
620
330
1F
100
AcDbEntity
  8
BEMA_UNG
 62
     7
100
AcDb2dPolyline
 66
     1
 10
0.0
 20
0.0
 30
0.0
  0
VERTEX
  5
621
330
620
100
AcDbEntity
  8
BEMA_UNG
 62
     7
100
AcDbVertex
100
AcDb2dVertex
 10
69.29728012695988
 20
-10.09034682329399
 30
0.0
  0
VERTEX
  5
622
330
620
100
AcDbEntity
  8
BEMA_UNG
 62
     7
100
AcDbVertex
100
AcDb2dVertex
 10
72.02476402193814
 20
-10.09034682329399
 30
0.0
  0
SEQEND
  5
623
330
620
100
AcDbEntity
  8
BEMA_UNG
  0
POLYLINE
  5
624
330
1F
100
AcDbEntity
  8
BEMA_UNG
 62
     7
100
AcDb2dPolyline
 66
     1
 10
0.0
 20
0.0
 30
0.0
  0
VERTEX
  5
625
330
624
100
AcDbEntity
  8
BEMA_UNG
 62
     7
100
AcDbVertex
100
AcDb2dVertex
 10
69.29728012695988
 20
-10.03970388625195
 30
0.0
  0
VERTEX
  5
626
330
624
100
AcDbEntity
  8
BEMA_UNG
 62
     7
100
AcDbVertex
100
AcDb2dVertex
 10
72.41130399038144
 20
-10.03970388625195
 30
0.0
  0
SEQEND
  5
627
330
624
100
AcDbEntity
  8
BEMA_UNG
  0
POLYLINE
  5
628
330
1F
100
AcDbEntity
  8
BEMA_UNG
 62
     7
100
AcDb2dPolyline
 66
     1
 10
0.0
 20
0.0
 30
0.0
  0
VERTEX
  5
629
330
628
100
AcDbEntity
  8
BEMA_UNG
 62
     7
100
AcDbVertex
100
AcDb2dVertex
 10
69.29728012695988
 20
-9.98871643943412
 30
0.0
  0
VERTEX
  5
62A
330
628
100
AcDbEntity
  8
BEMA_UNG
 62
     7
100
AcDbVertex
100
AcDb2dVertex
 10
72.79681042949736
 20
-9.98871643943412
 30
0.0
  0
SEQEND
  5
62B
330
628
100
AcDbEntity
  8
BEMA_UNG
  0
POLYLINE
  5
62C
330
1F
100
AcDbEntity
  8
BEMA_UNG
 62
     7
100
AcDb2dPolyline
 66
     1
 10
0.0
 20
0.0
 30
0.0
  0
VERTEX
  5
62D
330
62C
100
AcDbEntity
  8
BEMA_UNG
 62
     7
100
AcDbVertex
100
AcDb2dVertex
 10
44.79677840166374
 20
-9.98871643943412
 30
0.0
  0
VERTEX
  5
62E
330
62C
100
AcDbEntity
  8
BEMA_UNG
 62
     7
100
AcDbVertex
100
AcDb2dVertex
 10
48.29699772375281
 20
-10.4493260096736
 30
0.0
  0
VERTEX
  5
62F
330
62C
100
AcDbEntity
  8
BEMA_UNG
 62
     7
100
AcDbVertex
100
AcDb2dVertex
 10
48.29699772375281
 20
-9.528106869194643
 30
0.0
  0
VERTEX
  5
630
330
62C
100
AcDbEntity
  8
BEMA_UNG
 62
     7
100
AcDbVertex
100
AcDb2dVertex
 10
44.79677840166374
 20
-9.98871643943412
 30
0.0
  0
SEQEND
  5
631
330
62C
100
AcDbEntity
  8
BEMA_UNG
  0
POLYLINE
  5
632
330
1F
100
AcDbEntity
  8
BEMA_UNG
 62
     7
100
AcDb2dPolyline
 66
     1
 10
0.0
 20
0.0
 30
0.0
  0
VERTEX
  5
633
330
632
100
AcDbEntity
  8
BEMA_UNG
 62
     7
100
AcDbVertex
100
AcDb2dVertex
 10
48.29699772375281
 20
-10.44588091191564
 30
0.0
  0
VERTEX
  5
634
330
632
100
AcDbEntity
  8
BEMA_UNG
 62
     7
100
AcDbVertex
100
AcDb2dVertex
 10
48.26978145146491
 20
-10.44588091191564
 30
0.0
  0
SEQEND
  5
635
330
632
100
AcDbEntity
  8
BEMA_UNG
  0
POLYLINE
  5
636
330
1F
100
AcDbEntity
  8
BEMA_UNG
 62
     7
100
AcDb2dPolyline
 66
     1
 10
0.0
 20
0.0
 30
0.0
  0
VERTEX
  5
637
330
636
100
AcDbEntity
  8
BEMA_UNG
 62
     7
100
AcDbVertex
100
AcDb2dVertex
 10
48.29699772375281
 20
-10.44588091191564
 30
0.0
  0
VERTEX
  5
638
330
636
100
AcDbEntity
  8
BEMA_UNG
 62
     7
100
AcDbVertex
100
AcDb2dVertex
 10
48.26978145146491
 20
-10.44588091191564
 30
0.0
  0
SEQEND
  5
639
330
636
100
AcDbEntity
  8
BEMA_UNG
  0
POLYLINE
  5
63A
330
1F
100
AcDbEntity
  8
BEMA_UNG
 62
     7
100
AcDb2dPolyline
 66
     1
 10
0.0
 20
0.0
 30
0.0
  0
VERTEX
  5
63B
330
63A
100
AcDbEntity
  8
BEMA_UNG
 62
     7
100
AcDbVertex
100
AcDb2dVertex
 10
48.29699772375281
 20
-10.3948934650978
 30
0.0
  0
VERTEX
  5
63C
330
63A
100
AcDbEntity
  8
BEMA_UNG
 62
     7
100
AcDbVertex
100
AcDb2dVertex
 10
47.88358599279741
 20
-10.3948934650978
 30
0.0
  0
SEQEND
  5
63D
330
63A
100
AcDbEntity
  8
BEMA_UNG
  0
POLYLINE
  5
63E
330
1F
100
AcDbEntity
  8
BEMA_UNG
 62
     7
100
AcDb2dPolyline
 66
     1
 10
0.0
 20
0.0
 30
0.0
  0
VERTEX
  5
63F
330
63E
100
AcDbEntity
  8
BEMA_UNG
 62
     7
100
AcDbVertex
100
AcDb2dVertex
 10
48.29699772375281
 20
-10.34425052805577
 30
0.0
  0
VERTEX
  5
640
330
63E
100
AcDbEntity
  8
BEMA_UNG
 62
     7
100
AcDbVertex
100
AcDb2dVertex
 10
47.49807955368149
 20
-10.34425052805577
 30
0.0
  0
SEQEND
  5
641
330
63E
100
AcDbEntity
  8
BEMA_UNG
  0
POLYLINE
  5
642
330
1F
100
AcDbEntity
  8
BEMA_UNG
 62
     7
100
AcDb2dPolyline
 66
     1
 10
0.0
 20
0.0
 30
0.0
  0
VERTEX
  5
643
330
642
100
AcDbEntity
  8
BEMA_UNG
 62
     7
100
AcDbVertex
100
AcDb2dVertex
 10
48.29699772375281
 20
-10.29326308123793
 30
0.0
  0
VERTEX
  5
644
330
642
100
AcDbEntity
  8
BEMA_UNG
 62
     7
100
AcDbVertex
100
AcDb2dVertex
 10
47.11188409501399
 20
-10.29326308123793
 30
0.0
  0
SEQEND
  5
645
330
642
100
AcDbEntity
  8
BEMA_UNG
  0
POLYLINE
  5
646
330
1F
100
AcDbEntity
  8
BEMA_UNG
 62
     7
100
AcDb2dPolyline
 66
     1
 10
0.0
 20
0.0
 30
0.0
  0
VERTEX
  5
647
330
646
100
AcDbEntity
  8
BEMA_UNG
 62
     7
100
AcDbVertex
100
AcDb2dVertex
 10
48.29699772375281
 20
-10.24296465397169
 30
0.0
  0
VERTEX
  5
648
330
646
100
AcDbEntity
  8
BEMA_UNG
 62
     7
100
AcDbVertex
100
AcDb2dVertex
 10
46.72637765589808
 20
-10.24296465397169
 30
0.0
  0
SEQEND
  5
649
330
646
100
AcDbEntity
  8
BEMA_UNG
  0
POLYLINE
  5
64A
330
1F
100
AcDbEntity
  8
BEMA_UNG
 62
     7
100
AcDb2dPolyline
 66
     1
 10
0.0
 20
0.0
 30
0.0
  0
VERTEX
  5
64B
330
64A
100
AcDbEntity
  8
BEMA_UNG
 62
     7
100
AcDbVertex
100
AcDb2dVertex
 10
48.29699772375281
 20
-10.19197720715386
 30
0.0
  0
VERTEX
  5
64C
330
64A
100
AcDbEntity
  8
BEMA_UNG
 62
     7
100
AcDbVertex
100
AcDb2dVertex
 10
46.34018219723057
 20
-10.19197720715386
 30
0.0
  0
SEQEND
  5
64D
330
64A
100
AcDbEntity
  8
BEMA_UNG
  0
POLYLINE
  5
64E
330
1F
100
AcDbEntity
  8
BEMA_UNG
 62
     7
100
AcDb2dPolyline
 66
     1
 10
0.0
 20
0.0
 30
0.0
  0
VERTEX
  5
64F
330
64E
100
AcDbEntity
  8
BEMA_UNG
 62
     7
100
AcDbVertex
100
AcDb2dVertex
 10
48.29699772375281
 20
-10.14133427011182
 30
0.0
  0
VERTEX
  5
650
330
64E
100
AcDbEntity
  8
BEMA_UNG
 62
     7
100
AcDbVertex
100
AcDb2dVertex
 10
45.95467575811465
 20
-10.14133427011182
 30
0.0
  0
SEQEND
  5
651
330
64E
100
AcDbEntity
  8
BEMA_UNG
  0
POLYLINE
  5
652
330
1F
100
AcDbEntity
  8
BEMA_UNG
 62
     7
100
AcDb2dPolyline
 66
     1
 10
0.0
 20
0.0
 30
0.0
  0
VERTEX
  5
653
330
652
100
AcDbEntity
  8
BEMA_UNG
 62
     7
100
AcDbVertex
100
AcDb2dVertex
 10
48.29699772375281
 20
-10.09034682329399
 30
0.0
  0
VERTEX
  5
654
330
652
100
AcDbEntity
  8
BEMA_UNG
 62
     7
100
AcDbVertex
100
AcDb2dVertex
 10
45.56848029944715
 20
-10.09034682329399
 30
0.0
  0
SEQEND
  5
655
330
652
100
AcDbEntity
  8
BEMA_UNG
  0
POLYLINE
  5
656
330
1F
100
AcDbEntity
  8
BEMA_UNG
 62
     7
100
AcDb2dPolyline
 66
     1
 10
0.0
 20
0.0
 30
0.0
  0
VERTEX
  5
657
330
656
100
AcDbEntity
  8
BEMA_UNG
 62
     7
100
AcDbVertex
100
AcDb2dVertex
 10
48.29699772375281
 20
-10.03970388625195
 30
0.0
  0
VERTEX
  5
658
330
656
100
AcDbEntity
  8
BEMA_UNG
 62
     7
100
AcDbVertex
100
AcDb2dVertex
 10
45.18297386033124
 20
-10.03970388625195
 30
0.0
  0
SEQEND
  5
659
330
656
100
AcDbEntity
  8
BEMA_UNG
  0
POLYLINE
  5
65A
330
1F
100
AcDbEntity
  8
BEMA_UNG
 62
     7
100
AcDb2dPolyline
 66
     1
 10
0.0
 20
0.0
 30
0.0
  0
VERTEX
  5
65B
330
65A
100
AcDbEntity
  8
BEMA_UNG
 62
     7
100
AcDbVertex
100
AcDb2dVertex
 10
48.29699772375281
 20
-9.98871643943412
 30
0.0
  0
VERTEX
  5
65C
330
65A
100
AcDbEntity
  8
BEMA_UNG
 62
     7
100
AcDbVertex
100
AcDb2dVertex
 10
44.79677840166374
 20
-9.98871643943412
 30
0.0
  0
SEQEND
  5
65D
330
65A
100
AcDbEntity
  8
BEMA_UNG
  0
POLYLINE
  5
65E
330
1F
100
AcDbEntity
  8
BEMA_UNG
 62
     7
100
AcDb2dPolyline
 66
     1
 10
0.0
 20
0.0
 30
0.0
  0
VERTEX
  5
65F
330
65E
100
AcDbEntity
  8
BEMA_UNG
 62
     7
100
AcDbVertex
100
AcDb2dVertex
 10
48.29699772375281
 20
-9.531551966952604
 30
0.0
  0
VERTEX
  5
660
330
65E
100
AcDbEntity
  8
BEMA_UNG
 62
     7
100
AcDbVertex
100
AcDb2dVertex
 10
48.26978145146491
 20
-9.531551966952604
 30
0.0
  0
SEQEND
  5
661
330
65E
100
AcDbEntity
  8
BEMA_UNG
  0
POLYLINE
  5
662
330
1F
100
AcDbEntity
  8
BEMA_UNG
 62
     7
100
AcDb2dPolyline
 66
     1
 10
0.0
 20
0.0
 30
0.0
  0
VERTEX
  5
663
330
662
100
AcDbEntity
  8
BEMA_UNG
 62
     7
100
AcDbVertex
100
AcDb2dVertex
 10
48.29699772375281
 20
-9.531551966952604
 30
0.0
  0
VERTEX
  5
664
330
662
100
AcDbEntity
  8
BEMA_UNG
 62
     7
100
AcDbVertex
100
AcDb2dVertex
 10
48.26978145146491
 20
-9.531551966952604
 30
0.0
  0
SEQEND
  5
665
330
662
100
AcDbEntity
  8
BEMA_UNG
  0
POLYLINE
  5
666
330
1F
100
AcDbEntity
  8
BEMA_UNG
 62
     7
100
AcDb2dPolyline
 66
     1
 10
0.0
 20
0.0
 30
0.0
  0
VERTEX
  5
667
330
666
100
AcDbEntity
  8
BEMA_UNG
 62
     7
100
AcDbVertex
100
AcDb2dVertex
 10
48.29699772375281
 20
-9.582539413770437
 30
0.0
  0
VERTEX
  5
668
330
666
100
AcDbEntity
  8
BEMA_UNG
 62
     7
100
AcDbVertex
100
AcDb2dVertex
 10
47.88358599279741
 20
-9.582539413770437
 30
0.0
  0
SEQEND
  5
669
330
666
100
AcDbEntity
  8
BEMA_UNG
  0
POLYLINE
  5
66A
330
1F
100
AcDbEntity
  8
BEMA_UNG
 62
     7
100
AcDb2dPolyline
 66
     1
 10
0.0
 20
0.0
 30
0.0
  0
VERTEX
  5
66B
330
66A
100
AcDbEntity
  8
BEMA_UNG
 62
     7
100
AcDbVertex
100
AcDb2dVertex
 10
48.29699772375281
 20
-9.633182350812474
 30
0.0
  0
VERTEX
  5
66C
330
66A
100
AcDbEntity
  8
BEMA_UNG
 62
     7
100
AcDbVertex
100
AcDb2dVertex
 10
47.49807955368149
 20
-9.633182350812474
 30
0.0
  0
SEQEND
  5
66D
330
66A
100
AcDbEntity
  8
BEMA_UNG
  0
POLYLINE
  5
66E
330
1F
100
AcDbEntity
  8
BEMA_UNG
 62
     7
100
AcDb2dPolyline
 66
     1
 10
0.0
 20
0.0
 30
0.0
  0
VERTEX
  5
66F
330
66E
100
AcDbEntity
  8
BEMA_UNG
 62
     7
100
AcDbVertex
100
AcDb2dVertex
 10
48.29699772375281
 20
-9.684169797630306
 30
0.0
  0
VERTEX
  5
670
330
66E
100
AcDbEntity
  8
BEMA_UNG
 62
     7
100
AcDbVertex
100
AcDb2dVertex
 10
47.11188409501399
 20
-9.684169797630306
 30
0.0
  0
SEQEND
  5
671
330
66E
100
AcDbEntity
  8
BEMA_UNG
  0
POLYLINE
  5
672
330
1F
100
AcDbEntity
  8
BEMA_UNG
 62
     7
100
AcDb2dPolyline
 66
     1
 10
0.0
 20
0.0
 30
0.0
  0
VERTEX
  5
673
330
672
100
AcDbEntity
  8
BEMA_UNG
 62
     7
100
AcDbVertex
100
AcDb2dVertex
 10
48.29699772375281
 20
-9.734812734672342
 30
0.0
  0
VERTEX
  5
674
330
672
100
AcDbEntity
  8
BEMA_UNG
 62
     7
100
AcDbVertex
100
AcDb2dVertex
 10
46.72637765589808
 20
-9.734812734672342
 30
0.0
  0
SEQEND
  5
675
330
672
100
AcDbEntity
  8
BEMA_UNG
  0
POLYLINE
  5
676
330
1F
100
AcDbEntity
  8
BEMA_UNG
 62
     7
100
AcDb2dPolyline
 66
     1
 10
0.0
 20
0.0
 30
0.0
  0
VERTEX
  5
677
330
676
100
AcDbEntity
  8
BEMA_UNG
 62
     7
100
AcDbVertex
100
AcDb2dVertex
 10
48.29699772375281
 20
-9.78545567171438
 30
0.0
  0
VERTEX
  5
678
330
676
100
AcDbEntity
  8
BEMA_UNG
 62
     7
100
AcDbVertex
100
AcDb2dVertex
 10
46.34018219723057
 20
-9.78545567171438
 30
0.0
  0
SEQEND
  5
679
330
676
100
AcDbEntity
  8
BEMA_UNG
  0
POLYLINE
  5
67A
330
1F
100
AcDbEntity
  8
BEMA_UNG
 62
     7
100
AcDb2dPolyline
 66
     1
 10
0.0
 20
0.0
 30
0.0
  0
VERTEX
  5
67B
330
67A
100
AcDbEntity
  8
BEMA_UNG
 62
     7
100
AcDbVertex
100
AcDb2dVertex
 10
48.29699772375281
 20
-9.836098608756418
 30
0.0
  0
VERTEX
  5
67C
330
67A
100
AcDbEntity
  8
BEMA_UNG
 62
     7
100
AcDbVertex
100
AcDb2dVertex
 10
45.95467575811465
 20
-9.836098608756418
 30
0.0
  0
SEQEND
  5
67D
330
67A
100
AcDbEntity
  8
BEMA_UNG
  0
POLYLINE
  5
67E
330
1F
100
AcDbEntity
  8
BEMA_UNG
 62
     7
100
AcDb2dPolyline
 66
     1
 10
0.0
 20
0.0
 30
0.0
  0
VERTEX
  5
67F
330
67E
100
AcDbEntity
  8
BEMA_UNG
 62
     7
100
AcDbVertex
100
AcDb2dVertex
 10
48.29699772375281
 20
-9.88708605557425
 30
0.0
  0
VERTEX
  5
680
330
67E
100
AcDbEntity
  8
BEMA_UNG
 62
     7
100
AcDbVertex
100
AcDb2dVertex
 10
45.56848029944715
 20
-9.88708605557425
 30
0.0
  0
SEQEND
  5
681
330
67E
100
AcDbEntity
  8
BEMA_UNG
  0
POLYLINE
  5
682
330
1F
100
AcDbEntity
  8
BEMA_UNG
 62
     7
100
AcDb2dPolyline
 66
     1
 10
0.0
 20
0.0
 30
0.0
  0
VERTEX
  5
683
330
682
100
AcDbEntity
  8
BEMA_UNG
 62
     7
100
AcDbVertex
100
AcDb2dVertex
 10
48.29699772375281
 20
-9.937728992616286
 30
0.0
  0
VERTEX
  5
684
330
682
100
AcDbEntity
  8
BEMA_UNG
 62
     7
100
AcDbVertex
100
AcDb2dVertex
 10
45.18297386033124
 20
-9.937728992616286
 30
0.0
  0
SEQEND
  5
685
330
682
100
AcDbEntity
  8
BEMA_UNG
  0
POLYLINE
  5
686
330
1F
100
AcDbEntity
  8
BEMA_UNG
 62
     7
100
AcDb2dPolyline
 66
     1
 10
0.0
 20
0.0
 30
0.0
  0
VERTEX
  5
687
330
686
100
AcDbEntity
  8
BEMA_UNG
 62
     7
100
AcDbVertex
100
AcDb2dVertex
 10
48.29699772375281
 20
-9.98871643943412
 30
0.0
  0
VERTEX
  5
688
330
686
100
AcDbEntity
  8
BEMA_UNG
 62
     7
100
AcDbVertex
100
AcDb2dVertex
 10
44.79677840166374
 20
-9.98871643943412
 30
0.0
  0
SEQEND
  5
689
330
686
100
AcDbEntity
  8
BEMA_UNG
  0
POLYLINE
  5
68A
330
1F
100
AcDbEntity
  8
BEMA_UNG
 62
     7
100
AcDb2dPolyline
 66
     1
 10
0.0
 20
0.0
 30
0.0
  0
VERTEX
  5
68B
330
68A
100
AcDbEntity
  8
BEMA_UNG
 62
     7
100
AcDbVertex
100
AcDb2dVertex
 10
-27.50014834315338
 20
-0.5002281944560372
 30
0.0
  0
VERTEX
  5
68C
330
68A
100
AcDbEntity
  8
BEMA_UNG
 62
     7
100
AcDbVertex
100
AcDb2dVertex
 10
-39.30701512435179
 20
-0.5002281944560372
 30
0.0
  0
SEQEND
  5
68D
330
68A
100
AcDbEntity
  8
BEMA_UNG
  0
POLYLINE
  5
68E
330
1F
100
AcDbEntity
  8
BEMA_UNG
 62
     7
100
AcDb2dPolyline
 66
     1
 10
0.0
 20
0.0
 30
0.0
  0
VERTEX
  5
68F
330
68E
100
AcDbEntity
  8
BEMA_UNG
 62
     7
100
AcDbVertex
100
AcDb2dVertex
 10
-18.59181456061605
 20
119.5001059304171
 30
0.0
  0
VERTEX
  5
690
330
68E
100
AcDbEntity
  8
BEMA_UNG
 62
     7
100
AcDbVertex
100
AcDb2dVertex
 10
-40.32573053138105
 20
119.5001059304171
 30
0.0
  0
SEQEND
  5
691
330
68E
100
AcDbEntity
  8
BEMA_UNG
  0
POLYLINE
  5
692
330
1F
100
AcDbEntity
  8
BEMA_UNG
 62
     7
100
AcDb2dPolyline
 66
     1
 10
0.0
 20
0.0
 30
0.0
  0
VERTEX
  5
693
330
692
100
AcDbEntity
  8
BEMA_UNG
 62
     7
100
AcDbVertex
100
AcDb2dVertex
 10
-37.86179661488686
 20
-0.5002281944560372
 30
0.0
  0
VERTEX
  5
694
330
692
100
AcDbEntity
  8
BEMA_UNG
 62
     7
100
AcDbVertex
100
AcDb2dVertex
 10
-37.86179661488686
 20
119.5001059304171
 30
0.0
  0
SEQEND
  5
695
330
692
100
AcDbEntity
  8
BEMA_UNG
  0
POLYLINE
  5
696
330
1F
100
AcDbEntity
  8
BEMA_UNG
 62
     7
100
AcDb2dPolyline
 66
     1
 10
0.0
 20
0.0
 30
0.0
  0
VERTEX
  5
697
330
696
100
AcDbEntity
  8
BEMA_UNG
 62
     7
100
AcDbVertex
100
AcDb2dVertex
 10
-37.86179661488686
 20
-0.5002281944560372
 30
0.0
  0
VERTEX
  5
698
330
696
100
AcDbEntity
  8
BEMA_UNG
 62
     7
100
AcDbVertex
100
AcDb2dVertex
 10
-37.40084253487158
 20
2.999646617857242
 30
0.0
  0
VERTEX
  5
699
330
696
100
AcDbEntity
  8
BEMA_UNG
 62
     7
100
AcDbVertex
100
AcDb2dVertex
 10
-38.32275069490213
 20
2.999646617857242
 30
0.0
  0
VERTEX
  5
69A
330
696
100
AcDbEntity
  8
BEMA_UNG
 62
     7
100
AcDbVertex
100
AcDb2dVertex
 10
-37.86179661488686
 20
-0.5002281944560372
 30
0.0
  0
SEQEND
  5
69B
330
696
100
AcDbEntity
  8
BEMA_UNG
  0
POLYLINE
  5
69C
330
1F
100
AcDbEntity
  8
BEMA_UNG
 62
     7
100
AcDb2dPolyline
 66
     1
 10
0.0
 20
0.0
 30
0.0
  0
VERTEX
  5
69D
330
69C
100
AcDbEntity
  8
BEMA_UNG
 62
     7
100
AcDbVertex
100
AcDb2dVertex
 10
-37.40497665218113
 20
2.999646617857242
 30
0.0
  0
VERTEX
  5
69E
330
69C
100
AcDbEntity
  8
BEMA_UNG
 62
     7
100
AcDbVertex
100
AcDb2dVertex
 10
-37.40497665218113
 20
2.972602600457243
 30
0.0
  0
SEQEND
  5
69F
330
69C
100
AcDbEntity
  8
BEMA_UNG
  0
POLYLINE
  5
6A0
330
1F
100
AcDbEntity
  8
BEMA_UNG
 62
     7
100
AcDb2dPolyline
 66
     1
 10
0.0
 20
0.0
 30
0.0
  0
VERTEX
  5
6A1
330
6A0
100
AcDbEntity
  8
BEMA_UNG
 62
     7
100
AcDbVertex
100
AcDb2dVertex
 10
-37.40497665218113
 20
2.999646617857242
 30
0.0
  0
VERTEX
  5
6A2
330
6A0
100
AcDbEntity
  8
BEMA_UNG
 62
     7
100
AcDbVertex
100
AcDb2dVertex
 10
-37.40497665218113
 20
2.972602600457243
 30
0.0
  0
SEQEND
  5
6A3
330
6A0
100
AcDbEntity
  8
BEMA_UNG
  0
POLYLINE
  5
6A4
330
1F
100
AcDbEntity
  8
BEMA_UNG
 62
     7
100
AcDb2dPolyline
 66
     1
 10
0.0
 20
0.0
 30
0.0
  0
VERTEX
  5
6A5
330
6A4
100
AcDbEntity
  8
BEMA_UNG
 62
     7
100
AcDbVertex
100
AcDb2dVertex
 10
-37.45561958922317
 20
2.999646617857242
 30
0.0
  0
VERTEX
  5
6A6
330
6A4
100
AcDbEntity
  8
BEMA_UNG
 62
     7
100
AcDbVertex
100
AcDb2dVertex
 10
-37.45561958922317
 20
2.586579396677636
 30
0.0
  0
SEQEND
  5
6A7
330
6A4
100
AcDbEntity
  8
BEMA_UNG
  0
POLYLINE
  5
6A8
330
1F
100
AcDbEntity
  8
BEMA_UNG
 62
     7
100
AcDb2dPolyline
 66
     1
 10
0.0
 20
0.0
 30
0.0
  0
VERTEX
  5
6A9
330
6A8
100
AcDbEntity
  8
BEMA_UNG
 62
     7
100
AcDbVertex
100
AcDb2dVertex
 10
-37.506607036041
 20
2.999646617857242
 30
0.0
  0
VERTEX
  5
6AA
330
6A8
100
AcDbEntity
  8
BEMA_UNG
 62
     7
100
AcDbVertex
100
AcDb2dVertex
 10
-37.506607036041
 20
2.201072957561723
 30
0.0
  0
SEQEND
  5
6AB
330
6A8
100
AcDbEntity
  8
BEMA_UNG
  0
POLYLINE
  5
6AC
330
1F
100
AcDbEntity
  8
BEMA_UNG
 62
     7
100
AcDb2dPolyline
 66
     1
 10
0.0
 20
0.0
 30
0.0
  0
VERTEX
  5
6AD
330
6AC
100
AcDbEntity
  8
BEMA_UNG
 62
     7
100
AcDbVertex
100
AcDb2dVertex
 10
-37.55690546330725
 20
2.999646617857242
 30
0.0
  0
VERTEX
  5
6AE
330
6AC
100
AcDbEntity
  8
BEMA_UNG
 62
     7
100
AcDbVertex
100
AcDb2dVertex
 10
-37.55690546330725
 20
1.815049753782116
 30
0.0
  0
SEQEND
  5
6AF
330
6AC
100
AcDbEntity
  8
BEMA_UNG
  0
POLYLINE
  5
6B0
330
1F
100
AcDbEntity
  8
BEMA_UNG
 62
     7
100
AcDb2dPolyline
 66
     1
 10
0.0
 20
0.0
 30
0.0
  0
VERTEX
  5
6B1
330
6B0
100
AcDbEntity
  8
BEMA_UNG
 62
     7
100
AcDbVertex
100
AcDb2dVertex
 10
-37.60823741990087
 20
2.999646617857242
 30
0.0
  0
VERTEX
  5
6B2
330
6B0
100
AcDbEntity
  8
BEMA_UNG
 62
     7
100
AcDbVertex
100
AcDb2dVertex
 10
-37.60823741990087
 20
1.429198804890407
 30
0.0
  0
SEQEND
  5
6B3
330
6B0
100
AcDbEntity
  8
BEMA_UNG
  0
POLYLINE
  5
6B4
330
1F
100
AcDbEntity
  8
BEMA_UNG
 62
     7
100
AcDb2dPolyline
 66
     1
 10
0.0
 20
0.0
 30
0.0
  0
VERTEX
  5
6B5
330
6B4
100
AcDbEntity
  8
BEMA_UNG
 62
     7
100
AcDbVertex
100
AcDb2dVertex
 10
-37.65888035694291
 20
2.999646617857242
 30
0.0
  0
VERTEX
  5
6B6
330
6B4
100
AcDbEntity
  8
BEMA_UNG
 62
     7
100
AcDbVertex
100
AcDb2dVertex
 10
-37.65888035694291
 20
1.043175601110799
 30
0.0
  0
SEQEND
  5
6B7
330
6B4
100
AcDbEntity
  8
BEMA_UNG
  0
POLYLINE
  5
6B8
330
1F
100
AcDbEntity
  8
BEMA_UNG
 62
     7
100
AcDb2dPolyline
 66
     1
 10
0.0
 20
0.0
 30
0.0
  0
VERTEX
  5
6B9
330
6B8
100
AcDbEntity
  8
BEMA_UNG
 62
     7
100
AcDbVertex
100
AcDb2dVertex
 10
-37.70952329398495
 20
2.999646617857242
 30
0.0
  0
VERTEX
  5
6BA
330
6B8
100
AcDbEntity
  8
BEMA_UNG
 62
     7
100
AcDbVertex
100
AcDb2dVertex
 10
-37.70952329398495
 20
0.6576691619948863
 30
0.0
  0
SEQEND
  5
6BB
330
6B8
100
AcDbEntity
  8
BEMA_UNG
  0
POLYLINE
  5
6BC
330
1F
100
AcDbEntity
  8
BEMA_UNG
 62
     7
100
AcDb2dPolyline
 66
     1
 10
0.0
 20
0.0
 30
0.0
  0
VERTEX
  5
6BD
330
6BC
100
AcDbEntity
  8
BEMA_UNG
 62
     7
100
AcDbVertex
100
AcDb2dVertex
 10
-37.76051074080278
 20
2.999646617857242
 30
0.0
  0
VERTEX
  5
6BE
330
6BC
100
AcDbEntity
  8
BEMA_UNG
 62
     7
100
AcDbVertex
100
AcDb2dVertex
 10
-37.76051074080278
 20
0.2716459582152791
 30
0.0
  0
SEQEND
  5
6BF
330
6BC
100
AcDbEntity
  8
BEMA_UNG
  0
POLYLINE
  5
6C0
330
1F
100
AcDbEntity
  8
BEMA_UNG
 62
     7
100
AcDb2dPolyline
 66
     1
 10
0.0
 20
0.0
 30
0.0
  0
VERTEX
  5
6C1
330
6C0
100
AcDbEntity
  8
BEMA_UNG
 62
     7
100
AcDbVertex
100
AcDb2dVertex
 10
-37.81115367784481
 20
2.999646617857242
 30
0.0
  0
VERTEX
  5
6C2
330
6C0
100
AcDbEntity
  8
BEMA_UNG
 62
     7
100
AcDbVertex
100
AcDb2dVertex
 10
-37.81115367784481
 20
-0.11420499067643
 30
0.0
  0
SEQEND
  5
6C3
330
6C0
100
AcDbEntity
  8
BEMA_UNG
  0
POLYLINE
  5
6C4
330
1F
100
AcDbEntity
  8
BEMA_UNG
 62
     7
100
AcDb2dPolyline
 66
     1
 10
0.0
 20
0.0
 30
0.0
  0
VERTEX
  5
6C5
330
6C4
100
AcDbEntity
  8
BEMA_UNG
 62
     7
100
AcDbVertex
100
AcDb2dVertex
 10
-37.86179661488686
 20
2.999646617857242
 30
0.0
  0
VERTEX
  5
6C6
330
6C4
100
AcDbEntity
  8
BEMA_UNG
 62
     7
100
AcDbVertex
100
AcDb2dVertex
 10
-37.86179661488686
 20
-0.5002281944560372
 30
0.0
  0
SEQEND
  5
6C7
330
6C4
100
AcDbEntity
  8
BEMA_UNG
  0
POLYLINE
  5
6C8
330
1F
100
AcDbEntity
  8
BEMA_UNG
 62
     7
100
AcDb2dPolyline
 66
     1
 10
0.0
 20
0.0
 30
0.0
  0
VERTEX
  5
6C9
330
6C8
100
AcDbEntity
  8
BEMA_UNG
 62
     7
100
AcDbVertex
100
AcDb2dVertex
 10
-38.31930559714417
 20
2.999646617857242
 30
0.0
  0
VERTEX
  5
6CA
330
6C8
100
AcDbEntity
  8
BEMA_UNG
 62
     7
100
AcDbVertex
100
AcDb2dVertex
 10
-38.31930559714417
 20
2.972602600457243
 30
0.0
  0
SEQEND
  5
6CB
330
6C8
100
AcDbEntity
  8
BEMA_UNG
  0
POLYLINE
  5
6CC
330
1F
100
AcDbEntity
  8
BEMA_UNG
 62
     7
100
AcDb2dPolyline
 66
     1
 10
0.0
 20
0.0
 30
0.0
  0
VERTEX
  5
6CD
330
6CC
100
AcDbEntity
  8
BEMA_UNG
 62
     7
100
AcDbVertex
100
AcDb2dVertex
 10
-38.31930559714417
 20
2.999646617857242
 30
0.0
  0
VERTEX
  5
6CE
330
6CC
100
AcDbEntity
  8
BEMA_UNG
 62
     7
100
AcDbVertex
100
AcDb2dVertex
 10
-38.31930559714417
 20
2.972602600457243
 30
0.0
  0
SEQEND
  5
6CF
330
6CC
100
AcDbEntity
  8
BEMA_UNG
  0
POLYLINE
  5
6D0
330
1F
100
AcDbEntity
  8
BEMA_UNG
 62
     7
100
AcDb2dPolyline
 66
     1
 10
0.0
 20
0.0
 30
0.0
  0
VERTEX
  5
6D1
330
6D0
100
AcDbEntity
  8
BEMA_UNG
 62
     7
100
AcDbVertex
100
AcDb2dVertex
 10
-38.26831815032634
 20
2.999646617857242
 30
0.0
  0
VERTEX
  5
6D2
330
6D0
100
AcDbEntity
  8
BEMA_UNG
 62
     7
100
AcDbVertex
100
AcDb2dVertex
 10
-38.26831815032634
 20
2.586579396677636
 30
0.0
  0
SEQEND
  5
6D3
330
6D0
100
AcDbEntity
  8
BEMA_UNG
  0
POLYLINE
  5
6D4
330
1F
100
AcDbEntity
  8
BEMA_UNG
 62
     7
100
AcDb2dPolyline
 66
     1
 10
0.0
 20
0.0
 30
0.0
  0
VERTEX
  5
6D5
330
6D4
100
AcDbEntity
  8
BEMA_UNG
 62
     7
100
AcDbVertex
100
AcDb2dVertex
 10
-38.2173307035085
 20
2.999646617857242
 30
0.0
  0
VERTEX
  5
6D6
330
6D4
100
AcDbEntity
  8
BEMA_UNG
 62
     7
100
AcDbVertex
100
AcDb2dVertex
 10
-38.2173307035085
 20
2.201072957561723
 30
0.0
  0
SEQEND
  5
6D7
330
6D4
100
AcDbEntity
  8
BEMA_UNG
  0
POLYLINE
  5
6D8
330
1F
100
AcDbEntity
  8
BEMA_UNG
 62
     7
100
AcDb2dPolyline
 66
     1
 10
0.0
 20
0.0
 30
0.0
  0
VERTEX
  5
6D9
330
6D8
100
AcDbEntity
  8
BEMA_UNG
 62
     7
100
AcDbVertex
100
AcDb2dVertex
 10
-38.16703227624226
 20
2.999646617857242
 30
0.0
  0
VERTEX
  5
6DA
330
6D8
100
AcDbEntity
  8
BEMA_UNG
 62
     7
100
AcDbVertex
100
AcDb2dVertex
 10
-38.16703227624226
 20
1.815049753782116
 30
0.0
  0
SEQEND
  5
6DB
330
6D8
100
AcDbEntity
  8
BEMA_UNG
  0
POLYLINE
  5
6DC
330
1F
100
AcDbEntity
  8
BEMA_UNG
 62
     7
100
AcDb2dPolyline
 66
     1
 10
0.0
 20
0.0
 30
0.0
  0
VERTEX
  5
6DD
330
6DC
100
AcDbEntity
  8
BEMA_UNG
 62
     7
100
AcDbVertex
100
AcDb2dVertex
 10
-38.11570031964863
 20
2.999646617857242
 30
0.0
  0
VERTEX
  5
6DE
330
6DC
100
AcDbEntity
  8
BEMA_UNG
 62
     7
100
AcDbVertex
100
AcDb2dVertex
 10
-38.11570031964863
 20
1.429198804890407
 30
0.0
  0
SEQEND
  5
6DF
330
6DC
100
AcDbEntity
  8
BEMA_UNG
  0
POLYLINE
  5
6E0
330
1F
100
AcDbEntity
  8
BEMA_UNG
 62
     7
100
AcDb2dPolyline
 66
     1
 10
0.0
 20
0.0
 30
0.0
  0
VERTEX
  5
6E1
330
6E0
100
AcDbEntity
  8
BEMA_UNG
 62
     7
100
AcDbVertex
100
AcDb2dVertex
 10
-38.06540189238239
 20
2.999646617857242
 30
0.0
  0
VERTEX
  5
6E2
330
6E0
100
AcDbEntity
  8
BEMA_UNG
 62
     7
100
AcDbVertex
100
AcDb2dVertex
 10
-38.06540189238239
 20
1.043175601110799
 30
0.0
  0
SEQEND
  5
6E3
330
6E0
100
AcDbEntity
  8
BEMA_UNG
  0
POLYLINE
  5
6E4
330
1F
100
AcDbEntity
  8
BEMA_UNG
 62
     7
100
AcDb2dPolyline
 66
     1
 10
0.0
 20
0.0
 30
0.0
  0
VERTEX
  5
6E5
330
6E4
100
AcDbEntity
  8
BEMA_UNG
 62
     7
100
AcDbVertex
100
AcDb2dVertex
 10
-38.01441444556455
 20
2.999646617857242
 30
0.0
  0
VERTEX
  5
6E6
330
6E4
100
AcDbEntity
  8
BEMA_UNG
 62
     7
100
AcDbVertex
100
AcDb2dVertex
 10
-38.01441444556455
 20
0.6576691619948863
 30
0.0
  0
SEQEND
  5
6E7
330
6E4
100
AcDbEntity
  8
BEMA_UNG
  0
POLYLINE
  5
6E8
330
1F
100
AcDbEntity
  8
BEMA_UNG
 62
     7
100
AcDb2dPolyline
 66
     1
 10
0.0
 20
0.0
 30
0.0
  0
VERTEX
  5
6E9
330
6E8
100
AcDbEntity
  8
BEMA_UNG
 62
     7
100
AcDbVertex
100
AcDb2dVertex
 10
-37.96342699874673
 20
2.999646617857242
 30
0.0
  0
VERTEX
  5
6EA
330
6E8
100
AcDbEntity
  8
BEMA_UNG
 62
     7
100
AcDbVertex
100
AcDb2dVertex
 10
-37.96342699874673
 20
0.2716459582152791
 30
0.0
  0
SEQEND
  5
6EB
330
6E8
100
AcDbEntity
  8
BEMA_UNG
  0
POLYLINE
  5
6EC
330
1F
100
AcDbEntity
  8
BEMA_UNG
 62
     7
100
AcDb2dPolyline
 66
     1
 10
0.0
 20
0.0
 30
0.0
  0
VERTEX
  5
6ED
330
6EC
100
AcDbEntity
  8
BEMA_UNG
 62
     7
100
AcDbVertex
100
AcDb2dVertex
 10
-37.91278406170468
 20
2.999646617857242
 30
0.0
  0
VERTEX
  5
6EE
330
6EC
100
AcDbEntity
  8
BEMA_UNG
 62
     7
100
AcDbVertex
100
AcDb2dVertex
 10
-37.91278406170468
 20
-0.11420499067643
 30
0.0
  0
SEQEND
  5
6EF
330
6EC
100
AcDbEntity
  8
BEMA_UNG
  0
POLYLINE
  5
6F0
330
1F
100
AcDbEntity
  8
BEMA_UNG
 62
     7
100
AcDb2dPolyline
 66
     1
 10
0.0
 20
0.0
 30
0.0
  0
VERTEX
  5
6F1
330
6F0
100
AcDbEntity
  8
BEMA_UNG
 62
     7
100
AcDbVertex
100
AcDb2dVertex
 10
-37.86179661488686
 20
2.999646617857242
 30
0.0
  0
VERTEX
  5
6F2
330
6F0
100
AcDbEntity
  8
BEMA_UNG
 62
     7
100
AcDbVertex
100
AcDb2dVertex
 10
-37.86179661488686
 20
-0.5002281944560372
 30
0.0
  0
SEQEND
  5
6F3
330
6F0
100
AcDbEntity
  8
BEMA_UNG
  0
POLYLINE
  5
6F4
330
1F
100
AcDbEntity
  8
BEMA_UNG
 62
     7
100
AcDb2dPolyline
 66
     1
 10
0.0
 20
0.0
 30
0.0
  0
VERTEX
  5
6F5
330
6F4
100
AcDbEntity
  8
BEMA_UNG
 62
     7
100
AcDbVertex
100
AcDb2dVertex
 10
-37.86179661488686
 20
119.5001059304171
 30
0.0
  0
VERTEX
  5
6F6
330
6F4
100
AcDbEntity
  8
BEMA_UNG
 62
     7
100
AcDbVertex
100
AcDb2dVertex
 10
-38.32275069490213
 20
115.9997143534401
 30
0.0
  0
VERTEX
  5
6F7
330
6F4
100
AcDbEntity
  8
BEMA_UNG
 62
     7
100
AcDbVertex
100
AcDb2dVertex
 10
-37.40084253487158
 20
115.9997143534401
 30
0.0
  0
VERTEX
  5
6F8
330
6F4
100
AcDbEntity
  8
BEMA_UNG
 62
     7
100
AcDbVertex
100
AcDb2dVertex
 10
-37.86179661488686
 20
119.5001059304171
 30
0.0
  0
SEQEND
  5
6F9
330
6F4
100
AcDbEntity
  8
BEMA_UNG
  0
POLYLINE
  5
6FA
330
1F
100
AcDbEntity
  8
BEMA_UNG
 62
     7
100
AcDb2dPolyline
 66
     1
 10
0.0
 20
0.0
 30
0.0
  0
VERTEX
  5
6FB
330
6FA
100
AcDbEntity
  8
BEMA_UNG
 62
     7
100
AcDbVertex
100
AcDb2dVertex
 10
-38.31930559714417
 20
115.9997143534401
 30
0.0
  0
VERTEX
  5
6FC
330
6FA
100
AcDbEntity
  8
BEMA_UNG
 62
     7
100
AcDbVertex
100
AcDb2dVertex
 10
-38.31930559714417
 20
116.026930625728
 30
0.0
  0
SEQEND
  5
6FD
330
6FA
100
AcDbEntity
  8
BEMA_UNG
  0
POLYLINE
  5
6FE
330
1F
100
AcDbEntity
  8
BEMA_UNG
 62
     7
100
AcDb2dPolyline
 66
     1
 10
0.0
 20
0.0
 30
0.0
  0
VERTEX
  5
6FF
330
6FE
100
AcDbEntity
  8
BEMA_UNG
 62
     7
100
AcDbVertex
100
AcDb2dVertex
 10
-38.31930559714417
 20
115.9997143534401
 30
0.0
  0
VERTEX
  5
700
330
6FE
100
AcDbEntity
  8
BEMA_UNG
 62
     7
100
AcDbVertex
100
AcDb2dVertex
 10
-38.31930559714417
 20
116.026930625728
 30
0.0
  0
SEQEND
  5
701
330
6FE
100
AcDbEntity
  8
BEMA_UNG
  0
POLYLINE
  5
702
330
1F
100
AcDbEntity
  8
BEMA_UNG
 62
     7
100
AcDb2dPolyline
 66
     1
 10
0.0
 20
0.0
 30
0.0
  0
VERTEX
  5
703
330
702
100
AcDbEntity
  8
BEMA_UNG
 62
     7
100
AcDbVertex
100
AcDb2dVertex
 10
-38.26831815032634
 20
115.9997143534401
 30
0.0
  0
VERTEX
  5
704
330
702
100
AcDbEntity
  8
BEMA_UNG
 62
     7
100
AcDbVertex
100
AcDb2dVertex
 10
-38.26831815032634
 20
116.4132983392834
 30
0.0
  0
SEQEND
  5
705
330
702
100
AcDbEntity
  8
BEMA_UNG
  0
POLYLINE
  5
706
330
1F
100
AcDbEntity
  8
BEMA_UNG
 62
     7
100
AcDb2dPolyline
 66
     1
 10
0.0
 20
0.0
 30
0.0
  0
VERTEX
  5
707
330
706
100
AcDbEntity
  8
BEMA_UNG
 62
     7
100
AcDbVertex
100
AcDb2dVertex
 10
-38.2173307035085
 20
115.9997143534401
 30
0.0
  0
VERTEX
  5
708
330
706
100
AcDbEntity
  8
BEMA_UNG
 62
     7
100
AcDbVertex
100
AcDb2dVertex
 10
-38.2173307035085
 20
116.7984602686235
 30
0.0
  0
SEQEND
  5
709
330
706
100
AcDbEntity
  8
BEMA_UNG
  0
POLYLINE
  5
70A
330
1F
100
AcDbEntity
  8
BEMA_UNG
 62
     7
100
AcDb2dPolyline
 66
     1
 10
0.0
 20
0.0
 30
0.0
  0
VERTEX
  5
70B
330
70A
100
AcDbEntity
  8
BEMA_UNG
 62
     7
100
AcDbVertex
100
AcDb2dVertex
 10
-38.16703227624226
 20
115.9997143534401
 30
0.0
  0
VERTEX
  5
70C
330
70A
100
AcDbEntity
  8
BEMA_UNG
 62
     7
100
AcDbVertex
100
AcDb2dVertex
 10
-38.16703227624226
 20
117.1848279821789
 30
0.0
  0
SEQEND
  5
70D
330
70A
100
AcDbEntity
  8
BEMA_UNG
  0
POLYLINE
  5
70E
330
1F
100
AcDbEntity
  8
BEMA_UNG
 62
     7
100
AcDb2dPolyline
 66
     1
 10
0.0
 20
0.0
 30
0.0
  0
VERTEX
  5
70F
330
70E
100
AcDbEntity
  8
BEMA_UNG
 62
     7
100
AcDbVertex
100
AcDb2dVertex
 10
-38.11570031964863
 20
115.9997143534401
 30
0.0
  0
VERTEX
  5
710
330
70E
100
AcDbEntity
  8
BEMA_UNG
 62
     7
100
AcDbVertex
100
AcDb2dVertex
 10
-38.11570031964863
 20
117.5703344212948
 30
0.0
  0
SEQEND
  5
711
330
70E
100
AcDbEntity
  8
BEMA_UNG
  0
POLYLINE
  5
712
330
1F
100
AcDbEntity
  8
BEMA_UNG
 62
     7
100
AcDb2dPolyline
 66
     1
 10
0.0
 20
0.0
 30
0.0
  0
VERTEX
  5
713
330
712
100
AcDbEntity
  8
BEMA_UNG
 62
     7
100
AcDbVertex
100
AcDb2dVertex
 10
-38.06540189238239
 20
115.9997143534401
 30
0.0
  0
VERTEX
  5
714
330
712
100
AcDbEntity
  8
BEMA_UNG
 62
     7
100
AcDbVertex
100
AcDb2dVertex
 10
-38.06540189238239
 20
117.9567021348502
 30
0.0
  0
SEQEND
  5
715
330
712
100
AcDbEntity
  8
BEMA_UNG
  0
POLYLINE
  5
716
330
1F
100
AcDbEntity
  8
BEMA_UNG
 62
     7
100
AcDb2dPolyline
 66
     1
 10
0.0
 20
0.0
 30
0.0
  0
VERTEX
  5
717
330
716
100
AcDbEntity
  8
BEMA_UNG
 62
     7
100
AcDbVertex
100
AcDb2dVertex
 10
-38.01441444556455
 20
115.9997143534401
 30
0.0
  0
VERTEX
  5
718
330
716
100
AcDbEntity
  8
BEMA_UNG
 62
     7
100
AcDbVertex
100
AcDb2dVertex
 10
-38.01441444556455
 20
118.3422085739662
 30
0.0
  0
SEQEND
  5
719
330
716
100
AcDbEntity
  8
BEMA_UNG
  0
POLYLINE
  5
71A
330
1F
100
AcDbEntity
  8
BEMA_UNG
 62
     7
100
AcDb2dPolyline
 66
     1
 10
0.0
 20
0.0
 30
0.0
  0
VERTEX
  5
71B
330
71A
100
AcDbEntity
  8
BEMA_UNG
 62
     7
100
AcDbVertex
100
AcDb2dVertex
 10
-37.96342699874673
 20
115.9997143534401
 30
0.0
  0
VERTEX
  5
71C
330
71A
100
AcDbEntity
  8
BEMA_UNG
 62
     7
100
AcDbVertex
100
AcDb2dVertex
 10
-37.96342699874673
 20
118.7282317777458
 30
0.0
  0
SEQEND
  5
71D
330
71A
100
AcDbEntity
  8
BEMA_UNG
  0
POLYLINE
  5
71E
330
1F
100
AcDbEntity
  8
BEMA_UNG
 62
     7
100
AcDb2dPolyline
 66
     1
 10
0.0
 20
0.0
 30
0.0
  0
VERTEX
  5
71F
330
71E
100
AcDbEntity
  8
BEMA_UNG
 62
     7
100
AcDbVertex
100
AcDb2dVertex
 10
-37.91278406170468
 20
115.9997143534401
 30
0.0
  0
VERTEX
  5
720
330
71E
100
AcDbEntity
  8
BEMA_UNG
 62
     7
100
AcDbVertex
100
AcDb2dVertex
 10
-37.91278406170468
 20
119.1137382168617
 30
0.0
  0
SEQEND
  5
721
330
71E
100
AcDbEntity
  8
BEMA_UNG
  0
POLYLINE
  5
722
330
1F
100
AcDbEntity
  8
BEMA_UNG
 62
     7
100
AcDb2dPolyline
 66
     1
 10
0.0
 20
0.0
 30
0.0
  0
VERTEX
  5
723
330
722
100
AcDbEntity
  8
BEMA_UNG
 62
     7
100
AcDbVertex
100
AcDb2dVertex
 10
-37.86179661488686
 20
115.9997143534401
 30
0.0
  0
VERTEX
  5
724
330
722
100
AcDbEntity
  8
BEMA_UNG
 62
     7
100
AcDbVertex
100
AcDb2dVertex
 10
-37.86179661488686
 20
119.5001059304171
 30
0.0
  0
SEQEND
  5
725
330
722
100
AcDbEntity
  8
BEMA_UNG
  0
POLYLINE
  5
726
330
1F
100
AcDbEntity
  8
BEMA_UNG
 62
     7
100
AcDb2dPolyline
 66
     1
 10
0.0
 20
0.0
 30
0.0
  0
VERTEX
  5
727
330
726
100
AcDbEntity
  8
BEMA_UNG
 62
     7
100
AcDbVertex
100
AcDb2dVertex
 10
-37.40497665218113
 20
115.9997143534401
 30
0.0
  0
VERTEX
  5
728
330
726
100
AcDbEntity
  8
BEMA_UNG
 62
     7
100
AcDbVertex
100
AcDb2dVertex
 10
-37.40497665218113
 20
116.026930625728
 30
0.0
  0
SEQEND
  5
729
330
726
100
AcDbEntity
  8
BEMA_UNG
  0
POLYLINE
  5
72A
330
1F
100
AcDbEntity
  8
BEMA_UNG
 62
     7
100
AcDb2dPolyline
 66
     1
 10
0.0
 20
0.0
 30
0.0
  0
VERTEX
  5
72B
330
72A
100
AcDbEntity
  8
BEMA_UNG
 62
     7
100
AcDbVertex
100
AcDb2dVertex
 10
-37.40497665218113
 20
115.9997143534401
 30
0.0
  0
VERTEX
  5
72C
330
72A
100
AcDbEntity
  8
BEMA_UNG
 62
     7
100
AcDbVertex
100
AcDb2dVertex
 10
-37.40497665218113
 20
116.026930625728
 30
0.0
  0
SEQEND
  5
72D
330
72A
100
AcDbEntity
  8
BEMA_UNG
  0
POLYLINE
  5
72E
330
1F
100
AcDbEntity
  8
BEMA_UNG
 62
     7
100
AcDb2dPolyline
 66
     1
 10
0.0
 20
0.0
 30
0.0
  0
VERTEX
  5
72F
330
72E
100
AcDbEntity
  8
BEMA_UNG
 62
     7
100
AcDbVertex
100
AcDb2dVertex
 10
-37.45561958922317
 20
115.9997143534401
 30
0.0
  0
VERTEX
  5
730
330
72E
100
AcDbEntity
  8
BEMA_UNG
 62
     7
100
AcDbVertex
100
AcDb2dVertex
 10
-37.45561958922317
 20
116.4132983392834
 30
0.0
  0
SEQEND
  5
731
330
72E
100
AcDbEntity
  8
BEMA_UNG
  0
POLYLINE
  5
732
330
1F
100
AcDbEntity
  8
BEMA_UNG
 62
     7
100
AcDb2dPolyline
 66
     1
 10
0.0
 20
0.0
 30
0.0
  0
VERTEX
  5
733
330
732
100
AcDbEntity
  8
BEMA_UNG
 62
     7
100
AcDbVertex
100
AcDb2dVertex
 10
-37.506607036041
 20
115.9997143534401
 30
0.0
  0
VERTEX
  5
734
330
732
100
AcDbEntity
  8
BEMA_UNG
 62
     7
100
AcDbVertex
100
AcDb2dVertex
 10
-37.506607036041
 20
116.7984602686235
 30
0.0
  0
SEQEND
  5
735
330
732
100
AcDbEntity
  8
BEMA_UNG
  0
POLYLINE
  5
736
330
1F
100
AcDbEntity
  8
BEMA_UNG
 62
     7
100
AcDb2dPolyline
 66
     1
 10
0.0
 20
0.0
 30
0.0
  0
VERTEX
  5
737
330
736
100
AcDbEntity
  8
BEMA_UNG
 62
     7
100
AcDbVertex
100
AcDb2dVertex
 10
-37.55690546330725
 20
115.9997143534401
 30
0.0
  0
VERTEX
  5
738
330
736
100
AcDbEntity
  8
BEMA_UNG
 62
     7
100
AcDbVertex
100
AcDb2dVertex
 10
-37.55690546330725
 20
117.1848279821789
 30
0.0
  0
SEQEND
  5
739
330
736
100
AcDbEntity
  8
BEMA_UNG
  0
POLYLINE
  5
73A
330
1F
100
AcDbEntity
  8
BEMA_UNG
 62
     7
100
AcDb2dPolyline
 66
     1
 10
0.0
 20
0.0
 30
0.0
  0
VERTEX
  5
73B
330
73A
100
AcDbEntity
  8
BEMA_UNG
 62
     7
100
AcDbVertex
100
AcDb2dVertex
 10
-37.60823741990087
 20
115.9997143534401
 30
0.0
  0
VERTEX
  5
73C
330
73A
100
AcDbEntity
  8
BEMA_UNG
 62
     7
100
AcDbVertex
100
AcDb2dVertex
 10
-37.60823741990087
 20
117.5703344212948
 30
0.0
  0
SEQEND
  5
73D
330
73A
100
AcDbEntity
  8
BEMA_UNG
  0
POLYLINE
  5
73E
330
1F
100
AcDbEntity
  8
BEMA_UNG
 62
     7
100
AcDb2dPolyline
 66
     1
 10
0.0
 20
0.0
 30
0.0
  0
VERTEX
  5
73F
330
73E
100
AcDbEntity
  8
BEMA_UNG
 62
     7
100
AcDbVertex
100
AcDb2dVertex
 10
-37.65888035694291
 20
115.9997143534401
 30
0.0
  0
VERTEX
  5
740
330
73E
100
AcDbEntity
  8
BEMA_UNG
 62
     7
100
AcDbVertex
100
AcDb2dVertex
 10
-37.65888035694291
 20
117.9567021348502
 30
0.0
  0
SEQEND
  5
741
330
73E
100
AcDbEntity
  8
BEMA_UNG
  0
POLYLINE
  5
742
330
1F
100
AcDbEntity
  8
BEMA_UNG
 62
     7
100
AcDb2dPolyline
 66
     1
 10
0.0
 20
0.0
 30
0.0
  0
VERTEX
  5
743
330
742
100
AcDbEntity
  8
BEMA_UNG
 62
     7
100
AcDbVertex
100
AcDb2dVertex
 10
-37.70952329398495
 20
115.9997143534401
 30
0.0
  0
VERTEX
  5
744
330
742
100
AcDbEntity
  8
BEMA_UNG
 62
     7
100
AcDbVertex
100
AcDb2dVertex
 10
-37.70952329398495
 20
118.3422085739662
 30
0.0
  0
SEQEND
  5
745
330
742
100
AcDbEntity
  8
BEMA_UNG
  0
POLYLINE
  5
746
330
1F
100
AcDbEntity
  8
BEMA_UNG
 62
     7
100
AcDb2dPolyline
 66
     1
 10
0.0
 20
0.0
 30
0.0
  0
VERTEX
  5
747
330
746
100
AcDbEntity
  8
BEMA_UNG
 62
     7
100
AcDbVertex
100
AcDb2dVertex
 10
-37.76051074080278
 20
115.9997143534401
 30
0.0
  0
VERTEX
  5
748
330
746
100
AcDbEntity
  8
BEMA_UNG
 62
     7
100
AcDbVertex
100
AcDb2dVertex
 10
-37.76051074080278
 20
118.7282317777458
 30
0.0
  0
SEQEND
  5
749
330
746
100
AcDbEntity
  8
BEMA_UNG
  0
POLYLINE
  5
74A
330
1F
100
AcDbEntity
  8
BEMA_UNG
 62
     7
100
AcDb2dPolyline
 66
     1
 10
0.0
 20
0.0
 30
0.0
  0
VERTEX
  5
74B
330
74A
100
AcDbEntity
  8
BEMA_UNG
 62
     7
100
AcDbVertex
100
AcDb2dVertex
 10
-37.81115367784481
 20
115.9997143534401
 30
0.0
  0
VERTEX
  5
74C
330
74A
100
AcDbEntity
  8
BEMA_UNG
 62
     7
100
AcDbVertex
100
AcDb2dVertex
 10
-37.81115367784481
 20
119.1137382168617
 30
0.0
  0
SEQEND
  5
74D
330
74A
100
AcDbEntity
  8
BEMA_UNG
  0
POLYLINE
  5
74E
330
1F
100
AcDbEntity
  8
BEMA_UNG
 62
     7
100
AcDb2dPolyline
 66
     1
 10
0.0
 20
0.0
 30
0.0
  0
VERTEX
  5
74F
330
74E
100
AcDbEntity
  8
BEMA_UNG
 62
     7
100
AcDbVertex
100
AcDb2dVertex
 10
-37.86179661488686
 20
115.9997143534401
 30
0.0
  0
VERTEX
  5
750
330
74E
100
AcDbEntity
  8
BEMA_UNG
 62
     7
100
AcDbVertex
100
AcDb2dVertex
 10
-37.86179661488686
 20
119.5001059304171
 30
0.0
  0
SEQEND
  5
751
330
74E
100
AcDbEntity
  8
BEMA_UNG
  0
POLYLINE
  5
752
330
1F
100
AcDbEntity
  8
BEMA_UNG
 62
     7
100
AcDb2dPolyline
 66
     1
 10
0.0
 20
0.0
 30
0.0
  0
VERTEX
  5
753
330
752
100
AcDbEntity
  8
BEMA_UNG
 62
     7
100
AcDbVertex
100
AcDb2dVertex
 10
-18.99988639004661
 20
119.5001059304171
 30
0.0
  0
VERTEX
  5
754
330
752
100
AcDbEntity
  8
BEMA_UNG
 62
     7
100
AcDbVertex
100
AcDb2dVertex
 10
-18.99988639004661
 20
131.9093480545951
 30
0.0
  0
SEQEND
  5
755
330
752
100
AcDbEntity
  8
BEMA_UNG
  0
POLYLINE
  5
756
330
1F
100
AcDbEntity
  8
BEMA_UNG
 62
     7
100
AcDb2dPolyline
 66
     1
 10
0.0
 20
0.0
 30
0.0
  0
VERTEX
  5
757
330
756
100
AcDbEntity
  8
BEMA_UNG
 62
     7
100
AcDbVertex
100
AcDb2dVertex
 10
-8.999801128011217
 20
119.5001059304171
 30
0.0
  0
VERTEX
  5
758
330
756
100
AcDbEntity
  8
BEMA_UNG
 62
     7
100
AcDbVertex
100
AcDb2dVertex
 10
-8.999801128011217
 20
131.9093480545951
 30
0.0
  0
SEQEND
  5
759
330
756
100
AcDbEntity
  8
BEMA_UNG
  0
POLYLINE
  5
75A
330
1F
100
AcDbEntity
  8
BEMA_UNG
 62
     7
100
AcDb2dPolyline
 66
     1
 10
0.0
 20
0.0
 30
0.0
  0
VERTEX
  5
75B
330
75A
100
AcDbEntity
  8
BEMA_UNG
 62
     7
100
AcDbVertex
100
AcDb2dVertex
 10
-18.99988639004661
 20
129.9089520414346
 30
0.0
  0
VERTEX
  5
75C
330
75A
100
AcDbEntity
  8
BEMA_UNG
 62
     7
100
AcDbVertex
100
AcDb2dVertex
 10
5.502682393904307
 20
129.9089520414346
 30
0.0
  0
SEQEND
  5
75D
330
75A
100
AcDbEntity
  8
BEMA_UNG
  0
POLYLINE
  5
75E
330
1F
100
AcDbEntity
  8
BEMA_UNG
 62
     7
100
AcDb2dPolyline
 66
     1
 10
0.0
 20
0.0
 30
0.0
  0
VERTEX
  5
75F
330
75E
100
AcDbEntity
  8
BEMA_UNG
 62
     7
100
AcDbVertex
100
AcDb2dVertex
 10
-18.99988639004661
 20
129.9089520414346
 30
0.0
  0
VERTEX
  5
760
330
75E
100
AcDbEntity
  8
BEMA_UNG
 62
     7
100
AcDbVertex
100
AcDb2dVertex
 10
-15.50001157773333
 20
129.448686980971
 30
0.0
  0
VERTEX
  5
761
330
75E
100
AcDbEntity
  8
BEMA_UNG
 62
     7
100
AcDbVertex
100
AcDb2dVertex
 10
-15.50001157773333
 20
130.3699061214499
 30
0.0
  0
VERTEX
  5
762
330
75E
100
AcDbEntity
  8
BEMA_UNG
 62
     7
100
AcDbVertex
100
AcDb2dVertex
 10
-18.99988639004661
 20
129.9089520414346
 30
0.0
  0
SEQEND
  5
763
330
75E
100
AcDbEntity
  8
BEMA_UNG
  0
POLYLINE
  5
764
330
1F
100
AcDbEntity
  8
BEMA_UNG
 62
     7
100
AcDb2dPolyline
 66
     1
 10
0.0
 20
0.0
 30
0.0
  0
VERTEX
  5
765
330
764
100
AcDbEntity
  8
BEMA_UNG
 62
     7
100
AcDbVertex
100
AcDb2dVertex
 10
-15.50001157773333
 20
129.4521320787289
 30
0.0
  0
VERTEX
  5
766
330
764
100
AcDbEntity
  8
BEMA_UNG
 62
     7
100
AcDbVertex
100
AcDb2dVertex
 10
-15.52722785002123
 20
129.4521320787289
 30
0.0
  0
SEQEND
  5
767
330
764
100
AcDbEntity
  8
BEMA_UNG
  0
POLYLINE
  5
768
330
1F
100
AcDbEntity
  8
BEMA_UNG
 62
     7
100
AcDb2dPolyline
 66
     1
 10
0.0
 20
0.0
 30
0.0
  0
VERTEX
  5
769
330
768
100
AcDbEntity
  8
BEMA_UNG
 62
     7
100
AcDbVertex
100
AcDb2dVertex
 10
-15.50001157773333
 20
129.4521320787289
 30
0.0
  0
VERTEX
  5
76A
330
768
100
AcDbEntity
  8
BEMA_UNG
 62
     7
100
AcDbVertex
100
AcDb2dVertex
 10
-15.52722785002123
 20
129.4521320787289
 30
0.0
  0
SEQEND
  5
76B
330
768
100
AcDbEntity
  8
BEMA_UNG
  0
POLYLINE
  5
76C
330
1F
100
AcDbEntity
  8
BEMA_UNG
 62
     7
100
AcDb2dPolyline
 66
     1
 10
0.0
 20
0.0
 30
0.0
  0
VERTEX
  5
76D
330
76C
100
AcDbEntity
  8
BEMA_UNG
 62
     7
100
AcDbVertex
100
AcDb2dVertex
 10
-15.50001157773333
 20
129.5031195255467
 30
0.0
  0
VERTEX
  5
76E
330
76C
100
AcDbEntity
  8
BEMA_UNG
 62
     7
100
AcDbVertex
100
AcDb2dVertex
 10
-15.91307879891294
 20
129.5031195255467
 30
0.0
  0
SEQEND
  5
76F
330
76C
100
AcDbEntity
  8
BEMA_UNG
  0
POLYLINE
  5
770
330
1F
100
AcDbEntity
  8
BEMA_UNG
 62
     7
100
AcDb2dPolyline
 66
     1
 10
0.0
 20
0.0
 30
0.0
  0
VERTEX
  5
771
330
770
100
AcDbEntity
  8
BEMA_UNG
 62
     7
100
AcDbVertex
100
AcDb2dVertex
 10
-15.50001157773333
 20
129.5539347174767
 30
0.0
  0
VERTEX
  5
772
330
770
100
AcDbEntity
  8
BEMA_UNG
 62
     7
100
AcDbVertex
100
AcDb2dVertex
 10
-16.29875749291675
 20
129.5539347174767
 30
0.0
  0
SEQEND
  5
773
330
770
100
AcDbEntity
  8
BEMA_UNG
  0
POLYLINE
  5
774
330
1F
100
AcDbEntity
  8
BEMA_UNG
 62
     7
100
AcDb2dPolyline
 66
     1
 10
0.0
 20
0.0
 30
0.0
  0
VERTEX
  5
775
330
774
100
AcDbEntity
  8
BEMA_UNG
 62
     7
100
AcDbVertex
100
AcDb2dVertex
 10
-15.50001157773333
 20
129.6047499094066
 30
0.0
  0
VERTEX
  5
776
330
774
100
AcDbEntity
  8
BEMA_UNG
 62
     7
100
AcDbVertex
100
AcDb2dVertex
 10
-16.68426393203266
 20
129.6047499094066
 30
0.0
  0
SEQEND
  5
777
330
774
100
AcDbEntity
  8
BEMA_UNG
  0
POLYLINE
  5
778
330
1F
100
AcDbEntity
  8
BEMA_UNG
 62
     7
100
AcDb2dPolyline
 66
     1
 10
0.0
 20
0.0
 30
0.0
  0
VERTEX
  5
779
330
778
100
AcDbEntity
  8
BEMA_UNG
 62
     7
100
AcDbVertex
100
AcDb2dVertex
 10
-15.50001157773333
 20
129.6553928464486
 30
0.0
  0
VERTEX
  5
77A
330
778
100
AcDbEntity
  8
BEMA_UNG
 62
     7
100
AcDbVertex
100
AcDb2dVertex
 10
-17.07063164558807
 20
129.6553928464486
 30
0.0
  0
SEQEND
  5
77B
330
778
100
AcDbEntity
  8
BEMA_UNG
  0
POLYLINE
  5
77C
330
1F
100
AcDbEntity
  8
BEMA_UNG
 62
     7
100
AcDb2dPolyline
 66
     1
 10
0.0
 20
0.0
 30
0.0
  0
VERTEX
  5
77D
330
77C
100
AcDbEntity
  8
BEMA_UNG
 62
     7
100
AcDbVertex
100
AcDb2dVertex
 10
-15.50001157773333
 20
129.7062080383786
 30
0.0
  0
VERTEX
  5
77E
330
77C
100
AcDbEntity
  8
BEMA_UNG
 62
     7
100
AcDbVertex
100
AcDb2dVertex
 10
-17.45648259447977
 20
129.7062080383786
 30
0.0
  0
SEQEND
  5
77F
330
77C
100
AcDbEntity
  8
BEMA_UNG
  0
POLYLINE
  5
780
330
1F
100
AcDbEntity
  8
BEMA_UNG
 62
     7
100
AcDb2dPolyline
 66
     1
 10
0.0
 20
0.0
 30
0.0
  0
VERTEX
  5
781
330
780
100
AcDbEntity
  8
BEMA_UNG
 62
     7
100
AcDbVertex
100
AcDb2dVertex
 10
-15.50001157773333
 20
129.7570232303085
 30
0.0
  0
VERTEX
  5
782
330
780
100
AcDbEntity
  8
BEMA_UNG
 62
     7
100
AcDbVertex
100
AcDb2dVertex
 10
-17.84216128848358
 20
129.7570232303085
 30
0.0
  0
SEQEND
  5
783
330
780
100
AcDbEntity
  8
BEMA_UNG
  0
POLYLINE
  5
784
330
1F
100
AcDbEntity
  8
BEMA_UNG
 62
     7
100
AcDb2dPolyline
 66
     1
 10
0.0
 20
0.0
 30
0.0
  0
VERTEX
  5
785
330
784
100
AcDbEntity
  8
BEMA_UNG
 62
     7
100
AcDbVertex
100
AcDb2dVertex
 10
-15.50001157773333
 20
129.8078384222385
 30
0.0
  0
VERTEX
  5
786
330
784
100
AcDbEntity
  8
BEMA_UNG
 62
     7
100
AcDbVertex
100
AcDb2dVertex
 10
-18.22801223737529
 20
129.8078384222385
 30
0.0
  0
SEQEND
  5
787
330
784
100
AcDbEntity
  8
BEMA_UNG
  0
POLYLINE
  5
788
330
1F
100
AcDbEntity
  8
BEMA_UNG
 62
     7
100
AcDb2dPolyline
 66
     1
 10
0.0
 20
0.0
 30
0.0
  0
VERTEX
  5
789
330
788
100
AcDbEntity
  8
BEMA_UNG
 62
     7
100
AcDbVertex
100
AcDb2dVertex
 10
-15.50001157773333
 20
129.8581368495047
 30
0.0
  0
VERTEX
  5
78A
330
788
100
AcDbEntity
  8
BEMA_UNG
 62
     7
100
AcDbVertex
100
AcDb2dVertex
 10
-18.6140354411549
 20
129.8581368495047
 30
0.0
  0
SEQEND
  5
78B
330
788
100
AcDbEntity
  8
BEMA_UNG
  0
POLYLINE
  5
78C
330
1F
100
AcDbEntity
  8
BEMA_UNG
 62
     7
100
AcDb2dPolyline
 66
     1
 10
0.0
 20
0.0
 30
0.0
  0
VERTEX
  5
78D
330
78C
100
AcDbEntity
  8
BEMA_UNG
 62
     7
100
AcDbVertex
100
AcDb2dVertex
 10
-15.50001157773333
 20
129.9089520414346
 30
0.0
  0
VERTEX
  5
78E
330
78C
100
AcDbEntity
  8
BEMA_UNG
 62
     7
100
AcDbVertex
100
AcDb2dVertex
 10
-18.99988639004661
 20
129.9089520414346
 30
0.0
  0
SEQEND
  5
78F
330
78C
100
AcDbEntity
  8
BEMA_UNG
  0
POLYLINE
  5
790
330
1F
100
AcDbEntity
  8
BEMA_UNG
 62
     7
100
AcDb2dPolyline
 66
     1
 10
0.0
 20
0.0
 30
0.0
  0
VERTEX
  5
791
330
790
100
AcDbEntity
  8
BEMA_UNG
 62
     7
100
AcDbVertex
100
AcDb2dVertex
 10
-15.50001157773333
 20
130.3666332785799
 30
0.0
  0
VERTEX
  5
792
330
790
100
AcDbEntity
  8
BEMA_UNG
 62
     7
100
AcDbVertex
100
AcDb2dVertex
 10
-15.52722785002123
 20
130.3666332785799
 30
0.0
  0
SEQEND
  5
793
330
790
100
AcDbEntity
  8
BEMA_UNG
  0
POLYLINE
  5
794
330
1F
100
AcDbEntity
  8
BEMA_UNG
 62
     7
100
AcDb2dPolyline
 66
     1
 10
0.0
 20
0.0
 30
0.0
  0
VERTEX
  5
795
330
794
100
AcDbEntity
  8
BEMA_UNG
 62
     7
100
AcDbVertex
100
AcDb2dVertex
 10
-15.50001157773333
 20
130.3666332785799
 30
0.0
  0
VERTEX
  5
796
330
794
100
AcDbEntity
  8
BEMA_UNG
 62
     7
100
AcDbVertex
100
AcDb2dVertex
 10
-15.52722785002123
 20
130.3666332785799
 30
0.0
  0
SEQEND
  5
797
330
794
100
AcDbEntity
  8
BEMA_UNG
  0
POLYLINE
  5
798
330
1F
100
AcDbEntity
  8
BEMA_UNG
 62
     7
100
AcDb2dPolyline
 66
     1
 10
0.0
 20
0.0
 30
0.0
  0
VERTEX
  5
799
330
798
100
AcDbEntity
  8
BEMA_UNG
 62
     7
100
AcDbVertex
100
AcDb2dVertex
 10
-15.50001157773333
 20
130.3154735768741
 30
0.0
  0
VERTEX
  5
79A
330
798
100
AcDbEntity
  8
BEMA_UNG
 62
     7
100
AcDbVertex
100
AcDb2dVertex
 10
-15.91307879891294
 20
130.3154735768741
 30
0.0
  0
SEQEND
  5
79B
330
798
100
AcDbEntity
  8
BEMA_UNG
  0
POLYLINE
  5
79C
330
1F
100
AcDbEntity
  8
BEMA_UNG
 62
     7
100
AcDb2dPolyline
 66
     1
 10
0.0
 20
0.0
 30
0.0
  0
VERTEX
  5
79D
330
79C
100
AcDbEntity
  8
BEMA_UNG
 62
     7
100
AcDbVertex
100
AcDb2dVertex
 10
-15.50001157773333
 20
130.2646583849442
 30
0.0
  0
VERTEX
  5
79E
330
79C
100
AcDbEntity
  8
BEMA_UNG
 62
     7
100
AcDbVertex
100
AcDb2dVertex
 10
-16.29875749291675
 20
130.2646583849442
 30
0.0
  0
SEQEND
  5
79F
330
79C
100
AcDbEntity
  8
BEMA_UNG
  0
POLYLINE
  5
7A0
330
1F
100
AcDbEntity
  8
BEMA_UNG
 62
     7
100
AcDb2dPolyline
 66
     1
 10
0.0
 20
0.0
 30
0.0
  0
VERTEX
  5
7A1
330
7A0
100
AcDbEntity
  8
BEMA_UNG
 62
     7
100
AcDbVertex
100
AcDb2dVertex
 10
-15.50001157773333
 20
130.2138431930142
 30
0.0
  0
VERTEX
  5
7A2
330
7A0
100
AcDbEntity
  8
BEMA_UNG
 62
     7
100
AcDbVertex
100
AcDb2dVertex
 10
-16.68426393203266
 20
130.2138431930142
 30
0.0
  0
SEQEND
  5
7A3
330
7A0
100
AcDbEntity
  8
BEMA_UNG
  0
POLYLINE
  5
7A4
330
1F
100
AcDbEntity
  8
BEMA_UNG
 62
     7
100
AcDb2dPolyline
 66
     1
 10
0.0
 20
0.0
 30
0.0
  0
VERTEX
  5
7A5
330
7A4
100
AcDbEntity
  8
BEMA_UNG
 62
     7
100
AcDbVertex
100
AcDb2dVertex
 10
-15.50001157773333
 20
130.1630280010843
 30
0.0
  0
VERTEX
  5
7A6
330
7A4
100
AcDbEntity
  8
BEMA_UNG
 62
     7
100
AcDbVertex
100
AcDb2dVertex
 10
-17.07063164558807
 20
130.1630280010843
 30
0.0
  0
SEQEND
  5
7A7
330
7A4
100
AcDbEntity
  8
BEMA_UNG
  0
POLYLINE
  5
7A8
330
1F
100
AcDbEntity
  8
BEMA_UNG
 62
     7
100
AcDb2dPolyline
 66
     1
 10
0.0
 20
0.0
 30
0.0
  0
VERTEX
  5
7A9
330
7A8
100
AcDbEntity
  8
BEMA_UNG
 62
     7
100
AcDbVertex
100
AcDb2dVertex
 10
-15.50001157773333
 20
130.1123850640423
 30
0.0
  0
VERTEX
  5
7AA
330
7A8
100
AcDbEntity
  8
BEMA_UNG
 62
     7
100
AcDbVertex
100
AcDb2dVertex
 10
-17.45648259447977
 20
130.1123850640423
 30
0.0
  0
SEQEND
  5
7AB
330
7A8
100
AcDbEntity
  8
BEMA_UNG
  0
POLYLINE
  5
7AC
330
1F
100
AcDbEntity
  8
BEMA_UNG
 62
     7
100
AcDb2dPolyline
 66
     1
 10
0.0
 20
0.0
 30
0.0
  0
VERTEX
  5
7AD
330
7AC
100
AcDbEntity
  8
BEMA_UNG
 62
     7
100
AcDbVertex
100
AcDb2dVertex
 10
-15.50001157773333
 20
130.0615698721123
 30
0.0
  0
VERTEX
  5
7AE
330
7AC
100
AcDbEntity
  8
BEMA_UNG
 62
     7
100
AcDbVertex
100
AcDb2dVertex
 10
-17.84216128848358
 20
130.0615698721123
 30
0.0
  0
SEQEND
  5
7AF
330
7AC
100
AcDbEntity
  8
BEMA_UNG
  0
POLYLINE
  5
7B0
330
1F
100
AcDbEntity
  8
BEMA_UNG
 62
     7
100
AcDb2dPolyline
 66
     1
 10
0.0
 20
0.0
 30
0.0
  0
VERTEX
  5
7B1
330
7B0
100
AcDbEntity
  8
BEMA_UNG
 62
     7
100
AcDbVertex
100
AcDb2dVertex
 10
-15.50001157773333
 20
130.0105824252945
 30
0.0
  0
VERTEX
  5
7B2
330
7B0
100
AcDbEntity
  8
BEMA_UNG
 62
     7
100
AcDbVertex
100
AcDb2dVertex
 10
-18.22801223737529
 20
130.0105824252945
 30
0.0
  0
SEQEND
  5
7B3
330
7B0
100
AcDbEntity
  8
BEMA_UNG
  0
POLYLINE
  5
7B4
330
1F
100
AcDbEntity
  8
BEMA_UNG
 62
     7
100
AcDb2dPolyline
 66
     1
 10
0.0
 20
0.0
 30
0.0
  0
VERTEX
  5
7B5
330
7B4
100
AcDbEntity
  8
BEMA_UNG
 62
     7
100
AcDbVertex
100
AcDb2dVertex
 10
-15.50001157773333
 20
129.9597672333646
 30
0.0
  0
VERTEX
  5
7B6
330
7B4
100
AcDbEntity
  8
BEMA_UNG
 62
     7
100
AcDbVertex
100
AcDb2dVertex
 10
-18.6140354411549
 20
129.9597672333646
 30
0.0
  0
SEQEND
  5
7B7
330
7B4
100
AcDbEntity
  8
BEMA_UNG
  0
POLYLINE
  5
7B8
330
1F
100
AcDbEntity
  8
BEMA_UNG
 62
     7
100
AcDb2dPolyline
 66
     1
 10
0.0
 20
0.0
 30
0.0
  0
VERTEX
  5
7B9
330
7B8
100
AcDbEntity
  8
BEMA_UNG
 62
     7
100
AcDbVertex
100
AcDb2dVertex
 10
-15.50001157773333
 20
129.9089520414346
 30
0.0
  0
VERTEX
  5
7BA
330
7B8
100
AcDbEntity
  8
BEMA_UNG
 62
     7
100
AcDbVertex
100
AcDb2dVertex
 10
-18.99988639004661
 20
129.9089520414346
 30
0.0
  0
SEQEND
  5
7BB
330
7B8
100
AcDbEntity
  8
BEMA_UNG
  0
POLYLINE
  5
7BC
330
1F
100
AcDbEntity
  8
BEMA_UNG
 62
     7
100
AcDb2dPolyline
 66
     1
 10
0.0
 20
0.0
 30
0.0
  0
VERTEX
  5
7BD
330
7BC
100
AcDbEntity
  8
BEMA_UNG
 62
     7
100
AcDbVertex
100
AcDb2dVertex
 10
-8.999801128011217
 20
129.9089520414346
 30
0.0
  0
VERTEX
  5
7BE
330
7BC
100
AcDbEntity
  8
BEMA_UNG
 62
     7
100
AcDbVertex
100
AcDb2dVertex
 10
-12.4996759403245
 20
130.3699061214499
 30
0.0
  0
VERTEX
  5
7BF
330
7BC
100
AcDbEntity
  8
BEMA_UNG
 62
     7
100
AcDbVertex
100
AcDb2dVertex
 10
-12.4996759403245
 20
129.448686980971
 30
0.0
  0
VERTEX
  5
7C0
330
7BC
100
AcDbEntity
  8
BEMA_UNG
 62
     7
100
AcDbVertex
100
AcDb2dVertex
 10
-8.999801128011217
 20
129.9089520414346
 30
0.0
  0
SEQEND
  5
7C1
330
7BC
100
AcDbEntity
  8
BEMA_UNG
  0
POLYLINE
  5
7C2
330
1F
100
AcDbEntity
  8
BEMA_UNG
 62
     7
100
AcDb2dPolyline
 66
     1
 10
0.0
 20
0.0
 30
0.0
  0
VERTEX
  5
7C3
330
7C2
100
AcDbEntity
  8
BEMA_UNG
 62
     7
100
AcDbVertex
100
AcDb2dVertex
 10
-12.4996759403245
 20
130.3666332785799
 30
0.0
  0
VERTEX
  5
7C4
330
7C2
100
AcDbEntity
  8
BEMA_UNG
 62
     7
100
AcDbVertex
100
AcDb2dVertex
 10
-12.4724596680366
 20
130.3666332785799
 30
0.0
  0
SEQEND
  5
7C5
330
7C2
100
AcDbEntity
  8
BEMA_UNG
  0
POLYLINE
  5
7C6
330
1F
100
AcDbEntity
  8
BEMA_UNG
 62
     7
100
AcDb2dPolyline
 66
     1
 10
0.0
 20
0.0
 30
0.0
  0
VERTEX
  5
7C7
330
7C6
100
AcDbEntity
  8
BEMA_UNG
 62
     7
100
AcDbVertex
100
AcDb2dVertex
 10
-12.4996759403245
 20
130.3666332785799
 30
0.0
  0
VERTEX
  5
7C8
330
7C6
100
AcDbEntity
  8
BEMA_UNG
 62
     7
100
AcDbVertex
100
AcDb2dVertex
 10
-12.4724596680366
 20
130.3666332785799
 30
0.0
  0
SEQEND
  5
7C9
330
7C6
100
AcDbEntity
  8
BEMA_UNG
  0
POLYLINE
  5
7CA
330
1F
100
AcDbEntity
  8
BEMA_UNG
 62
     7
100
AcDb2dPolyline
 66
     1
 10
0.0
 20
0.0
 30
0.0
  0
VERTEX
  5
7CB
330
7CA
100
AcDbEntity
  8
BEMA_UNG
 62
     7
100
AcDbVertex
100
AcDb2dVertex
 10
-12.4996759403245
 20
130.3154735768741
 30
0.0
  0
VERTEX
  5
7CC
330
7CA
100
AcDbEntity
  8
BEMA_UNG
 62
     7
100
AcDbVertex
100
AcDb2dVertex
 10
-12.08660871914489
 20
130.3154735768741
 30
0.0
  0
SEQEND
  5
7CD
330
7CA
100
AcDbEntity
  8
BEMA_UNG
  0
POLYLINE
  5
7CE
330
1F
100
AcDbEntity
  8
BEMA_UNG
 62
     7
100
AcDb2dPolyline
 66
     1
 10
0.0
 20
0.0
 30
0.0
  0
VERTEX
  5
7CF
330
7CE
100
AcDbEntity
  8
BEMA_UNG
 62
     7
100
AcDbVertex
100
AcDb2dVertex
 10
-12.4996759403245
 20
130.2646583849442
 30
0.0
  0
VERTEX
  5
7D0
330
7CE
100
AcDbEntity
  8
BEMA_UNG
 62
     7
100
AcDbVertex
100
AcDb2dVertex
 10
-11.70093002514108
 20
130.2646583849442
 30
0.0
  0
SEQEND
  5
7D1
330
7CE
100
AcDbEntity
  8
BEMA_UNG
  0
POLYLINE
  5
7D2
330
1F
100
AcDbEntity
  8
BEMA_UNG
 62
     7
100
AcDb2dPolyline
 66
     1
 10
0.0
 20
0.0
 30
0.0
  0
VERTEX
  5
7D3
330
7D2
100
AcDbEntity
  8
BEMA_UNG
 62
     7
100
AcDbVertex
100
AcDb2dVertex
 10
-12.4996759403245
 20
130.2138431930142
 30
0.0
  0
VERTEX
  5
7D4
330
7D2
100
AcDbEntity
  8
BEMA_UNG
 62
     7
100
AcDbVertex
100
AcDb2dVertex
 10
-11.31507907624937
 20
130.2138431930142
 30
0.0
  0
SEQEND
  5
7D5
330
7D2
100
AcDbEntity
  8
BEMA_UNG
  0
POLYLINE
  5
7D6
330
1F
100
AcDbEntity
  8
BEMA_UNG
 62
     7
100
AcDb2dPolyline
 66
     1
 10
0.0
 20
0.0
 30
0.0
  0
VERTEX
  5
7D7
330
7D6
100
AcDbEntity
  8
BEMA_UNG
 62
     7
100
AcDbVertex
100
AcDb2dVertex
 10
-12.4996759403245
 20
130.1630280010843
 30
0.0
  0
VERTEX
  5
7D8
330
7D6
100
AcDbEntity
  8
BEMA_UNG
 62
     7
100
AcDbVertex
100
AcDb2dVertex
 10
-10.92905587246976
 20
130.1630280010843
 30
0.0
  0
SEQEND
  5
7D9
330
7D6
100
AcDbEntity
  8
BEMA_UNG
  0
POLYLINE
  5
7DA
330
1F
100
AcDbEntity
  8
BEMA_UNG
 62
     7
100
AcDb2dPolyline
 66
     1
 10
0.0
 20
0.0
 30
0.0
  0
VERTEX
  5
7DB
330
7DA
100
AcDbEntity
  8
BEMA_UNG
 62
     7
100
AcDbVertex
100
AcDb2dVertex
 10
-12.4996759403245
 20
130.1123850640423
 30
0.0
  0
VERTEX
  5
7DC
330
7DA
100
AcDbEntity
  8
BEMA_UNG
 62
     7
100
AcDbVertex
100
AcDb2dVertex
 10
-10.54320492357805
 20
130.1123850640423
 30
0.0
  0
SEQEND
  5
7DD
330
7DA
100
AcDbEntity
  8
BEMA_UNG
  0
POLYLINE
  5
7DE
330
1F
100
AcDbEntity
  8
BEMA_UNG
 62
     7
100
AcDb2dPolyline
 66
     1
 10
0.0
 20
0.0
 30
0.0
  0
VERTEX
  5
7DF
330
7DE
100
AcDbEntity
  8
BEMA_UNG
 62
     7
100
AcDbVertex
100
AcDb2dVertex
 10
-12.4996759403245
 20
130.0615698721123
 30
0.0
  0
VERTEX
  5
7E0
330
7DE
100
AcDbEntity
  8
BEMA_UNG
 62
     7
100
AcDbVertex
100
AcDb2dVertex
 10
-10.15752622957424
 20
130.0615698721123
 30
0.0
  0
SEQEND
  5
7E1
330
7DE
100
AcDbEntity
  8
BEMA_UNG
  0
POLYLINE
  5
7E2
330
1F
100
AcDbEntity
  8
BEMA_UNG
 62
     7
100
AcDb2dPolyline
 66
     1
 10
0.0
 20
0.0
 30
0.0
  0
VERTEX
  5
7E3
330
7E2
100
AcDbEntity
  8
BEMA_UNG
 62
     7
100
AcDbVertex
100
AcDb2dVertex
 10
-12.4996759403245
 20
130.0105824252945
 30
0.0
  0
VERTEX
  5
7E4
330
7E2
100
AcDbEntity
  8
BEMA_UNG
 62
     7
100
AcDbVertex
100
AcDb2dVertex
 10
-9.771675280682533
 20
130.0105824252945
 30
0.0
  0
SEQEND
  5
7E5
330
7E2
100
AcDbEntity
  8
BEMA_UNG
  0
POLYLINE
  5
7E6
330
1F
100
AcDbEntity
  8
BEMA_UNG
 62
     7
100
AcDb2dPolyline
 66
     1
 10
0.0
 20
0.0
 30
0.0
  0
VERTEX
  5
7E7
330
7E6
100
AcDbEntity
  8
BEMA_UNG
 62
     7
100
AcDbVertex
100
AcDb2dVertex
 10
-12.4996759403245
 20
129.9597672333646
 30
0.0
  0
VERTEX
  5
7E8
330
7E6
100
AcDbEntity
  8
BEMA_UNG
 62
     7
100
AcDbVertex
100
AcDb2dVertex
 10
-9.38530756712713
 20
129.9597672333646
 30
0.0
  0
SEQEND
  5
7E9
330
7E6
100
AcDbEntity
  8
BEMA_UNG
  0
POLYLINE
  5
7EA
330
1F
100
AcDbEntity
  8
BEMA_UNG
 62
     7
100
AcDb2dPolyline
 66
     1
 10
0.0
 20
0.0
 30
0.0
  0
VERTEX
  5
7EB
330
7EA
100
AcDbEntity
  8
BEMA_UNG
 62
     7
100
AcDbVertex
100
AcDb2dVertex
 10
-12.4996759403245
 20
129.9089520414346
 30
0.0
  0
VERTEX
  5
7EC
330
7EA
100
AcDbEntity
  8
BEMA_UNG
 62
     7
100
AcDbVertex
100
AcDb2dVertex
 10
-8.999801128011217
 20
129.9089520414346
 30
0.0
  0
SEQEND
  5
7ED
330
7EA
100
AcDbEntity
  8
BEMA_UNG
  0
POLYLINE
  5
7EE
330
1F
100
AcDbEntity
  8
BEMA_UNG
 62
     7
100
AcDb2dPolyline
 66
     1
 10
0.0
 20
0.0
 30
0.0
  0
VERTEX
  5
7EF
330
7EE
100
AcDbEntity
  8
BEMA_UNG
 62
     7
100
AcDbVertex
100
AcDb2dVertex
 10
-12.4996759403245
 20
129.4521320787289
 30
0.0
  0
VERTEX
  5
7F0
330
7EE
100
AcDbEntity
  8
BEMA_UNG
 62
     7
100
AcDbVertex
100
AcDb2dVertex
 10
-12.4724596680366
 20
129.4521320787289
 30
0.0
  0
SEQEND
  5
7F1
330
7EE
100
AcDbEntity
  8
BEMA_UNG
  0
POLYLINE
  5
7F2
330
1F
100
AcDbEntity
  8
BEMA_UNG
 62
     7
100
AcDb2dPolyline
 66
     1
 10
0.0
 20
0.0
 30
0.0
  0
VERTEX
  5
7F3
330
7F2
100
AcDbEntity
  8
BEMA_UNG
 62
     7
100
AcDbVertex
100
AcDb2dVertex
 10
-12.4996759403245
 20
129.4521320787289
 30
0.0
  0
VERTEX
  5
7F4
330
7F2
100
AcDbEntity
  8
BEMA_UNG
 62
     7
100
AcDbVertex
100
AcDb2dVertex
 10
-12.4724596680366
 20
129.4521320787289
 30
0.0
  0
SEQEND
  5
7F5
330
7F2
100
AcDbEntity
  8
BEMA_UNG
  0
POLYLINE
  5
7F6
330
1F
100
AcDbEntity
  8
BEMA_UNG
 62
     7
100
AcDb2dPolyline
 66
     1
 10
0.0
 20
0.0
 30
0.0
  0
VERTEX
  5
7F7
330
7F6
100
AcDbEntity
  8
BEMA_UNG
 62
     7
100
AcDbVertex
100
AcDb2dVertex
 10
-12.4996759403245
 20
129.5031195255467
 30
0.0
  0
VERTEX
  5
7F8
330
7F6
100
AcDbEntity
  8
BEMA_UNG
 62
     7
100
AcDbVertex
100
AcDb2dVertex
 10
-12.08660871914489
 20
129.5031195255467
 30
0.0
  0
SEQEND
  5
7F9
330
7F6
100
AcDbEntity
  8
BEMA_UNG
  0
POLYLINE
  5
7FA
330
1F
100
AcDbEntity
  8
BEMA_UNG
 62
     7
100
AcDb2dPolyline
 66
     1
 10
0.0
 20
0.0
 30
0.0
  0
VERTEX
  5
7FB
330
7FA
100
AcDbEntity
  8
BEMA_UNG
 62
     7
100
AcDbVertex
100
AcDb2dVertex
 10
-12.4996759403245
 20
129.5539347174767
 30
0.0
  0
VERTEX
  5
7FC
330
7FA
100
AcDbEntity
  8
BEMA_UNG
 62
     7
100
AcDbVertex
100
AcDb2dVertex
 10
-11.70093002514108
 20
129.5539347174767
 30
0.0
  0
SEQEND
  5
7FD
330
7FA
100
AcDbEntity
  8
BEMA_UNG
  0
POLYLINE
  5
7FE
330
1F
100
AcDbEntity
  8
BEMA_UNG
 62
     7
100
AcDb2dPolyline
 66
     1
 10
0.0
 20
0.0
 30
0.0
  0
VERTEX
  5
7FF
330
7FE
100
AcDbEntity
  8
BEMA_UNG
 62
     7
100
AcDbVertex
100
AcDb2dVertex
 10
-12.4996759403245
 20
129.6047499094066
 30
0.0
  0
VERTEX
  5
800
330
7FE
100
AcDbEntity
  8
BEMA_UNG
 62
     7
100
AcDbVertex
100
AcDb2dVertex
 10
-11.31507907624937
 20
129.6047499094066
 30
0.0
  0
SEQEND
  5
801
330
7FE
100
AcDbEntity
  8
BEMA_UNG
  0
POLYLINE
  5
802
330
1F
100
AcDbEntity
  8
BEMA_UNG
 62
     7
100
AcDb2dPolyline
 66
     1
 10
0.0
 20
0.0
 30
0.0
  0
VERTEX
  5
803
330
802
100
AcDbEntity
  8
BEMA_UNG
 62
     7
100
AcDbVertex
100
AcDb2dVertex
 10
-12.4996759403245
 20
129.6553928464486
 30
0.0
  0
VERTEX
  5
804
330
802
100
AcDbEntity
  8
BEMA_UNG
 62
     7
100
AcDbVertex
100
AcDb2dVertex
 10
-10.92905587246976
 20
129.6553928464486
 30
0.0
  0
SEQEND
  5
805
330
802
100
AcDbEntity
  8
BEMA_UNG
  0
POLYLINE
  5
806
330
1F
100
AcDbEntity
  8
BEMA_UNG
 62
     7
100
AcDb2dPolyline
 66
     1
 10
0.0
 20
0.0
 30
0.0
  0
VERTEX
  5
807
330
806
100
AcDbEntity
  8
BEMA_UNG
 62
     7
100
AcDbVertex
100
AcDb2dVertex
 10
-12.4996759403245
 20
129.7062080383786
 30
0.0
  0
VERTEX
  5
808
330
806
100
AcDbEntity
  8
BEMA_UNG
 62
     7
100
AcDbVertex
100
AcDb2dVertex
 10
-10.54320492357805
 20
129.7062080383786
 30
0.0
  0
SEQEND
  5
809
330
806
100
AcDbEntity
  8
BEMA_UNG
  0
POLYLINE
  5
80A
330
1F
100
AcDbEntity
  8
BEMA_UNG
 62
     7
100
AcDb2dPolyline
 66
     1
 10
0.0
 20
0.0
 30
0.0
  0
VERTEX
  5
80B
330
80A
100
AcDbEntity
  8
BEMA_UNG
 62
     7
100
AcDbVertex
100
AcDb2dVertex
 10
-12.4996759403245
 20
129.7570232303085
 30
0.0
  0
VERTEX
  5
80C
330
80A
100
AcDbEntity
  8
BEMA_UNG
 62
     7
100
AcDbVertex
100
AcDb2dVertex
 10
-10.15752622957424
 20
129.7570232303085
 30
0.0
  0
SEQEND
  5
80D
330
80A
100
AcDbEntity
  8
BEMA_UNG
  0
POLYLINE
  5
80E
330
1F
100
AcDbEntity
  8
BEMA_UNG
 62
     7
100
AcDb2dPolyline
 66
     1
 10
0.0
 20
0.0
 30
0.0
  0
VERTEX
  5
80F
330
80E
100
AcDbEntity
  8
BEMA_UNG
 62
     7
100
AcDbVertex
100
AcDb2dVertex
 10
-12.4996759403245
 20
129.8078384222385
 30
0.0
  0
VERTEX
  5
810
330
80E
100
AcDbEntity
  8
BEMA_UNG
 62
     7
100
AcDbVertex
100
AcDb2dVertex
 10
-9.771675280682533
 20
129.8078384222385
 30
0.0
  0
SEQEND
  5
811
330
80E
100
AcDbEntity
  8
BEMA_UNG
  0
POLYLINE
  5
812
330
1F
100
AcDbEntity
  8
BEMA_UNG
 62
     7
100
AcDb2dPolyline
 66
     1
 10
0.0
 20
0.0
 30
0.0
  0
VERTEX
  5
813
330
812
100
AcDbEntity
  8
BEMA_UNG
 62
     7
100
AcDbVertex
100
AcDb2dVertex
 10
-12.4996759403245
 20
129.8581368495047
 30
0.0
  0
VERTEX
  5
814
330
812
100
AcDbEntity
  8
BEMA_UNG
 62
     7
100
AcDbVertex
100
AcDb2dVertex
 10
-9.38530756712713
 20
129.8581368495047
 30
0.0
  0
SEQEND
  5
815
330
812
100
AcDbEntity
  8
BEMA_UNG
  0
POLYLINE
  5
816
330
1F
100
AcDbEntity
  8
BEMA_UNG
 62
     7
100
AcDb2dPolyline
 66
     1
 10
0.0
 20
0.0
 30
0.0
  0
VERTEX
  5
817
330
816
100
AcDbEntity
  8
BEMA_UNG
 62
     7
100
AcDbVertex
100
AcDb2dVertex
 10
-12.4996759403245
 20
129.9089520414346
 30
0.0
  0
VERTEX
  5
818
330
816
100
AcDbEntity
  8
BEMA_UNG
 62
     7
100
AcDbVertex
100
AcDb2dVertex
 10
-8.999801128011217
 20
129.9089520414346
 30
0.0
  0
SEQEND
  5
819
330
816
100
AcDbEntity
  8
BEMA_UNG
  0
POLYLINE
  5
81A
330
1F
100
AcDbEntity
  8
BEMA_UNG
100
AcDb2dPolyline
 66
     1
 10
0.0
 20
0.0
 30
0.0
  0
VERTEX
  5
81B
330
81A
100
AcDbEntity
  8
BEMA_UNG
100
AcDbVertex
100
AcDb2dVertex
 10
-1519.994184046599
 20
129.620941868869
 30
0.0
  0
VERTEX
  5
81C
330
81A
100
AcDbEntity
  8
BEMA_UNG
100
AcDbVertex
100
AcDb2dVertex
 10
1528.007825941394
 20
129.620941868869
 30
0.0
  0
SEQEND
  5
81D
330
81A
100
AcDbEntity
  8
BEMA_UNG
  0
POLYLINE
  5
81E
330
1F
100
AcDbEntity
  8
BEMA_UNG
100
AcDb2dPolyline
 66
     1
 10
0.0
 20
0.0
 30
0.0
  0
VERTEX
  5
81F
330
81E
100
AcDbEntity
  8
BEMA_UNG
100
AcDbVertex
100
AcDb2dVertex
 10
-37.89641984735437
 20
1515.650088028697
 30
0.0
  0
VERTEX
  5
820
330
81E
100
AcDbEntity
  8
BEMA_UNG
100
AcDbVertex
100
AcDb2dVertex
 10
-37.89641984735437
 20
-1532.351921959295
 30
0.0
  0
SEQEND
  5
821
330
81E
100
AcDbEntity
  8
BEMA_UNG
  0
MTEXT
  5
823
330
1F
100
AcDbEntity
  8
TEXT
 62
     7
100
AcDbMText
 10
52.63093070326861
 20
-8.997561814468542
 30
0.0
 40
3.311188624860489
 41
0.0
 71
     7
 72
     1
  1
\fINDEX Univers 45 Light|b0|i0|c0|p34;\W1;\U+00F828g6
  0
MTEXT
  5
824
330
1F
100
AcDbEntity
  8
TEXT
 62
     7
100
AcDbMText
 10
-39.45343177906516
 20
57.06253220422263
 30
0.0
 40
3.311188624860489
 41
0.0
 71
     7
 72
     1
  1
\fINDEX Univers 45 Light|b0|i0|c0|p34;\W0.8;120
 11
-4.371139000186241E-8
 21
0.999999999999999
 31
0.0
  0
MTEXT
  5
825
330
1F
100
AcDbEntity
  8
TEXT
 62
     7
100
AcDbMText
 10
-5.924017849703022
 20
131.4439153474945
 30
0.0
 40
3.311188624860489
 41
0.0
 71
     7
 72
     1
  1
\fINDEX Univers 45 Light|b0|i0|c0|p34;\W1;\U+00F810
  0
POLYLINE
  5
826
330
1F
100
AcDbEntity
  8
TEXT
100
AcDb2dPolyline
 66
     1
 10
0.0
 20
0.0
 30
0.0
  0
VERTEX
  5
827
330
826
100
AcDbEntity
  8
TEXT
100
AcDbVertex
100
AcDb2dVertex
 10
-1519.994184046599
 20
-9.92670467979081
 30
0.0
  0
VERTEX
  5
828
330
826
100
AcDbEntity
  8
TEXT
100
AcDbVertex
100
AcDb2dVertex
 10
1528.007825941394
 20
-9.92670467979081
 30
0.0
  0
SEQEND
  5
829
330
826
100
AcDbEntity
  8
TEXT
  0
POLYLINE
  5
82A
330
1F
100
AcDbEntity
  8
TEXT
100
AcDb2dPolyline
 66
     1
 10
0.0
 20
0.0
 30
0.0
  0
VERTEX
  5
82B
330
82A
100
AcDbEntity
  8
TEXT
100
AcDbVertex
100
AcDb2dVertex
 10
-1519.994184046599
 20
-19.92437837339563
 30
0.0
  0
VERTEX
  5
82C
330
82A
100
AcDbEntity
  8
TEXT
100
AcDbVertex
100
AcDb2dVertex
 10
1528.007825941394
 20
-19.92437837339563
 30
0.0
  0
SEQEND
  5
82D
330
82A
100
AcDbEntity
  8
TEXT
  0
POLYLINE
  5
82E
330
1F
100
AcDbEntity
  8
TEXT
100
AcDb2dPolyline
 66
     1
 10
0.0
 20
0.0
 30
0.0
  0
VERTEX
  5
82F
330
82E
100
AcDbEntity
  8
TEXT
100
AcDbVertex
100
AcDb2dVertex
 10
-1519.994184046599
 20
-29.92239657677624
 30
0.0
  0
VERTEX
  5
830
330
82E
100
AcDbEntity
  8
TEXT
100
AcDbVertex
100
AcDb2dVertex
 10
1528.007825941394
 20
-29.92239657677624
 30
0.0
  0
SEQEND
  5
831
330
82E
100
AcDbEntity
  8
TEXT
  0
POLYLINE
  5
832
330
1F
100
AcDbEntity
  8
TEXT
100
AcDb2dPolyline
 66
     1
 10
0.0
 20
0.0
 30
0.0
  0
VERTEX
  5
833
330
832
100
AcDbEntity
  8
TEXT
100
AcDbVertex
100
AcDb2dVertex
 10
14.95258554399322
 20
1515.650088028697
 30
0.0
  0
VERTEX
  5
834
330
832
100
AcDbEntity
  8
TEXT
100
AcDbVertex
100
AcDb2dVertex
 10
14.95258554399322
 20
-1532.351921959295
 30
0.0
  0
SEQEND
  5
835
330
832
100
AcDbEntity
  8
TEXT
  0
POLYLINE
  5
836
330
1F
100
AcDbEntity
  8
TEXT
100
AcDb2dPolyline
 66
     1
 10
0.0
 20
0.0
 30
0.0
  0
VERTEX
  5
837
330
836
100
AcDbEntity
  8
TEXT
100
AcDbVertex
100
AcDb2dVertex
 10
44.91081113745226
 20
1515.650088028697
 30
0.0
  0
VERTEX
  5
838
330
836
100
AcDbEntity
  8
TEXT
100
AcDbVertex
100
AcDb2dVertex
 10
44.91081113745226
 20
-1532.351921959295
 30
0.0
  0
SEQEND
  5
839
330
836
100
AcDbEntity
  8
TEXT
  0
ENDSEC
  0
SECTION
  2
OBJECTS
  0
DICTIONARY
  5
C
330
0
100
AcDbDictionary
  3
ACAD_GROUP
350
D
  3
ACAD_LAYOUT
350
1A
  3
ACAD_MLINESTYLE
350
17
  3
ACAD_PLOTSETTINGS
350
19
  3
ACAD_TABLESTYLE
350
85A
  3
ACAD_VISUALSTYLE
350
2A
  3
ACDBHEADERROUNDTRIPXREC
350
83A
  0
DICTIONARY
  5
D
102
{ACAD_REACTORS
330
C
102
}
330
C
100
AcDbDictionary
  0
DICTIONARY
  5
1A
102
{ACAD_REACTORS
330
C
102
}
330
C
100
AcDbDictionary
  0
DICTIONARY
  5
17
102
{ACAD_REACTORS
330
C
102
}
330
C
100
AcDbDictionary
  3
STANDARD
350
18
  0
DICTIONARY
  5
19
102
{ACAD_REACTORS
330
C
102
}
330
C
100
AcDbDictionary
  0
DICTIONARY
  5
85A
102
{ACAD_REACTORS
330
C
102
}
330
C
100
AcDbDictionary
  0
DICTIONARY
  5
2A
102
{ACAD_REACTORS
330
C
102
}
330
C
100
AcDbDictionary
  3
2DWIREFRAME
350
2F
  3
3D_HIDDEN
350
31
  3
3DWIREFRAME
350
30
  3
BASIC
350
32
  3
BRIGHTEN
350
36
  3
COLORCHANGE
350
3A
  3
CONCEPTUAL
350
34
  3
DIM
350
35
  3
FACEPATTERN
350
39
  3
FLAT
350
2B
  3
FLATWITHEDGES
350
2C
  3
GOURAUD
350
2D
  3
GOURAUDWITHEDGES
350
2E
  3
LINEPATTERN
350
38
  3
REALISTIC
350
33
  3
THICKEN
350
37
  0
DICTIONARY
  5
83A
102
{ACAD_REACTORS
330
C
102
}
330
C
100
AcDbDictionary
  3
CEPSNTYPE
350
843
  3
DIMSTYLEDATA
350
859
  3
FINGERPRINTGUID
350
844
  3
HYPERLINKBASE
350
83D
  3
INSUNITS
350
842
  3
LAYOUTDICT
350
83F
  3
LWETCUNION
350
841
  3
PLOTSETDICT
350
840
  3
PSVPSCALE
350
846
  3
PUCSBASE
350
849
  3
PUCSORGBACK
350
84F
  3
PUCSORGBOTTOM
350
84B
  3
PUCSORGFRONT
350
84E
  3
PUCSORGLEFT
350
84C
  3
PUCSORGRIGHT
350
84D
  3
PUCSORGTOP
350
84A
  3
PUCSORTHOREF
350
847
  3
PUCSORTHOVIEW
350
848
  3
STYLESHEET
350
83E
  3
TSTACKALIGN
350
83B
  3
TSTACKSIZE
350
83C
  3
UCSBASE
350
852
  3
UCSORGBACK
350
858
  3
UCSORGBOTTOM
350
854
  3
UCSORGFRONT
350
857
  3
UCSORGLEFT
350
855
  3
UCSORGRIGHT
350
856
  3
UCSORGTOP
350
853
  3
UCSORTHOREF
350
850
  3
UCSORTHOVIEW
350
851
  3
VERSIONGUID
350
845
  0
MLINESTYLE
  5
18
102
{ACAD_REACTORS
330
17
102
}
330
17
100
AcDbMlineStyle
  2
Standard
 70
     0
  3

 62
   256
 51
90.0
 52
90.0
 71
     2
 49
0.5
 62
   256
  6
BYLAYER
 49
-0.5
 62
   256
  6
BYLAYER
  0
VISUALSTYLE
  5
2F
102
{ACAD_REACTORS
330
2A
102
}
330
2A
100
AcDbVisualStyle
  2
2dWireframe
 70
     4
 71
     0
 72
     2
 73
     0
 90
        0
 40
-0.6
 41
-30.0
 62
     5
 63
     7
 74
     1
 91
        4
 64
     7
 65
   257
 75
     1
175
     1
 42
1.0
 92
        0
 66
   257
 43
1.0
 76
     1
 77
     6
 78
     2
 67
     7
 79
     5
170
     0
171
     0
290
     0
174
     0
 93
        1
 44
0.0
173
     0
291
     0
 45
0.0
1001
ACAD
1000
AcDbSavedByObjectVersion
1070
     0
  0
VISUALSTYLE
  5
31
102
{ACAD_REACTORS
330
2A
102
}
330
2A
100
AcDbVisualStyle
  2
3D Hidden
 70
     6
 71
     1
 72
     2
 73
     2
 90
        0
 40
-0.6
 41
-30.0
 62
     5
 63
     7
 74
     2
 91
        2
 64
     7
 65
   257
 75
     2
175
     1
 42
40.0
 92
        0
 66
   257
 43
1.0
 76
     1
 77
     6
 78
     2
 67
     7
 79
     3
170
     0
171
     0
290
     0
174
     0
 93
        1
 44
0.0
173
     0
291
     0
 45
0.0
1001
ACAD
1000
AcDbSavedByObjectVersion
1070
     0
  0
VISUALSTYLE
  5
30
102
{ACAD_REACTORS
330
2A
102
}
330
2A
100
AcDbVisualStyle
  2
3dWireframe
 70
     5
 71
     0
 72
     2
 73
     0
 90
        0
 40
-0.6
 41
-30.0
 62
     5
 63
     7
 74
     1
 91
        4
 64
     7
 65
   257
 75
     1
175
     1
 42
1.0
 92
        0
 66
   257
 43
1.0
 76
     1
 77
     6
 78
     2
 67
     7
 79
     5
170
     0
171
     0
290
     0
174
     0
 93
        1
 44
0.0
173
     0
291
     0
 45
0.0
1001
ACAD
1000
AcDbSavedByObjectVersion
1070
     0
  0
VISUALSTYLE
  5
32
102
{ACAD_REACTORS
330
2A
102
}
330
2A
100
AcDbVisualStyle
  2
Basic
 70
     7
 71
     1
 72
     0
 73
     1
 90
        0
 40
-0.6
 41
-30.0
 62
     5
 63
     7
 74
     0
 91
        4
 64
     7
 65
   257
 75
     1
175
     1
 42
1.0
 92
        8
 66
     7
 43
1.0
 76
     1
 77
     6
 78
     2
 67
     7
 79
     5
170
     0
171
     0
290
     0
174
     0
 93
        1
 44
0.0
173
     0
291
     1
 45
0.0
1001
ACAD
1000
AcDbSavedByObjectVersion
1070
     0
  0
VISUALSTYLE
  5
36
102
{ACAD_REACTORS
330
2A
102
}
330
2A
100
AcDbVisualStyle
  2
Brighten
 70
    12
 71
     2
 72
     2
 73
     0
 90
        0
 40
-0.6
 41
-30.0
 62
     5
 63
     7
 74
     1
 91
        4
 64
     7
 65
   257
 75
     1
175
     1
 42
1.0
 92
        8
 66
     7
 43
1.0
 76
     1
 77
     6
 78
     2
 67
     7
 79
     5
170
     0
171
     0
290
     0
174
     0
 93
        1
 44
50.0
173
     0
291
     1
 45
0.0
1001
ACAD
1000
AcDbSavedByObjectVersion
1070
     0
  0
VISUALSTYLE
  5
3A
102
{ACAD_REACTORS
330
2A
102
}
330
2A
100
AcDbVisualStyle
  2
ColorChange
 70
    16
 71
     2
 72
     2
 73
     3
 90
        0
 40
-0.6
 41
-30.0
 62
     5
 63
     8
 74
     1
 91
        4
 64
     7
 65
   257
 75
     1
175
     1
 42
1.0
 92
        8
 66
     8
 43
1.0
 76
     1
 77
     6
 78
     2
 67
     7
 79
     5
170
     0
171
     0
290
     0
174
     0
 93
        1
 44
0.0
173
     0
291
     1
 45
0.0
1001
ACAD
1000
AcDbSavedByObjectVersion
1070
     0
  0
VISUALSTYLE
  5
34
102
{ACAD_REACTORS
330
2A
102
}
330
2A
100
AcDbVisualStyle
  2
Conceptual
 70
     9
 71
     3
 72
     2
 73
     0
 90
        0
 40
-0.6
 41
-30.0
 62
     5
 63
     7
 74
     2
 91
        2
 64
     7
 65
   257
 75
     1
175
     1
 42
40.0
 92
        8
 66
     7
 43
1.0
 76
     1
 77
     6
 78
     2
 67
     7
 79
     3
170
     0
171
     0
290
     0
174
     0
 93
        1
 44
0.0
173
     0
291
     0
 45
0.0
1001
ACAD
1000
AcDbSavedByObjectVersion
1070
     0
  0
VISUALSTYLE
  5
35
102
{ACAD_REACTORS
330
2A
102
}
330
2A
100
AcDbVisualStyle
  2
Dim
 70
    11
 71
     2
 72
     2
 73
     0
 90
        0
 40
-0.6
 41
-30.0
 62
     5
 63
     7
 74
     1
 91
        4
 64
     7
 65
   257
 75
     1
175
     1
 42
1.0
 92
        8
 66
     7
 43
1.0
 76
     1
 77
     6
 78
     2
 67
     7
 79
     5
170
     0
171
     0
290
     0
174
     0
 93
        1
 44
-50.0
173
     0
291
     1
 45
0.0
1001
ACAD
1000
AcDbSavedByObjectVersion
1070
     0
  0
VISUALSTYLE
  5
39
102
{ACAD_REACTORS
330
2A
102
}
330
2A
100
AcDbVisualStyle
  2
Facepattern
 70
    15
 71
     2
 72
     2
 73
     0
 90
        0
 40
-0.6
 41
-30.0
 62
     5
 63
     7
 74
     1
 91
        4
 64
     7
 65
   257
 75
     1
175
     1
 42
1.0
 92
        8
 66
     7
 43
1.0
 76
     1
 77
     6
 78
     2
 67
     7
 79
     5
170
     0
171
     0
290
     0
174
     0
 93
        1
 44
0.0
173
     0
291
     1
 45
0.0
1001
ACAD
1000
AcDbSavedByObjectVersion
1070
     0
  0
VISUALSTYLE
  5
2B
102
{ACAD_REACTORS
330
2A
102
}
330
2A
100
AcDbVisualStyle
  2
Flat
 70
     0
 71
     2
 72
     1
 73
     1
 90
        2
 40
-0.6
 41
30.0
 62
     5
 63
     7
 74
     0
 91
        4
 64
     7
 65
   257
 75
     1
175
     1
 42
1.0
 92
        8
 66
     7
 43
1.0
 76
     1
 77
     6
 78
     2
 67
     7
 79
     5
170
     0
171
     0
290
     0
174
     0
 93
       13
 44
0.0
173
     0
291
     1
 45
0.0
1001
ACAD
1000
AcDbSavedByObjectVersion
1070
     0
  0
VISUALSTYLE
  5
2C
102
{ACAD_REACTORS
330
2A
102
}
330
2A
100
AcDbVisualStyle
  2
FlatWithEdges
 70
     1
 71
     2
 72
     1
 73
     1
 90
        2
 40
-0.6
 41
30.0
 62
     5
 63
     7
 74
     1
 91
        4
 64
     7
 65
   257
 75
     1
175
     1
 42
1.0
 92
        0
 66
   257
 43
1.0
 76
     1
 77
     6
 78
     2
 67
     7
 79
     5
170
     0
171
     0
290
     0
174
     0
 93
       13
 44
0.0
173
     0
291
     1
 45
0.0
1001
ACAD
1000
AcDbSavedByObjectVersion
1070
     0
  0
VISUALSTYLE
  5
2D
102
{ACAD_REACTORS
330
2A
102
}
330
2A
100
AcDbVisualStyle
  2
Gouraud
 70
     2
 71
     2
 72
     2
 73
     1
 90
        2
 40
-0.6
 41
30.0
 62
     5
 63
     7
 74
     0
 91
        4
 64
     7
 65
   257
 75
     1
175
     1
 42
1.0
 92
        0
 66
     7
 43
1.0
 76
     1
 77
     6
 78
     2
 67
     7
 79
     5
170
     0
171
     0
290
     0
174
     0
 93
       13
 44
0.0
173
     0
291
     1
 45
0.0
1001
ACAD
1000
AcDbSavedByObjectVersion
1070
     0
  0
VISUALSTYLE
  5
2E
102
{ACAD_REACTORS
330
2A
102
}
330
2A
100
AcDbVisualStyle
  2
GouraudWithEdges
 70
     3
 71
     2
 72
     2
 73
     1
 90
        2
 40
-0.6
 41
30.0
 62
     5
 63
     7
 74
     1
 91
        4
 64
     7
 65
   257
 75
     1
175
     1
 42
1.0
 92
        0
 66
   257
 43
1.0
 76
     1
 77
     6
 78
     2
 67
     7
 79
     5
170
     0
171
     0
290
     0
174
     0
 93
       13
 44
0.0
173
     0
291
     1
 45
0.0
1001
ACAD
1000
AcDbSavedByObjectVersion
1070
     0
  0
VISUALSTYLE
  5
38
102
{ACAD_REACTORS
330
2A
102
}
330
2A
100
AcDbVisualStyle
  2
Linepattern
 70
    14
 71
     2
 72
     2
 73
     0
 90
        0
 40
-0.6
 41
-30.0
 62
     5
 63
     7
 74
     1
 91
        4
 64
     7
 65
   257
 75
     7
175
     7
 42
1.0
 92
        8
 66
     7
 43
1.0
 76
     1
 77
     6
 78
     2
 67
     7
 79
     5
170
     0
171
     0
290
     0
174
     0
 93
        1
 44
0.0
173
     0
291
     1
 45
0.0
1001
ACAD
1000
AcDbSavedByObjectVersion
1070
     0
  0
VISUALSTYLE
  5
33
102
{ACAD_REACTORS
330
2A
102
}
330
2A
100
AcDbVisualStyle
  2
Realistic
 70
     8
 71
     2
 72
     2
 73
     0
 90
        0
 40
-0.6
 41
-30.0
 62
     5
 63
     7
 74
     1
 91
        0
 64
     7
 65
   257
 75
     1
175
     1
 42
1.0
 92
        8
 66
     8
 43
1.0
 76
     1
 77
     6
 78
     2
 67
     7
 79
     5
170
     0
171
     0
290
     0
174
     0
 93
       13
 44
0.0
173
     0
291
     0
 45
0.0
1001
ACAD
1000
AcDbSavedByObjectVersion
1070
     0
  0
VISUALSTYLE
  5
37
102
{ACAD_REACTORS
330
2A
102
}
330
2A
100
AcDbVisualStyle
  2
Thicken
 70
    13
 71
     2
 72
     2
 73
     0
 90
        0
 40
-0.6
 41
-30.0
 62
     5
 63
     7
 74
     1
 91
        4
 64
     7
 65
   257
 75
     1
175
     1
 42
1.0
 92
       12
 66
     7
 43
1.0
 76
     1
 77
     6
 78
     2
 67
     7
 79
     5
170
     0
171
     0
290
     0
174
     0
 93
        1
 44
0.0
173
     0
291
     1
 45
0.0
1001
ACAD
1000
AcDbSavedByObjectVersion
1070
     0
  0
XRECORD
  5
843
102
{ACAD_REACTORS
330
83A
102
}
330
83A
100
AcDbXrecord
 90
        0
  0
XRECORD
  5
859
102
{ACAD_REACTORS
330
83A
102
}
330
83A
100
AcDbXrecord
1000
DSTYLE
1002
{
1070
   340
340
11
1002
}
  0
XRECORD
  5
844
102
{ACAD_REACTORS
330
83A
102
}
330
83A
100
AcDbXrecord
  1
{40CCAA12-931C-4772-BAE9-073D4488405E}
  0
XRECORD
  5
83D
102
{ACAD_REACTORS
330
83A
102
}
330
83A
100
AcDbXrecord
  1

  0
XRECORD
  5
842
102
{ACAD_REACTORS
330
83A
102
}
330
83A
100
AcDbXrecord
 90
        1
  0
XRECORD
  5
83F
102
{ACAD_REACTORS
330
83A
102
}
330
83A
100
AcDbXrecord
340
1A
  0
XRECORD
  5
841
102
{ACAD_REACTORS
330
83A
102
}
330
83A
100
AcDbXrecord
 90
    10269
  0
XRECORD
  5
840
102
{ACAD_REACTORS
330
83A
102
}
330
83A
100
AcDbXrecord
340
19
  0
XRECORD
  5
846
102
{ACAD_REACTORS
330
83A
102
}
330
83A
100
AcDbXrecord
 40
0.0
  0
XRECORD
  5
849
102
{ACAD_REACTORS
330
83A
102
}
330
83A
100
AcDbXrecord
340
0
  0
XRECORD
  5
84F
102
{ACAD_REACTORS
330
83A
102
}
330
83A
100
AcDbXrecord
 10
0.0
 20
0.0
 30
0.0
  0
XRECORD
  5
84B
102
{ACAD_REACTORS
330
83A
102
}
330
83A
100
AcDbXrecord
 10
0.0
 20
0.0
 30
0.0
  0
XRECORD
  5
84E
102
{ACAD_REACTORS
330
83A
102
}
330
83A
100
AcDbXrecord
 10
0.0
 20
0.0
 30
0.0
  0
XRECORD
  5
84C
102
{ACAD_REACTORS
330
83A
102
}
330
83A
100
AcDbXrecord
 10
0.0
 20
0.0
 30
0.0
  0
XRECORD
  5
84D
102
{ACAD_REACTORS
330
83A
102
}
330
83A
100
AcDbXrecord
 10
0.0
 20
0.0
 30
0.0
  0
XRECORD
  5
84A
102
{ACAD_REACTORS
330
83A
102
}
330
83A
100
AcDbXrecord
 10
0.0
 20
0.0
 30
0.0
  0
XRECORD
  5
847
102
{ACAD_REACTORS
330
83A
102
}
330
83A
100
AcDbXrecord
340
0
  0
XRECORD
  5
848
102
{ACAD_REACTORS
330
83A
102
}
330
83A
100
AcDbXrecord
 70
     0
  0
XRECORD
  5
83E
102
{ACAD_REACTORS
330
83A
102
}
330
83A
100
AcDbXrecord
  1

  0
XRECORD
  5
83B
102
{ACAD_REACTORS
330
83A
102
}
330
83A
100
AcDbXrecord
 90
        1
  0
XRECORD
  5
83C
102
{ACAD_REACTORS
330
83A
102
}
330
83A
100
AcDbXrecord
 90
       70
  0
XRECORD
  5
852
102
{ACAD_REACTORS
330
83A
102
}
330
83A
100
AcDbXrecord
340
0
  0
XRECORD
  5
858
102
{ACAD_REACTORS
330
83A
102
}
330
83A
100
AcDbXrecord
 10
0.0
 20
0.0
 30
0.0
  0
XRECORD
  5
854
102
{ACAD_REACTORS
330
83A
102
}
330
83A
100
AcDbXrecord
 10
0.0
 20
0.0
 30
0.0
  0
XRECORD
  5
857
102
{ACAD_REACTORS
330
83A
102
}
330
83A
100
AcDbXrecord
 10
0.0
 20
0.0
 30
0.0
  0
XRECORD
  5
855
102
{ACAD_REACTORS
330
83A
102
}
330
83A
100
AcDbXrecord
 10
0.0
 20
0.0
 30
0.0
  0
XRECORD
  5
856
102
{ACAD_REACTORS
330
83A
102
}
330
83A
100
AcDbXrecord
 10
0.0
 20
0.0
 30
0.0
  0
XRECORD
  5
853
102
{ACAD_REACTORS
330
83A
102
}
330
83A
100
AcDbXrecord
 10
0.0
 20
0.0
 30
0.0
  0
XRECORD
  5
850
102
{ACAD_REACTORS
330
83A
102
}
330
83A
100
AcDbXrecord
340
0
  0
XRECORD
  5
851
102
{ACAD_REACTORS
330
83A
102
}
330
83A
100
AcDbXrecord
 70
     0
  0
XRECORD
  5
845
102
{ACAD_REACTORS
330
83A
102
}
330
83A
100
AcDbXrecord
  1
{FAEB1C32-E019-11D5-929B-00C0DF256EC4}
  0
ENDSEC
  0
EOF
