ISO-10303-21;
HEADER;
/* Generated by software containing ST-Developer
 * from STEP Tools, Inc. (www.steptools.com) 
 */
/* OPTION: using custom schema-name function */

FILE_DESCRIPTION(
/* description */ (''),
/* implementation_level */ '2;1');

FILE_NAME(
/* name */ '987373_stp.stp',
/* time_stamp */ '2013-02-08T07:01:53+01:00',
/* author */ (''),
/* organization */ (''),
/* preprocessor_version */ 'ST-DEVELOPER v11',
/* originating_system */ 'SIEMENS PLM Software NX 7.5',
/* authorisation */ '');

FILE_SCHEMA (('AUTOMOTIVE_DESIGN { 1 0 10303 214 1 1 1 1 }'));
ENDSEC;

DATA;
#10=SHAPE_REPRESENTATION_RELATIONSHIP('None',
'relationship between furtAA39w0c9-None and furtAA39w0c9-None',#22,#11);
#11=ADVANCED_BREP_SHAPE_REPRESENTATION('furtAA39w0c9-None',(#32),#433);
#12=SHAPE_DEFINITION_REPRESENTATION(#13,#22);
#13=PRODUCT_DEFINITION_SHAPE('','',#14);
#14=PRODUCT_DEFINITION(' ','',#16,#15);
#15=PRODUCT_DEFINITION_CONTEXT('part definition',#21,'design');
#16=PRODUCT_DEFINITION_FORMATION_WITH_SPECIFIED_SOURCE(' ',' ',#18,.NOT_KNOWN.);
#17=PRODUCT_RELATED_PRODUCT_CATEGORY('part','',(#18));
#18=PRODUCT('furtAA39w0c9','furtAA39w0c9',' ',(#19));
#19=PRODUCT_CONTEXT(' ',#21,'mechanical');
#20=APPLICATION_PROTOCOL_DEFINITION('international standard',
'automotive_design',2001,#21);
#21=APPLICATION_CONTEXT(
'core data for automotive mechanical design processes');
#22=SHAPE_REPRESENTATION('furtAA39w0c9-None',(#252),#433);
#23=PRESENTATION_LAYER_ASSIGNMENT('210','Layer 210',(#32));
#24=STYLED_ITEM('',(#25),#32);
#25=PRESENTATION_STYLE_ASSIGNMENT((#26));
#26=SURFACE_STYLE_USAGE(.BOTH.,#27);
#27=SURFACE_SIDE_STYLE('',(#28));
#28=SURFACE_STYLE_FILL_AREA(#29);
#29=FILL_AREA_STYLE('',(#30));
#30=FILL_AREA_STYLE_COLOUR('',#31);
#31=COLOUR_RGB('Lime',0.8,1.,0.2);
#32=MANIFOLD_SOLID_BREP('',#33);
#33=CLOSED_SHELL('',(#79,#80,#81,#82,#83,#84,#85,#86,#87,#88,#89,#90,#91,
#92,#93,#94));
#34=PLANE('',#268);
#35=PLANE('',#271);
#36=PLANE('',#274);
#37=PLANE('',#275);
#38=PLANE('',#276);
#39=PLANE('',#277);
#40=PLANE('',#278);
#41=PLANE('',#279);
#42=PLANE('',#280);
#43=PLANE('',#281);
#44=PLANE('',#282);
#45=CYLINDRICAL_SURFACE('',#266,14.);
#46=CYLINDRICAL_SURFACE('',#273,5.);
#47=ELLIPSE('',#264,40.9332616022832,14.);
#48=ELLIPSE('',#265,40.9332616022832,14.);
#49=FACE_BOUND('',#112,.T.);
#50=FACE_BOUND('',#113,.T.);
#51=FACE_BOUND('',#114,.T.);
#52=FACE_BOUND('',#115,.T.);
#53=FACE_BOUND('',#116,.T.);
#54=FACE_BOUND('',#117,.T.);
#55=FACE_BOUND('',#118,.T.);
#56=FACE_BOUND('',#119,.T.);
#57=FACE_BOUND('',#121,.T.);
#58=FACE_BOUND('',#122,.T.);
#59=LINE('',#386,#69);
#60=LINE('',#391,#70);
#61=LINE('',#394,#71);
#62=LINE('',#399,#72);
#63=LINE('',#409,#73);
#64=LINE('',#410,#74);
#65=LINE('',#421,#75);
#66=LINE('',#423,#76);
#67=LINE('',#426,#77);
#68=LINE('',#428,#78);
#69=VECTOR('',#297,1.);
#70=VECTOR('',#300,1.);
#71=VECTOR('',#303,1.);
#72=VECTOR('',#306,1.);
#73=VECTOR('',#319,1.);
#74=VECTOR('',#320,1.);
#75=VECTOR('',#337,1.);
#76=VECTOR('',#340,1.);
#77=VECTOR('',#345,1.);
#78=VECTOR('',#348,1.);
#79=ADVANCED_FACE('',(#98),#95,.T.);
#80=ADVANCED_FACE('',(#99),#96,.T.);
#81=ADVANCED_FACE('',(#49,#50,#51,#52),#45,.T.);
#82=ADVANCED_FACE('',(#53,#54),#34,.T.);
#83=ADVANCED_FACE('',(#55,#56),#97,.T.);
#84=ADVANCED_FACE('',(#100),#35,.T.);
#85=ADVANCED_FACE('',(#57,#58),#46,.F.);
#86=ADVANCED_FACE('',(#101),#36,.T.);
#87=ADVANCED_FACE('',(#102),#37,.T.);
#88=ADVANCED_FACE('',(#103),#38,.F.);
#89=ADVANCED_FACE('',(#104),#39,.F.);
#90=ADVANCED_FACE('',(#105),#40,.F.);
#91=ADVANCED_FACE('',(#106),#41,.F.);
#92=ADVANCED_FACE('',(#107),#42,.F.);
#93=ADVANCED_FACE('',(#108),#43,.F.);
#94=ADVANCED_FACE('',(#109),#44,.T.);
#95=CONICAL_SURFACE('',#255,12.,45.);
#96=CONICAL_SURFACE('',#258,12.,45.);
#97=CONICAL_SURFACE('',#270,14.,45.0000000000008);
#98=FACE_OUTER_BOUND('',#110,.T.);
#99=FACE_OUTER_BOUND('',#111,.T.);
#100=FACE_OUTER_BOUND('',#120,.T.);
#101=FACE_OUTER_BOUND('',#123,.T.);
#102=FACE_OUTER_BOUND('',#124,.T.);
#103=FACE_OUTER_BOUND('',#125,.T.);
#104=FACE_OUTER_BOUND('',#126,.T.);
#105=FACE_OUTER_BOUND('',#127,.T.);
#106=FACE_OUTER_BOUND('',#128,.T.);
#107=FACE_OUTER_BOUND('',#129,.T.);
#108=FACE_OUTER_BOUND('',#130,.T.);
#109=FACE_OUTER_BOUND('',#131,.T.);
#110=EDGE_LOOP('',(#136,#137,#138,#139));
#111=EDGE_LOOP('',(#140,#141,#142,#143));
#112=EDGE_LOOP('',(#144,#145,#146,#147));
#113=EDGE_LOOP('',(#148,#149,#150,#151));
#114=EDGE_LOOP('',(#152));
#115=EDGE_LOOP('',(#153,#154,#155,#156));
#116=EDGE_LOOP('',(#157));
#117=EDGE_LOOP('',(#158,#159,#160,#161));
#118=EDGE_LOOP('',(#162));
#119=EDGE_LOOP('',(#163));
#120=EDGE_LOOP('',(#164));
#121=EDGE_LOOP('',(#165));
#122=EDGE_LOOP('',(#166));
#123=EDGE_LOOP('',(#167,#168,#169,#170));
#124=EDGE_LOOP('',(#171,#172,#173,#174));
#125=EDGE_LOOP('',(#175,#176));
#126=EDGE_LOOP('',(#177,#178));
#127=EDGE_LOOP('',(#179,#180,#181,#182));
#128=EDGE_LOOP('',(#183,#184));
#129=EDGE_LOOP('',(#185,#186));
#130=EDGE_LOOP('',(#187,#188,#189,#190));
#131=EDGE_LOOP('',(#191));
#132=B_SPLINE_CURVE_WITH_KNOTS('',3,(#359,#360,#361,#362),.UNSPECIFIED.,
 .F.,.F.,(4,4),(0.,1.),.UNSPECIFIED.);
#133=B_SPLINE_CURVE_WITH_KNOTS('',3,(#366,#367,#368,#369),.UNSPECIFIED.,
 .F.,.F.,(4,4),(0.,1.),.UNSPECIFIED.);
#134=B_SPLINE_CURVE_WITH_KNOTS('',3,(#374,#375,#376,#377),.UNSPECIFIED.,
 .F.,.F.,(4,4),(0.,1.),.UNSPECIFIED.);
#135=B_SPLINE_CURVE_WITH_KNOTS('',3,(#381,#382,#383,#384),.UNSPECIFIED.,
 .F.,.F.,(4,4),(0.,1.),.UNSPECIFIED.);
#136=ORIENTED_EDGE('',*,*,#212,.T.);
#137=ORIENTED_EDGE('',*,*,#213,.T.);
#138=ORIENTED_EDGE('',*,*,#214,.F.);
#139=ORIENTED_EDGE('',*,*,#215,.T.);
#140=ORIENTED_EDGE('',*,*,#216,.F.);
#141=ORIENTED_EDGE('',*,*,#217,.T.);
#142=ORIENTED_EDGE('',*,*,#218,.T.);
#143=ORIENTED_EDGE('',*,*,#219,.T.);
#144=ORIENTED_EDGE('',*,*,#220,.F.);
#145=ORIENTED_EDGE('',*,*,#221,.F.);
#146=ORIENTED_EDGE('',*,*,#222,.F.);
#147=ORIENTED_EDGE('',*,*,#223,.F.);
#148=ORIENTED_EDGE('',*,*,#224,.F.);
#149=ORIENTED_EDGE('',*,*,#225,.F.);
#150=ORIENTED_EDGE('',*,*,#226,.F.);
#151=ORIENTED_EDGE('',*,*,#227,.F.);
#152=ORIENTED_EDGE('',*,*,#228,.T.);
#153=ORIENTED_EDGE('',*,*,#218,.F.);
#154=ORIENTED_EDGE('',*,*,#229,.T.);
#155=ORIENTED_EDGE('',*,*,#212,.F.);
#156=ORIENTED_EDGE('',*,*,#230,.T.);
#157=ORIENTED_EDGE('',*,*,#231,.F.);
#158=ORIENTED_EDGE('',*,*,#214,.T.);
#159=ORIENTED_EDGE('',*,*,#232,.T.);
#160=ORIENTED_EDGE('',*,*,#216,.T.);
#161=ORIENTED_EDGE('',*,*,#233,.T.);
#162=ORIENTED_EDGE('',*,*,#234,.T.);
#163=ORIENTED_EDGE('',*,*,#228,.F.);
#164=ORIENTED_EDGE('',*,*,#234,.F.);
#165=ORIENTED_EDGE('',*,*,#231,.T.);
#166=ORIENTED_EDGE('',*,*,#235,.F.);
#167=ORIENTED_EDGE('',*,*,#230,.F.);
#168=ORIENTED_EDGE('',*,*,#215,.F.);
#169=ORIENTED_EDGE('',*,*,#233,.F.);
#170=ORIENTED_EDGE('',*,*,#219,.F.);
#171=ORIENTED_EDGE('',*,*,#229,.F.);
#172=ORIENTED_EDGE('',*,*,#217,.F.);
#173=ORIENTED_EDGE('',*,*,#232,.F.);
#174=ORIENTED_EDGE('',*,*,#213,.F.);
#175=ORIENTED_EDGE('',*,*,#225,.T.);
#176=ORIENTED_EDGE('',*,*,#236,.T.);
#177=ORIENTED_EDGE('',*,*,#227,.T.);
#178=ORIENTED_EDGE('',*,*,#237,.F.);
#179=ORIENTED_EDGE('',*,*,#224,.T.);
#180=ORIENTED_EDGE('',*,*,#237,.T.);
#181=ORIENTED_EDGE('',*,*,#226,.T.);
#182=ORIENTED_EDGE('',*,*,#236,.F.);
#183=ORIENTED_EDGE('',*,*,#221,.T.);
#184=ORIENTED_EDGE('',*,*,#238,.T.);
#185=ORIENTED_EDGE('',*,*,#223,.T.);
#186=ORIENTED_EDGE('',*,*,#239,.F.);
#187=ORIENTED_EDGE('',*,*,#220,.T.);
#188=ORIENTED_EDGE('',*,*,#239,.T.);
#189=ORIENTED_EDGE('',*,*,#222,.T.);
#190=ORIENTED_EDGE('',*,*,#238,.F.);
#191=ORIENTED_EDGE('',*,*,#235,.T.);
#192=VERTEX_POINT('',#357);
#193=VERTEX_POINT('',#358);
#194=VERTEX_POINT('',#363);
#195=VERTEX_POINT('',#365);
#196=VERTEX_POINT('',#372);
#197=VERTEX_POINT('',#373);
#198=VERTEX_POINT('',#378);
#199=VERTEX_POINT('',#380);
#200=VERTEX_POINT('',#387);
#201=VERTEX_POINT('',#388);
#202=VERTEX_POINT('',#390);
#203=VERTEX_POINT('',#392);
#204=VERTEX_POINT('',#395);
#205=VERTEX_POINT('',#396);
#206=VERTEX_POINT('',#398);
#207=VERTEX_POINT('',#400);
#208=VERTEX_POINT('',#403);
#209=VERTEX_POINT('',#408);
#210=VERTEX_POINT('',#413);
#211=VERTEX_POINT('',#417);
#212=EDGE_CURVE('',#192,#193,#240,.T.);
#213=EDGE_CURVE('',#193,#194,#132,.T.);
#214=EDGE_CURVE('',#195,#194,#241,.T.);
#215=EDGE_CURVE('',#195,#192,#133,.T.);
#216=EDGE_CURVE('',#196,#197,#242,.T.);
#217=EDGE_CURVE('',#196,#198,#134,.T.);
#218=EDGE_CURVE('',#198,#199,#243,.T.);
#219=EDGE_CURVE('',#199,#197,#135,.T.);
#220=EDGE_CURVE('',#200,#201,#59,.T.);
#221=EDGE_CURVE('',#202,#200,#244,.T.);
#222=EDGE_CURVE('',#203,#202,#60,.T.);
#223=EDGE_CURVE('',#201,#203,#245,.T.);
#224=EDGE_CURVE('',#204,#205,#61,.T.);
#225=EDGE_CURVE('',#206,#204,#246,.T.);
#226=EDGE_CURVE('',#207,#206,#62,.T.);
#227=EDGE_CURVE('',#205,#207,#247,.T.);
#228=EDGE_CURVE('',#208,#208,#248,.T.);
#229=EDGE_CURVE('',#198,#193,#47,.T.);
#230=EDGE_CURVE('',#192,#199,#48,.T.);
#231=EDGE_CURVE('',#209,#209,#249,.T.);
#232=EDGE_CURVE('',#194,#196,#63,.T.);
#233=EDGE_CURVE('',#197,#195,#64,.T.);
#234=EDGE_CURVE('',#210,#210,#250,.T.);
#235=EDGE_CURVE('',#211,#211,#251,.T.);
#236=EDGE_CURVE('',#204,#206,#65,.T.);
#237=EDGE_CURVE('',#205,#207,#66,.T.);
#238=EDGE_CURVE('',#200,#202,#67,.T.);
#239=EDGE_CURVE('',#201,#203,#68,.T.);
#240=CIRCLE('',#253,14.);
#241=CIRCLE('',#254,12.);
#242=CIRCLE('',#256,12.);
#243=CIRCLE('',#257,14.);
#244=CIRCLE('',#259,14.);
#245=CIRCLE('',#260,14.);
#246=CIRCLE('',#261,14.);
#247=CIRCLE('',#262,14.);
#248=CIRCLE('',#263,14.);
#249=CIRCLE('',#267,4.99999999999999);
#250=CIRCLE('',#269,13.5);
#251=CIRCLE('',#272,5.);
#252=AXIS2_PLACEMENT_3D('',#355,#283,#284);
#253=AXIS2_PLACEMENT_3D('',#356,#285,#286);
#254=AXIS2_PLACEMENT_3D('',#364,#287,#288);
#255=AXIS2_PLACEMENT_3D('',#370,#289,#290);
#256=AXIS2_PLACEMENT_3D('',#371,#291,#292);
#257=AXIS2_PLACEMENT_3D('',#379,#293,#294);
#258=AXIS2_PLACEMENT_3D('',#385,#295,#296);
#259=AXIS2_PLACEMENT_3D('',#389,#298,#299);
#260=AXIS2_PLACEMENT_3D('',#393,#301,#302);
#261=AXIS2_PLACEMENT_3D('',#397,#304,#305);
#262=AXIS2_PLACEMENT_3D('',#401,#307,#308);
#263=AXIS2_PLACEMENT_3D('',#402,#309,#310);
#264=AXIS2_PLACEMENT_3D('',#404,#311,#312);
#265=AXIS2_PLACEMENT_3D('',#405,#313,#314);
#266=AXIS2_PLACEMENT_3D('',#406,#315,#316);
#267=AXIS2_PLACEMENT_3D('',#407,#317,#318);
#268=AXIS2_PLACEMENT_3D('',#411,#321,#322);
#269=AXIS2_PLACEMENT_3D('',#412,#323,#324);
#270=AXIS2_PLACEMENT_3D('',#414,#325,#326);
#271=AXIS2_PLACEMENT_3D('',#415,#327,#328);
#272=AXIS2_PLACEMENT_3D('',#416,#329,#330);
#273=AXIS2_PLACEMENT_3D('',#418,#331,#332);
#274=AXIS2_PLACEMENT_3D('',#419,#333,#334);
#275=AXIS2_PLACEMENT_3D('',#420,#335,#336);
#276=AXIS2_PLACEMENT_3D('',#422,#338,#339);
#277=AXIS2_PLACEMENT_3D('',#424,#341,#342);
#278=AXIS2_PLACEMENT_3D('',#425,#343,#344);
#279=AXIS2_PLACEMENT_3D('',#427,#346,#347);
#280=AXIS2_PLACEMENT_3D('',#429,#349,#350);
#281=AXIS2_PLACEMENT_3D('',#430,#351,#352);
#282=AXIS2_PLACEMENT_3D('',#431,#353,#354);
#283=DIRECTION('',(0.,0.,1.));
#284=DIRECTION('',(1.,0.,0.));
#285=DIRECTION('',(0.,0.,1.));
#286=DIRECTION('',(1.,0.,0.));
#287=DIRECTION('',(0.,0.,1.));
#288=DIRECTION('',(1.,0.,0.));
#289=DIRECTION('',(0.,0.,-1.));
#290=DIRECTION('',(-1.,0.,0.));
#291=DIRECTION('',(0.,0.,1.));
#292=DIRECTION('',(1.,0.,0.));
#293=DIRECTION('',(0.,0.,1.));
#294=DIRECTION('',(1.,0.,0.));
#295=DIRECTION('',(0.,0.,-1.));
#296=DIRECTION('',(-1.,0.,0.));
#297=DIRECTION('',(0.,0.,-1.));
#298=DIRECTION('',(0.,0.,-1.));
#299=DIRECTION('',(1.,0.,0.));
#300=DIRECTION('',(0.,0.,1.));
#301=DIRECTION('',(0.,0.,1.));
#302=DIRECTION('',(-1.,0.,0.));
#303=DIRECTION('',(0.,0.,-1.));
#304=DIRECTION('',(0.,0.,-1.));
#305=DIRECTION('',(1.,0.,0.));
#306=DIRECTION('',(0.,0.,1.));
#307=DIRECTION('',(0.,0.,1.));
#308=DIRECTION('',(-1.,0.,0.));
#309=DIRECTION('',(0.,0.,1.));
#310=DIRECTION('',(1.,0.,0.));
#311=DIRECTION('',(-0.939692620785908,0.,-0.342020143325669));
#312=DIRECTION('',(-0.342020143325669,0.,0.939692620785908));
#313=DIRECTION('',(0.939692620785908,0.,-0.342020143325669));
#314=DIRECTION('',(0.342020143325669,0.,0.939692620785908));
#315=DIRECTION('',(0.,0.,1.));
#316=DIRECTION('',(1.,0.,0.));
#317=DIRECTION('',(0.,0.,1.));
#318=DIRECTION('',(1.,0.,0.));
#319=DIRECTION('',(0.,1.,0.));
#320=DIRECTION('',(0.,-1.,0.));
#321=DIRECTION('',(0.,0.,1.));
#322=DIRECTION('',(1.,0.,0.));
#323=DIRECTION('',(0.,0.,1.));
#324=DIRECTION('',(1.,0.,0.));
#325=DIRECTION('',(0.,0.,1.));
#326=DIRECTION('',(1.,0.,-4.10585438101008E-017));
#327=DIRECTION('',(0.,0.,-1.));
#328=DIRECTION('',(-1.,0.,0.));
#329=DIRECTION('',(0.,0.,1.));
#330=DIRECTION('',(1.,0.,0.));
#331=DIRECTION('',(0.,0.,1.));
#332=DIRECTION('',(1.,0.,0.));
#333=DIRECTION('',(-0.939692620785908,0.,0.342020143325669));
#334=DIRECTION('',(0.342020143325669,0.,0.939692620785908));
#335=DIRECTION('',(0.939692620785908,0.,0.342020143325669));
#336=DIRECTION('',(0.342020143325669,0.,-0.939692620785908));
#337=DIRECTION('',(0.,1.,0.));
#338=DIRECTION('',(0.,0.,1.));
#339=DIRECTION('',(1.,0.,0.));
#340=DIRECTION('',(0.,1.,0.));
#341=DIRECTION('',(0.,0.,-1.));
#342=DIRECTION('',(-1.,0.,0.));
#343=DIRECTION('',(-1.,0.,0.));
#344=DIRECTION('',(0.,0.,1.));
#345=DIRECTION('',(1.22460635382238E-016,-1.,0.));
#346=DIRECTION('',(0.,0.,1.));
#347=DIRECTION('',(-1.,-1.23165366794353E-016,0.));
#348=DIRECTION('',(1.22460635382238E-016,-1.,0.));
#349=DIRECTION('',(0.,0.,-1.));
#350=DIRECTION('',(1.,1.23165366794353E-016,0.));
#351=DIRECTION('',(1.,1.22460635382238E-016,0.));
#352=DIRECTION('',(0.,0.,1.));
#353=DIRECTION('',(3.00862022060853E-015,5.6350543302886E-017,1.));
#354=DIRECTION('',(1.,0.,-3.01147995429574E-015));
#355=CARTESIAN_POINT('',(0.,0.,0.));
#356=CARTESIAN_POINT('',(0.,0.,-2.));
#357=CARTESIAN_POINT('',(-6.7279404685324,-12.2774108447948,-2.));
#358=CARTESIAN_POINT('',(6.7279404685324,-12.2774108447948,-2.));
#359=CARTESIAN_POINT('',(6.7279404685324,-12.2774108447948,-2.));
#360=CARTESIAN_POINT('',(6.48510111574346,-11.649678310204,-1.33280436165739));
#361=CARTESIAN_POINT('',(6.24241951177823,-11.0214230864902,-0.666042134645892));
#362=CARTESIAN_POINT('',(6.,-10.3923048454133,0.));
#363=CARTESIAN_POINT('',(6.,-10.3923048454133,0.));
#364=CARTESIAN_POINT('',(0.,0.,0.));
#365=CARTESIAN_POINT('',(-6.,-10.3923048454133,0.));
#366=CARTESIAN_POINT('',(-6.,-10.3923048454133,0.));
#367=CARTESIAN_POINT('',(-6.24241951177823,-11.0214230864902,-0.666042134645892));
#368=CARTESIAN_POINT('',(-6.48510111574346,-11.649678310204,-1.33280436165739));
#369=CARTESIAN_POINT('',(-6.7279404685324,-12.2774108447948,-2.));
#370=CARTESIAN_POINT('',(0.,0.,0.));
#371=CARTESIAN_POINT('',(0.,0.,0.));
#372=CARTESIAN_POINT('',(6.,10.3923048454133,0.));
#373=CARTESIAN_POINT('',(-6.,10.3923048454133,0.));
#374=CARTESIAN_POINT('',(6.,10.3923048454133,0.));
#375=CARTESIAN_POINT('',(6.24241951177823,11.0214230864902,-0.666042134645892));
#376=CARTESIAN_POINT('',(6.48510111574346,11.649678310204,-1.33280436165739));
#377=CARTESIAN_POINT('',(6.7279404685324,12.2774108447948,-2.));
#378=CARTESIAN_POINT('',(6.7279404685324,12.2774108447948,-2.));
#379=CARTESIAN_POINT('',(0.,0.,-2.));
#380=CARTESIAN_POINT('',(-6.7279404685324,12.2774108447948,-2.));
#381=CARTESIAN_POINT('',(-6.7279404685324,12.2774108447948,-2.));
#382=CARTESIAN_POINT('',(-6.48510111574346,11.649678310204,-1.33280436165739));
#383=CARTESIAN_POINT('',(-6.24241951177823,11.0214230864902,-0.666042134645892));
#384=CARTESIAN_POINT('',(-6.,10.3923048454133,0.));
#385=CARTESIAN_POINT('',(0.,0.,0.));
#386=CARTESIAN_POINT('',(-13.,5.19615242270663,0.));
#387=CARTESIAN_POINT('',(-13.,5.19615242270663,-36.));
#388=CARTESIAN_POINT('',(-13.,5.19615242270663,-108.));
#389=CARTESIAN_POINT('',(0.,0.,-36.));
#390=CARTESIAN_POINT('',(-13.,-5.19615242270663,-36.));
#391=CARTESIAN_POINT('',(-13.,-5.19615242270663,0.));
#392=CARTESIAN_POINT('',(-13.,-5.19615242270663,-108.));
#393=CARTESIAN_POINT('',(0.,0.,-108.));
#394=CARTESIAN_POINT('',(13.,-5.19615242270663,0.));
#395=CARTESIAN_POINT('',(13.,-5.19615242270663,-36.));
#396=CARTESIAN_POINT('',(13.,-5.19615242270663,-108.));
#397=CARTESIAN_POINT('',(0.,0.,-36.));
#398=CARTESIAN_POINT('',(13.,5.19615242270663,-36.));
#399=CARTESIAN_POINT('',(13.,5.19615242270663,0.));
#400=CARTESIAN_POINT('',(13.,5.19615242270663,-108.));
#401=CARTESIAN_POINT('',(0.,0.,-108.));
#402=CARTESIAN_POINT('',(0.,0.,-119.5));
#403=CARTESIAN_POINT('',(14.,0.,-119.5));
#404=CARTESIAN_POINT('',(0.,0.,16.4848645167277));
#405=CARTESIAN_POINT('',(0.,0.,16.4848645167277));
#406=CARTESIAN_POINT('',(0.,0.,0.));
#407=CARTESIAN_POINT('',(0.,0.,0.));
#408=CARTESIAN_POINT('',(4.99999999999999,0.,0.));
#409=CARTESIAN_POINT('',(6.,4.99999999999999,0.));
#410=CARTESIAN_POINT('',(-6.,4.99999999999999,0.));
#411=CARTESIAN_POINT('',(0.,4.99999999999999,0.));
#412=CARTESIAN_POINT('',(0.,0.,-120.));
#413=CARTESIAN_POINT('',(13.5,0.,-120.));
#414=CARTESIAN_POINT('',(0.,0.,-119.5));
#415=CARTESIAN_POINT('',(0.,13.5,-120.));
#416=CARTESIAN_POINT('',(0.,0.,-89.6995696904862));
#417=CARTESIAN_POINT('',(5.,0.,-89.6995696904862));
#418=CARTESIAN_POINT('',(0.,0.,0.));
#419=CARTESIAN_POINT('',(-6.,14.901925,0.));
#420=CARTESIAN_POINT('',(6.,-14.901925,0.));
#421=CARTESIAN_POINT('',(13.,-10.,-36.));
#422=CARTESIAN_POINT('',(13.,-10.,-36.));
#423=CARTESIAN_POINT('',(13.,-10.,-108.));
#424=CARTESIAN_POINT('',(13.,10.,-108.));
#425=CARTESIAN_POINT('',(13.,-10.,-108.));
#426=CARTESIAN_POINT('',(-13.,10.,-36.));
#427=CARTESIAN_POINT('',(-13.,10.,-36.));
#428=CARTESIAN_POINT('',(-13.,10.,-108.));
#429=CARTESIAN_POINT('',(-13.,-10.,-108.));
#430=CARTESIAN_POINT('',(-13.,10.,-108.));
#431=CARTESIAN_POINT('',(0.0292086521206601,-4.49906453171137E-005,-89.6995696904862));
#432=MECHANICAL_DESIGN_GEOMETRIC_PRESENTATION_REPRESENTATION('',(#24),#433);
#433=(
GEOMETRIC_REPRESENTATION_CONTEXT(3)
GLOBAL_UNCERTAINTY_ASSIGNED_CONTEXT((#434))
GLOBAL_UNIT_ASSIGNED_CONTEXT((#440,#436,#435))
REPRESENTATION_CONTEXT('987373_stp','TOP_LEVEL_ASSEMBLY_PART')
);
#434=UNCERTAINTY_MEASURE_WITH_UNIT(LENGTH_MEASURE(0.0508),#440,
'DISTANCE_ACCURACY_VALUE','Maximum Tolerance applied to model');
#435=(
NAMED_UNIT(*)
SI_UNIT($,.STERADIAN.)
SOLID_ANGLE_UNIT()
);
#436=(
CONVERSION_BASED_UNIT('DEGREE',#438)
NAMED_UNIT(#437)
PLANE_ANGLE_UNIT()
);
#437=DIMENSIONAL_EXPONENTS(0.,0.,0.,0.,0.,0.,0.);
#438=PLANE_ANGLE_MEASURE_WITH_UNIT(PLANE_ANGLE_MEASURE(0.0174532925),#439);
#439=(
NAMED_UNIT(*)
PLANE_ANGLE_UNIT()
SI_UNIT($,.RADIAN.)
);
#440=(
LENGTH_UNIT()
NAMED_UNIT(*)
SI_UNIT(.MILLI.,.METRE.)
);
ENDSEC;
END-ISO-10303-21;
