  0
SECTION
  2
HEADER
  9
$ACADVER
  1
AC1032
  9
$ACADMAINTVER
 90
      228
  9
$DWGCODEPAGE
  3
ANSI_1252
  9
$REQUIREDVERSIONS
160
                 0
  9
$INSBASE
 10
0.0
 20
0.0
 30
0.0
  9
$EXTMIN
 10
1.000000000000000E+20
 20
1.000000000000000E+20
 30
1.000000000000000E+20
  9
$EXTMAX
 10
-1.000000000000000E+20
 20
-1.000000000000000E+20
 30
-1.000000000000000E+20
  9
$LIMMIN
 10
0.0
 20
0.0
  9
$LIMMAX
 10
12.0
 20
9.0
  9
$ORTHOMODE
 70
     0
  9
$REGENMODE
 70
     1
  9
$FILLMODE
 70
     1
  9
$QTEXTMODE
 70
     0
  9
$MIRRTEXT
 70
     0
  9
$LTSCALE
 40
1.0
  9
$ATTMODE
 70
     1
  9
$TEXTSIZE
 40
0.2
  9
$TRACEWID
 40
0.05
  9
$TEXTSTYLE
  7
Standard
  9
$CLAYER
  8
0
  9
$CELTYPE
  6
ByLayer
  9
$CECOLOR
 62
   256
  9
$CELTSCALE
 40
1.0
  9
$DISPSILH
 70
     0
  9
$DIMSCALE
 40
1.0
  9
$DIMASZ
 40
0.18
  9
$DIMEXO
 40
0.0625
  9
$DIMDLI
 40
0.38
  9
$DIMRND
 40
0.0
  9
$DIMDLE
 40
0.0
  9
$DIMEXE
 40
0.18
  9
$DIMTP
 40
0.0
  9
$DIMTM
 40
0.0
  9
$DIMTXT
 40
0.18
  9
$DIMCEN
 40
0.09
  9
$DIMTSZ
 40
0.0
  9
$DIMTOL
 70
     0
  9
$DIMLIM
 70
     0
  9
$DIMTIH
 70
     1
  9
$DIMTOH
 70
     1
  9
$DIMSE1
 70
     0
  9
$DIMSE2
 70
     0
  9
$DIMTAD
 70
     0
  9
$DIMZIN
 70
     0
  9
$DIMBLK
  1

  9
$DIMASO
 70
     1
  9
$DIMSHO
 70
     1
  9
$DIMPOST
  1

  9
$DIMAPOST
  1

  9
$DIMALT
 70
     0
  9
$DIMALTD
 70
     2
  9
$DIMALTF
 40
25.4
  9
$DIMLFAC
 40
1.0
  9
$DIMTOFL
 70
     0
  9
$DIMTVP
 40
0.0
  9
$DIMTIX
 70
     0
  9
$DIMSOXD
 70
     0
  9
$DIMSAH
 70
     0
  9
$DIMBLK1
  1

  9
$DIMBLK2
  1

  9
$DIMSTYLE
  2
Standard
  9
$DIMCLRD
 70
     0
  9
$DIMCLRE
 70
     0
  9
$DIMCLRT
 70
     0
  9
$DIMTFAC
 40
1.0
  9
$DIMGAP
 40
0.09
  9
$DIMJUST
 70
     0
  9
$DIMSD1
 70
     0
  9
$DIMSD2
 70
     0
  9
$DIMTOLJ
 70
     1
  9
$DIMTZIN
 70
     0
  9
$DIMALTZ
 70
     0
  9
$DIMALTTZ
 70
     0
  9
$DIMUPT
 70
     0
  9
$DIMDEC
 70
     4
  9
$DIMTDEC
 70
     4
  9
$DIMALTU
 70
     2
  9
$DIMALTTD
 70
     2
  9
$DIMTXSTY
  7
Standard
  9
$DIMAUNIT
 70
     0
  9
$DIMADEC
 70
     0
  9
$DIMALTRND
 40
0.0
  9
$DIMAZIN
 70
     0
  9
$DIMDSEP
 70
    46
  9
$DIMATFIT
 70
     3
  9
$DIMFRAC
 70
     0
  9
$DIMLDRBLK
  1

  9
$DIMLUNIT
 70
     2
  9
$DIMLWD
 70
    -2
  9
$DIMLWE
 70
    -2
  9
$DIMTMOVE
 70
     0
  9
$DIMFXL
 40
1.0
  9
$DIMFXLON
 70
     0
  9
$DIMJOGANG
 40
0.7853981633974483
  9
$DIMTFILL
 70
     0
  9
$DIMTFILLCLR
 70
     0
  9
$DIMARCSYM
 70
     0
  9
$DIMLTYPE
  6

  9
$DIMLTEX1
  6

  9
$DIMLTEX2
  6

  9
$DIMTXTDIRECTION
 70
     0
  9
$LUNITS
 70
     2
  9
$LUPREC
 70
     4
  9
$SKETCHINC
 40
0.1
  9
$FILLETRAD
 40
0.0
  9
$AUNITS
 70
     0
  9
$AUPREC
 70
     0
  9
$MENU
  1
.
  9
$ELEVATION
 40
0.0
  9
$PELEVATION
 40
0.0
  9
$THICKNESS
 40
0.0
  9
$LIMCHECK
 70
     0
  9
$CHAMFERA
 40
0.0
  9
$CHAMFERB
 40
0.0
  9
$CHAMFERC
 40
0.0
  9
$CHAMFERD
 40
0.0
  9
$SKPOLY
 70
     0
  9
$TDCREATE
 40
2460224.489710648
  9
$TDUCREATE
 40
2460224.406377315
  9
$TDUPDATE
 40
2460224.489710648
  9
$TDUUPDATE
 40
2460224.406377315
  9
$TDINDWG
 40
0.0000000000
  9
$TDUSRTIMER
 40
0.0000000000
  9
$USRTIMER
 70
     1
  9
$ANGBASE
 50
0.0
  9
$ANGDIR
 70
     0
  9
$PDMODE
 70
     0
  9
$PDSIZE
 40
0.0
  9
$PLINEWID
 40
0.0
  9
$SPLFRAME
 70
     0
  9
$SPLINETYPE
 70
     6
  9
$SPLINESEGS
 70
     8
  9
$HANDSEED
  5
348
  9
$SURFTAB1
 70
     6
  9
$SURFTAB2
 70
     6
  9
$SURFTYPE
 70
     6
  9
$SURFU
 70
     6
  9
$SURFV
 70
     6
  9
$UCSBASE
  2

  9
$UCSNAME
  2

  9
$UCSORG
 10
0.0
 20
0.0
 30
0.0
  9
$UCSXDIR
 10
1.0
 20
0.0
 30
0.0
  9
$UCSYDIR
 10
0.0
 20
1.0
 30
0.0
  9
$UCSORTHOREF
  2

  9
$UCSORTHOVIEW
 70
     0
  9
$UCSORGTOP
 10
0.0
 20
0.0
 30
0.0
  9
$UCSORGBOTTOM
 10
0.0
 20
0.0
 30
0.0
  9
$UCSORGLEFT
 10
0.0
 20
0.0
 30
0.0
  9
$UCSORGRIGHT
 10
0.0
 20
0.0
 30
0.0
  9
$UCSORGFRONT
 10
0.0
 20
0.0
 30
0.0
  9
$UCSORGBACK
 10
0.0
 20
0.0
 30
0.0
  9
$PUCSBASE
  2

  9
$PUCSNAME
  2

  9
$PUCSORG
 10
0.0
 20
0.0
 30
0.0
  9
$PUCSXDIR
 10
1.0
 20
0.0
 30
0.0
  9
$PUCSYDIR
 10
0.0
 20
1.0
 30
0.0
  9
$PUCSORTHOREF
  2

  9
$PUCSORTHOVIEW
 70
     0
  9
$PUCSORGTOP
 10
0.0
 20
0.0
 30
0.0
  9
$PUCSORGBOTTOM
 10
0.0
 20
0.0
 30
0.0
  9
$PUCSORGLEFT
 10
0.0
 20
0.0
 30
0.0
  9
$PUCSORGRIGHT
 10
0.0
 20
0.0
 30
0.0
  9
$PUCSORGFRONT
 10
0.0
 20
0.0
 30
0.0
  9
$PUCSORGBACK
 10
0.0
 20
0.0
 30
0.0
  9
$USERI1
 70
     0
  9
$USERI2
 70
     0
  9
$USERI3
 70
     0
  9
$USERI4
 70
     0
  9
$USERI5
 70
     0
  9
$USERR1
 40
0.0
  9
$USERR2
 40
0.0
  9
$USERR3
 40
0.0
  9
$USERR4
 40
0.0
  9
$USERR5
 40
0.0
  9
$WORLDVIEW
 70
     1
  9
$SHADEDGE
 70
     3
  9
$SHADEDIF
 70
    70
  9
$TILEMODE
 70
     1
  9
$MAXACTVP
 70
    64
  9
$PINSBASE
 10
0.0
 20
0.0
 30
0.0
  9
$PLIMCHECK
 70
     0
  9
$PEXTMIN
 10
1.000000000000000E+20
 20
1.000000000000000E+20
 30
1.000000000000000E+20
  9
$PEXTMAX
 10
-1.000000000000000E+20
 20
-1.000000000000000E+20
 30
-1.000000000000000E+20
  9
$PLIMMIN
 10
0.0
 20
0.0
  9
$PLIMMAX
 10
12.0
 20
9.0
  9
$UNITMODE
 70
     0
  9
$VISRETAIN
 70
     1
  9
$PLINEGEN
 70
     0
  9
$PSLTSCALE
 70
     1
  9
$TREEDEPTH
 70
  3020
  9
$CMLSTYLE
  2
Standard
  9
$CMLJUST
 70
     0
  9
$CMLSCALE
 40
1.0
  9
$PROXYGRAPHICS
 70
     1
  9
$MEASUREMENT
 70
     0
  9
$CELWEIGHT
370
    -1
  9
$ENDCAPS
280
     0
  9
$JOINSTYLE
280
     0
  9
$LWDISPLAY
290
     1
  9
$INSUNITS
 70
     4
  9
$HYPERLINKBASE
  1

  9
$STYLESHEET
  1

  9
$XEDIT
290
     1
  9
$CEPSNTYPE
380
     0
  9
$PSTYLEMODE
290
     1
  9
$FINGERPRINTGUID
  2
{3711234E-3048-E84C-843C-7FAA79ABB73A}
  9
$VERSIONGUID
  2
{8D324FA9-03F4-7248-A944-54B59F6D1222}
  9
$EXTNAMES
290
     1
  9
$PSVPSCALE
 40
0.0
  9
$OLESTARTUP
290
     0
  9
$SORTENTS
280
   127
  9
$INDEXCTL
280
     0
  9
$HIDETEXT
280
     1
  9
$XCLIPFRAME
280
     2
  9
$HALOGAP
280
     0
  9
$OBSCOLOR
 70
   257
  9
$OBSLTYPE
280
     0
  9
$INTERSECTIONDISPLAY
280
     0
  9
$INTERSECTIONCOLOR
 70
   257
  9
$DIMASSOC
280
     2
  9
$PROJECTNAME
  1

  9
$CAMERADISPLAY
290
     0
  9
$LENSLENGTH
 40
50.0
  9
$CAMERAHEIGHT
 40
0.0
  9
$STEPSPERSEC
 40
2.0
  9
$STEPSIZE
 40
6.0
  9
$3DDWFPREC
 40
2.0
  9
$PSOLWIDTH
 40
0.25
  9
$PSOLHEIGHT
 40
4.0
  9
$LOFTANG1
 40
1.570796326794896
  9
$LOFTANG2
 40
1.570796326794896
  9
$LOFTMAG1
 40
0.0
  9
$LOFTMAG2
 40
0.0
  9
$LOFTPARAM
 70
     7
  9
$LOFTNORMALS
280
     1
  9
$LATITUDE
 40
37.795
  9
$LONGITUDE
 40
-122.394
  9
$NORTHDIRECTION
 40
0.0
  9
$TIMEZONE
 70
 -8000
  9
$LIGHTGLYPHDISPLAY
280
     1
  9
$TILEMODELIGHTSYNCH
280
     1
  9
$CMATERIAL
347
11
  9
$SOLIDHIST
280
     0
  9
$SHOWHIST
280
     1
  9
$DWFFRAME
280
     2
  9
$DGNFRAME
280
     0
  9
$REALWORLDSCALE
290
     1
  9
$INTERFERECOLOR
 62
     1
  9
$INTERFEREOBJVS
345
33
  9
$INTERFEREVPVS
346
30
  9
$CSHADOW
280
     0
  9
$SHADOWPLANELOCATION
 40
0.0
  0
ENDSEC
  0
SECTION
  2
CLASSES
  0
CLASS
  1
ACDBDICTIONARYWDFLT
  2
AcDbDictionaryWithDefault
  3
ObjectDBX Classes
 90
        0
 91
        1
280
     0
281
     0
  0
CLASS
  1
MATERIAL
  2
AcDbMaterial
  3
ObjectDBX Classes
 90
     1153
 91
        3
280
     0
281
     0
  0
CLASS
  1
VISUALSTYLE
  2
AcDbVisualStyle
  3
ObjectDBX Classes
 90
     4095
 91
       24
280
     0
281
     0
  0
CLASS
  1
SCALE
  2
AcDbScale
  3
ObjectDBX Classes
 90
     1153
 91
       17
280
     0
281
     0
  0
CLASS
  1
TABLESTYLE
  2
AcDbTableStyle
  3
ObjectDBX Classes
 90
     4095
 91
        1
280
     0
281
     0
  0
CLASS
  1
MLEADERSTYLE
  2
AcDbMLeaderStyle
  3
ACDB_MLEADERSTYLE_CLASS
 90
     4095
 91
        1
280
     0
281
     0
  0
CLASS
  1
ACDBSECTIONVIEWSTYLE
  2
AcDbSectionViewStyle
  3
ObjectDBX Classes
 90
     1025
 91
        1
280
     0
281
     0
  0
CLASS
  1
ACDBDETAILVIEWSTYLE
  2
AcDbDetailViewStyle
  3
ObjectDBX Classes
 90
     1025
 91
        1
280
     0
281
     0
  0
CLASS
  1
DICTIONARYVAR
  2
AcDbDictionaryVar
  3
ObjectDBX Classes
 90
        0
 91
        5
280
     0
281
     0
  0
CLASS
  1
CELLSTYLEMAP
  2
AcDbCellStyleMap
  3
ObjectDBX Classes
 90
     1152
 91
        1
280
     0
281
     0
  0
ENDSEC
  0
SECTION
  2
TABLES
  0
TABLE
  2
VPORT
  5
8
330
0
100
AcDbSymbolTable
 70
     1
  0
VPORT
  5
57
330
8
100
AcDbSymbolTableRecord
100
AcDbViewportTableRecord
  2
*Active
 70
     0
 10
0.0
 20
0.0
 11
1.0
 21
1.0
 12
0.0
 22
0.0
 13
0.0
 23
0.0
 14
1.0
 24
1.0
 15
0.0
 25
0.0
 16
0.0
 26
0.0
 36
1.0
 17
102.2836081753609
 27
116.80553033411
 37
0.0
 40
198.424572886897
 41
0.939891331971056
 42
50.0
 43
0.0
 44
0.0
 50
0.0
 51
0.0
 71
     0
 72
   100
 73
     1
 74
     1
 75
     0
 76
     0
 77
     0
 78
     0
281
     0
 65
     1
110
0.0
120
0.0
130
0.0
111
1.0
121
0.0
131
0.0
112
0.0
122
1.0
132
0.0
 79
     0
146
0.0
 60
     3
 61
     5
292
     1
282
     1
141
0.0
142
0.0
 63
   250
421
  3355443
  0
ENDTAB
  0
TABLE
  2
LTYPE
  5
5
330
0
100
AcDbSymbolTable
 70
    17
  0
LTYPE
  5
5B
330
5
100
AcDbSymbolTableRecord
100
AcDbLinetypeTableRecord
  2
ByBlock
 70
     0
  3

 72
    65
 73
     0
 40
0.0
  0
LTYPE
  5
5C
330
5
100
AcDbSymbolTableRecord
100
AcDbLinetypeTableRecord
  2
ByLayer
 70
     0
  3

 72
    65
 73
     0
 40
0.0
  0
LTYPE
  5
5D
330
5
100
AcDbSymbolTableRecord
100
AcDbLinetypeTableRecord
  2
Continuous
 70
     0
  3
Solid line
 72
    65
 73
     0
 40
0.0
  0
LTYPE
  5
7D
330
5
100
AcDbSymbolTableRecord
100
AcDbLinetypeTableRecord
  2
AI-Linetype-0
 70
     0
  3
Adobe Illustrator Linetype No. 0
 72
    65
 73
     4
 40
8.819444442239584
 49
7.055555553791666
 74
     0
 49
-0.7055555553791667
 74
     0
 49
0.3527777776895833
 74
     0
 49
-0.7055555553791667
 74
     0
  0
LTYPE
  5
81
330
5
100
AcDbSymbolTableRecord
100
AcDbLinetypeTableRecord
  2
AI-Linetype-1
 70
     0
  3
Adobe Illustrator Linetype No. 1
 72
    65
 73
     4
 40
8.819444442239584
 49
7.055555553791666
 74
     0
 49
-0.7055555553791667
 74
     0
 49
0.3527777776895833
 74
     0
 49
-0.7055555553791667
 74
     0
  0
LTYPE
  5
83
330
5
100
AcDbSymbolTableRecord
100
AcDbLinetypeTableRecord
  2
AI-Linetype-2
 70
     0
  3
Adobe Illustrator Linetype No. 2
 72
    65
 73
     4
 40
8.819444442239584
 49
7.055555553791666
 74
     0
 49
-0.7055555553791667
 74
     0
 49
0.3527777776895833
 74
     0
 49
-0.7055555553791667
 74
     0
  0
LTYPE
  5
85
330
5
100
AcDbSymbolTableRecord
100
AcDbLinetypeTableRecord
  2
AI-Linetype-3
 70
     0
  3
Adobe Illustrator Linetype No. 3
 72
    65
 73
     4
 40
8.819444442239584
 49
7.055555553791666
 74
     0
 49
-0.7055555553791667
 74
     0
 49
0.3527777776895833
 74
     0
 49
-0.7055555553791667
 74
     0
  0
LTYPE
  5
87
330
5
100
AcDbSymbolTableRecord
100
AcDbLinetypeTableRecord
  2
AI-Linetype-4
 70
     0
  3
Adobe Illustrator Linetype No. 4
 72
    65
 73
     4
 40
8.819444442239584
 49
7.055555553791666
 74
     0
 49
-0.7055555553791667
 74
     0
 49
0.3527777776895833
 74
     0
 49
-0.7055555553791667
 74
     0
  0
LTYPE
  5
89
330
5
100
AcDbSymbolTableRecord
100
AcDbLinetypeTableRecord
  2
AI-Linetype-5
 70
     0
  3
Adobe Illustrator Linetype No. 5
 72
    65
 73
     4
 40
8.819444442239584
 49
7.055555553791666
 74
     0
 49
-0.7055555553791667
 74
     0
 49
0.3527777776895833
 74
     0
 49
-0.7055555553791667
 74
     0
  0
LTYPE
  5
8B
330
5
100
AcDbSymbolTableRecord
100
AcDbLinetypeTableRecord
  2
AI-Linetype-6
 70
     0
  3
Adobe Illustrator Linetype No. 6
 72
    65
 73
     4
 40
8.819444442239584
 49
7.055555553791666
 74
     0
 49
-0.7055555553791667
 74
     0
 49
0.3527777776895833
 74
     0
 49
-0.7055555553791667
 74
     0
  0
LTYPE
  5
8D
330
5
100
AcDbSymbolTableRecord
100
AcDbLinetypeTableRecord
  2
AI-Linetype-7
 70
     0
  3
Adobe Illustrator Linetype No. 7
 72
    65
 73
     4
 40
8.819444442239584
 49
7.055555553791666
 74
     0
 49
-0.7055555553791667
 74
     0
 49
0.3527777776895833
 74
     0
 49
-0.7055555553791667
 74
     0
  0
LTYPE
  5
8F
330
5
100
AcDbSymbolTableRecord
100
AcDbLinetypeTableRecord
  2
AI-Linetype-8
 70
     0
  3
Adobe Illustrator Linetype No. 8
 72
    65
 73
     4
 40
8.819444442239584
 49
7.055555553791666
 74
     0
 49
-0.7055555553791667
 74
     0
 49
0.3527777776895833
 74
     0
 49
-0.7055555553791667
 74
     0
  0
LTYPE
  5
91
330
5
100
AcDbSymbolTableRecord
100
AcDbLinetypeTableRecord
  2
AI-Linetype-9
 70
     0
  3
Adobe Illustrator Linetype No. 9
 72
    65
 73
     6
 40
7.408333331481251
 49
1.763888888447916
 74
     0
 49
-0.7055555553791667
 74
     0
 49
1.763888888447916
 74
     0
 49
-0.7055555553791667
 74
     0
 49
1.763888888447916
 74
     0
 49
-0.7055555553791667
 74
     0
  0
LTYPE
  5
1A6
330
5
100
AcDbSymbolTableRecord
100
AcDbLinetypeTableRecord
  2
AI-Linetype-10
 70
     0
  3
Adobe Illustrator Linetype No. 10
 72
    65
 73
     6
 40
9.877777775308334
 49
7.055555553791666
 74
     0
 49
-0.7055555553791667
 74
     0
 49
0.3527777776895833
 74
     0
 49
-0.7055555553791667
 74
     0
 49
0.3527777776895833
 74
     0
 49
-0.7055555553791667
 74
     0
  0
LTYPE
  5
1A8
330
5
100
AcDbSymbolTableRecord
100
AcDbLinetypeTableRecord
  2
AI-Linetype-11
 70
     0
  3
Adobe Illustrator Linetype No. 11
 72
    65
 73
     6
 40
9.877777775308334
 49
7.055555553791666
 74
     0
 49
-0.7055555553791667
 74
     0
 49
0.3527777776895833
 74
     0
 49
-0.7055555553791667
 74
     0
 49
0.3527777776895833
 74
     0
 49
-0.7055555553791667
 74
     0
  0
LTYPE
  5
1AA
330
5
100
AcDbSymbolTableRecord
100
AcDbLinetypeTableRecord
  2
AI-Linetype-12
 70
     0
  3
Adobe Illustrator Linetype No. 12
 72
    65
 73
     6
 40
9.877777775308334
 49
7.055555553791666
 74
     0
 49
-0.7055555553791667
 74
     0
 49
0.3527777776895833
 74
     0
 49
-0.7055555553791667
 74
     0
 49
0.3527777776895833
 74
     0
 49
-0.7055555553791667
 74
     0
  0
LTYPE
  5
1AC
330
5
100
AcDbSymbolTableRecord
100
AcDbLinetypeTableRecord
  2
AI-Linetype-13
 70
     0
  3
Adobe Illustrator Linetype No. 13
 72
    65
 73
     6
 40
9.877777775308334
 49
7.055555553791666
 74
     0
 49
-0.7055555553791667
 74
     0
 49
0.3527777776895833
 74
     0
 49
-0.7055555553791667
 74
     0
 49
0.3527777776895833
 74
     0
 49
-0.7055555553791667
 74
     0
  0
LTYPE
  5
1AE
330
5
100
AcDbSymbolTableRecord
100
AcDbLinetypeTableRecord
  2
AI-Linetype-14
 70
     0
  3
Adobe Illustrator Linetype No. 14
 72
    65
 73
     6
 40
9.877777775308334
 49
7.055555553791666
 74
     0
 49
-0.7055555553791667
 74
     0
 49
0.3527777776895833
 74
     0
 49
-0.7055555553791667
 74
     0
 49
0.3527777776895833
 74
     0
 49
-0.7055555553791667
 74
     0
  0
LTYPE
  5
30D
330
5
100
AcDbSymbolTableRecord
100
AcDbLinetypeTableRecord
  2
AI-Linetype-15
 70
     0
  3
Adobe Illustrator Linetype No. 15
 72
    65
 73
     4
 40
8.819444442239584
 49
7.055555553791666
 74
     0
 49
-0.7055555553791667
 74
     0
 49
0.3527777776895833
 74
     0
 49
-0.7055555553791667
 74
     0
  0
ENDTAB
  0
TABLE
  2
LAYER
  5
2
330
0
100
AcDbSymbolTable
 70
     6
  0
LAYER
  5
54
330
2
100
AcDbSymbolTableRecord
100
AcDbLayerTableRecord
  2
0
 70
     0
 62
     7
  6
Continuous
370
    -3
390
F
347
21
348
0
  0
LAYER
  5
78
330
2
100
AcDbSymbolTableRecord
100
AcDbLayerTableRecord
  2
T-Punkt
 70
     0
 62
     7
  6
Continuous
370
     0
390
F
347
21
348
0
  0
LAYER
  5
7F
330
2
100
AcDbSymbolTableRecord
100
AcDbLayerTableRecord
  2
grau 10%
 70
     0
 62
     7
  6
Continuous
370
     0
390
F
347
21
348
0
  0
LAYER
  5
92
330
2
100
AcDbSymbolTableRecord
100
AcDbLayerTableRecord
  2
Standardebene
 70
     0
 62
     7
  6
Continuous
370
     0
390
F
347
21
348
0
  0
LAYER
  5
1AF
330
2
100
AcDbSymbolTableRecord
100
AcDbLayerTableRecord
  2
Bemaßung
 70
     1
 62
     7
  6
Continuous
370
     0
390
F
347
21
348
0
  0
LAYER
  5
2D3
330
2
100
AcDbSymbolTableRecord
100
AcDbLayerTableRecord
  2
Text
 70
     1
 62
     7
  6
Continuous
370
     0
390
F
347
21
348
0
  0
ENDTAB
  0
TABLE
  2
STYLE
  5
3
330
0
100
AcDbSymbolTable
 70
     2
  0
STYLE
  5
55
330
3
100
AcDbSymbolTableRecord
100
AcDbTextStyleTableRecord
  2
Standard
 70
     0
 40
0.0
 41
1.0
 50
0.0
 71
     0
 42
0.2
  3
txt
  4

  0
STYLE
  5
5A
330
3
100
AcDbSymbolTableRecord
100
AcDbTextStyleTableRecord
  2
Annotative
 70
     0
 40
0.0
 41
1.0
 50
0.0
 71
     0
 42
0.2
  3
txt
  4

1001
AcadAnnotative
1000
AnnotativeData
1002
{
1070
     1
1070
     1
1002
}
  0
ENDTAB
  0
TABLE
  2
VIEW
  5
6
330
0
100
AcDbSymbolTable
 70
     0
  0
ENDTAB
  0
TABLE
  2
UCS
  5
7
330
0
100
AcDbSymbolTable
 70
     0
  0
ENDTAB
  0
TABLE
  2
APPID
  5
9
330
0
100
AcDbSymbolTable
 70
     2
  0
APPID
  5
56
330
9
100
AcDbSymbolTableRecord
100
AcDbRegAppTableRecord
  2
ACAD
 70
     0
  0
APPID
  5
5E
330
9
100
AcDbSymbolTableRecord
100
AcDbRegAppTableRecord
  2
AcadAnnotative
 70
     0
  0
ENDTAB
  0
TABLE
  2
DIMSTYLE
  5
A
330
0
100
AcDbSymbolTable
 70
     2
100
AcDbDimStyleTable
 71
     0
  0
DIMSTYLE
105
58
330
A
100
AcDbSymbolTableRecord
100
AcDbDimStyleTableRecord
  2
Standard
 70
     0
340
55
  0
DIMSTYLE
105
59
330
A
100
AcDbSymbolTableRecord
100
AcDbDimStyleTableRecord
  2
Annotative
 70
     0
340
55
1001
AcadAnnotative
1000
AnnotativeData
1002
{
1070
     1
1070
     1
1002
}
  0
ENDTAB
  0
TABLE
  2
BLOCK_RECORD
  5
1
330
0
100
AcDbSymbolTable
 70
     1
  0
BLOCK_RECORD
  5
70
330
1
100
AcDbSymbolTableRecord
100
AcDbBlockTableRecord
  2
*Model_Space
340
73
 70
     0
280
     1
281
     0
  0
BLOCK_RECORD
  5
6C
330
1
100
AcDbSymbolTableRecord
100
AcDbBlockTableRecord
  2
*Paper_Space
340
6F
 70
     0
280
     1
281
     0
  0
BLOCK_RECORD
  5
74
330
1
100
AcDbSymbolTableRecord
100
AcDbBlockTableRecord
  2
*Paper_Space0
340
77
 70
     0
280
     1
281
     0
  0
ENDTAB
  0
ENDSEC
  0
SECTION
  2
BLOCKS
  0
BLOCK
  5
71
330
70
100
AcDbEntity
  8
0
100
AcDbBlockBegin
  2
*Model_Space
 70
     0
 10
0.0
 20
0.0
 30
0.0
  3
*Model_Space
  1

  0
ENDBLK
  5
72
330
70
100
AcDbEntity
  8
0
100
AcDbBlockEnd
  0
BLOCK
  5
6D
330
6C
100
AcDbEntity
 67
     1
  8
0
100
AcDbBlockBegin
  2
*Paper_Space
 70
     0
 10
0.0
 20
0.0
 30
0.0
  3
*Paper_Space
  1

  0
ENDBLK
  5
6E
330
6C
100
AcDbEntity
 67
     1
  8
0
100
AcDbBlockEnd
  0
BLOCK
  5
75
330
74
100
AcDbEntity
 67
     1
  8
0
100
AcDbBlockBegin
  2
*Paper_Space0
 70
     0
 10
0.0
 20
0.0
 30
0.0
  3
*Paper_Space0
  1

  0
ENDBLK
  5
76
330
74
100
AcDbEntity
 67
     1
  8
0
100
AcDbBlockEnd
  0
ENDSEC
  0
SECTION
  2
ENTITIES
  0
SPLINE
  5
79
330
70
100
AcDbEntity
  8
T-Punkt
 62
     7
370
     9
100
AcDbSpline
210
0.0
220
0.0
230
1.0
 70
     9
 71
     3
 72
    20
 73
    16
 74
     0
 42
0.0000000001
 43
0.0000000001
 40
0.0
 40
0.0
 40
0.0
 40
0.0
 40
1.0
 40
1.0
 40
1.0
 40
2.0
 40
2.0
 40
2.0
 40
3.0
 40
3.0
 40
3.0
 40
4.0
 40
4.0
 40
4.0
 40
5.0
 40
5.0
 40
5.0
 40
5.0
 10
76.2043349994036
 20
159.0096503466146
 30
0.0
 10
76.2043349994036
 20
157.4031019535656
 30
0.0
 10
74.90211593157891
 20
156.1008044907579
 30
0.0
 10
73.29548914354751
 20
156.1008044907579
 30
0.0
 10
71.68933272541547
 20
156.1008044907579
 30
0.0
 10
70.38711365759077
 20
157.4031019535656
 30
0.0
 10
70.38711365759077
 20
159.0096503466146
 30
0.0
 10
70.38711365759077
 20
160.6127493603971
 30
0.0
 10
71.68478581638294
 20
161.9134789235382
 30
0.0
 10
73.28670890541642
 20
161.9180258325707
 30
0.0
 10
73.28976630976534
 20
161.9180258325707
 30
0.0
 10
73.29243173919794
 20
161.9180258325707
 30
0.0
 10
73.29548914354751
 20
161.9180258325707
 30
0.0
 10
74.90211593157891
 20
161.9180258325707
 30
0.0
 10
76.2043349994036
 20
160.615806764746
 30
0.0
 10
76.2043349994036
 20
159.0096503466146
 30
0.0
  0
SPLINE
  5
7A
330
70
100
AcDbEntity
  8
T-Punkt
100
AcDbSpline
210
0.0
220
0.0
230
1.0
 70
     8
 71
     3
 72
    11
 73
     7
 74
     0
 42
0.0000000001
 43
0.0000000001
 40
0.0
 40
0.0
 40
0.0
 40
0.0
 40
1.0
 40
1.0
 40
1.0
 40
2.0
 40
2.0
 40
2.0
 40
2.0
 10
73.29548914354751
 20
159.0096503466146
 30
0.0
 10
73.29548914354751
 20
159.0096503466146
 30
0.0
 10
76.2043349994036
 20
159.0096503466146
 30
0.0
 10
76.2043349994036
 20
159.0096503466146
 30
0.0
 10
76.2043349994036
 20
159.0096503466146
 30
0.0
 10
76.31722377537518
 20
161.6761773090477
 30
0.0
 10
73.28670890541642
 20
161.9180258325707
 30
0.0
  0
HATCH
  5
7B
330
70
100
AcDbEntity
  8
T-Punkt
 62
     7
440
 33554687
100
AcDbHatch
 10
0.0
 20
0.0
 30
0.0
210
0.0
220
0.0
230
1.0
  2
SOLID
 70
     1
 71
     1
 91
        1
 92
        1
 93
        2
 72
     4
 94
        3
 73
     0
 74
     0
 95
       11
 96
        7
 40
0.0
 40
0.0
 40
0.0
 40
0.0
 40
1.0
 40
1.0
 40
1.0
 40
2.0
 40
2.0
 40
2.0
 40
2.0
 10
73.29548914354751
 20
159.0096503466146
 10
73.29548914354751
 20
159.0096503466146
 10
76.2043349994036
 20
159.0096503466146
 10
76.2043349994036
 20
159.0096503466146
 10
76.2043349994036
 20
159.0096503466146
 10
76.31722377537518
 20
161.6761773090477
 10
73.28670890541642
 20
161.9180258325707
 97
        0
 72
     1
 10
73.28670890541641
 20
161.9180258325707
 11
73.29548914354751
 21
159.0096503466146
 97
        0
 75
     0
 76
     1
 98
        1
 10
0.0
 20
0.0
450
        0
451
        0
460
0.0
461
0.0
452
        0
462
0.0
453
        0
470

  0
LINE
  5
7C
330
70
100
AcDbEntity
  8
T-Punkt
  6
AI-Linetype-0
 62
     7
370
     9
100
AcDbLine
 10
83.75212559786611
 20
159.0054170175154
 30
0.0
 11
29.24809184397564
 21
159.0054170175154
 31
0.0
  0
MTEXT
  5
7E
330
70
100
AcDbEntity
  8
T-Punkt
100
AcDbMText
 10
75.79800040151491
 20
161.5584041191563
 30
0.0
 40
0.2
 41
0.0
 46
0.0
 71
     7
 72
     1
  1
\C7;\FINDEX Univers 45 Light|b0|i0|c1;\H5.550364;\W1.000000;T
 73
     1
 44
1.0
  0
LINE
  5
80
330
70
100
AcDbEntity
  8
grau 10%
  6
AI-Linetype-1
 62
     7
370
     9
100
AcDbLine
 10
137.1332301371118
 20
119.6261056290761
 30
0.0
 11
156.1260801323635
 21
86.72957785952245
 31
0.0
  0
LINE
  5
82
330
70
100
AcDbEntity
  8
grau 10%
  6
AI-Linetype-2
 62
     7
370
     9
100
AcDbLine
 10
173.6189190168792
 20
119.6261056290761
 30
0.0
 11
154.626421799405
 21
86.72957785952245
 31
0.0
  0
LINE
  5
84
330
70
100
AcDbEntity
  8
grau 10%
  6
AI-Linetype-3
 62
     7
370
     9
100
AcDbLine
 10
155.3764273547731
 20
83.27800008260769
 30
0.0
 11
155.3764273547731
 21
84.77801119334364
 31
0.0
  0
LINE
  5
86
330
70
100
AcDbEntity
  8
grau 10%
  6
AI-Linetype-4
 62
     7
370
     9
100
AcDbLine
 10
155.3764273547731
 20
83.27800008260769
 30
0.0
 11
155.3764273547731
 21
80.77821674989923
 31
0.0
  0
LWPOLYLINE
  5
88
330
70
100
AcDbEntity
  8
grau 10%
  6
AI-Linetype-5
 62
     7
370
     9
100
AcDbPolyline
 90
        4
 70
     0
 43
0.0
 10
155.3764273547731
 20
84.77801119334364
 10
155.3764273547731
 20
141.7780806235383
 10
155.3764273547731
 20
143.2780917342742
 10
155.3764273547731
 20
200.2785139422464
  0
LINE
  5
8A
330
70
100
AcDbEntity
  8
grau 10%
  6
AI-Linetype-6
 62
     7
370
     9
100
AcDbLine
 10
146.6264801347384
 20
84.02835841575326
 30
0.0
 11
140.1258440252522
 21
84.02835841575326
 31
0.0
  0
LWPOLYLINE
  5
8C
330
70
100
AcDbEntity
  8
grau 10%
  6
AI-Linetype-7
 62
     7
370
     9
100
AcDbPolyline
 90
        3
 70
     0
 43
0.0
 10
154.626421799405
 20
84.02835841575326
 10
148.1261384676969
 20
84.02835841575326
 10
146.6264801347384
 20
84.02835841575326
  0
LWPOLYLINE
  5
8E
330
70
100
AcDbEntity
  8
grau 10%
  6
AI-Linetype-8
 62
     7
370
     9
100
AcDbPolyline
 90
        5
 70
     0
 43
0.0
 10
154.626421799405
 20
84.02835841575326
 10
156.1260801323635
 20
84.02835841575326
 10
162.1264773530856
 20
84.02835841575326
 10
163.6261356860441
 20
84.02835841575326
 10
169.6261801289884
 20
84.02835841575326
  0
LINE
  5
90
330
70
100
AcDbEntity
  8
grau 10%
  6
AI-Linetype-9
 62
     7
370
     9
100
AcDbLine
 10
71.80196070900021
 20
195.4870861656663
 30
0.0
 11
71.80196070900021
 21
115.1408889635307
 31
0.0
  0
SPLINE
  5
93
330
70
100
AcDbEntity
  8
Standardebene
 62
     7
370
    35
100
AcDbSpline
210
0.0
220
0.0
230
1.0
 70
    11
 71
     3
 72
    17
 73
    13
 74
     0
 42
0.0000000001
 43
0.0000000001
 40
0.0
 40
0.0
 40
0.0
 40
0.0
 40
1.0
 40
1.0
 40
1.0
 40
2.0
 40
2.0
 40
2.0
 40
3.0
 40
3.0
 40
3.0
 40
4.0
 40
4.0
 40
4.0
 40
4.0
 10
163.3851884638821
 20
178.5283528365729
 30
0.0
 10
163.3851884638821
 20
179.6381917251843
 30
0.0
 10
162.4859579085514
 20
180.537422280515
 30
0.0
 10
161.3764717977175
 20
180.537422280515
 30
0.0
 10
160.2662801313284
 20
180.537422280515
 30
0.0
 10
159.3670495759976
 20
179.6381917251843
 30
0.0
 10
159.3670495759976
 20
178.5283528365729
 30
0.0
 10
159.3670495759976
 20
177.4185139479616
 30
0.0
 10
160.2662801313284
 20
176.5189306148528
 30
0.0
 10
161.3764717977175
 20
176.5189306148528
 30
0.0
 10
162.4859579085514
 20
176.5189306148528
 30
0.0
 10
163.3851884638821
 20
177.4185139479616
 30
0.0
 10
163.3851884638821
 20
178.5283528365729
 30
0.0
  0
SPLINE
  5
94
330
70
100
AcDbEntity
  8
Standardebene
 62
     7
370
    35
100
AcDbSpline
210
0.0
220
0.0
230
1.0
 70
     8
 71
     3
 72
    17
 73
    13
 74
     0
 42
0.0000000001
 43
0.0000000001
 40
0.0
 40
0.0
 40
0.0
 40
0.0
 40
1.0
 40
1.0
 40
1.0
 40
2.0
 40
2.0
 40
2.0
 40
3.0
 40
3.0
 40
3.0
 40
4.0
 40
4.0
 40
4.0
 40
4.0
 10
161.8961134642542
 20
180.4689833916431
 30
0.0
 10
161.7176079087435
 20
180.516961169409
 30
0.0
 10
161.5380440198995
 20
180.5391861694035
 30
0.0
 10
161.3764717977175
 20
180.537422280515
 30
0.0
 10
160.2662801313284
 20
180.537422280515
 30
0.0
 10
159.3670495759976
 20
179.6381917251843
 30
0.0
 10
159.3670495759976
 20
178.5283528365729
 30
0.0
 10
159.3670495759976
 20
177.4185139479616
 30
0.0
 10
160.2662801313284
 20
176.5189306148528
 30
0.0
 10
161.3764717977175
 20
176.5189306148528
 30
0.0
 10
162.3011023530419
 20
176.5189306148528
 30
0.0
 10
163.0796829084029
 20
177.1437000591413
 30
0.0
 10
163.3171023527879
 20
178.0080056144807
 30
0.0
  0
LINE
  5
95
330
70
100
AcDbEntity
  8
Standardebene
 62
     7
370
    35
100
AcDbLine
 10
146.3760079125788
 20
158.6782528415355
 30
0.0
 11
147.0261773568606
 21
158.6782528415355
 31
0.0
  0
LINE
  5
96
330
70
100
AcDbEntity
  8
Standardebene
 62
     7
370
    35
100
AcDbLine
 10
147.0261773568606
 20
161.3784139519714
 30
0.0
 11
146.3760079125788
 21
161.3784139519714
 31
0.0
  0
SPLINE
  5
97
330
70
100
AcDbEntity
  8
Standardebene
 62
     7
370
    35
100
AcDbSpline
210
0.0
220
0.0
230
1.0
 70
     8
 71
     3
 72
     8
 73
     4
 74
     0
 42
0.0000000001
 43
0.0000000001
 40
0.0
 40
0.0
 40
0.0
 40
0.0
 40
1.0
 40
1.0
 40
1.0
 40
1.0
 10
148.3762579120787
 20
160.0283333967536
 30
0.0
 10
148.3762579120787
 20
160.7741056187892
 30
0.0
 10
147.7715968011188
 20
161.3784139519714
 30
0.0
 10
147.0261773568606
 20
161.3784139519714
 30
0.0
  0
SPLINE
  5
98
330
70
100
AcDbEntity
  8
Standardebene
 62
     7
370
    35
100
AcDbSpline
210
0.0
220
0.0
230
1.0
 70
     8
 71
     3
 72
     8
 73
     4
 74
     0
 42
0.0000000001
 43
0.0000000001
 40
0.0
 40
0.0
 40
0.0
 40
0.0
 40
1.0
 40
1.0
 40
1.0
 40
1.0
 10
147.0261773568606
 20
158.6782528415355
 30
0.0
 10
147.7715968011188
 20
158.6782528415355
 30
0.0
 10
148.3762579120787
 20
159.2825611747176
 30
0.0
 10
148.3762579120787
 20
160.0283333967536
 30
0.0
  0
LWPOLYLINE
  5
99
330
70
100
AcDbEntity
  8
Standardebene
 62
     7
370
    35
100
AcDbPolyline
 90
       37
 70
     0
 43
0.0
 10
150.8665162447896
 20
177.6566389479018
 10
150.8665162447896
 20
177.7504778367671
 10
150.8665162447896
 20
177.8481972811871
 10
150.8665162447896
 20
177.8735972811808
 10
150.8665162447896
 20
177.8989972811745
 10
150.8665162447896
 20
177.924750058946
 10
150.8665162447896
 20
177.9505028367174
 10
150.8665162447896
 20
178.003066725593
 10
150.8665162447896
 20
178.0573945033573
 10
150.8665162447896
 20
178.1117222811214
 10
150.8665162447896
 20
178.168166725552
 10
150.8665162447896
 20
178.1967417255446
 10
150.8665162447896
 20
178.2256695033152
 10
150.8665162447896
 20
178.2556556144188
 10
150.8665162447896
 20
178.284936169967
 10
150.8665162447896
 20
178.4052333921592
 10
150.8665162447896
 20
178.52729450324
 10
150.8665162447896
 20
178.5586917254543
 10
150.8665162447896
 20
178.5897361698909
 10
150.8665162447896
 20
178.6204278365497
 10
150.8665162447896
 20
178.6507667254311
 10
150.8665162447896
 20
178.7114445031936
 10
150.8665162447896
 20
178.7710639476231
 10
150.8665162447896
 20
178.8003445031715
 10
150.8665162447896
 20
178.8292722809422
 10
150.8665162447896
 20
178.858905614268
 10
150.8665162447896
 20
178.8878333920384
 10
150.8665162447896
 20
178.9442778364687
 10
150.8665162447896
 20
178.9989583920108
 10
150.8665162447896
 20
179.1054972808729
 10
150.8665162447896
 20
179.2074500586255
 10
150.8665162447896
 20
179.2324972808414
 10
150.8665162447896
 20
179.2568389475018
 10
150.8665162447896
 20
179.2818861697177
 10
150.8665162447896
 20
179.3055222808229
 10
150.8665162447896
 20
179.3531472808111
 10
150.8665162447896
 20
179.4004195030215
  0
LWPOLYLINE
  5
9A
330
70
100
AcDbEntity
  8
Standardebene
 62
     7
370
    35
100
AcDbPolyline
 90
       31
 70
     0
 43
0.0
 10
152.3760523555232
 20
176.784925059231
 10
152.2945606888769
 20
176.8321972814414
 10
152.2098940222315
 20
176.8805278369848
 10
152.1220523555865
 20
176.9313278369722
 10
152.0299773556097
 20
176.9842445036255
 10
152.0063412445045
 20
176.998355614733
 10
151.9823523556216
 20
177.0124667258406
 10
151.9576579111834
 20
177.0262250591704
 10
151.9333162445227
 20
177.0403361702783
 10
151.8828690223131
 20
177.0696167258264
 10
151.8327745778812
 20
177.0988972813745
 10
151.7809162445608
 20
177.128177836923
 10
151.728352355685
 20
177.158516725804
 10
151.7022468001361
 20
177.1736861702449
 10
151.6754356890317
 20
177.1892083924632
 10
151.6486245779273
 20
177.2047306146815
 10
151.6218134668228
 20
177.2199000591223
 10
151.5163329112937
 20
177.2809306146625
 10
151.4122634668752
 20
177.341608392425
 10
151.3861579113263
 20
177.3564250590881
 10
151.3607579113326
 20
177.3708889479735
 10
151.3360634668941
 20
177.3857056146362
 10
151.3110162446782
 20
177.3994639479663
 10
151.2623329113571
 20
177.4280389479592
 10
151.2147079113692
 20
177.4552028368411
 10
151.168141244714
 20
177.4823667257233
 10
151.1226329113921
 20
177.5088250590499
 10
151.0774773558479
 20
177.5345778368214
 10
151.0333801336367
 20
177.559977836815
 10
150.9480079114358
 20
177.6093667256914
 10
150.8665162447896
 20
177.6566389479018
  0
LWPOLYLINE
  5
9B
330
70
100
AcDbEntity
  8
Standardebene
 62
     7
370
    35
100
AcDbPolyline
 90
       31
 70
     0
 43
0.0
 10
153.8859412440345
 20
177.6566389479018
 10
153.8044495773883
 20
177.6093667256914
 10
153.7197829107428
 20
177.5603306145928
 10
153.6322940218756
 20
177.5095306146054
 10
153.5398662441211
 20
177.4569667257296
 10
153.5162301330158
 20
177.4432083923997
 10
153.4922412441329
 20
177.4294500590696
 10
153.4678995774725
 20
177.4149861701846
 10
153.4428523552566
 20
177.4008750590767
 10
153.3934634663799
 20
177.3719472813064
 10
153.3426634663925
 20
177.3426667257583
 10
153.2908051330722
 20
177.3126806146543
 10
153.2382412441966
 20
177.2823417257733
 10
153.2121356886474
 20
177.2671722813328
 10
153.1849717997652
 20
177.2516500591144
 10
153.1581606886611
 20
177.2364806146736
 10
153.1320551331119
 20
177.2213111702327
 10
153.026221799805
 20
177.1599278369151
 10
152.9221523553865
 20
177.09960283693
 10
152.8963995776154
 20
177.0851389480447
 10
152.8709995776217
 20
177.0703222813816
 10
152.8459523554058
 20
177.0562111702744
 10
152.8209051331899
 20
177.0413945036113
 10
152.7725745776461
 20
177.0131722813962
 10
152.7249495776583
 20
176.9856556147362
 10
152.6780301332253
 20
176.9588445036318
 10
152.632169022126
 20
176.9327389480829
 10
152.587719022137
 20
176.9069861703115
 10
152.5436217999258
 20
176.8815861703177
 10
152.4586023555026
 20
176.8321972814414
 10
152.3760523555232
 20
176.784925059231
  0
LWPOLYLINE
  5
9C
330
70
100
AcDbEntity
  8
Standardebene
 62
     7
370
    35
100
AcDbPolyline
 90
       37
 70
     0
 43
0.0
 10
153.8859412440345
 20
179.4004195030215
 10
153.8859412440345
 20
179.3531472808111
 10
153.8859412440345
 20
179.3055222808229
 10
153.8859412440345
 20
179.2818861697177
 10
153.8859412440345
 20
179.2568389475018
 10
153.8859412440345
 20
179.2324972808414
 10
153.8859412440345
 20
179.2074500586255
 10
153.8859412440345
 20
179.1054972808729
 10
153.8859412440345
 20
178.9989583920108
 10
153.8859412440345
 20
178.9442778364687
 10
153.8859412440345
 20
178.8878333920384
 10
153.8859412440345
 20
178.858905614268
 10
153.8859412440345
 20
178.8292722809422
 10
153.8859412440345
 20
178.8003445031715
 10
153.8859412440345
 20
178.7710639476231
 10
153.8859412440345
 20
178.7114445031936
 10
153.8859412440345
 20
178.6507667254311
 10
153.8859412440345
 20
178.6204278365497
 10
153.8859412440345
 20
178.5897361698909
 10
153.8859412440345
 20
178.5586917254543
 10
153.8859412440345
 20
178.52729450324
 10
153.8859412440345
 20
178.4052333921592
 10
153.8859412440345
 20
178.284936169967
 10
153.8859412440345
 20
178.2556556144188
 10
153.8859412440345
 20
178.2256695033152
 10
153.8859412440345
 20
178.1967417255446
 10
153.8859412440345
 20
178.168166725552
 10
153.8859412440345
 20
178.1117222811214
 10
153.8859412440345
 20
178.0573945033573
 10
153.8859412440345
 20
178.003066725593
 10
153.8859412440345
 20
177.9505028367174
 10
153.8859412440345
 20
177.924750058946
 10
153.8859412440345
 20
177.8989972811745
 10
153.8859412440345
 20
177.8735972811808
 10
153.8859412440345
 20
177.8481972811871
 10
153.8859412440345
 20
177.7504778367671
 10
153.8859412440345
 20
177.6566389479018
  0
LWPOLYLINE
  5
9D
330
70
100
AcDbEntity
  8
Standardebene
 62
     7
370
    35
100
AcDbPolyline
 90
       31
 70
     0
 43
0.0
 10
150.8665162447896
 20
179.4004195030215
 10
150.9480079114358
 20
179.4469861696767
 10
151.0326745780812
 20
179.4960222807753
 10
151.1205162447259
 20
179.5468222807627
 10
151.2122384669252
 20
179.6000917251937
 10
151.2362273558082
 20
179.6138500585239
 10
151.2602162446912
 20
179.6276083918537
 10
151.2842051335738
 20
179.6413667251835
 10
151.30925235579
 20
179.6561833918462
 10
151.3589940224441
 20
179.6851111696169
 10
151.4097940224315
 20
179.7143917251653
 10
151.4616523557519
 20
179.7436722807134
 10
151.51386346685
 20
179.7740111695949
 10
151.5403218001766
 20
179.7891806140354
 10
151.567132911281
 20
179.8047028362537
 10
151.5939440223855
 20
179.8205778362497
 10
151.6207551334899
 20
179.8353945029128
 10
151.726235689019
 20
179.896425058453
 10
151.8299523556597
 20
179.956750058438
 10
151.8557051334309
 20
179.9719195028786
 10
151.8811051334246
 20
179.9860306139861
 10
151.9065051334183
 20
180.0008472806493
 10
151.9315523556342
 20
180.0149583917568
 10
151.9802356889556
 20
180.0435333917494
 10
152.0278606889435
 20
180.0706972806319
 10
152.0740745778209
 20
180.097508391736
 10
152.1199356889206
 20
180.1243195028407
 10
152.1650912444648
 20
180.1500722806119
 10
152.2084829111205
 20
180.1754722806056
 10
152.2942079110992
 20
180.2248611694822
 10
152.3760523555232
 20
180.2721333916926
  0
SPLINE
  5
9E
330
70
100
AcDbEntity
  8
Standardebene
 62
     7
370
    35
100
AcDbSpline
210
0.0
220
0.0
230
1.0
 70
     9
 71
     3
 72
    17
 73
    13
 74
     0
 42
0.0000000001
 43
0.0000000001
 40
0.0
 40
0.0
 40
0.0
 40
0.0
 40
1.0
 40
1.0
 40
1.0
 40
2.0
 40
2.0
 40
2.0
 40
3.0
 40
3.0
 40
3.0
 40
4.0
 40
4.0
 40
4.0
 40
4.0
 10
154.1261829106412
 20
178.5283528365729
 30
0.0
 10
154.1261829106412
 20
179.4949639474423
 30
0.0
 10
153.3426634663925
 20
180.2784833916911
 30
0.0
 10
152.3760523555232
 20
180.2784833916911
 30
0.0
 10
151.4094412446538
 20
180.2784833916911
 30
0.0
 10
150.625921800405
 20
179.4949639474423
 30
0.0
 10
150.625921800405
 20
178.5283528365729
 30
0.0
 10
150.625921800405
 20
177.562094503481
 30
0.0
 10
151.4094412446538
 20
176.7785750592326
 30
0.0
 10
152.3760523555232
 20
176.7785750592326
 30
0.0
 10
153.3426634663925
 20
176.7785750592326
 30
0.0
 10
154.1261829106412
 20
177.562094503481
 30
0.0
 10
154.1261829106412
 20
178.5283528365729
 30
0.0
  0
LWPOLYLINE
  5
9F
330
70
100
AcDbEntity
  8
Standardebene
 62
     7
370
    35
100
AcDbPolyline
 90
       31
 70
     0
 43
0.0
 10
152.3760523555232
 20
180.2721333916926
 10
152.4575440221694
 20
180.2248611694822
 10
152.5422106888151
 20
180.175825058383
 10
152.6304051332375
 20
180.1250250583959
 10
152.7221273554365
 20
180.0721083917423
 10
152.7457634665418
 20
180.0587028361903
 10
152.7697523554247
 20
180.0445917250827
 10
152.7947995776407
 20
180.0301278361974
 10
152.8191412443014
 20
180.0163695028676
 10
152.8692356887332
 20
179.9874417250969
 10
152.9200356887206
 20
179.9581611695488
 10
152.9715412442632
 20
179.9281750584451
 10
153.0241051331391
 20
179.8978361695638
 10
153.0505634664657
 20
179.8826667251232
 10
153.0770217997924
 20
179.8671445029046
 10
153.1038329108968
 20
179.8516222806863
 10
153.1306440220012
 20
179.8364528362458
 10
153.2361245775304
 20
179.7754222807055
 10
153.3405467997266
 20
179.7154500584983
 10
153.3662995774977
 20
179.7006333918352
 10
153.3916995774914
 20
179.6854639473947
 10
153.4163940219299
 20
179.6713528362871
 10
153.4410884663681
 20
179.6568889474018
 10
153.490124577467
 20
179.6290195029644
 10
153.5377495774548
 20
179.601150058527
 10
153.5839634663322
 20
179.5746917252
 10
153.6298245774319
 20
179.5482333918734
 10
153.6749801329761
 20
179.5224806141022
 10
153.7190773551873
 20
179.4970806141086
 10
153.8040967996105
 20
179.4476917252319
 10
153.8859412440345
 20
179.4004195030215
  0
SPLINE
  5
A0
330
70
100
AcDbEntity
  8
Standardebene
 62
     7
370
    35
100
AcDbSpline
210
0.0
220
0.0
230
1.0
 70
     9
 71
     3
 72
    17
 73
    13
 74
     0
 42
0.0000000001
 43
0.0000000001
 40
0.0
 40
0.0
 40
0.0
 40
0.0
 40
1.0
 40
1.0
 40
1.0
 40
2.0
 40
2.0
 40
2.0
 40
3.0
 40
3.0
 40
3.0
 40
4.0
 40
4.0
 40
4.0
 40
4.0
 10
155.3764273547731
 20
178.5283528365729
 30
0.0
 10
155.3764273547731
 20
180.1853500583806
 30
0.0
 10
154.0330495773312
 20
181.5280222802674
 30
0.0
 10
152.3760523555232
 20
181.5280222802674
 30
0.0
 10
150.7190551337151
 20
181.5280222802674
 30
0.0
 10
149.376030134051
 20
180.1853500583806
 30
0.0
 10
149.376030134051
 20
178.5283528365729
 30
0.0
 10
149.376030134051
 20
176.8717083925424
 30
0.0
 10
150.7190551337151
 20
175.5283306151008
 30
0.0
 10
152.3760523555232
 20
175.5283306151008
 30
0.0
 10
154.0330495773312
 20
175.5283306151008
 30
0.0
 10
155.3764273547731
 20
176.8717083925424
 30
0.0
 10
155.3764273547731
 20
178.5283528365729
 30
0.0
  0
SPLINE
  5
A1
330
70
100
AcDbEntity
  8
Standardebene
 62
     7
370
    35
100
AcDbSpline
210
0.0
220
0.0
230
1.0
 70
     9
 71
     3
 72
    17
 73
    13
 74
     0
 42
0.0000000001
 43
0.0000000001
 40
0.0
 40
0.0
 40
0.0
 40
0.0
 40
1.0
 40
1.0
 40
1.0
 40
2.0
 40
2.0
 40
2.0
 40
3.0
 40
3.0
 40
3.0
 40
4.0
 40
4.0
 40
4.0
 40
4.0
 10
154.8761884660094
 20
178.5283528365729
 30
0.0
 10
154.8761884660094
 20
179.9091250584499
 30
0.0
 10
153.7568245774001
 20
181.0284889470588
 30
0.0
 10
152.3760523555232
 20
181.0284889470588
 30
0.0
 10
150.9956329114239
 20
181.0284889470588
 30
0.0
 10
149.8759162450372
 20
179.9091250584499
 30
0.0
 10
149.8759162450372
 20
178.5283528365729
 30
0.0
 10
149.8759162450372
 20
177.1479333924734
 30
0.0
 10
150.9956329114239
 20
176.0285695038644
 30
0.0
 10
152.3760523555232
 20
176.0285695038644
 30
0.0
 10
153.7568245774001
 20
176.0285695038644
 30
0.0
 10
154.8761884660094
 20
177.1479333924734
 30
0.0
 10
154.8761884660094
 20
178.5283528365729
 30
0.0
  0
SPLINE
  5
A2
330
70
100
AcDbEntity
  8
Standardebene
 62
     7
370
    35
100
AcDbSpline
210
0.0
220
0.0
230
1.0
 70
     9
 71
     3
 72
    17
 73
    13
 74
     0
 42
0.0000000001
 43
0.0000000001
 40
0.0
 40
0.0
 40
0.0
 40
0.0
 40
1.0
 40
1.0
 40
1.0
 40
2.0
 40
2.0
 40
2.0
 40
3.0
 40
3.0
 40
3.0
 40
4.0
 40
4.0
 40
4.0
 40
4.0
 10
153.8859412440345
 20
178.5283528365729
 30
0.0
 10
153.8859412440345
 20
179.3619667252535
 30
0.0
 10
153.2103717997589
 20
180.0382417250842
 30
0.0
 10
152.3760523555232
 20
180.0382417250842
 30
0.0
 10
151.5420856890651
 20
180.0382417250842
 30
0.0
 10
150.8665162447896
 20
179.3619667252535
 30
0.0
 10
150.8665162447896
 20
178.5283528365729
 30
0.0
 10
150.8665162447896
 20
177.6943861701146
 30
0.0
 10
151.5420856890651
 20
177.0181111702838
 30
0.0
 10
152.3760523555232
 20
177.0181111702838
 30
0.0
 10
153.2103717997589
 20
177.0181111702838
 30
0.0
 10
153.8859412440345
 20
177.6943861701146
 30
0.0
 10
153.8859412440345
 20
178.5283528365729
 30
0.0
  0
LWPOLYLINE
  5
A3
330
70
100
AcDbEntity
  8
Standardebene
 62
     7
370
    35
100
AcDbPolyline
 90
        7
 70
     0
 43
0.0
 10
130.1690440277417
 20
160.0283333967536
 10
130.2561801388308
 20
159.4035639524651
 10
130.3217968054813
 20
158.7784417303992
 10
130.3454329165865
 20
158.4658806193664
 10
130.3620134721377
 20
158.153672286111
 10
130.3729495832461
 20
157.8407583973001
 10
130.3764773610231
 20
157.5281972862673
  0
LWPOLYLINE
  5
A4
330
70
100
AcDbEntity
  8
Standardebene
 62
     7
370
    35
100
AcDbPolyline
 90
        7
 70
     0
 43
0.0
 10
130.3764773610231
 20
162.5284695072395
 10
130.3729495832461
 20
162.2159083962064
 10
130.3620134721377
 20
161.9037000629513
 10
130.3454329165865
 20
161.5907861741405
 10
130.3217968054813
 20
161.2782250631076
 10
130.2561801388308
 20
160.6531028410417
 10
130.1690440277417
 20
160.0283333967536
  0
LWPOLYLINE
  5
A5
330
70
100
AcDbEntity
  8
Standardebene
 62
     7
370
    35
100
AcDbPolyline
 90
        6
 70
     0
 43
0.0
 10
127.1760773618231
 20
157.5281972862673
 10
127.1760773618231
 20
158.4831667304731
 10
127.1760773618231
 20
159.505869507995
 10
127.1760773618231
 20
160.5507972855118
 10
127.1760773618231
 20
161.5735000630337
 10
127.1760773618231
 20
162.5284695072395
  0
LWPOLYLINE
  5
A6
330
70
100
AcDbEntity
  8
Standardebene
 62
     7
370
    35
100
AcDbPolyline
 90
        7
 70
     0
 43
0.0
 10
127.3831579173271
 20
160.0283333967536
 10
127.2967273617928
 20
160.6531028410417
 10
127.2307579173649
 20
161.2782250631076
 10
127.2071218062597
 20
161.5907861741405
 10
127.1898356951529
 20
161.9037000629513
 10
127.1796051396001
 20
162.2159083962064
 10
127.1760773618231
 20
162.5284695072395
  0
LWPOLYLINE
  5
A7
330
70
100
AcDbEntity
  8
Standardebene
 62
     7
370
    35
100
AcDbPolyline
 90
        7
 70
     0
 43
0.0
 10
127.1760773618231
 20
157.5281972862673
 10
127.1796051396001
 20
157.8407583973001
 10
127.1898356951529
 20
158.153672286111
 10
127.2071218062597
 20
158.4658806193664
 10
127.2307579173649
 20
158.7784417303992
 10
127.2967273617928
 20
159.4035639524651
 10
127.3831579173271
 20
160.0283333967536
  0
LWPOLYLINE
  5
A8
330
70
100
AcDbEntity
  8
Standardebene
 62
     7
370
    35
100
AcDbPolyline
 90
        8
 70
     0
 43
0.0
 10
127.3831579173271
 20
165.0282528399479
 10
130.1690440277417
 20
165.0282528399479
 10
130.2561801388308
 20
164.4034833956598
 10
130.3217968054813
 20
163.7783611735935
 10
130.3454329165865
 20
163.4661528403385
 10
130.3620134721377
 20
163.1535917293054
 10
130.3729495832461
 20
162.8406778404948
 10
130.3764773610231
 20
162.5284695072395
  0
LINE
  5
A9
330
70
100
AcDbEntity
  8
Standardebene
 62
     7
370
    35
100
AcDbLine
 10
127.3831579173271
 20
160.0283333967536
 30
0.0
 11
130.1690440277417
 21
160.0283333967536
 31
0.0
  0
LWPOLYLINE
  5
AA
330
70
100
AcDbEntity
  8
Standardebene
 62
     7
370
    35
100
AcDbPolyline
 90
        7
 70
     0
 43
0.0
 10
127.1760773618231
 20
162.5284695072395
 10
127.1796051396001
 20
162.8406778404948
 10
127.1898356951529
 20
163.1535917293054
 10
127.2071218062597
 20
163.4661528403385
 10
127.2307579173649
 20
163.7783611735935
 10
127.2967273617928
 20
164.4034833956598
 10
127.3831579173271
 20
165.0282528399479
  0
LWPOLYLINE
  5
AB
330
70
100
AcDbEntity
  8
Standardebene
 62
     7
370
    35
100
AcDbPolyline
 90
       14
 70
     0
 43
0.0
 10
130.3764773610231
 20
157.5281972862673
 10
130.3729495832461
 20
157.215988953012
 10
130.3620134721377
 20
156.9030750642014
 10
130.3454329165865
 20
156.5905139531683
 10
130.3217968054813
 20
156.2783056199133
 10
130.2561801388308
 20
155.6531833978473
 10
130.1690440277417
 20
155.0284139535589
 10
127.3831579173271
 20
155.0284139535589
 10
127.2967273617928
 20
155.6531833978473
 10
127.2307579173649
 20
156.2783056199133
 10
127.2071218062597
 20
156.5905139531683
 10
127.1898356951529
 20
156.9030750642014
 10
127.1796051396001
 20
157.215988953012
 10
127.1760773618231
 20
157.5281972862673
  0
LWPOLYLINE
  5
AC
330
70
100
AcDbEntity
  8
Standardebene
 62
     7
370
    35
100
AcDbPolyline
 90
        7
 70
     0
 43
0.0
 10
130.3764773610231
 20
165.0282528399479
 10
130.3729495832461
 20
165.0282528399479
 10
130.3620134721377
 20
165.0282528399479
 10
130.3454329165865
 20
165.0282528399479
 10
130.3217968054813
 20
165.0282528399479
 10
130.2561801388308
 20
165.0282528399479
 10
130.1690440277417
 20
165.0282528399479
  0
LWPOLYLINE
  5
AD
330
70
100
AcDbEntity
  8
Standardebene
 62
     7
370
    35
100
AcDbPolyline
 90
        7
 70
     0
 43
0.0
 10
127.3831579173271
 20
165.0282528399479
 10
127.2967273617928
 20
165.0282528399479
 10
127.2307579173649
 20
165.0282528399479
 10
127.2071218062597
 20
165.0282528399479
 10
127.1898356951529
 20
165.0282528399479
 10
127.1796051396001
 20
165.0282528399479
 10
127.1760773618231
 20
165.0282528399479
  0
LWPOLYLINE
  5
AE
330
70
100
AcDbEntity
  8
Standardebene
 62
     7
370
    35
100
AcDbPolyline
 90
        6
 70
     0
 43
0.0
 10
127.1760773618231
 20
162.5284695072395
 10
127.1760773618231
 20
163.3740778403614
 10
127.1760773618231
 20
164.0732833957421
 10
127.1760773618231
 20
164.5957472845003
 10
127.1760773618231
 20
164.9192445066418
 10
127.1760773618231
 20
165.0282528399479
  0
LWPOLYLINE
  5
AF
330
70
100
AcDbEntity
  8
Standardebene
 62
     7
370
    35
100
AcDbPolyline
 90
        7
 70
     0
 43
0.0
 10
130.3764773610231
 20
155.0284139535589
 10
130.3729495832461
 20
155.0284139535589
 10
130.3620134721377
 20
155.0284139535589
 10
130.3447273610309
 20
155.0284139535589
 10
130.3210912499258
 20
155.0284139535589
 10
130.2558273610534
 20
155.0284139535589
 10
130.1690440277417
 20
155.0284139535589
  0
LWPOLYLINE
  5
B0
330
70
100
AcDbEntity
  8
Standardebene
 62
     7
370
    35
100
AcDbPolyline
 90
       12
 70
     0
 43
0.0
 10
127.3831579173271
 20
155.0284139535589
 10
127.2967273617928
 20
155.0284139535589
 10
127.2307579173649
 20
155.0284139535589
 10
127.2071218062597
 20
155.0284139535589
 10
127.1898356951529
 20
155.0284139535589
 10
127.1796051396001
 20
155.0284139535589
 10
127.1760773618231
 20
155.0284139535589
 10
127.1760773618231
 20
155.137422286865
 10
127.1760773618231
 20
155.4609195090065
 10
127.1760773618231
 20
155.9833833977647
 10
127.1760773618231
 20
156.6825889531454
 10
127.1760773618231
 20
157.5281972862673
  0
LINE
  5
B1
330
70
100
AcDbEntity
  8
Standardebene
 62
     7
370
    35
100
AcDbLine
 10
127.0762412507369
 20
163.0283556182257
 30
0.0
 11
126.3759773620231
 21
162.3280917295117
 31
0.0
  0
LINE
  5
B2
330
70
100
AcDbEntity
  8
Standardebene
 62
     7
370
    35
100
AcDbLine
 10
126.3759773620231
 20
157.7285750639951
 30
0.0
 11
127.0762412507369
 21
157.0283111752811
 31
0.0
  0
LWPOLYLINE
  5
B3
330
70
100
AcDbEntity
  8
Standardebene
 62
     7
370
    35
100
AcDbPolyline
 90
       11
 70
     0
 43
0.0
 10
126.3759773620231
 20
157.7285750639951
 10
126.3759773620231
 20
157.8407583973001
 10
126.3759773620231
 20
158.1677833972186
 10
126.3759773620231
 20
158.676488952647
 10
126.3759773620231
 20
159.3178389524867
 10
126.3759773620231
 20
160.0283333967536
 10
126.3759773620231
 20
160.7388278410201
 10
126.3759773620231
 20
161.3801778408598
 10
126.3759773620231
 20
161.8888833962882
 10
126.3759773620231
 20
162.2159083962064
 10
126.3759773620231
 20
162.3280917295117
  0
LWPOLYLINE
  5
B4
330
70
100
AcDbEntity
  8
Standardebene
 62
     7
370
    35
100
AcDbPolyline
 90
       14
 70
     0
 43
0.0
 10
127.0762412507369
 20
163.0283556182257
 10
127.0762412507369
 20
162.9264028404732
 10
127.0762412507369
 20
162.6265417294373
 10
127.0762412507369
 20
162.1499389517784
 10
127.0762412507369
 20
161.5279917297117
 10
127.0762412507369
 20
160.8051500632258
 10
127.0762412507369
 20
160.0283333967536
 10
127.0762412507369
 20
159.2518695080585
 10
127.0762412507369
 20
158.5286750637951
 10
127.0762412507369
 20
157.9067278417284
 10
127.0762412507369
 20
157.4301250640695
 10
127.0762412507369
 20
157.1302639530336
 10
127.0762412507369
 20
157.0283111752811
 10
127.1764301396009
 20
157.0283111752811
  0
LINE
  5
B5
330
70
100
AcDbEntity
  8
Standardebene
 62
     7
370
    35
100
AcDbLine
 10
127.1764301396009
 20
163.0283556182257
 30
0.0
 11
127.0762412507369
 21
163.0283556182257
 31
0.0
  0
SPLINE
  5
B6
330
70
100
AcDbEntity
  8
Standardebene
 62
     7
370
    35
100
AcDbSpline
210
0.0
220
0.0
230
1.0
 70
     9
 71
     3
 72
    17
 73
    13
 74
     0
 42
0.0000000001
 43
0.0000000001
 40
0.0
 40
0.0
 40
0.0
 40
0.0
 40
1.0
 40
1.0
 40
1.0
 40
2.0
 40
2.0
 40
2.0
 40
3.0
 40
3.0
 40
3.0
 40
4.0
 40
4.0
 40
4.0
 40
4.0
 10
163.3851884638821
 20
128.5284528490729
 30
0.0
 10
163.3851884638821
 20
129.6379389599065
 30
0.0
 10
162.4859579085514
 20
130.537522293015
 30
0.0
 10
161.3764717977175
 20
130.537522293015
 30
0.0
 10
160.2662801313284
 20
130.537522293015
 30
0.0
 10
159.3670495759976
 20
129.6379389599065
 30
0.0
 10
159.3670495759976
 20
128.5284528490729
 30
0.0
 10
159.3670495759976
 20
127.4186139604613
 30
0.0
 10
160.2662801313284
 20
126.5193834051305
 30
0.0
 10
161.3764717977175
 20
126.5193834051305
 30
0.0
 10
162.4859579085514
 20
126.5193834051305
 30
0.0
 10
163.3851884638821
 20
127.4186139604613
 30
0.0
 10
163.3851884638821
 20
128.5284528490729
 30
0.0
  0
SPLINE
  5
B7
330
70
100
AcDbEntity
  8
Standardebene
 62
     7
370
    35
100
AcDbSpline
210
0.0
220
0.0
230
1.0
 70
     8
 71
     3
 72
    17
 73
    13
 74
     0
 42
0.0000000001
 43
0.0000000001
 40
0.0
 40
0.0
 40
0.0
 40
0.0
 40
1.0
 40
1.0
 40
1.0
 40
2.0
 40
2.0
 40
2.0
 40
3.0
 40
3.0
 40
3.0
 40
4.0
 40
4.0
 40
4.0
 40
4.0
 10
161.8961134642542
 20
130.4694361819208
 30
0.0
 10
161.7176079087435
 20
130.517061181909
 30
0.0
 10
161.5380440198995
 20
130.5392861819035
 30
0.0
 10
161.3764717977175
 20
130.537522293015
 30
0.0
 10
160.2662801313284
 20
130.537522293015
 30
0.0
 10
159.3670495759976
 20
129.6379389599065
 30
0.0
 10
159.3670495759976
 20
128.5284528490729
 30
0.0
 10
159.3670495759976
 20
127.4186139604613
 30
0.0
 10
160.2662801313284
 20
126.5193834051305
 30
0.0
 10
161.3764717977175
 20
126.5193834051305
 30
0.0
 10
162.3011023530419
 20
126.5193834051305
 30
0.0
 10
163.0796829084029
 20
127.1438000716412
 30
0.0
 10
163.3171023527879
 20
128.0084584047584
 30
0.0
  0
LINE
  5
B8
330
70
100
AcDbEntity
  8
Standardebene
 62
     7
370
    35
100
AcDbLine
 10
164.3761412414119
 20
162.8283306182757
 30
0.0
 11
164.0759273525981
 21
162.5284695072395
 31
0.0
  0
LINE
  5
B9
330
70
100
AcDbEntity
  8
Standardebene
 62
     7
370
    35
100
AcDbLine
 10
164.0759273525981
 20
157.5281972862673
 30
0.0
 11
164.3761412414119
 21
157.2283361752311
 31
0.0
  0
LWPOLYLINE
  5
BA
330
70
100
AcDbEntity
  8
Standardebene
 62
     7
370
    35
100
AcDbPolyline
 90
       12
 70
     0
 43
0.0
 10
164.0759273525981
 20
157.5281972862673
 10
164.0759273525981
 20
157.6297972862418
 10
164.0759273525981
 20
157.9250722861681
 10
164.0759273525981
 20
158.3914445082738
 10
164.0759273525981
 20
158.9901083970131
 10
164.0759273525981
 20
159.6723806190648
 10
164.0759273525981
 20
160.3842861744424
 10
164.0759273525981
 20
161.0665583964937
 10
164.0759273525981
 20
161.665222285233
 10
164.0759273525981
 20
162.1315945073387
 10
164.0759273525981
 20
162.4268695072647
 10
164.0759273525981
 20
162.5284695072395
  0
LINE
  5
BB
330
70
100
AcDbEntity
  8
Standardebene
 62
     7
370
    35
100
AcDbLine
 10
162.5505162418685
 20
157.5281972862673
 30
0.0
 11
164.0759273525981
 21
157.5281972862673
 31
0.0
  0
LINE
  5
BC
330
70
100
AcDbEntity
  8
Standardebene
 62
     7
370
    35
100
AcDbLine
 10
164.0759273525981
 20
162.5284695072395
 30
0.0
 11
162.5505162418685
 21
162.5284695072395
 31
0.0
  0
SPLINE
  5
BD
330
70
100
AcDbEntity
  8
Standardebene
 62
     7
370
    35
100
AcDbSpline
210
0.0
220
0.0
230
1.0
 70
     8
 71
     3
 72
     8
 73
     4
 74
     0
 42
0.0000000001
 43
0.0000000001
 40
0.0
 40
0.0
 40
0.0
 40
0.0
 40
1.0
 40
1.0
 40
1.0
 40
1.0
 10
162.5505162418685
 20
162.5284695072395
 30
0.0
 10
162.339907908588
 20
162.5284695072395
 30
0.0
 10
162.1670467975198
 20
162.3651333961693
 30
0.0
 10
162.1518773530793
 20
162.1569945073324
 30
0.0
  0
SPLINE
  5
BE
330
70
100
AcDbEntity
  8
Standardebene
 62
     7
370
    35
100
AcDbSpline
210
0.0
220
0.0
230
1.0
 70
     8
 71
     3
 72
     8
 73
     4
 74
     0
 42
0.0000000001
 43
0.0000000001
 40
0.0
 40
0.0
 40
0.0
 40
0.0
 40
1.0
 40
1.0
 40
1.0
 40
1.0
 10
162.1518773530793
 20
157.8996722861744
 30
0.0
 10
162.1670467975198
 20
157.6894167306716
 30
0.0
 10
162.3420245752539
 20
157.5285500640451
 30
0.0
 10
162.5505162418685
 20
157.5281972862673
 30
0.0
  0
LINE
  5
BF
330
70
100
AcDbEntity
  8
Standardebene
 62
     7
370
    35
100
AcDbLine
 10
162.1808051308496
 20
157.7772583973162
 30
0.0
 11
162.1808051308496
 21
162.2794083961906
 31
0.0
  0
SPLINE
  5
C0
330
70
100
AcDbEntity
  8
Standardebene
 62
     7
370
    35
100
AcDbSpline
210
0.0
220
0.0
230
1.0
 70
     8
 71
     3
 72
     8
 73
     4
 74
     0
 42
0.0000000001
 43
0.0000000001
 40
0.0
 40
0.0
 40
0.0
 40
0.0
 40
1.0
 40
1.0
 40
1.0
 40
1.0
 10
162.1518773530793
 20
162.1569945073324
 30
0.0
 10
162.0453384642168
 20
160.6626278410393
 30
0.0
 10
162.0502773531045
 20
159.1866056191861
 30
0.0
 10
162.1518773530793
 20
157.8996722861744
 30
0.0
  0
LWPOLYLINE
  5
C1
330
70
100
AcDbEntity
  8
Standardebene
 62
     7
370
    35
100
AcDbPolyline
 90
       37
 70
     0
 43
0.0
 10
150.8665162447896
 20
127.6567389604018
 10
150.8665162447896
 20
127.7502250714896
 10
150.8665162447896
 20
127.8482972936874
 10
150.8665162447896
 20
127.8729917381256
 10
150.8665162447896
 20
127.8990972936745
 10
150.8665162447896
 20
127.924850071446
 10
150.8665162447896
 20
127.9502500714396
 10
150.8665162447896
 20
128.0035195158707
 10
150.8665162447896
 20
128.0571417380795
 10
150.8665162447896
 20
128.1121750713991
 10
150.8665162447896
 20
128.1682667380516
 10
150.8665162447896
 20
128.1968417380445
 10
150.8665162447896
 20
128.2257695158152
 10
150.8665162447896
 20
128.2554028491411
 10
150.8665162447896
 20
128.2850361824669
 10
150.8665162447896
 20
128.4053334046592
 10
150.8665162447896
 20
128.5277472935174
 10
150.8665162447896
 20
128.558791737954
 10
150.8665162447896
 20
128.5894834046131
 10
150.8665162447896
 20
128.620175071272
 10
150.8665162447896
 20
128.6505139601533
 10
150.8665162447896
 20
128.7115445156936
 10
150.8665162447896
 20
128.7711639601234
 10
150.8665162447896
 20
128.8000917378937
 10
150.8665162447896
 20
128.8293722934422
 10
150.8665162447896
 20
128.859005626768
 10
150.8665162447896
 20
128.8879334045384
 10
150.8665162447896
 20
128.9440250711912
 10
150.8665162447896
 20
128.9990584045108
 10
150.8665162447896
 20
129.1059500711507
 10
150.8665162447896
 20
129.2075500711254
 10
150.8665162447896
 20
129.2322445155636
 10
150.8665162447896
 20
129.2569389600018
 10
150.8665162447896
 20
129.2816334044399
 10
150.8665162447896
 20
129.3059750711007
 10
150.8665162447896
 20
129.3536000710888
 10
150.8665162447896
 20
129.4001667377437
  0
LWPOLYLINE
  5
C2
330
70
100
AcDbEntity
  8
Standardebene
 62
     7
370
    35
100
AcDbPolyline
 90
       31
 70
     0
 43
0.0
 10
152.3760523555232
 20
126.785025071731
 10
152.2945606888769
 20
126.8315917383859
 10
152.2098940222315
 20
126.8806278494848
 10
152.1220523555865
 20
126.9317806272496
 10
152.0299773556097
 20
126.9843445161255
 10
152.0063412445045
 20
126.998455627233
 10
151.9823523556216
 20
127.0122139605629
 10
151.9576579111834
 20
127.025972293893
 10
151.9333162445227
 20
127.0404361827783
 10
151.8828690223131
 20
127.0697167383264
 10
151.8327745778812
 20
127.0986445160971
 10
151.7809162445608
 20
127.1282778494229
 10
151.728352355685
 20
127.1589695160818
 10
151.7022468001361
 20
127.1741389605226
 10
151.6754356890317
 20
127.1893084049632
 10
151.6486245779273
 20
127.2048306271815
 10
151.6218134668228
 20
127.2200000716223
 10
151.5163329112937
 20
127.2810306271625
 10
151.4122634668752
 20
127.3413556271472
 10
151.3861579113263
 20
127.3565250715881
 10
151.3607579113326
 20
127.3709889604734
 10
151.3360634668941
 20
127.3854528493584
 10
151.3110162446782
 20
127.3999167382438
 10
151.2623329113571
 20
127.4277861826815
 10
151.2147079113692
 20
127.4549500715633
 10
151.168141244714
 20
127.4821139604455
 10
151.1226329113921
 20
127.5089250715499
 10
151.0774773558479
 20
127.5346778493213
 10
151.0333801336367
 20
127.5600778493151
 10
150.9480079114358
 20
127.6091139604136
 10
150.8665162447896
 20
127.6567389604018
  0
LWPOLYLINE
  5
C3
330
70
100
AcDbEntity
  8
Standardebene
 62
     7
370
    35
100
AcDbPolyline
 90
       31
 70
     0
 43
0.0
 10
153.8859412440345
 20
127.6567389604018
 10
153.8044495773883
 20
127.6091139604136
 10
153.7197829107428
 20
127.5607834048702
 10
153.6322940218756
 20
127.5099834048829
 10
153.5398662441211
 20
127.4567139604518
 10
153.5162301330158
 20
127.442955627122
 10
153.4922412441329
 20
127.4288445160144
 10
153.4678995774725
 20
127.4150861826846
 10
153.4428523552566
 20
127.4006222937993
 10
153.3934634663799
 20
127.3716945160286
 10
153.3426634663925
 20
127.3427667382583
 10
153.2908051330722
 20
127.3131334049321
 10
153.2382412441966
 20
127.282794516051
 10
153.2121356886474
 20
127.2676250716102
 10
153.1849717997652
 20
127.2521028493919
 10
153.1581606886611
 20
127.2362278493958
 10
153.1320551331119
 20
127.2207056271775
 10
153.026221799805
 20
127.1603806271925
 10
152.9221523553865
 20
127.0997028494301
 10
152.8963995776154
 20
127.0852389605447
 10
152.8709995776217
 20
127.0700695161042
 10
152.8459523554058
 20
127.0556056272188
 10
152.8209051331899
 20
127.041847293889
 10
152.7725745776461
 20
127.0132722938961
 10
152.7249495776583
 20
126.986108405014
 10
152.6780301332253
 20
126.9589445161318
 10
152.632169022126
 20
126.9324861828051
 10
152.587719022137
 20
126.9070861828114
 10
152.5436217999258
 20
126.8816861828177
 10
152.4586023555026
 20
126.8322972939414
 10
152.3760523555232
 20
126.785025071731
  0
LWPOLYLINE
  5
C4
330
70
100
AcDbEntity
  8
Standardebene
 62
     7
370
    35
100
AcDbPolyline
 90
       37
 70
     0
 43
0.0
 10
153.8859412440345
 20
129.4001667377437
 10
153.8859412440345
 20
129.3536000710888
 10
153.8859412440345
 20
129.3059750711007
 10
153.8859412440345
 20
129.2816334044399
 10
153.8859412440345
 20
129.2569389600018
 10
153.8859412440345
 20
129.2322445155636
 10
153.8859412440345
 20
129.2075500711254
 10
153.8859412440345
 20
129.1059500711507
 10
153.8859412440345
 20
128.9990584045108
 10
153.8859412440345
 20
128.9440250711912
 10
153.8859412440345
 20
128.8879334045384
 10
153.8859412440345
 20
128.859005626768
 10
153.8859412440345
 20
128.8293722934422
 10
153.8859412440345
 20
128.8000917378937
 10
153.8859412440345
 20
128.7711639601234
 10
153.8859412440345
 20
128.7115445156936
 10
153.8859412440345
 20
128.6505139601533
 10
153.8859412440345
 20
128.620175071272
 10
153.8859412440345
 20
128.5894834046131
 10
153.8859412440345
 20
128.558791737954
 10
153.8859412440345
 20
128.5277472935174
 10
153.8859412440345
 20
128.4053334046592
 10
153.8859412440345
 20
128.2850361824669
 10
153.8859412440345
 20
128.2554028491411
 10
153.8859412440345
 20
128.2257695158152
 10
153.8859412440345
 20
128.1968417380445
 10
153.8859412440345
 20
128.1682667380516
 10
153.8859412440345
 20
128.1121750713991
 10
153.8859412440345
 20
128.0571417380795
 10
153.8859412440345
 20
128.0035195158707
 10
153.8859412440345
 20
127.9502500714396
 10
153.8859412440345
 20
127.924850071446
 10
153.8859412440345
 20
127.8990972936745
 10
153.8859412440345
 20
127.8729917381256
 10
153.8859412440345
 20
127.8482972936874
 10
153.8859412440345
 20
127.7502250714896
 10
153.8859412440345
 20
127.6567389604018
  0
LWPOLYLINE
  5
C5
330
70
100
AcDbEntity
  8
Standardebene
 62
     7
370
    35
100
AcDbPolyline
 90
       31
 70
     0
 43
0.0
 10
150.8665162447896
 20
129.4001667377437
 10
150.9480079114358
 20
129.4470861821764
 10
151.0326745780812
 20
129.4961222932752
 10
151.1205162447259
 20
129.5469222932626
 10
151.2122384669252
 20
129.6001917376937
 10
151.2362273558082
 20
129.6139500710235
 10
151.2602162446912
 20
129.6273556265759
 10
151.2842051335738
 20
129.6418195154612
 10
151.30925235579
 20
129.655577848791
 10
151.3589940224441
 20
129.6845056265617
 10
151.4097940224315
 20
129.7141389598875
 10
151.4616523557519
 20
129.7437722932134
 10
151.51386346685
 20
129.7741111820948
 10
151.5403218001766
 20
129.7896334043131
 10
151.567132911281
 20
129.8048028487536
 10
151.5939440223855
 20
129.8199722931945
 10
151.6207551334899
 20
129.8354945154128
 10
151.726235689019
 20
129.896525070953
 10
151.8299523556597
 20
129.9564972931603
 10
151.8557051334309
 20
129.9716667376008
 10
151.8811051334246
 20
129.9861306264861
 10
151.9065051334183
 20
130.0005945153715
 10
151.9315523556342
 20
130.0150584042568
 10
151.9802356889556
 20
130.0429278486942
 10
152.0278606889435
 20
130.0707972931316
 10
152.0740745778209
 20
130.0972556264585
 10
152.1199356889206
 20
130.1237139597852
 10
152.1650912444648
 20
130.1498195153341
 10
152.2084829111205
 20
130.1752195153278
 10
152.2942079110992
 20
130.2246084042044
 10
152.3760523555232
 20
130.2718806264148
  0
SPLINE
  5
C6
330
70
100
AcDbEntity
  8
Standardebene
 62
     7
370
    35
100
AcDbSpline
210
0.0
220
0.0
230
1.0
 70
     9
 71
     3
 72
    17
 73
    13
 74
     0
 42
0.0000000001
 43
0.0000000001
 40
0.0
 40
0.0
 40
0.0
 40
0.0
 40
1.0
 40
1.0
 40
1.0
 40
2.0
 40
2.0
 40
2.0
 40
3.0
 40
3.0
 40
3.0
 40
4.0
 40
4.0
 40
4.0
 40
4.0
 10
154.1261829106412
 20
128.5284528490729
 30
0.0
 10
154.1261829106412
 20
129.4950639599423
 30
0.0
 10
153.3426634663925
 20
130.2785834041907
 30
0.0
 10
152.3760523555232
 20
130.2785834041907
 30
0.0
 10
151.4094412446538
 20
130.2785834041907
 30
0.0
 10
150.625921800405
 20
129.4950639599423
 30
0.0
 10
150.625921800405
 20
128.5284528490729
 30
0.0
 10
150.625921800405
 20
127.5618417382032
 30
0.0
 10
151.4094412446538
 20
126.7783222939548
 30
0.0
 10
152.3760523555232
 20
126.7783222939548
 30
0.0
 10
153.3426634663925
 20
126.7783222939548
 30
0.0
 10
154.1261829106412
 20
127.5618417382032
 30
0.0
 10
154.1261829106412
 20
128.5284528490729
 30
0.0
  0
LWPOLYLINE
  5
C7
330
70
100
AcDbEntity
  8
Standardebene
 62
     7
370
    35
100
AcDbPolyline
 90
       31
 70
     0
 43
0.0
 10
152.3760523555232
 20
130.2718806264148
 10
152.4575440221694
 20
130.2246084042044
 10
152.5422106888151
 20
130.1762778486607
 10
152.6304051332375
 20
130.1254778486737
 10
152.7221273554365
 20
130.0718556264648
 10
152.7457634665418
 20
130.0584500709125
 10
152.7697523554247
 20
130.0446917375827
 10
152.7947995776407
 20
130.0302278486973
 10
152.8191412443014
 20
130.0161167375898
 10
152.8692356887332
 20
129.9871889598191
 10
152.9200356887206
 20
129.9582611820488
 10
152.9715412442632
 20
129.9279222931674
 10
153.0241051331391
 20
129.8979361820638
 10
153.0505634664657
 20
129.8827667376232
 10
153.0770217997924
 20
129.8675972931824
 10
153.1038329108968
 20
129.8520750709641
 10
153.1306440220012
 20
129.836200070968
 10
153.2361245775304
 20
129.7751695154278
 10
153.3405467997266
 20
129.7155500709983
 10
153.3662995774977
 20
129.7003806265577
 10
153.3916995774914
 20
129.6859167376724
 10
153.4163940219299
 20
129.6714528487871
 10
153.4410884663681
 20
129.6569889599018
 10
153.490124577467
 20
129.6291195154644
 10
153.5377495774548
 20
129.601250071027
 10
153.5839634663322
 20
129.5747917377
 10
153.6298245774319
 20
129.5479806265956
 10
153.6749801329761
 20
129.5222278488245
 10
153.7190773551873
 20
129.4968278488308
 10
153.8040967996105
 20
129.4477917377319
 10
153.8859412440345
 20
129.4001667377437
  0
SPLINE
  5
C8
330
70
100
AcDbEntity
  8
Standardebene
 62
     7
370
    35
100
AcDbSpline
210
0.0
220
0.0
230
1.0
 70
    11
 71
     3
 72
    17
 73
    13
 74
     0
 42
0.0000000001
 43
0.0000000001
 40
0.0
 40
0.0
 40
0.0
 40
0.0
 40
1.0
 40
1.0
 40
1.0
 40
2.0
 40
2.0
 40
2.0
 40
3.0
 40
3.0
 40
3.0
 40
4.0
 40
4.0
 40
4.0
 40
4.0
 10
154.8761884660094
 20
128.5284528490729
 30
0.0
 10
154.8761884660094
 20
129.9092250709499
 30
0.0
 10
153.7568245774001
 20
131.0285889595588
 30
0.0
 10
152.3760523555232
 20
131.0285889595588
 30
0.0
 10
150.9956329114239
 20
131.0285889595588
 30
0.0
 10
149.8759162450372
 20
129.9092250709499
 30
0.0
 10
149.8759162450372
 20
128.5284528490729
 30
0.0
 10
149.8759162450372
 20
127.1476806271957
 30
0.0
 10
150.9956329114239
 20
126.0286695163644
 30
0.0
 10
152.3760523555232
 20
126.0286695163644
 30
0.0
 10
153.7568245774001
 20
126.0286695163644
 30
0.0
 10
154.8761884660094
 20
127.1476806271957
 30
0.0
 10
154.8761884660094
 20
128.5284528490729
 30
0.0
  0
SPLINE
  5
C9
330
70
100
AcDbEntity
  8
Standardebene
 62
     7
370
    35
100
AcDbSpline
210
0.0
220
0.0
230
1.0
 70
     9
 71
     3
 72
    17
 73
    13
 74
     0
 42
0.0000000001
 43
0.0000000001
 40
0.0
 40
0.0
 40
0.0
 40
0.0
 40
1.0
 40
1.0
 40
1.0
 40
2.0
 40
2.0
 40
2.0
 40
3.0
 40
3.0
 40
3.0
 40
4.0
 40
4.0
 40
4.0
 40
4.0
 10
153.8859412440345
 20
128.5284528490729
 30
0.0
 10
153.8859412440345
 20
129.3620667377532
 30
0.0
 10
153.2103717997589
 20
130.0379889598065
 30
0.0
 10
152.3760523555232
 20
130.0379889598065
 30
0.0
 10
151.5420856890651
 20
130.0379889598065
 30
0.0
 10
150.8665162447896
 20
129.3620667377532
 30
0.0
 10
150.8665162447896
 20
128.5284528490729
 30
0.0
 10
150.8665162447896
 20
127.6941334048368
 30
0.0
 10
151.5420856890651
 20
127.0182111827838
 30
0.0
 10
152.3760523555232
 20
127.0182111827838
 30
0.0
 10
153.2103717997589
 20
127.0182111827838
 30
0.0
 10
153.8859412440345
 20
127.6941334048368
 30
0.0
 10
153.8859412440345
 20
128.5284528490729
 30
0.0
  0
LWPOLYLINE
  5
CA
330
70
100
AcDbEntity
  8
Standardebene
 62
     7
370
    35
100
AcDbPolyline
 90
       17
 70
     0
 43
0.0
 10
180.5764023484731
 20
154.5281750647951
 10
180.5764023484731
 20
154.6336556203243
 10
180.5764023484731
 20
154.9469222869126
 10
180.5764023484731
 20
155.4552750645633
 10
180.5764023484731
 20
156.1393111755035
 10
180.5764023484731
 20
156.9725722864063
 10
180.5764023484731
 20
157.9236611750574
 10
180.5764023484731
 20
158.9551833970217
 10
180.5764023484731
 20
160.0283333967536
 10
180.5764023484731
 20
161.1014833964851
 10
180.5764023484731
 20
162.1330056184494
 10
180.5764023484731
 20
163.0840945071005
 10
180.5764023484731
 20
163.9173556180034
 10
180.5764023484731
 20
164.6013917289435
 10
180.5764023484731
 20
165.1097445065942
 10
180.5764023484731
 20
165.422305617627
 10
180.5764023484731
 20
165.5284917287117
  0
LINE
  5
CB
330
70
100
AcDbEntity
  8
Standardebene
 62
     7
370
    35
100
AcDbLine
 10
180.3760245707453
 20
154.5281750647951
 30
0.0
 11
180.5764023484731
 21
154.5281750647951
 31
0.0
  0
LINE
  5
CC
330
70
100
AcDbEntity
  8
Standardebene
 62
     7
370
    35
100
AcDbLine
 10
180.5764023484731
 20
165.5284917287117
 30
0.0
 11
180.3760245707453
 21
165.5284917287117
 31
0.0
  0
SPLINE
  5
CD
330
70
100
AcDbEntity
  8
Standardebene
 62
     7
370
    35
100
AcDbSpline
210
0.0
220
0.0
230
1.0
 70
     8
 71
     3
 72
     8
 73
     4
 74
     0
 42
0.0000000001
 43
0.0000000001
 40
0.0
 40
0.0
 40
0.0
 40
0.0
 40
1.0
 40
1.0
 40
1.0
 40
1.0
 10
181.6601356815355
 20
160.0283333967536
 30
0.0
 10
181.6601356815355
 20
162.0116500629242
 30
0.0
 10
181.2614967927462
 20
163.9021861735628
 30
0.0
 10
180.5764023484731
 20
165.5284917287117
 30
0.0
  0
SPLINE
  5
CE
330
70
100
AcDbEntity
  8
Standardebene
 62
     7
370
    35
100
AcDbSpline
210
0.0
220
0.0
230
1.0
 70
     8
 71
     3
 72
     8
 73
     4
 74
     0
 42
0.0000000001
 43
0.0000000001
 40
0.0
 40
0.0
 40
0.0
 40
0.0
 40
1.0
 40
1.0
 40
1.0
 40
1.0
 10
180.5764023484731
 20
154.5281750647951
 30
0.0
 10
181.3288773482849
 20
156.3633250643365
 30
0.0
 10
181.6770690148645
 20
158.2633861749724
 30
0.0
 10
181.6601356815355
 20
160.0283333967536
 30
0.0
  0
LINE
  5
CF
330
70
100
AcDbEntity
  8
Standardebene
 62
     7
370
    35
100
AcDbLine
 10
180.3760245707453
 20
152.6143556208291
 30
0.0
 11
180.3760245707453
 21
166.3141278396263
 31
0.0
  0
SPLINE
  5
D0
330
70
100
AcDbEntity
  8
Standardebene
 62
     7
370
    35
100
AcDbSpline
210
0.0
220
0.0
230
1.0
 70
     8
 71
     3
 72
     8
 73
     4
 74
     0
 42
0.0000000001
 43
0.0000000001
 40
0.0
 40
0.0
 40
0.0
 40
0.0
 40
1.0
 40
1.0
 40
1.0
 40
1.0
 10
180.3760245707453
 20
152.6143556208291
 30
0.0
 10
174.928077349885
 20
154.5997889536659
 30
0.0
 10
169.3961690179348
 20
155.896600064453
 30
0.0
 10
164.3761412414119
 20
156.4716278420871
 30
0.0
  0
LINE
  5
D1
330
70
100
AcDbEntity
  8
Standardebene
 62
     7
370
    35
100
AcDbLine
 10
164.3761412414119
 20
169.5561556165938
 30
0.0
 11
164.3761412414119
 21
156.4716278420871
 31
0.0
  0
SPLINE
  5
D2
330
70
100
AcDbEntity
  8
Standardebene
 62
     7
370
    35
100
AcDbSpline
210
0.0
220
0.0
230
1.0
 70
     8
 71
     3
 72
     8
 73
     4
 74
     0
 42
0.0000000001
 43
0.0000000001
 40
0.0
 40
0.0
 40
0.0
 40
0.0
 40
1.0
 40
1.0
 40
1.0
 40
1.0
 10
180.3760245707453
 20
166.3141278396263
 30
0.0
 10
174.8758662387873
 20
167.9855889503197
 30
0.0
 10
169.337960684616
 20
169.078494505602
 30
0.0
 10
164.3761412414119
 20
169.5561556165938
 30
0.0
  0
SPLINE
  5
D3
330
70
100
AcDbEntity
  8
Standardebene
 62
     7
370
    35
100
AcDbSpline
210
0.0
220
0.0
230
1.0
 70
     8
 71
     3
 72
     8
 73
     4
 74
     0
 42
0.0000000001
 43
0.0000000001
 40
0.0
 40
0.0
 40
0.0
 40
0.0
 40
1.0
 40
1.0
 40
1.0
 40
1.0
 10
146.3760079125788
 20
169.5561556165938
 30
0.0
 10
140.6595968028969
 20
168.954669505633
 30
0.0
 10
135.1322745820562
 20
167.8060250614757
 30
0.0
 10
130.3764773610231
 20
166.3141278396263
 30
0.0
  0
SPLINE
  5
D4
330
70
100
AcDbEntity
  8
Standardebene
 62
     7
370
    35
100
AcDbSpline
210
0.0
220
0.0
230
1.0
 70
     8
 71
     3
 72
     8
 73
     4
 74
     0
 42
0.0000000001
 43
0.0000000001
 40
0.0
 40
0.0
 40
0.0
 40
0.0
 40
1.0
 40
1.0
 40
1.0
 40
1.0
 10
146.3760079125788
 20
156.4716278420871
 30
0.0
 10
140.6211440251286
 20
155.7561945089325
 30
0.0
 10
135.1068745820626
 20
154.3902389537187
 30
0.0
 10
130.3764773610231
 20
152.6143556208291
 30
0.0
  0
LINE
  5
D5
330
70
100
AcDbEntity
  8
Standardebene
 62
     7
370
    35
100
AcDbLine
 10
130.3764773610231
 20
166.3141278396263
 30
0.0
 11
130.3764773610231
 21
152.6143556208291
 31
0.0
  0
LINE
  5
D6
330
70
100
AcDbEntity
  8
Standardebene
 62
     7
370
    35
100
AcDbLine
 10
146.3760079125788
 20
156.4716278420871
 30
0.0
 11
146.3760079125788
 21
169.5561556165938
 31
0.0
  0
LWPOLYLINE
  5
D7
330
70
100
AcDbEntity
  8
Standardebene
 62
     7
370
    35
100
AcDbPolyline
 90
        4
 70
     0
 43
0.0
 10
163.4218773527616
 20
156.5838111753924
 10
163.1985690194841
 20
156.8505111753256
 10
162.9526829084344
 20
157.1129778419268
 10
162.4831356863296
 20
157.5451306195963
  0
LWPOLYLINE
  5
D8
330
70
100
AcDbEntity
  8
Standardebene
 62
     7
370
    35
100
AcDbPolyline
 90
       74
 70
     0
 43
0.0
 10
162.1853912419599
 20
157.7843139528698
 10
162.0774412419867
 20
157.8647472861831
 10
161.9945384642297
 20
157.9250722861681
 10
161.9105773531395
 20
157.9846917305976
 10
161.8248523531608
 20
158.0439583972497
 10
161.7377162420717
 20
158.1028722861236
 10
161.3764717977175
 20
158.3304139527335
 10
160.9954717978127
 20
158.5470195082348
 10
160.5936579090242
 20
158.751277841517
 10
160.1713829091298
 20
158.9431889525801
 10
159.9523079091848
 20
159.0345583970017
 10
159.7268829092412
 20
159.1224000636466
 10
159.6700856870331
 20
159.1435667303078
 10
159.6125829092695
 20
159.1650861747471
 10
159.5543745759508
 20
159.1855472858531
 10
159.496166242632
 20
159.2063611747365
 10
159.3790440204393
 20
159.2469306191711
 10
159.2608634649129
 20
159.2867945080498
 10
158.781438465033
 20
159.4328445080135
 10
158.2886079096006
 20
159.5601972857594
 10
157.7827245763937
 20
159.66850006351
 10
157.2627301320792
 20
159.7570472857102
 10
157.1470190209972
 20
159.7725695079285
 10
157.0298967988041
 20
159.7863278412583
 10
156.9131273543888
 20
159.7983222856999
 10
156.7960051321961
 20
159.808200063475
 10
156.5599967989218
 20
159.8244278412488
 10
156.3229301323142
 20
159.8360695079127
 10
156.204044021233
 20
159.8399500634671
 10
156.0851579101514
 20
159.8434778412441
 10
155.9659190212925
 20
159.8466528412433
 10
155.8463273546557
 20
159.8484167301318
 10
155.6085551324929
 20
159.851591730131
 10
155.3711356881076
 20
159.8522972856862
 10
155.1337162437226
 20
159.851591730131
 10
154.8977079104483
 20
159.8484167301318
 10
154.6609940216185
 20
159.8434778412441
 10
154.4260440216772
 20
159.8353639523572
 10
154.1907412439584
 20
159.8244278412488
 10
153.9564967995726
 20
159.808200063475
 10
153.8393745773796
 20
159.7983222856999
 10
153.7226051329643
 20
159.7863278412583
 10
153.605835688549
 20
159.7725695079285
 10
153.4890662441337
 20
159.7570472857102
 10
152.9690717998195
 20
159.66850006351
 10
152.4614245777241
 20
159.5598445079816
 10
152.2130690222307
 20
159.4977556191081
 10
151.967182911181
 20
159.4314333969025
 10
151.845474577878
 20
159.3968611746889
 10
151.7248245779083
 20
159.3605250635872
 10
151.6652051334788
 20
159.3418278413693
 10
151.6048801334938
 20
159.3231306191518
 10
151.5452606890643
 20
159.3040806191566
 10
151.4856412446348
 20
159.2850306191616
 10
151.0231495780836
 20
159.1213417303134
 10
150.5814718004164
 20
158.9438945081356
 10
150.1595495782997
 20
158.7523361748503
 10
149.7573829117334
 20
158.5473722860126
 10
149.6600162450912
 20
158.4944556193593
 10
149.5637079117819
 20
158.4397750638172
 10
149.4684579118055
 20
158.3850945082754
 10
149.3746190229402
 20
158.3300611749558
 10
149.1915273563193
 20
158.2171722860952
 10
149.0144329119192
 20
158.1028722861236
 10
148.6785884675587
 20
157.8675695084049
 10
148.3646162454149
 20
157.6238000640211
 10
148.0732218010432
 20
157.3736806196393
 10
147.8029940233332
 20
157.116152841926
 10
147.7387884677938
 20
157.0501833974978
 10
147.6763468011425
 20
156.9842139530699
 10
147.6149634678245
 20
156.9178917308642
 10
147.5546384678398
 20
156.8515695086588
 10
147.4399856900904
 20
156.7178667309145
 10
147.3302718012291
 20
156.5838111753924
  0
LWPOLYLINE
  5
D9
330
70
100
AcDbEntity
  8
Standardebene
 62
     7
370
    35
100
AcDbPolyline
 90
       13
 70
     0
 43
0.0
 10
164.3761412414119
 20
156.4716278420871
 10
164.3606190191936
 20
156.4733917309756
 10
164.3158162414272
 20
156.4786833976407
 10
164.2403217970016
 20
156.4882083976383
 10
164.1358995748054
 20
156.5005556198577
 10
164.0720467970437
 20
156.5086695087443
 10
164.0011384637281
 20
156.517136175409
 10
163.9633912415153
 20
156.5213695087412
 10
163.9228217970808
 20
156.5259556198511
 10
163.8808412415358
 20
156.5312472865166
 10
163.8367440193246
 20
156.5361861754043
 10
163.6434217971508
 20
156.5584111753987
 10
163.4218773527616
 20
156.5838111753924
  0
LWPOLYLINE
  5
DA
330
70
100
AcDbEntity
  8
Standardebene
 62
     7
370
    35
100
AcDbPolyline
 90
      103
 70
     0
 43
0.0
 10
146.3760079125788
 20
169.5561556165938
 10
146.3872968014649
 20
169.5572139499267
 10
146.4197523570122
 20
169.560388949926
 10
146.4737273569988
 20
169.5663861721466
 10
146.5488690236466
 20
169.573794505478
 10
146.6451773569559
 20
169.5840250610312
 10
146.7633579124819
 20
169.5956667276947
 10
146.796166245807
 20
169.5991945054717
 10
146.8300329124654
 20
169.6023695054709
 10
146.8480245791273
 20
169.6041333943594
 10
146.8656634680119
 20
169.6058972832479
 10
146.8843606902294
 20
169.6080139499141
 10
146.9027051346694
 20
169.6097778388026
 10
146.9803162457609
 20
169.6175389499117
 10
147.0625134679627
 20
169.6256528387987
 10
147.2417245790289
 20
169.6429389499051
 10
147.4389273567575
 20
169.6616361721229
 10
147.6558856900365
 20
169.6810389498956
 10
147.8915412455333
 20
169.7022056165572
 10
148.01571902328
 20
169.7127889498878
 10
148.1458940232473
 20
169.7240778387739
 10
148.212216245453
 20
169.7297222832171
 10
148.2799495787694
 20
169.7350139498823
 10
148.3490940231965
 20
169.7410111721029
 10
148.4192968009566
 20
169.7466556165461
 10
148.7085745786623
 20
169.769233394318
 10
149.0126690230308
 20
169.7925167276458
 10
149.330521800729
 20
169.8158000609733
 10
149.6628384673126
 20
169.8383778387452
 10
150.009971800559
 20
169.8606028387397
 10
150.371569022691
 20
169.8824750609564
 10
150.4643495782233
 20
169.8877667276218
 10
150.5578356893112
 20
169.8930583942873
 10
150.652380133732
 20
169.8987028387302
 10
150.7472773559303
 20
169.9039945053957
 10
150.9388356892159
 20
169.9135195053933
 10
151.1325106891675
 20
169.9233972831684
 10
151.5262106890691
 20
169.9420945053859
 10
151.9280245778575
 20
169.9590278387152
 10
152.3375995777549
 20
169.9745500609335
 10
152.7559940220949
 20
169.9886611720411
 10
152.968366244264
 20
169.9943056164843
 10
153.1832079108771
 20
170.0006556164827
 10
153.2915106886277
 20
170.0027722831486
 10
153.3998134663783
 20
170.0059472831479
 10
153.5088217996845
 20
170.0077111720364
 10
153.6174773552129
 20
170.0101806164803
 10
154.0535106884371
 20
170.0179417275892
 10
154.4909551327721
 20
170.0235861720324
 10
154.9301634659956
 20
170.027113949809
 10
155.3697245769969
 20
170.0281722831423
 10
155.8106967991089
 20
170.027113949809
 10
156.2530801323316
 20
170.0235861720324
 10
156.3638523545262
 20
170.0228806164772
 10
156.4749773544986
 20
170.0214695053662
 10
156.5850440211377
 20
170.019705616478
 10
156.6947579099991
 20
170.0179417275892
 10
156.9134801321666
 20
170.01476672759
 10
157.1311440210011
 20
170.0101806164803
 10
157.560827354227
 20
170.0006556164827
 10
157.98486624301
 20
169.9890139498188
 10
158.4025551317945
 20
169.975255616489
 10
158.814246798358
 20
169.9597333942707
 10
159.017799576085
 20
169.951266727606
 10
159.2199412427009
 20
169.9420945053859
 10
159.2703884649106
 20
169.9399778387199
 10
159.3208356871202
 20
169.937861172054
 10
159.3705773537746
 20
169.93539172761
 10
159.4199662426512
 20
169.9332750609437
 10
159.5194495759594
 20
169.9283361720564
 10
159.6175217981572
 20
169.9233972831684
 10
160.0013440202834
 20
169.9039945053957
 10
160.3731717979682
 20
169.8828278387341
 10
160.732652353434
 20
169.8616611720729
 10
161.0797856866807
 20
169.8387306165229
 10
161.4142190199302
 20
169.8161528387507
 10
161.7359523531832
 20
169.7928695054236
 10
162.0418106864402
 20
169.7699389498736
 10
162.3303829085903
 20
169.7466556165461
 10
162.6013162418559
 20
169.7244306165516
 10
162.8542579084592
 20
169.7025583943349
 10
163.0899134639558
 20
169.6817445054512
 10
163.3086356861232
 20
169.6619889499004
 10
163.3601412416662
 20
169.6566972832352
 10
163.4105884638758
 20
169.6521111721253
 10
163.4359884638695
 20
169.6499945054591
 10
163.4599773527521
 20
169.6478778387931
 10
163.4846717971906
 20
169.6450556165714
 10
163.5086606860732
 20
169.6432917276829
 10
163.6010884638281
 20
169.634119505463
 10
163.688577352695
 20
169.6256528387987
 10
163.8480329082108
 20
169.6097778388026
 10
163.9859690192873
 20
169.5960195054725
 10
164.1041495748133
 20
169.5840250610312
 10
164.2008106859004
 20
169.5741472832557
 10
164.2417329081123
 20
169.5702667277013
 10
164.2773634636589
 20
169.5667389499244
 10
164.2925329080997
 20
169.5649750610359
 10
164.3073495747625
 20
169.5635639499252
 10
164.3200495747593
 20
169.5618000610366
 10
164.3320440192007
 20
169.5607417277037
 10
164.3652051303038
 20
169.5572139499267
 10
164.3761412414119
 20
169.5561556165938
  0
LWPOLYLINE
  5
DB
330
70
100
AcDbEntity
  8
Standardebene
 62
     7
370
    35
100
AcDbPolyline
 90
       13
 70
     0
 43
0.0
 10
147.3302718012291
 20
156.5838111753924
 10
147.1097856901731
 20
156.5584111753987
 10
146.91787457911
 20
156.536538953182
 10
146.754185690262
 20
156.5174889531868
 10
146.6197773569622
 20
156.5016139531907
 10
146.5633329125319
 20
156.4942056198593
 10
146.514296801433
 20
156.4885611754161
 10
146.4924245792163
 20
156.4853861754169
 10
146.4719634681103
 20
156.4836222865284
 10
146.4536190236706
 20
156.4808000643069
 10
146.4377440236745
 20
156.4786833976407
 10
146.3918829125748
 20
156.4733917309756
 10
146.3760079125788
 20
156.4716278420871
  0
SPLINE
  5
DC
330
70
100
AcDbEntity
  8
Standardebene
 62
     7
370
    35
100
AcDbSpline
210
0.0
220
0.0
230
1.0
 70
     8
 71
     3
 72
     8
 73
     4
 74
     0
 42
0.0000000001
 43
0.0000000001
 40
0.0
 40
0.0
 40
0.0
 40
0.0
 40
1.0
 40
1.0
 40
1.0
 40
1.0
 10
169.1365245735553
 20
111.8625250754615
 30
0.0
 10
160.1505690202463
 20
116.3050556299064
 30
0.0
 10
150.0526579116595
 20
115.997433407761
 30
0.0
 10
141.6152718026579
 20
111.8625250754615
 30
0.0
  0
LWPOLYLINE
  5
DD
330
70
100
AcDbEntity
  8
Standardebene
 62
     7
370
    35
100
AcDbPolyline
 90
        3
 70
     0
 43
0.0
 10
169.1365245735553
 20
111.8625250754615
 10
168.9361467958276
 20
111.5153917422149
 10
168.7361217958776
 20
111.1686111867463
  0
SPLINE
  5
DE
330
70
100
AcDbEntity
  8
Standardebene
 62
     7
370
    35
100
AcDbSpline
210
0.0
220
0.0
230
1.0
 70
     8
 71
     3
 72
     8
 73
     4
 74
     0
 42
0.0000000001
 43
0.0000000001
 40
0.0
 40
0.0
 40
0.0
 40
0.0
 40
1.0
 40
1.0
 40
1.0
 40
1.0
 10
168.7361217958776
 20
111.1686111867463
 30
0.0
 10
160.0062829091711
 20
115.4654445190052
 30
0.0
 10
150.2099968005093
 20
115.16699451908
 30
0.0
 10
142.0163801358908
 20
111.1686111867463
 30
0.0
  0
LWPOLYLINE
  5
DF
330
70
100
AcDbEntity
  8
Standardebene
 62
     7
370
    35
100
AcDbPolyline
 90
        3
 70
     0
 43
0.0
 10
142.0163801358908
 20
111.1686111867463
 10
141.8160023581631
 20
111.5153917422149
 10
141.6152718026579
 20
111.8625250754615
  0
SPLINE
  5
E0
330
70
100
AcDbEntity
  8
Standardebene
 62
     7
370
    35
100
AcDbSpline
210
0.0
220
0.0
230
1.0
 70
     8
 71
     3
 72
     8
 73
     4
 74
     0
 42
0.0000000001
 43
0.0000000001
 40
0.0
 40
0.0
 40
0.0
 40
0.0
 40
1.0
 40
1.0
 40
1.0
 40
1.0
 10
171.8666717950948
 20
116.5908056298351
 30
0.0
 10
161.132702353334
 20
122.0267584062538
 30
0.0
 10
148.9819773563716
 20
121.6545778507912
 30
0.0
 10
138.8858301366735
 20
116.5908056298351
 30
0.0
  0
SPLINE
  5
E1
330
70
100
AcDbEntity
  8
Standardebene
 62
     7
370
    35
100
AcDbSpline
210
0.0
220
0.0
230
1.0
 70
     8
 71
     3
 72
     8
 73
     4
 74
     0
 42
0.0000000001
 43
0.0000000001
 40
0.0
 40
0.0
 40
0.0
 40
0.0
 40
1.0
 40
1.0
 40
1.0
 40
1.0
 10
172.7426190170981
 20
118.1088084072334
 30
0.0
 10
161.4484384643664
 20
123.8636722946836
 30
0.0
 10
148.6380190231245
 20
123.471030628115
 30
0.0
 10
138.0091773591147
 20
118.1088084072334
 30
0.0
  0
LWPOLYLINE
  5
E2
330
70
100
AcDbEntity
  8
Standardebene
 62
     7
370
    35
100
AcDbPolyline
 90
        3
 70
     0
 43
0.0
 10
138.8858301366735
 20
116.5908056298351
 10
138.447680136783
 20
117.3499834074231
 10
138.0091773591147
 20
118.1088084072334
  0
LWPOLYLINE
  5
E3
330
70
100
AcDbEntity
  8
Standardebene
 62
     7
370
    35
100
AcDbPolyline
 90
        3
 70
     0
 43
0.0
 10
172.7433245726537
 20
118.1088084072334
 10
172.3048217949854
 20
117.3499834074231
 10
171.8670245728726
 20
116.5908056298351
  0
SPLINE
  5
E4
330
70
100
AcDbEntity
  8
Standardebene
 62
     7
370
    35
100
AcDbSpline
210
0.0
220
0.0
230
1.0
 70
     9
 71
     3
 72
    17
 73
    13
 74
     0
 42
0.0000000001
 43
0.0000000001
 40
0.0
 40
0.0
 40
0.0
 40
0.0
 40
1.0
 40
1.0
 40
1.0
 40
2.0
 40
2.0
 40
2.0
 40
3.0
 40
3.0
 40
3.0
 40
4.0
 40
4.0
 40
4.0
 40
4.0
 10
145.6750384683095
 20
114.803280630282
 30
0.0
 10
145.6750384683095
 20
115.6316028522971
 30
0.0
 10
145.0033495795887
 20
116.3032917410179
 30
0.0
 10
144.1750273575736
 20
116.3032917410179
 30
0.0
 10
143.3463523577807
 20
116.3032917410179
 30
0.0
 10
142.6746634690596
 20
115.6316028522971
 30
0.0
 10
142.6746634690596
 20
114.803280630282
 30
0.0
 10
142.6746634690596
 20
113.9746056304891
 30
0.0
 10
143.3463523577807
 20
113.302916741768
 30
0.0
 10
144.1750273575736
 20
113.302916741768
 30
0.0
 10
145.0033495795887
 20
113.302916741768
 30
0.0
 10
145.6750384683095
 20
113.9746056304891
 30
0.0
 10
145.6750384683095
 20
114.803280630282
 30
0.0
  0
SPLINE
  5
E5
330
70
100
AcDbEntity
  8
Standardebene
 62
     7
370
    35
100
AcDbSpline
210
0.0
220
0.0
230
1.0
 70
     9
 71
     3
 72
    17
 73
    13
 74
     0
 42
0.0000000001
 43
0.0000000001
 40
0.0
 40
0.0
 40
0.0
 40
0.0
 40
1.0
 40
1.0
 40
1.0
 40
2.0
 40
2.0
 40
2.0
 40
3.0
 40
3.0
 40
3.0
 40
4.0
 40
4.0
 40
4.0
 40
4.0
 10
168.0774856849311
 20
114.803280630282
 30
0.0
 10
168.0774856849311
 20
115.6316028522971
 30
0.0
 10
167.4057967962102
 20
116.3032917410179
 30
0.0
 10
166.5771217964173
 20
116.3032917410179
 30
0.0
 10
165.74915235218
 20
116.3032917410179
 30
0.0
 10
165.0774634634589
 20
115.6316028522971
 30
0.0
 10
165.0774634634589
 20
114.803280630282
 30
0.0
 10
165.0774634634589
 20
113.9746056304891
 30
0.0
 10
165.74915235218
 20
113.302916741768
 30
0.0
 10
166.5771217964173
 20
113.302916741768
 30
0.0
 10
167.4057967962102
 20
113.302916741768
 30
0.0
 10
168.0774856849311
 20
113.9746056304891
 30
0.0
 10
168.0774856849311
 20
114.803280630282
 30
0.0
  0
LINE
  5
E6
330
70
100
AcDbEntity
  8
Standardebene
 62
     7
370
    35
100
AcDbLine
 10
141.6152718026579
 20
111.8625250754615
 30
0.0
 11
138.8858301366735
 21
116.5908056298351
 31
0.0
  0
LINE
  5
E7
330
70
100
AcDbEntity
  8
Standardebene
 62
     7
370
    35
100
AcDbLine
 10
171.8670245728726
 20
116.5908056298351
 30
0.0
 11
169.1365245735553
 21
111.8625250754615
 31
0.0
  0
SPLINE
  5
E8
330
70
100
AcDbEntity
  8
Standardebene
 62
     7
370
    35
100
AcDbSpline
210
0.0
220
0.0
230
1.0
 70
     8
 71
     3
 72
     8
 73
     4
 74
     0
 42
0.0000000001
 43
0.0000000001
 40
0.0
 40
0.0
 40
0.0
 40
0.0
 40
1.0
 40
1.0
 40
1.0
 40
1.0
 10
173.6189190168792
 20
119.6261056290761
 30
0.0
 10
161.7648801309539
 20
125.7012917386685
 30
0.0
 10
148.2937079120992
 20
125.288188960994
 30
0.0
 10
137.1332301371118
 20
119.6261056290761
 30
0.0
  0
SPLINE
  5
E9
330
70
100
AcDbEntity
  8
Standardebene
 62
     7
370
    35
100
AcDbSpline
210
0.0
220
0.0
230
1.0
 70
     8
 71
     3
 72
     8
 73
     4
 74
     0
 42
0.0000000001
 43
0.0000000001
 40
0.0
 40
0.0
 40
0.0
 40
0.0
 40
1.0
 40
1.0
 40
1.0
 40
1.0
 10
178.6241301267391
 20
128.2952667380201
 30
0.0
 10
163.5714551305023
 20
136.2006639582658
 30
0.0
 10
146.3266190237021
 20
135.6704389583985
 30
0.0
 10
132.1283718050297
 20
128.2952667380201
 30
0.0
  0
SPLINE
  5
EA
330
70
100
AcDbEntity
  8
Standardebene
 62
     7
370
    35
100
AcDbSpline
210
0.0
220
0.0
230
1.0
 70
    11
 71
     3
 72
    17
 73
    13
 74
     0
 42
0.0000000001
 43
0.0000000001
 40
0.0
 40
0.0
 40
0.0
 40
0.0
 40
1.0
 40
1.0
 40
1.0
 40
2.0
 40
2.0
 40
2.0
 40
3.0
 40
3.0
 40
3.0
 40
4.0
 40
4.0
 40
4.0
 40
4.0
 10
163.4762051305259
 20
128.5284528490729
 30
0.0
 10
163.4762051305259
 20
129.6883861821161
 30
0.0
 10
162.5356995752054
 20
130.6281861818811
 30
0.0
 10
161.3764717977175
 20
130.6281861818811
 30
0.0
 10
160.2165384646743
 20
130.6281861818811
 30
0.0
 10
159.2760329093538
 20
129.6883861821161
 30
0.0
 10
159.2760329093538
 20
128.5284528490729
 30
0.0
 10
159.2760329093538
 20
127.3685195160294
 30
0.0
 10
160.2165384646743
 20
126.4280139607089
 30
0.0
 10
161.3764717977175
 20
126.4280139607089
 30
0.0
 10
162.5356995752054
 20
126.4280139607089
 30
0.0
 10
163.4762051305259
 20
127.3685195160294
 30
0.0
 10
163.4762051305259
 20
128.5284528490729
 30
0.0
  0
SPLINE
  5
EB
330
70
100
AcDbEntity
  8
Standardebene
 62
     7
370
    35
100
AcDbSpline
210
0.0
220
0.0
230
1.0
 70
     9
 71
     3
 72
    17
 73
    13
 74
     0
 42
0.0000000001
 43
0.0000000001
 40
0.0
 40
0.0
 40
0.0
 40
0.0
 40
1.0
 40
1.0
 40
1.0
 40
2.0
 40
2.0
 40
2.0
 40
3.0
 40
3.0
 40
3.0
 40
4.0
 40
4.0
 40
4.0
 40
4.0
 10
155.1259551326135
 20
128.5284528490729
 30
0.0
 10
155.1259551326135
 20
130.0471611820263
 30
0.0
 10
153.8951134662547
 20
131.2780028483855
 30
0.0
 10
152.3760523555232
 20
131.2780028483855
 30
0.0
 10
150.8576968003471
 20
131.2780028483855
 30
0.0
 10
149.6265023562106
 20
130.0471611820263
 30
0.0
 10
149.6265023562106
 20
128.5284528490729
 30
0.0
 10
149.6265023562106
 20
127.0097445161192
 30
0.0
 10
150.8576968003471
 20
125.7781972942048
 30
0.0
 10
152.3760523555232
 20
125.7781972942048
 30
0.0
 10
153.8951134662547
 20
125.7781972942048
 30
0.0
 10
155.1259551326135
 20
127.0097445161192
 30
0.0
 10
155.1259551326135
 20
128.5284528490729
 30
0.0
  0
LINE
  5
EC
330
70
100
AcDbEntity
  8
Standardebene
 62
     7
370
    35
100
AcDbLine
 10
137.1332301371118
 20
119.6261056290761
 30
0.0
 11
132.1283718050297
 21
128.2952667380201
 31
0.0
  0
LINE
  5
ED
330
70
100
AcDbEntity
  8
Standardebene
 62
     7
370
    35
100
AcDbLine
 10
178.6241301267391
 20
128.2952667380201
 30
0.0
 11
173.6189190168792
 21
119.6261056290761
 31
0.0
  0
SPLINE
  5
EE
330
70
100
AcDbEntity
  8
Standardebene
 62
     7
370
    35
100
AcDbSpline
210
0.0
220
0.0
230
1.0
 70
     8
 71
     3
 72
     8
 73
     4
 74
     0
 42
0.0000000001
 43
0.0000000001
 40
0.0
 40
0.0
 40
0.0
 40
0.0
 40
1.0
 40
1.0
 40
1.0
 40
1.0
 10
173.2456801280836
 20
118.9787584070157
 30
0.0
 10
161.6297662420985
 20
124.9177722944198
 30
0.0
 10
148.4408162453959
 20
124.5131361834099
 30
0.0
 10
137.5068218036851
 20
118.9787584070157
 30
0.0
  0
LWPOLYLINE
  5
EF
330
70
100
AcDbEntity
  8
Standardebene
 62
     7
370
    35
100
AcDbPolyline
 90
        3
 70
     0
 43
0.0
 10
137.5068218036851
 20
118.9787584070157
 10
137.3202023592871
 20
119.3026084069349
 10
137.1332301371118
 20
119.6261056290761
  0
LWPOLYLINE
  5
F0
330
70
100
AcDbEntity
  8
Standardebene
 62
     7
370
    35
100
AcDbPolyline
 90
        3
 70
     0
 43
0.0
 10
173.6189190168792
 20
119.6261056290761
 10
173.4322995724813
 20
119.3026084069349
 10
173.2456801280836
 20
118.9787584070157
  0
SPLINE
  5
F1
330
70
100
AcDbEntity
  8
Standardebene
 62
     7
370
    35
100
AcDbSpline
210
0.0
220
0.0
230
1.0
 70
     8
 71
     3
 72
     8
 73
     4
 74
     0
 42
0.0000000001
 43
0.0000000001
 40
0.0
 40
0.0
 40
0.0
 40
0.0
 40
1.0
 40
1.0
 40
1.0
 40
1.0
 10
180.3760245707453
 20
144.0280972896424
 30
0.0
 10
163.7196217971316
 20
150.9682945101294
 30
0.0
 10
145.8196773571622
 20
150.4610000658118
 30
0.0
 10
130.3764773610231
 20
144.0280972896424
 30
0.0
  0
SPLINE
  5
F2
330
70
100
AcDbEntity
  8
Standardebene
 62
     7
370
    35
100
AcDbSpline
210
0.0
220
0.0
230
1.0
 70
     8
 71
     3
 72
     8
 73
     4
 74
     0
 42
0.0000000001
 43
0.0000000001
 40
0.0
 40
0.0
 40
0.0
 40
0.0
 40
1.0
 40
1.0
 40
1.0
 40
1.0
 10
180.3760245707453
 20
151.548613954429
 30
0.0
 10
163.5397051305102
 20
157.7825500639817
 30
0.0
 10
145.860952357152
 20
157.3211167307634
 30
0.0
 10
130.3764773610231
 20
151.548613954429
 30
0.0
  0
LINE
  5
F3
330
70
100
AcDbEntity
  8
Standardebene
 62
     7
370
    35
100
AcDbLine
 10
130.3764773610231
 20
151.548613954429
 30
0.0
 11
130.3764773610231
 21
144.0280972896424
 31
0.0
  0
LINE
  5
F4
330
70
100
AcDbEntity
  8
Standardebene
 62
     7
370
    35
100
AcDbLine
 10
180.3760245707453
 20
144.0280972896424
 30
0.0
 11
180.3760245707453
 21
151.548613954429
 31
0.0
  0
SPLINE
  5
F5
330
70
100
AcDbEntity
  8
Standardebene
 62
     7
370
    35
100
AcDbSpline
210
0.0
220
0.0
230
1.0
 70
     8
 71
     3
 72
     8
 73
     4
 74
     0
 42
0.0000000001
 43
0.0000000001
 40
0.0
 40
0.0
 40
0.0
 40
0.0
 40
1.0
 40
1.0
 40
1.0
 40
1.0
 10
180.3760245707453
 20
152.3437750653412
 30
0.0
 10
163.5238301305141
 20
158.5113889526883
 30
0.0
 10
145.8630690238182
 20
158.0541889528025
 30
0.0
 10
130.3764773610231
 20
152.3437750653412
 30
0.0
  0
LWPOLYLINE
  5
F6
330
70
100
AcDbEntity
  8
Standardebene
 62
     7
370
    35
100
AcDbPolyline
 90
        3
 70
     0
 43
0.0
 10
130.3764773610231
 20
152.3437750653412
 10
130.3764773610231
 20
151.9465472876627
 10
130.3764773610231
 20
151.548613954429
  0
LWPOLYLINE
  5
F7
330
70
100
AcDbEntity
  8
Standardebene
 62
     7
370
    35
100
AcDbPolyline
 90
        3
 70
     0
 43
0.0
 10
180.3760245707453
 20
151.548613954429
 10
180.3760245707453
 20
151.9465472876627
 10
180.3760245707453
 20
152.3437750653412
  0
LINE
  5
F8
330
70
100
AcDbEntity
  8
Standardebene
 62
     7
370
    35
100
AcDbLine
 10
138.0091773591147
 20
118.1088084072334
 30
0.0
 11
137.5068218036851
 21
118.9787584070157
 31
0.0
  0
LINE
  5
F9
330
70
100
AcDbEntity
  8
Standardebene
 62
     7
370
    35
100
AcDbLine
 10
173.2456801280836
 20
118.9787584070157
 30
0.0
 11
172.7433245726537
 21
118.1088084072334
 31
0.0
  0
SPLINE
  5
FA
330
70
100
AcDbEntity
  8
Standardebene
 62
     7
370
    35
100
AcDbSpline
210
0.0
220
0.0
230
1.0
 70
     9
 71
     3
 72
    17
 73
    13
 74
     0
 42
0.0000000001
 43
0.0000000001
 40
0.0
 40
0.0
 40
0.0
 40
0.0
 40
1.0
 40
1.0
 40
1.0
 40
2.0
 40
2.0
 40
2.0
 40
3.0
 40
3.0
 40
3.0
 40
4.0
 40
4.0
 40
4.0
 40
4.0
 10
139.0759773588482
 20
140.5281889571839
 30
0.0
 10
139.0759773588482
 20
142.2959584011865
 30
0.0
 10
137.6436995814286
 20
143.7282361786061
 30
0.0
 10
135.8762829152037
 20
143.7282361786061
 30
0.0
 10
134.1092190267566
 20
143.7282361786061
 30
0.0
 10
132.6762356937815
 20
142.2959584011865
 30
0.0
 10
132.6762356937815
 20
140.5281889571839
 30
0.0
 10
132.6762356937815
 20
138.7607722909593
 30
0.0
 10
134.1092190267566
 20
137.3284945135395
 30
0.0
 10
135.8762829152037
 20
137.3284945135395
 30
0.0
 10
137.6436995814286
 20
137.3284945135395
 30
0.0
 10
139.0759773588482
 20
138.7607722909593
 30
0.0
 10
139.0759773588482
 20
140.5281889571839
 30
0.0
  0
SPLINE
  5
FB
330
70
100
AcDbEntity
  8
Standardebene
 62
     7
370
    35
100
AcDbSpline
210
0.0
220
0.0
230
1.0
 70
     9
 71
     3
 72
    17
 73
    13
 74
     0
 42
0.0000000001
 43
0.0000000001
 40
0.0
 40
0.0
 40
0.0
 40
0.0
 40
1.0
 40
1.0
 40
1.0
 40
2.0
 40
2.0
 40
2.0
 40
3.0
 40
3.0
 40
3.0
 40
4.0
 40
4.0
 40
4.0
 40
4.0
 10
178.0762662379872
 20
140.5281889571839
 30
0.0
 10
178.0762662379872
 20
142.2959584011865
 30
0.0
 10
176.6432829050118
 20
143.7282361786061
 30
0.0
 10
174.8758662387873
 20
143.7282361786061
 30
0.0
 10
173.1088023503401
 20
143.7282361786061
 30
0.0
 10
171.6758190173651
 20
142.2959584011865
 30
0.0
 10
171.6758190173651
 20
140.5281889571839
 30
0.0
 10
171.6758190173651
 20
138.7607722909593
 30
0.0
 10
173.1088023503401
 20
137.3284945135395
 30
0.0
 10
174.8758662387873
 20
137.3284945135395
 30
0.0
 10
176.6432829050118
 20
137.3284945135395
 30
0.0
 10
178.0762662379872
 20
138.7607722909593
 30
0.0
 10
178.0762662379872
 20
140.5281889571839
 30
0.0
  0
LINE
  5
FC
330
70
100
AcDbEntity
  8
Standardebene
 62
     7
370
    35
100
AcDbLine
 10
132.1283718050297
 20
128.2952667380201
 30
0.0
 11
130.3764773610231
 21
131.3295084039281
 31
0.0
  0
LINE
  5
FD
330
70
100
AcDbEntity
  8
Standardebene
 62
     7
370
    35
100
AcDbLine
 10
180.3760245707453
 20
131.3295084039281
 30
0.0
 11
178.6241301267391
 21
128.2952667380201
 31
0.0
  0
LINE
  5
FE
330
70
100
AcDbEntity
  8
Standardebene
 62
     7
370
    35
100
AcDbLine
 10
130.3764773610231
 20
144.0280972896424
 30
0.0
 11
130.3764773610231
 21
131.3295084039281
 31
0.0
  0
LINE
  5
FF
330
70
100
AcDbEntity
  8
Standardebene
 62
     7
370
    35
100
AcDbLine
 10
180.3760245707453
 20
131.3295084039281
 30
0.0
 11
180.3760245707453
 21
144.0280972896424
 31
0.0
  0
LINE
  5
100
330
70
100
AcDbEntity
  8
Standardebene
 62
     7
370
    35
100
AcDbLine
 10
130.3764773610231
 20
152.6143556208291
 30
0.0
 11
130.3764773610231
 21
152.3437750653412
 31
0.0
  0
LINE
  5
101
330
70
100
AcDbEntity
  8
Standardebene
 62
     7
370
    35
100
AcDbLine
 10
180.3760245707453
 20
152.3437750653412
 30
0.0
 11
180.3760245707453
 21
152.6143556208291
 31
0.0
  0
LWPOLYLINE
  5
102
330
70
100
AcDbEntity
  8
Standardebene
 62
     7
370
    35
100
AcDbPolyline
 90
       30
 70
     0
 43
0.0
 10
130.3764773610231
 20
166.3663389507244
 10
130.3764773610231
 20
166.4076139507142
 10
130.3764773610231
 20
166.4241945062654
 10
130.3764773610231
 20
166.4411278395948
 10
130.3764773610231
 20
166.4598250618123
 10
130.3764773610231
 20
166.4799333951405
 10
130.3764773610231
 20
166.5698917284514
 10
130.3764773610231
 20
166.6774889506468
 10
130.3764773610231
 20
166.7074750617501
 10
130.3764773610231
 20
166.7378139506315
 10
130.3764773610231
 20
166.7699167284014
 10
130.3764773610231
 20
166.8023722839487
 10
130.3764773610231
 20
166.8704583950429
 10
130.3764773610231
 20
166.9417195061362
 10
130.3764773610231
 20
167.0161556172285
 10
130.3764773610231
 20
167.0941195060981
 10
130.3764773610231
 20
167.1343361727549
 10
130.3764773610231
 20
167.1752583949668
 10
130.3764773610231
 20
167.2165333949562
 10
130.3764773610231
 20
167.258866728279
 10
130.3764773610231
 20
167.433844506013
 10
130.3764773610231
 20
167.6165833948563
 10
130.3764773610231
 20
167.7107750614996
 10
130.3764773610231
 20
167.8063778392534
 10
130.3764773610231
 20
167.8554139503523
 10
130.3764773610231
 20
167.9044500614509
 10
130.3764773610231
 20
167.9534861725498
 10
130.3764773610231
 20
168.0028750614264
 10
130.3764773610231
 20
168.2014889502657
 10
130.3764773610231
 20
168.4022195057709
  0
LWPOLYLINE
  5
103
330
70
100
AcDbEntity
  8
Standardebene
 62
     7
370
    35
100
AcDbPolyline
 90
       37
 70
     0
 43
0.0
 10
180.3760245707453
 20
168.4022195057709
 10
180.3760245707453
 20
168.2014889502657
 10
180.3760245707453
 20
168.003580616982
 10
180.3760245707453
 20
167.9062139503394
 10
180.3760245707453
 20
167.8092000614749
 10
180.3760245707453
 20
167.7608695059315
 10
180.3760245707453
 20
167.7132445059433
 10
180.3760245707453
 20
167.6892556170604
 10
180.3760245707453
 20
167.6656195059552
 10
180.3760245707453
 20
167.6416306170722
 10
180.3760245707453
 20
167.617994505967
 10
180.3760245707453
 20
167.4349028393463
 10
180.3760245707453
 20
167.261336172723
 10
180.3760245707453
 20
167.1773750616328
 10
180.3760245707453
 20
167.0962361727643
 10
180.3760245707453
 20
167.0567250616631
 10
180.3760245707453
 20
167.0175667283396
 10
180.3760245707453
 20
166.9798195061268
 10
180.3760245707453
 20
166.9427778394692
 10
180.3760245707453
 20
166.8041361728372
 10
180.3760245707453
 20
166.6799583950905
 10
180.3760245707453
 20
166.6513833950976
 10
180.3760245707453
 20
166.6231611728824
 10
180.3760245707453
 20
166.5970556173336
 10
180.3760245707453
 20
166.5713028395621
 10
180.3760245707453
 20
166.5236778395739
 10
180.3760245707453
 20
166.4802861729183
 10
180.3760245707453
 20
166.4425389507055
 10
180.3760245707453
 20
166.4090250618249
 10
180.3760245707453
 20
166.380450061832
 10
180.3760245707453
 20
166.3568139507268
 10
180.3760245707453
 20
166.3472889507291
 10
180.3760245707453
 20
166.3381167285093
 10
180.3760245707453
 20
166.3307083951779
 10
180.3760245707453
 20
166.3254167285124
 10
180.3760245707453
 20
166.3173028396255
 10
180.3760245707453
 20
166.3141278396263
  0
SPLINE
  5
104
330
70
100
AcDbEntity
  8
Standardebene
 62
     7
370
    35
100
AcDbSpline
210
0.0
220
0.0
230
1.0
 70
     8
 71
     3
 72
     8
 73
     4
 74
     0
 42
0.0000000001
 43
0.0000000001
 40
0.0
 40
0.0
 40
0.0
 40
0.0
 40
1.0
 40
1.0
 40
1.0
 40
1.0
 10
180.3760245707453
 20
179.8195195029168
 30
0.0
 10
163.1802245750444
 20
184.3075583906836
 30
0.0
 10
145.859894023819
 20
183.9882945018746
 30
0.0
 10
130.3764773610231
 20
179.8195195029168
 30
0.0
  0
SPLINE
  5
105
330
70
100
AcDbEntity
  8
Standardebene
 62
     7
370
    35
100
AcDbSpline
210
0.0
220
0.0
230
1.0
 70
     9
 71
     3
 72
    17
 73
    13
 74
     0
 42
0.0000000001
 43
0.0000000001
 40
0.0
 40
0.0
 40
0.0
 40
0.0
 40
1.0
 40
1.0
 40
1.0
 40
2.0
 40
2.0
 40
2.0
 40
3.0
 40
3.0
 40
3.0
 40
4.0
 40
4.0
 40
4.0
 40
4.0
 10
163.4762051305259
 20
178.5283528365729
 30
0.0
 10
163.4762051305259
 20
179.6882861696161
 30
0.0
 10
162.5356995752054
 20
180.6284389471589
 30
0.0
 10
161.3764717977175
 20
180.6284389471589
 30
0.0
 10
160.2165384646743
 20
180.6284389471589
 30
0.0
 10
159.2760329093538
 20
179.6882861696161
 30
0.0
 10
159.2760329093538
 20
178.5283528365729
 30
0.0
 10
159.2760329093538
 20
177.3687722813072
 30
0.0
 10
160.2165384646743
 20
176.4286195037645
 30
0.0
 10
161.3764717977175
 20
176.4286195037645
 30
0.0
 10
162.5356995752054
 20
176.4286195037645
 30
0.0
 10
163.4762051305259
 20
177.3687722813072
 30
0.0
 10
163.4762051305259
 20
178.5283528365729
 30
0.0
  0
LINE
  5
106
330
70
100
AcDbEntity
  8
Standardebene
 62
     7
370
    35
100
AcDbLine
 10
130.3764773610231
 20
179.8195195029168
 30
0.0
 11
130.3764773610231
 21
168.4022195057709
 31
0.0
  0
LINE
  5
107
330
70
100
AcDbEntity
  8
Standardebene
 62
     7
370
    35
100
AcDbLine
 10
180.3760245707453
 20
168.4022195057709
 30
0.0
 11
180.3760245707453
 21
179.8195195029168
 31
0.0
  0
SPLINE
  5
108
330
70
100
AcDbEntity
  8
Standardebene
 62
     7
370
    35
100
AcDbSpline
210
0.0
220
0.0
230
1.0
 70
     8
 71
     3
 72
     8
 73
     4
 74
     0
 42
0.0000000001
 43
0.0000000001
 40
0.0
 40
0.0
 40
0.0
 40
0.0
 40
1.0
 40
1.0
 40
1.0
 40
1.0
 10
180.3760245707453
 20
180.8528056137696
 30
0.0
 10
163.1724634639352
 20
185.2946306126589
 30
0.0
 10
145.8581301349305
 20
184.9792472794043
 30
0.0
 10
130.3764773610231
 20
180.8528056137696
 30
0.0
  0
LWPOLYLINE
  5
109
330
70
100
AcDbEntity
  8
Standardebene
 62
     7
370
    35
100
AcDbPolyline
 90
        3
 70
     0
 43
0.0
 10
130.3764773610231
 20
179.8195195029168
 10
130.3764773610231
 20
180.3366917250095
 10
130.3764773610231
 20
180.8528056137696
  0
LWPOLYLINE
  5
10A
330
70
100
AcDbEntity
  8
Standardebene
 62
     7
370
    35
100
AcDbPolyline
 90
        3
 70
     0
 43
0.0
 10
180.3760245707453
 20
180.8528056137696
 10
180.3760245707453
 20
180.3366917250095
 10
180.3760245707453
 20
179.8195195029168
  0
LWPOLYLINE
  5
10B
330
70
100
AcDbEntity
  8
Standardebene
 62
     7
370
    35
100
AcDbPolyline
 90
       29
 70
     0
 43
0.0
 10
130.3764773610231
 20
180.8528056137696
 10
130.3764773610231
 20
180.8570389471018
 10
130.3764773610231
 20
180.8693861693209
 10
130.3764773610231
 20
180.8778528359855
 10
130.3764773610231
 20
180.8891417248716
 10
130.3764773610231
 20
180.8951389470923
 10
130.3764773610231
 20
180.9018417248685
 10
130.3764773610231
 20
180.9088972804221
 10
130.3764773610231
 20
180.917011169309
 10
130.3764773610231
 20
180.9522889470781
 10
130.3764773610231
 20
180.994269502623
 10
130.3764773610231
 20
181.0175528359505
 10
130.3764773610231
 20
181.0429528359442
 10
130.3764773610231
 20
181.0701167248264
 10
130.3764773610231
 20
181.0986917248189
 10
130.3764773610231
 20
181.1597222803595
 10
130.3764773610231
 20
181.2260445025652
 10
130.3764773610231
 20
181.2609695025565
 10
130.3764773610231
 20
181.2973056136582
 10
130.3764773610231
 20
181.3160028358757
 10
130.3764773610231
 20
181.3347000580936
 10
130.3764773610231
 20
181.354455613644
 10
130.3764773610231
 20
181.3731528358615
 10
130.3764773610231
 20
181.4525278358418
 10
130.3764773610231
 20
181.5343722802658
 10
130.3764773610231
 20
181.576352835811
 10
130.3764773610231
 20
181.6190389469112
 10
130.3764773610231
 20
181.6624306135672
 10
130.3764773610231
 20
181.7058222802229
  0
LWPOLYLINE
  5
10C
330
70
100
AcDbEntity
  8
Standardebene
 62
     7
370
    35
100
AcDbPolyline
 90
       21
 70
     0
 43
0.0
 10
180.3760245707453
 20
181.7058222802229
 10
180.3760245707453
 20
181.6190389469112
 10
180.3760245707453
 20
181.5347250580435
 10
180.3760245707453
 20
181.4528806136196
 10
180.3760245707453
 20
181.3731528358615
 10
180.3760245707453
 20
181.2973056136582
 10
180.3760245707453
 20
181.2267500581207
 10
180.3760245707453
 20
181.160427835915
 10
180.3760245707453
 20
181.0986917248189
 10
180.3760245707453
 20
181.0429528359442
 10
180.3760245707453
 20
180.994269502623
 10
180.3760245707453
 20
180.9723972804063
 10
180.3760245707453
 20
180.9522889470781
 10
180.3760245707453
 20
180.9424111693027
 10
180.3760245707453
 20
180.9335917248606
 10
180.3760245707453
 20
180.9251250581959
 10
180.3760245707453
 20
180.917011169309
 10
180.3760245707453
 20
180.8891417248716
 10
180.3760245707453
 20
180.8693861693209
 10
180.3760245707453
 20
180.8570389471018
 10
180.3760245707453
 20
180.8528056137696
  0
SPLINE
  5
10D
330
70
100
AcDbEntity
  8
Standardebene
 62
     7
370
    35
100
AcDbSpline
210
0.0
220
0.0
230
1.0
 70
     8
 71
     3
 72
     8
 73
     4
 74
     0
 42
0.0000000001
 43
0.0000000001
 40
0.0
 40
0.0
 40
0.0
 40
0.0
 40
1.0
 40
1.0
 40
1.0
 40
1.0
 10
180.3760245707453
 20
193.2028500551265
 30
0.0
 10
163.0948523528435
 20
197.1599583874704
 30
0.0
 10
145.8309662460483
 20
196.8869083875388
 30
0.0
 10
130.3764773610231
 20
193.2028500551265
 30
0.0
  0
LWPOLYLINE
  5
10E
330
70
100
AcDbEntity
  8
Standardebene
 62
     7
370
    35
100
AcDbPolyline
 90
        3
 70
     0
 43
0.0
 10
130.3764773610231
 20
193.2028500551265
 10
130.3764773610231
 20
187.4546889454524
 10
130.3764773610231
 20
181.7058222802229
  0
LWPOLYLINE
  5
10F
330
70
100
AcDbEntity
  8
Standardebene
 62
     7
370
    35
100
AcDbPolyline
 90
        3
 70
     0
 43
0.0
 10
180.3760245707453
 20
181.7058222802229
 10
180.3760245707453
 20
187.4546889454524
 10
180.3760245707453
 20
193.2028500551265
  0
SPLINE
  5
110
330
70
100
AcDbEntity
  8
Standardebene
 62
     7
370
    35
100
AcDbSpline
210
0.0
220
0.0
230
1.0
 70
     8
 71
     3
 72
    17
 73
    13
 74
     0
 42
0.0000000001
 43
0.0000000001
 40
0.0
 40
0.0
 40
0.0
 40
0.0
 40
1.0
 40
1.0
 40
1.0
 40
2.0
 40
2.0
 40
2.0
 40
3.0
 40
3.0
 40
3.0
 40
4.0
 40
4.0
 40
4.0
 40
4.0
 10
153.1528690219957
 20
131.4261695150152
 30
0.0
 10
152.8861690220622
 20
131.4974306261085
 30
0.0
 10
152.6180579110181
 20
131.530591737211
 30
0.0
 10
152.3760523555232
 20
131.5281222927673
 30
0.0
 10
150.7190551337151
 20
131.5281222927673
 30
0.0
 10
149.376030134051
 20
130.1854500708809
 30
0.0
 10
149.376030134051
 20
128.5284528490729
 30
0.0
 10
149.376030134051
 20
126.8714556272649
 30
0.0
 10
150.7190551337151
 20
125.528077849823
 30
0.0
 10
152.3760523555232
 20
125.528077849823
 30
0.0
 10
153.7568245774001
 20
125.528077849823
 30
0.0
 10
154.9199329104428
 20
126.4611750718118
 30
0.0
 10
155.2741217992431
 20
127.7516361826004
 30
0.0
  0
SPLINE
  5
111
330
70
100
AcDbEntity
  8
Standardebene
 62
     7
370
    35
100
AcDbSpline
210
0.0
220
0.0
230
1.0
 70
     8
 71
     3
 72
    17
 73
    13
 74
     0
 42
0.0000000001
 43
0.0000000001
 40
0.0
 40
0.0
 40
0.0
 40
0.0
 40
1.0
 40
1.0
 40
1.0
 40
2.0
 40
2.0
 40
2.0
 40
3.0
 40
3.0
 40
3.0
 40
4.0
 40
4.0
 40
4.0
 40
4.0
 10
162.0231134642226
 20
130.9428639595805
 30
0.0
 10
161.8008634642782
 20
131.0028361817877
 30
0.0
 10
161.5775551310007
 20
131.0300000706696
 30
0.0
 10
161.3764717977175
 20
131.0285889595588
 30
0.0
 10
159.9953467980627
 20
131.0285889595588
 30
0.0
 10
158.8763356872315
 20
129.9092250709499
 30
0.0
 10
158.8763356872315
 20
128.5284528490729
 30
0.0
 10
158.8763356872315
 20
127.1476806271957
 30
0.0
 10
159.9953467980627
 20
126.0286695163644
 30
0.0
 10
161.3764717977175
 20
126.0286695163644
 30
0.0
 10
162.5268801307633
 20
126.0286695163644
 30
0.0
 10
163.4956079082989
 20
126.805486182837
 30
0.0
 10
163.790882908225
 20
127.8814584047903
 30
0.0
  0
SPLINE
  5
112
330
70
100
AcDbEntity
  8
Standardebene
 62
     7
370
    35
100
AcDbSpline
210
0.0
220
0.0
230
1.0
 70
     8
 71
     3
 72
    17
 73
    13
 74
     0
 42
0.0000000001
 43
0.0000000001
 40
0.0
 40
0.0
 40
0.0
 40
0.0
 40
1.0
 40
1.0
 40
1.0
 40
2.0
 40
2.0
 40
2.0
 40
3.0
 40
3.0
 40
3.0
 40
4.0
 40
4.0
 40
4.0
 40
4.0
 10
162.0231134642226
 20
180.9434695026357
 30
0.0
 10
161.8008634642782
 20
181.0027361692877
 30
0.0
 10
161.5775551310007
 20
181.0306056137251
 30
0.0
 10
161.3764717977175
 20
181.0284889470588
 30
0.0
 10
159.9953467980627
 20
181.0284889470588
 30
0.0
 10
158.8763356872315
 20
179.9091250584499
 30
0.0
 10
158.8763356872315
 20
178.5283528365729
 30
0.0
 10
158.8763356872315
 20
177.1479333924734
 30
0.0
 10
159.9953467980627
 20
176.0285695038644
 30
0.0
 10
161.3764717977175
 20
176.0285695038644
 30
0.0
 10
162.5268801307633
 20
176.0285695038644
 30
0.0
 10
163.4956079082989
 20
176.8057389481145
 30
0.0
 10
163.790882908225
 20
177.8810056145125
 30
0.0
  0
LINE
  5
113
330
70
100
AcDbEntity
  8
Standardebene
 62
     7
370
    35
100
AcDbLine
 10
61.80176904483336
 20
181.5280222802674
 30
0.0
 11
61.3018829338474
 21
181.0284889470588
 31
0.0
  0
LINE
  5
114
330
70
100
AcDbEntity
  8
Standardebene
 62
     7
370
    35
100
AcDbLine
 10
61.3018829338474
 20
176.0285695038644
 30
0.0
 11
61.80176904483336
 21
175.5283306151008
 31
0.0
  0
LWPOLYLINE
  5
115
330
70
100
AcDbEntity
  8
Standardebene
 62
     7
370
    35
100
AcDbPolyline
 90
       12
 70
     0
 43
0.0
 10
61.3018829338474
 20
181.0284889470588
 10
61.3018829338474
 20
180.9268889470844
 10
61.3018829338474
 20
180.6316139471581
 10
61.3018829338474
 20
180.1655945028302
 10
61.3018829338474
 20
179.5669306140909
 10
61.3018829338474
 20
178.8843056142617
 10
61.3018829338474
 20
178.1727528366616
 10
61.3018829338474
 20
177.4897750590547
 10
61.3018829338474
 20
176.8914639480932
 10
61.3018829338474
 20
176.4254445037652
 10
61.3018829338474
 20
176.1294639482837
 10
61.3018829338474
 20
176.0285695038644
  0
SPLINE
  5
116
330
70
100
AcDbEntity
  8
Standardebene
 62
     7
370
    35
100
AcDbSpline
210
0.0
220
0.0
230
1.0
 70
    11
 71
     3
 72
    17
 73
    13
 74
     0
 42
0.0000000001
 43
0.0000000001
 40
0.0
 40
0.0
 40
0.0
 40
0.0
 40
1.0
 40
1.0
 40
1.0
 40
2.0
 40
2.0
 40
2.0
 40
3.0
 40
3.0
 40
3.0
 40
4.0
 40
4.0
 40
4.0
 40
4.0
 10
46.80165793747244
 20
160.0283333967536
 30
0.0
 10
46.80165793747244
 20
163.0661028404385
 30
0.0
 10
44.33926904919898
 20
165.5284917287117
 30
0.0
 10
41.30185238329178
 20
165.5284917287117
 30
0.0
 10
38.26443571738426
 20
165.5284917287117
 30
0.0
 10
35.80169405133337
 20
163.0661028404385
 30
0.0
 10
35.80169405133337
 20
160.0283333967536
 30
0.0
 10
35.80169405133337
 20
156.9905639530683
 30
0.0
 10
38.26443571738426
 20
154.5281750647951
 30
0.0
 10
41.30185238329178
 20
154.5281750647951
 30
0.0
 10
44.33926904919898
 20
154.5281750647951
 30
0.0
 10
46.80165793747244
 20
156.9905639530683
 30
0.0
 10
46.80165793747244
 20
160.0283333967536
 30
0.0
  0
SPLINE
  5
117
330
70
100
AcDbEntity
  8
Standardebene
 62
     7
370
    35
100
AcDbSpline
210
0.0
220
0.0
230
1.0
 70
     8
 71
     3
 72
     8
 73
     4
 74
     0
 42
0.0000000001
 43
0.0000000001
 40
0.0
 40
0.0
 40
0.0
 40
0.0
 40
1.0
 40
1.0
 40
1.0
 40
1.0
 10
59.80187182311116
 20
170.0281722831423
 30
0.0
 10
60.90641904505735
 20
170.0281722831423
 30
0.0
 10
61.80176904483336
 20
170.9238750606961
 30
0.0
 10
61.80176904483336
 20
172.0280695048645
 30
0.0
  0
LWPOLYLINE
  5
118
330
70
100
AcDbEntity
  8
Standardebene
 62
     7
370
    35
100
AcDbPolyline
 90
       37
 70
     0
 43
0.0
 10
61.80176904483336
 20
168.4022195057709
 10
61.79224404483573
 20
168.2014889502657
 10
61.76472737817611
 20
168.003580616982
 10
61.74426626707012
 20
167.9062139503394
 10
61.71886626707642
 20
167.8092000614749
 10
61.70510793374662
 20
167.7608695059315
 10
61.68958571152799
 20
167.7132445059433
 10
61.68147182264141
 20
167.6892556170604
 10
61.67300515597673
 20
167.6656195059552
 10
61.66418571153463
 20
167.6416306170722
 10
61.65466071153699
 20
167.617994505967
 10
61.57352182266823
 20
167.4349028393463
 10
61.47615515602595
 20
167.261336172723
 10
61.42076904492864
 20
167.1773750616328
 10
61.3615023782769
 20
167.0962361727643
 10
61.33045793383999
 20
167.0567250616631
 10
61.29835515607044
 20
167.0175667283396
 10
61.26484126718984
 20
166.9798195061268
 10
61.2309746005318
 20
166.9427778394692
 10
61.08809960056728
 20
166.8041361728372
 10
60.93146626727328
 20
166.6799583950905
 10
60.89019126728353
 20
166.6513833950976
 10
60.84856348951602
 20
166.6231611728824
 10
60.80517182286035
 20
166.5970556173336
 10
60.76213293398211
 20
166.5713028395621
 10
60.67288015622676
 20
166.5236778395739
 10
60.58256904513811
 20
166.4802861729183
 10
60.49084682293907
 20
166.4425389507055
 10
60.39630237851825
 20
166.4090250618249
 10
60.30069960076414
 20
166.380450061832
 10
60.20262737856667
 20
166.3568139507268
 10
60.15359126746778
 20
166.3472889507291
 10
60.10314404525815
 20
166.3381167285093
 10
60.05340237860374
 20
166.3307083951779
 10
60.00366071194964
 20
166.3254167285124
 10
59.90241348975263
 20
166.3173028396255
 10
59.80187182311116
 20
166.3141278396263
  0
LWPOLYLINE
  5
119
330
70
100
AcDbEntity
  8
Standardebene
 62
     7
370
    35
100
AcDbPolyline
 90
       21
 70
     0
 43
0.0
 10
68.8315718208539
 20
181.7058222802229
 10
68.81287459863639
 20
181.6190389469112
 10
68.7874745986427
 20
181.5347250580435
 10
68.75431348753986
 20
181.4528806136196
 10
68.71515515421636
 20
181.3731528358615
 10
68.66894126533892
 20
181.2973056136582
 10
68.61673015424081
 20
181.2267500581207
 10
68.55852182092204
 20
181.160427835915
 10
68.49431626538261
 20
181.0986917248189
 10
68.42517182095548
 20
181.0429528359442
 10
68.35179404319585
 20
180.994269502623
 10
68.31334126542788
 20
180.9723972804063
 10
68.27418293210438
 20
180.9522889470781
 10
68.25372182099807
 20
180.9424111693027
 10
68.23361348766983
 20
180.9335917248606
 10
68.21315237656384
 20
180.9251250581959
 10
68.19269126545785
 20
180.917011169309
 10
68.10802459881242
 20
180.8891417248716
 10
68.02265237661147
 20
180.8693861693209
 10
67.9351634877446
 20
180.8570389471018
 10
67.84661626554445
 20
180.8528056137696
  0
LWPOLYLINE
  5
11A
330
70
100
AcDbEntity
  8
Standardebene
 62
     7
370
    35
100
AcDbPolyline
 90
       55
 70
     0
 43
0.0
 10
68.8315718208539
 20
181.7058222802229
 10
69.81476348727453
 20
187.4546889454524
 10
70.80148293147246
 20
193.2028500551265
 10
81.30156070662527
 20
193.2028500551265
 10
81.30156070662527
 20
131.3295084039281
 10
59.00177182331117
 20
131.3295084039281
 10
59.00177182331117
 20
144.0280972896424
 10
58.80174682336118
 20
144.0280972896424
 10
58.80174682336118
 20
151.548613954429
 10
58.90193571222489
 20
151.9465472876627
 10
59.00177182331117
 20
152.3437750653412
 10
59.00177182331117
 20
154.9857278424584
 10
58.99683293442347
 20
155.0658083979939
 10
58.98272182331591
 20
155.1448306201964
 10
58.9777829344282
 20
155.1642333979694
 10
58.97178571220755
 20
155.1829306201869
 10
58.96578848998689
 20
155.2026861757377
 10
58.9590857122107
 20
155.221736175733
 10
58.94356348999241
 20
155.2587778423902
 10
58.92557182333042
 20
155.2947611757145
 10
58.90652182333515
 20
155.3296861757059
 10
58.88464960111843
 20
155.3628472868087
 10
58.87265515667679
 20
155.37942784236
 10
58.86066071223547
 20
155.395302842356
 10
58.84760793446086
 20
155.4111778423521
 10
58.83384960113104
 20
155.4263472867929
 10
58.77634682336748
 20
155.4817333978899
 10
58.71214126782806
 20
155.5293583978781
 10
58.69485515672128
 20
155.5402945089864
 10
58.67756904561449
 20
155.5505250645396
 10
58.65922460117475
 20
155.5593445089817
 10
58.64123293451244
 20
155.5681639534242
 10
58.60454404563263
 20
155.5840389534202
 10
58.56644404564241
 20
155.5967389534167
 10
58.54739404564714
 20
155.6020306200822
 10
58.52763849009636
 20
155.6069695089699
 10
58.50823571232332
 20
155.6115556200798
 10
58.4881273789951
 20
155.614730620079
 10
58.44791071233863
 20
155.6196695089667
 10
58.40804682345961
 20
155.6214333978552
 10
58.36783015680314
 20
155.6203750645219
 10
58.32796626792411
 20
155.6164945089675
 10
58.30821071237365
 20
155.6136722867461
 10
58.28774960126733
 20
155.6097917311913
 10
58.26799404571687
 20
155.6052056200814
 10
58.2489440457216
 20
155.6002667311937
 10
58.21049126795362
 20
155.5879195089746
 10
58.17309682351829
 20
155.5734556200893
 10
58.1551051568563
 20
155.5649889534249
 10
58.13676071241623
 20
155.5558167312048
 10
58.11876904575425
 20
155.5462917312071
 10
58.10148293464747
 20
155.5360611756543
 10
55.71776349079877
 20
154.0766195093526
 10
53.33510238028336
 20
152.6143556208291
 10
30.80177460813898
 20
152.6143556208291
  0
LINE
  5
11B
330
70
100
AcDbEntity
  8
Standardebene
 62
     7
370
    35
100
AcDbLine
 10
30.80177460813898
 20
166.3141278396263
 30
0.0
 11
59.80187182311116
 21
166.3141278396263
 31
0.0
  0
LWPOLYLINE
  5
11C
330
70
100
AcDbEntity
  8
Standardebene
 62
     7
370
    35
100
AcDbPolyline
 90
        3
 70
     0
 43
0.0
 10
62.80154126680558
 20
180.8528056137696
 10
62.30130237804186
 20
180.3366917250095
 10
61.80176904483336
 20
179.8195195029168
  0
LINE
  5
11D
330
70
100
AcDbEntity
  8
Standardebene
 62
     7
370
    35
100
AcDbLine
 10
62.80154126680558
 20
180.8528056137696
 30
0.0
 11
67.84661626554445
 21
180.8528056137696
 31
0.0
  0
LINE
  5
11E
330
70
100
AcDbEntity
  8
Standardebene
 62
     7
370
    35
100
AcDbLine
 10
61.80176904483336
 20
168.4022195057709
 30
0.0
 11
61.80176904483336
 21
179.8195195029168
 31
0.0
  0
LINE
  5
11F
330
70
100
AcDbEntity
  8
Standardebene
 62
     7
370
    35
100
AcDbLine
 10
30.80177460813898
 20
152.6143556208291
 30
0.0
 11
30.80177460813898
 21
166.3141278396263
 31
0.0
  0
LINE
  5
120
330
70
100
AcDbEntity
  8
Standardebene
 62
     7
370
    35
100
AcDbLine
 10
62.80154126680558
 20
184.028511168531
 30
0.0
 11
61.80176904483336
 21
183.0283861687814
 31
0.0
  0
LWPOLYLINE
  5
121
330
70
100
AcDbEntity
  8
Standardebene
 62
     7
370
    35
100
AcDbPolyline
 90
        6
 70
     0
 43
0.0
 10
62.80154126680558
 20
184.028511168531
 10
62.80154126680558
 20
183.9004528352299
 10
62.80154126680558
 20
183.5180417242142
 10
62.80154126680558
 20
182.8812778354847
 10
62.80154126680558
 20
181.9922778357068
 10
62.80154126680558
 20
180.8528056137696
  0
LWPOLYLINE
  5
122
330
70
100
AcDbEntity
  8
Standardebene
 62
     7
370
    35
100
AcDbPolyline
 90
        6
 70
     0
 43
0.0
 10
61.80176904483336
 20
179.8195195029168
 10
61.80176904483336
 20
180.9709861692956
 10
61.80176904483336
 20
181.8695111690708
 10
61.80176904483336
 20
182.512625057799
 10
61.80176904483336
 20
182.8996222799244
 10
61.80176904483336
 20
183.0283861687814
  0
LINE
  5
123
330
70
100
AcDbEntity
  8
Standardebene
 62
     7
370
    35
100
AcDbLine
 10
49.30179404795835
 20
169.5561556165938
 30
0.0
 11
30.80177460813898
 21
169.5561556165938
 31
0.0
  0
LWPOLYLINE
  5
124
330
70
100
AcDbEntity
  8
Standardebene
 62
     7
370
    35
100
AcDbPolyline
 90
       52
 70
     0
 43
0.0
 10
58.30150793459747
 20
170.0281722831423
 10
58.25882182349699
 20
170.0235861720324
 10
58.24718015683311
 20
170.0228806164772
 10
58.23412737905851
 20
170.0214695053662
 10
58.22001626795125
 20
170.019705616478
 10
58.20449404573263
 20
170.0179417275892
 10
58.16921626796387
 20
170.01476672759
 10
58.12864682352965
 20
170.0101806164803
 10
58.03233849022034
 20
170.0006556164827
 10
57.91521626802728
 20
169.9890139498188
 10
57.77728015695078
 20
169.975255616489
 10
57.61923571254574
 20
169.9597333942707
 10
57.53174682367855
 20
169.951266727606
 10
57.43967182370173
 20
169.9420945053859
 10
57.41568293481877
 20
169.9399778387199
 10
57.39098849038061
 20
169.937861172054
 10
57.36699960149763
 20
169.93539172761
 10
57.34159960150395
 20
169.9332750609437
 10
57.29115237929432
 20
169.9283361720564
 10
57.23964682375174
 20
169.9233972831684
 10
57.02233571269497
 20
169.9039945053957
 10
56.78668015719844
 20
169.8828278387341
 10
56.53409126837257
 20
169.8616611720729
 10
56.26386349066248
 20
169.8387306165229
 10
55.97599682406753
 20
169.8161528387507
 10
55.66978571303316
 20
169.7928695054236
 10
55.34875793533569
 20
169.7699389498736
 10
55.01432460208586
 20
169.7466556165461
 10
54.66824960217245
 20
169.7244306165516
 10
54.30912182448444
 20
169.7025583943349
 10
53.93764682457735
 20
169.6817445054512
 10
53.55382460245087
 20
169.6619889499004
 10
53.4557523802534
 20
169.6566972832352
 10
53.35697460250008
 20
169.6521111721253
 10
53.30688015806821
 20
169.6499945054591
 10
53.25749126919156
 20
169.6478778387931
 10
53.20704404698194
 20
169.6450556165714
 10
53.15730238032784
 20
169.6432917276829
 10
52.9551607137116
 20
169.634119505463
 10
52.75160793598494
 20
169.6256528387987
 10
52.33991626942107
 20
169.6097778388026
 10
51.92222738063654
 20
169.5960195054725
 10
51.49854126963134
 20
169.5840250610312
 10
51.06921071418325
 20
169.5741472832557
 10
50.85189960312646
 20
169.5702667277013
 10
50.63353015873673
 20
169.5667389499244
 10
50.52346349209729
 20
169.5649750610359
 10
50.41304404768073
 20
169.5635639499252
 10
50.30262460326386
 20
169.5618000610366
 10
50.19149960329146
 20
169.5607417277037
 10
49.74699960340283
 20
169.5572139499267
 10
49.30179404795835
 20
169.5561556165938
  0
LWPOLYLINE
  5
125
330
70
100
AcDbEntity
  8
Standardebene
 62
     7
370
    35
100
AcDbPolyline
 90
        4
 70
     0
 43
0.0
 10
30.80177460813898
 20
169.5561556165938
 10
30.80177460813898
 20
168.8142639501126
 10
30.80177460813898
 20
167.7322945059386
 10
30.80177460813898
 20
166.3141278396263
  0
LWPOLYLINE
  5
126
330
70
100
AcDbEntity
  8
Standardebene
 62
     7
370
    35
100
AcDbPolyline
 90
        7
 70
     0
 43
0.0
 10
71.80196070900021
 20
196.0286000544201
 10
70.80148293147246
 20
196.0286000544201
 10
70.80148293147246
 20
195.915005610004
 10
70.80148293147246
 20
195.5745750545335
 10
70.80148293147246
 20
195.0080139435641
 10
70.80148293147246
 20
194.217086165984
 10
70.80148293147246
 20
193.2028500551265
  0
LINE
  5
127
330
70
100
AcDbEntity
  8
Standardebene
 62
     7
370
    35
100
AcDbLine
 10
71.80196070900021
 20
195.7421444989359
 30
0.0
 11
73.30161904195839
 21
195.7421444989359
 31
0.0
  0
LWPOLYLINE
  5
128
330
70
100
AcDbEntity
  8
Standardebene
 62
     7
370
    35
100
AcDbPolyline
 90
        3
 70
     0
 43
0.0
 10
71.80196070900021
 20
195.4870861656663
 10
71.80196070900021
 20
195.8927806100095
 10
71.80196070900021
 20
196.0286000544201
  0
LINE
  5
129
330
70
100
AcDbEntity
  8
Standardebene
 62
     7
370
    35
100
AcDbLine
 10
73.05890793090792
 20
195.4870861656663
 30
0.0
 11
71.80196070900021
 21
195.4870861656663
 31
0.0
  0
LINE
  5
12A
330
70
100
AcDbEntity
  8
Standardebene
 62
     7
370
    35
100
AcDbLine
 10
81.30156070662527
 20
195.1501833879728
 30
0.0
 11
73.05890793090792
 21
195.4870861656663
 31
0.0
  0
LWPOLYLINE
  5
12B
330
70
100
AcDbEntity
  8
Standardebene
 62
     7
370
    35
100
AcDbPolyline
 90
        3
 70
     0
 43
0.0
 10
81.30156070662527
 20
195.1501833879728
 10
81.30156070662527
 20
194.3137472770711
 10
81.30156070662527
 20
193.2028500551265
  0
LWPOLYLINE
  5
12C
330
70
100
AcDbEntity
  8
Standardebene
 62
     7
370
    35
100
AcDbPolyline
 90
        3
 70
     0
 43
0.0
 10
51.05192460307646
 20
118.1088084072334
 10
50.17668293662868
 20
117.3499834074231
 10
49.30179404795835
 20
116.5908056298351
  0
LWPOLYLINE
  5
12D
330
70
100
AcDbEntity
  8
Standardebene
 62
     7
370
    35
100
AcDbPolyline
 90
        3
 70
     0
 43
0.0
 10
56.75140237942936
 20
115.2544834079468
 10
53.90166349125307
 20
116.6814695187012
 10
51.05192460307646
 20
118.1088084072334
  0
LWPOLYLINE
  5
12E
330
70
100
AcDbEntity
  8
Standardebene
 62
     7
370
    35
100
AcDbPolyline
 90
       49
 70
     0
 43
0.0
 10
59.00177182331117
 20
116.3812556298875
 10
58.99859682331197
 20
116.2958834076865
 10
58.98871904553657
 20
116.2119222965963
 10
58.97319682331827
 20
116.1279611855061
 10
58.95097182332379
 20
116.0454111855269
 10
58.93756626777174
 20
116.0041361855372
 10
58.92204404555345
 20
115.9632139633252
 10
58.90546349000187
 20
115.9233500744462
 10
58.88782460111764
 20
115.8834861855675
 10
58.84760793446086
 20
115.8065806300312
 10
58.80174682336118
 20
115.7317917411609
 10
58.77634682336748
 20
115.6954556300588
 10
58.74953571226306
 20
115.6591195189567
 10
58.73577737893326
 20
115.64183340785
 10
58.72166626782568
 20
115.6241945189654
 10
58.7068496011626
 20
115.6069084078586
 10
58.69203293449983
 20
115.5899750745296
 10
58.63029682340408
 20
115.5240056301017
 10
58.5632690456432
 20
115.4622695190059
 10
58.49200793454983
 20
115.4037084079094
 10
58.41651349012428
 20
115.3500861857006
 10
58.37664960124525
 20
115.3239806301517
 10
58.33643293458879
 20
115.2999917412687
 10
58.29480515682128
 20
115.2770611857191
 10
58.25282460127633
 20
115.2551889635023
 10
58.16709960129762
 20
115.2146195190678
 10
58.0774940457645
 20
115.1796945190768
 10
58.03198571244259
 20
115.1638195190807
 10
57.9861246013429
 20
115.1493556301954
 10
57.93885237913248
 20
115.1366556301986
 10
57.89122737914432
 20
115.1246611857572
 10
57.7959773791683
 20
115.1052584079842
 10
57.69931626808123
 20
115.0915000746544
 10
57.60159682366119
 20
115.0830334079897
 10
57.50387737924117
 20
115.0798584079905
 10
57.47883015702524
 20
115.0798584079905
 10
57.45448849036483
 20
115.080563963546
 10
57.42979404592635
 20
115.0812695191012
 10
57.40474682371041
 20
115.0823278524342
 10
57.35606349038928
 20
115.0858556302112
 10
57.30738015706815
 20
115.0907945190989
 10
57.21071904598108
 20
115.1049056302064
 10
57.11546904600506
 20
115.1239556302017
 10
57.06854960157241
 20
115.1355972968656
 10
57.021277379362
 20
115.1482972968624
 10
56.97506349048456
 20
115.1627611857475
 10
56.92920237938487
 20
115.1782834079661
 10
56.83924404607399
 20
115.2135611857348
 10
56.75140237942936
 20
115.2544834079468
  0
LINE
  5
12F
330
70
100
AcDbEntity
  8
Standardebene
 62
     7
370
    35
100
AcDbLine
 10
59.00177182331117
 20
118.9787584070157
 30
0.0
 11
59.00177182331117
 21
116.3812556298875
 31
0.0
  0
LWPOLYLINE
  5
130
330
70
100
AcDbEntity
  8
Standardebene
 62
     7
370
    35
100
AcDbPolyline
 90
        3
 70
     0
 43
0.0
 10
58.80174682336118
 20
119.6261056290761
 10
58.90193571222489
 20
119.3026084069349
 10
59.00177182331117
 20
118.9787584070157
  0
LINE
  5
131
330
70
100
AcDbEntity
  8
Standardebene
 62
     7
370
    35
100
AcDbLine
 10
58.80174682336118
 20
128.2952667380201
 30
0.0
 11
58.80174682336118
 21
119.6261056290761
 31
0.0
  0
LINE
  5
132
330
70
100
AcDbEntity
  8
Standardebene
 62
     7
370
    35
100
AcDbLine
 10
59.00177182331117
 20
128.2952667380201
 30
0.0
 11
58.80174682336118
 21
128.2952667380201
 31
0.0
  0
LWPOLYLINE
  5
133
330
70
100
AcDbEntity
  8
Standardebene
 62
     7
370
    35
100
AcDbPolyline
 90
        3
 70
     0
 43
0.0
 10
77.30176626318055
 20
113.5548000750383
 10
79.30166348490307
 20
115.2897611857159
 10
81.30156070662527
 20
117.0243695186154
  0
LINE
  5
134
330
70
100
AcDbEntity
  8
Standardebene
 62
     7
370
    35
100
AcDbLine
 10
61.80176904483336
 20
113.5548000750383
 30
0.0
 11
77.30176626318055
 21
113.5548000750383
 31
0.0
  0
LWPOLYLINE
  5
135
330
70
100
AcDbEntity
  8
Standardebene
 62
     7
370
    35
100
AcDbPolyline
 90
        3
 70
     0
 43
0.0
 10
59.05151348996559
 20
111.1686111867463
 10
60.42664126739932
 20
112.3617056308923
 10
61.80176904483336
 20
113.5548000750383
  0
LINE
  5
136
330
70
100
AcDbEntity
  8
Standardebene
 62
     7
370
    35
100
AcDbLine
 10
50.10154126998058
 20
111.1686111867463
 30
0.0
 11
59.05151348996559
 21
111.1686111867463
 31
0.0
  0
LWPOLYLINE
  5
137
330
70
100
AcDbEntity
  8
Standardebene
 62
     7
370
    35
100
AcDbPolyline
 90
        3
 70
     0
 43
0.0
 10
49.30179404795835
 20
111.8625250754615
 10
49.70184404785835
 20
111.5153917422149
 10
50.10154126998058
 20
111.1686111867463
  0
LINE
  5
138
330
70
100
AcDbEntity
  8
Standardebene
 62
     7
370
    35
100
AcDbLine
 10
49.30179404795835
 20
116.5908056298351
 30
0.0
 11
49.30179404795835
 21
111.8625250754615
 31
0.0
  0
LINE
  5
139
330
70
100
AcDbEntity
  8
Standardebene
 62
     7
370
    35
100
AcDbLine
 10
81.30156070662527
 20
117.0243695186154
 30
0.0
 11
81.30156070662527
 21
131.3295084039281
 31
0.0
  0
LINE
  5
13A
330
70
100
AcDbEntity
  8
Standardebene
 62
     7
370
    35
100
AcDbLine
 10
59.00177182331117
 20
131.3295084039281
 30
0.0
 11
59.00177182331117
 21
128.2952667380201
 31
0.0
  0
LINE
  5
13B
330
70
100
AcDbEntity
  8
Standardebene
 62
     7
370
    35
100
AcDbLine
 10
67.84661626554445
 20
184.028511168531
 30
0.0
 11
62.80154126680558
 21
184.028511168531
 31
0.0
  0
LINE
  5
13C
330
70
100
AcDbEntity
  8
Standardebene
 62
     7
370
    35
100
AcDbLine
 10
70.80148293147246
 20
196.0286000544201
 30
0.0
 11
68.8315718208539
 21
184.8547167238802
 31
0.0
  0
LWPOLYLINE
  5
13D
330
70
100
AcDbEntity
  8
Standardebene
 62
     7
370
    35
100
AcDbPolyline
 90
        5
 70
     0
 43
0.0
 10
58.80174682336118
 20
155.4489250645648
 10
58.80174682336118
 20
154.8149833980568
 10
58.80174682336118
 20
153.9513833982726
 10
58.80174682336118
 20
152.8613000652117
 10
58.80174682336118
 20
151.548613954429
  0
SPLINE
  5
13E
330
70
100
AcDbEntity
  8
Standardebene
 62
     7
370
    35
100
AcDbSpline
210
0.0
220
0.0
230
1.0
 70
     8
 71
     3
 72
     8
 73
     4
 74
     0
 42
0.0000000001
 43
0.0000000001
 40
0.0
 40
0.0
 40
0.0
 40
0.0
 40
1.0
 40
1.0
 40
1.0
 40
1.0
 10
67.84661626554445
 20
184.028511168531
 30
0.0
 10
68.33733015431052
 20
184.028511168531
 30
0.0
 10
68.74584682087519
 20
184.3819945017761
 30
0.0
 10
68.8315718208539
 20
184.8547167238802
 30
0.0
  0
LWPOLYLINE
  5
13F
330
70
100
AcDbEntity
  8
Standardebene
 62
     7
370
    35
100
AcDbPolyline
 90
        9
 70
     0
 43
0.0
 10
59.00177182331117
 20
134.028611181031
 10
58.80174682336118
 20
134.028611181031
 10
58.80174682336118
 20
133.909372292172
 10
58.80174682336118
 20
133.5520084033725
 10
58.80174682336118
 20
132.9586361812987
 10
58.80174682336118
 20
132.1317250703943
 10
58.80174682336118
 20
131.0751556262141
 10
58.80174682336118
 20
129.7938667376453
 10
58.80174682336118
 20
128.2952667380201
  0
LWPOLYLINE
  5
140
330
70
100
AcDbEntity
  8
Standardebene
 62
     7
370
    35
100
AcDbPolyline
 90
        8
 70
     0
 43
0.0
 10
56.75140237942936
 20
118.9872250736804
 10
51.05192460307646
 20
122.2786417395241
 10
51.05192460307646
 20
122.1604611839981
 10
51.05192460307646
 20
121.8069778507533
 10
51.05192460307646
 20
121.2210139620109
 10
51.05192460307646
 20
120.4060972955478
 10
51.05192460307646
 20
119.3664611846966
 10
51.05192460307646
 20
118.1088084072334
  0
LWPOLYLINE
  5
141
330
70
100
AcDbEntity
  8
Standardebene
 62
     7
370
    35
100
AcDbPolyline
 90
        8
 70
     0
 43
0.0
 10
51.05192460307646
 20
122.2786417395241
 10
49.30179404795835
 20
120.5281584066286
 10
49.30179404795835
 20
120.4170334066562
 10
49.30179404795835
 20
120.0836584067396
 10
49.30179404795835
 20
119.5301500735445
 10
49.30179404795835
 20
118.7600361848482
 10
49.30179404795835
 20
117.7782556295383
 10
49.30179404795835
 20
116.5908056298351
  0
SPLINE
  5
142
330
70
100
AcDbEntity
  8
Standardebene
 62
     7
370
    35
100
AcDbSpline
210
0.0
220
0.0
230
1.0
 70
     8
 71
     3
 72
    11
 73
     7
 74
     0
 42
0.0000000001
 43
0.0000000001
 40
0.0
 40
0.0
 40
0.0
 40
0.0
 40
1.0
 40
1.0
 40
1.0
 40
2.0
 40
2.0
 40
2.0
 40
2.0
 10
56.75140237942936
 20
118.9872250736804
 30
0.0
 10
56.99058571270285
 20
118.8492889626038
 30
0.0
 10
57.25199404597082
 20
118.7847306292867
 30
0.0
 10
57.50140793479748
 20
118.7864945181748
 30
0.0
 10
58.07431904576529
 20
118.7864945181748
 30
0.0
 10
58.57244126786308
 20
119.1078750736501
 30
0.0
 10
58.82891071224335
 20
119.5876528513081
 30
0.0
  0
LINE
  5
143
330
70
100
AcDbEntity
  8
Standardebene
 62
     7
370
    35
100
AcDbLine
 10
68.68587459866794
 20
184.4846528350839
 30
0.0
 11
68.68587459866794
 21
181.3237639469852
 31
0.0
  0
LINE
  5
144
330
70
100
AcDbEntity
  8
Standardebene
 62
     7
370
    35
100
AcDbLine
 10
59.80187182311116
 20
170.0281722831423
 30
0.0
 11
58.29409960126575
 21
170.0281722831423
 31
0.0
  0
LINE
  5
145
330
70
100
AcDbEntity
  8
Standardebene
 62
     7
370
    35
100
AcDbLine
 10
71.80160793122245
 20
37.50281809329661
 30
0.0
 11
73.30126626418094
 21
37.50281809329661
 31
0.0
  0
LINE
  5
146
330
70
100
AcDbEntity
  8
Standardebene
 62
     7
370
    35
100
AcDbLine
 10
73.30126626418094
 20
42.50273753649099
 30
0.0
 11
71.80160793122245
 21
42.50273753649099
 31
0.0
  0
LINE
  5
147
330
70
100
AcDbEntity
  8
Standardebene
 62
     7
370
    35
100
AcDbLine
 10
71.80160793122245
 20
42.01202364772492
 30
0.0
 11
73.30126626418094
 21
42.01202364772492
 31
0.0
  0
LINE
  5
148
330
70
100
AcDbEntity
  8
Standardebene
 62
     7
370
    35
100
AcDbLine
 10
71.80160793122245
 20
37.99317920428525
 30
0.0
 11
73.30126626418094
 21
37.99317920428525
 31
0.0
  0
LINE
  5
149
330
70
100
AcDbEntity
  8
Standardebene
 62
     7
370
    35
100
AcDbLine
 10
37.95152182857371
 20
54.35254308908415
 30
0.0
 11
37.95152182857371
 21
55.00271253336632
 31
0.0
  0
LINE
  5
14A
330
70
100
AcDbEntity
  8
Standardebene
 62
     7
370
    35
100
AcDbLine
 10
40.65168293900994
 20
55.00271253336632
 30
0.0
 11
40.65168293900994
 21
54.35254308908415
 31
0.0
  0
SPLINE
  5
14B
330
70
100
AcDbEntity
  8
Standardebene
 62
     7
370
    35
100
AcDbSpline
210
0.0
220
0.0
230
1.0
 70
     8
 71
     3
 72
    11
 73
     7
 74
     0
 42
0.0000000001
 43
0.0000000001
 40
0.0
 40
0.0
 40
0.0
 40
0.0
 40
1.0
 40
1.0
 40
1.0
 40
2.0
 40
2.0
 40
2.0
 40
2.0
 10
37.95152182857371
 20
54.35254308908415
 30
0.0
 10
37.95152182857371
 20
53.60712364482629
 30
0.0
 10
38.55618293953364
 20
53.00246253386635
 30
0.0
 10
39.30195516156959
 20
53.00246253386635
 30
0.0
 10
40.04702182805001
 20
53.00246253386635
 30
0.0
 10
40.65168293900994
 20
53.60712364482629
 30
0.0
 10
40.65168293900994
 20
54.35254308908415
 30
0.0
  0
LINE
  5
14C
330
70
100
AcDbEntity
  8
Standardebene
 62
     7
370
    35
100
AcDbLine
 10
61.80176904483336
 20
52.00269031189382
 30
0.0
 11
61.3018829338474
 21
51.50245142313011
 31
0.0
  0
LINE
  5
14D
330
70
100
AcDbEntity
  8
Standardebene
 62
     7
370
    35
100
AcDbLine
 10
61.3018829338474
 20
46.50288475771348
 30
0.0
 11
61.80176904483336
 21
46.00229309117169
 31
0.0
  0
LWPOLYLINE
  5
14E
330
70
100
AcDbEntity
  8
Standardebene
 62
     7
370
    35
100
AcDbPolyline
 90
       12
 70
     0
 43
0.0
 10
61.3018829338474
 20
51.50245142313011
 10
61.3018829338474
 20
51.4012042009331
 10
61.3018829338474
 20
51.10557642322933
 10
61.3018829338474
 20
50.63990975667918
 10
61.3018829338474
 20
50.04124586793992
 10
61.3018829338474
 20
49.35862086811042
 10
61.3018829338474
 20
48.6470680905106
 10
61.3018829338474
 20
47.96373753512591
 10
61.3018829338474
 20
47.36577920194217
 10
61.3018829338474
 20
46.89975975761426
 10
61.3018829338474
 20
46.60413197991016
 10
61.3018829338474
 20
46.50288475771348
  0
LINE
  5
14F
330
70
100
AcDbEntity
  8
Standardebene
 62
     7
370
    35
100
AcDbLine
 10
72.82678015318836
 20
51.50245142313011
 30
0.0
 11
71.80196070900021
 21
51.50245142313011
 31
0.0
  0
LINE
  5
150
330
70
100
AcDbEntity
  8
Standardebene
 62
     7
370
    35
100
AcDbLine
 10
71.80196070900021
 20
46.50288475771348
 30
0.0
 11
72.82678015318836
 21
46.50288475771348
 31
0.0
  0
SPLINE
  5
151
330
70
100
AcDbEntity
  8
Standardebene
 62
     7
370
    35
100
AcDbSpline
210
0.0
220
0.0
230
1.0
 70
     8
 71
     3
 72
     8
 73
     4
 74
     0
 42
0.0000000001
 43
0.0000000001
 40
0.0
 40
0.0
 40
0.0
 40
0.0
 40
1.0
 40
1.0
 40
1.0
 40
1.0
 10
72.82678015318836
 20
46.50288475771348
 30
0.0
 10
73.03809404202448
 20
46.50288475771348
 30
0.0
 10
73.2109551530923
 20
46.66551531322815
 30
0.0
 10
73.22612459753283
 20
46.87435975762057
 30
0.0
  0
SPLINE
  5
152
330
70
100
AcDbEntity
  8
Standardebene
 62
     7
370
    35
100
AcDbSpline
210
0.0
220
0.0
230
1.0
 70
     8
 71
     3
 72
     8
 73
     4
 74
     0
 42
0.0000000001
 43
0.0000000001
 40
0.0
 40
0.0
 40
0.0
 40
0.0
 40
1.0
 40
1.0
 40
1.0
 40
1.0
 10
73.22612459753283
 20
51.13097642322301
 30
0.0
 10
73.21130793087006
 20
51.34123197872585
 30
0.0
 10
73.03562459758047
 20
51.50245142313011
 30
0.0
 10
72.82678015318836
 20
51.50245142313011
 30
0.0
  0
SPLINE
  5
153
330
70
100
AcDbEntity
  8
Standardebene
 62
     7
370
    35
100
AcDbSpline
210
0.0
220
0.0
230
1.0
 70
     8
 71
     3
 72
     8
 73
     4
 74
     0
 42
0.0000000001
 43
0.0000000001
 40
0.0
 40
0.0
 40
0.0
 40
0.0
 40
1.0
 40
1.0
 40
1.0
 40
1.0
 10
73.30161904195839
 20
49.00231531264419
 30
0.0
 10
73.30161904195839
 20
49.7516153124568
 30
0.0
 10
73.27410237529877
 20
50.49385975671546
 30
0.0
 10
73.22612459753283
 20
51.13097642322301
 30
0.0
  0
SPLINE
  5
154
330
70
100
AcDbEntity
  8
Standardebene
 62
     7
370
    35
100
AcDbSpline
210
0.0
220
0.0
230
1.0
 70
     8
 71
     3
 72
     8
 73
     4
 74
     0
 42
0.0000000001
 43
0.0000000001
 40
0.0
 40
0.0
 40
0.0
 40
0.0
 40
1.0
 40
1.0
 40
1.0
 40
1.0
 10
73.22612459753283
 20
46.87435975762057
 30
0.0
 10
73.27904126418646
 20
47.62119031298917
 30
0.0
 10
73.30479404195759
 20
48.36414031280367
 30
0.0
 10
73.30161904195839
 20
49.00231531264419
 30
0.0
  0
LINE
  5
155
330
70
100
AcDbEntity
  8
Standardebene
 62
     7
370
    35
100
AcDbLine
 10
73.19754959753993
 20
51.25374308985898
 30
0.0
 11
73.19754959753993
 21
46.75124031320684
 31
0.0
  0
LINE
  5
156
330
70
100
AcDbEntity
  8
Standardebene
 62
     7
370
    35
100
AcDbLine
 10
81.30156070662527
 20
54.00223475583858
 30
0.0
 11
73.30126626418094
 21
54.00223475583858
 31
0.0
  0
LINE
  5
157
330
70
100
AcDbEntity
  8
Standardebene
 62
     7
370
    35
100
AcDbLine
 10
73.30126626418094
 20
46.00229309117169
 30
0.0
 11
81.30156070662527
 21
46.00229309117169
 31
0.0
  0
LWPOLYLINE
  5
158
330
70
100
AcDbEntity
  8
Standardebene
 62
     7
370
    35
100
AcDbPolyline
 90
        7
 70
     0
 43
0.0
 10
39.30195516156959
 20
74.20229030634388
 10
39.66214127259055
 20
74.19876252856723
 10
40.02303293916704
 20
74.18853197301406
 10
40.38427738352098
 20
74.17159863968504
 10
40.74516905009747
 20
74.14796252857984
 10
41.46659960547269
 20
74.08269863970713
 10
42.18838293862567
 20
73.99520975084026
  0
LWPOLYLINE
  5
159
330
70
100
AcDbEntity
  8
Standardebene
 62
     7
370
    35
100
AcDbPolyline
 90
       13
 70
     0
 43
0.0
 10
39.30195516156959
 20
74.20229030634388
 10
40.3408857168653
 20
74.20229030634388
 10
41.33536627217238
 20
74.20229030634388
 10
42.24024127194602
 20
74.20229030634388
 10
43.01705793841857
 20
74.20229030634388
 10
43.63194960493133
 20
74.20229030634388
 10
43.4509746049766
 20
74.19876252856723
 10
43.27105793835516
 20
74.18853197301406
 10
43.09078849395564
 20
74.17159863968504
 10
42.9098134940009
 20
74.14796252857984
 10
42.54892182742441
 20
74.08269863970713
 10
42.18838293862567
 20
73.99520975084026
 10
42.18838293862567
 20
71.2096764182034
  0
LWPOLYLINE
  5
15A
330
70
100
AcDbEntity
  8
Standardebene
 62
     7
370
    35
100
AcDbPolyline
 90
        7
 70
     0
 43
0.0
 10
45.07516349345954
 20
73.99520975084026
 10
44.71427182688304
 20
74.08269863970713
 10
44.35338016030655
 20
74.14796252857984
 10
44.17311071590734
 20
74.17159863968504
 10
43.99248849373006
 20
74.18853197301406
 10
43.81221904933085
 20
74.19876252856723
 10
43.63194960493133
 20
74.20229030634388
  0
LINE
  5
15B
330
70
100
AcDbEntity
  8
Standardebene
 62
     7
370
    35
100
AcDbLine
 10
45.07516349345954
 20
71.2096764182034
 30
0.0
 11
45.07516349345954
 21
73.99520975084026
 31
0.0
  0
LWPOLYLINE
  5
15C
330
70
100
AcDbEntity
  8
Standardebene
 62
     7
370
    35
100
AcDbPolyline
 90
        7
 70
     0
 43
0.0
 10
43.63194960493133
 20
71.00259586269946
 10
43.81221904933085
 20
71.00612364047643
 10
43.99248849373006
 20
71.01635419602927
 10
44.17311071590734
 20
71.03328752935862
 10
44.35338016030655
 20
71.05762919601902
 10
44.71427182688304
 20
71.12289308489173
 10
45.07516349345954
 20
71.2096764182034
  0
LWPOLYLINE
  5
15D
330
70
100
AcDbEntity
  8
Standardebene
 62
     7
370
    35
100
AcDbPolyline
 90
        7
 70
     0
 43
0.0
 10
42.18838293862567
 20
71.2096764182034
 10
42.54892182742441
 20
71.12289308489173
 10
42.9098134940009
 20
71.05762919601902
 10
43.09078849395564
 20
71.03328752935862
 10
43.27105793835516
 20
71.01635419602927
 10
43.4509746049766
 20
71.00612364047643
 10
43.63194960493133
 20
71.00259586269946
  0
LWPOLYLINE
  5
15E
330
70
100
AcDbEntity
  8
Standardebene
 62
     7
370
    35
100
AcDbPolyline
 90
        7
 70
     0
 43
0.0
 10
36.41482182895797
 20
71.2096764182034
 10
36.05428294015923
 20
71.12289308489173
 10
35.69303849580498
 20
71.05762919601902
 10
35.51312182918354
 20
71.03328752935862
 10
35.33249960700625
 20
71.01635419602927
 10
35.15223016260705
 20
71.00612364047643
 10
34.97160794042976
 20
71.00259586269946
  0
LWPOLYLINE
  5
15F
330
70
100
AcDbEntity
  8
Standardebene
 62
     7
370
    35
100
AcDbPolyline
 90
        7
 70
     0
 43
0.0
 10
39.30195516156959
 20
71.00259586269946
 10
38.9410634949931
 20
71.00612364047643
 10
38.57981905063884
 20
71.01635419602927
 10
38.21928016184011
 20
71.03328752935862
 10
37.85803571748618
 20
71.05762919601902
 10
37.13660516211096
 20
71.12289308489173
 10
36.41482182895797
 20
71.2096764182034
  0
LINE
  5
160
330
70
100
AcDbEntity
  8
Standardebene
 62
     7
370
    35
100
AcDbLine
 10
36.41482182895797
 20
73.99520975084026
 30
0.0
 11
36.41482182895797
 21
71.2096764182034
 31
0.0
  0
LWPOLYLINE
  5
161
330
70
100
AcDbEntity
  8
Standardebene
 62
     7
370
    35
100
AcDbPolyline
 90
        7
 70
     0
 43
0.0
 10
34.97160794042976
 20
71.00259586269946
 10
34.79098571825279
 20
71.00612364047643
 10
34.61036349607583
 20
71.01635419602927
 10
34.43044682945406
 20
71.03328752935862
 10
34.24982460727709
 20
71.05762919601902
 10
33.88928571847837
 20
71.12289308489173
 10
33.52804127412411
 20
71.2096764182034
  0
LINE
  5
162
330
70
100
AcDbEntity
  8
Standardebene
 62
     7
370
    35
100
AcDbLine
 10
33.52804127412411
 20
73.99520975084026
 30
0.0
 11
33.52804127412411
 21
71.2096764182034
 31
0.0
  0
LWPOLYLINE
  5
163
330
70
100
AcDbEntity
  8
Standardebene
 62
     7
370
    35
100
AcDbPolyline
 90
       13
 70
     0
 43
0.0
 10
33.52804127412411
 20
73.99520975084026
 10
33.88928571847837
 20
74.08269863970713
 10
34.24982460727709
 20
74.14796252857984
 10
34.43044682945406
 20
74.17159863968504
 10
34.61036349607583
 20
74.18853197301406
 10
34.79098571825279
 20
74.19876252856723
 10
34.97160794042976
 20
74.20229030634388
 10
35.15223016260705
 20
74.19876252856723
 10
35.33249960700625
 20
74.18853197301406
 10
35.51312182918354
 20
74.17159863968504
 10
35.69303849580498
 20
74.14796252857984
 10
36.05428294015923
 20
74.08269863970713
 10
36.41482182895797
 20
73.99520975084026
  0
LWPOLYLINE
  5
164
330
70
100
AcDbEntity
  8
Standardebene
 62
     7
370
    35
100
AcDbPolyline
 90
        6
 70
     0
 43
0.0
 10
34.97160794042976
 20
74.20229030634388
 10
35.58614682916508
 20
74.20229030634388
 10
36.36296349563763
 20
74.20229030634388
 10
37.26783849541126
 20
74.20229030634388
 10
38.26196627294058
 20
74.20229030634388
 10
39.30195516156959
 20
74.20229030634388
  0
LWPOLYLINE
  5
165
330
70
100
AcDbEntity
  8
Standardebene
 62
     7
370
    35
100
AcDbPolyline
 90
        7
 70
     0
 43
0.0
 10
36.41482182895797
 20
73.99520975084026
 10
37.13660516211096
 20
74.08269863970713
 10
37.85803571748618
 20
74.14796252857984
 10
38.21928016184011
 20
74.17159863968504
 10
38.57981905063884
 20
74.18853197301406
 10
38.9410634949931
 20
74.19876252856723
 10
39.30195516156959
 20
74.20229030634388
  0
LWPOLYLINE
  5
166
330
70
100
AcDbEntity
  8
Standardebene
 62
     7
370
    35
100
AcDbPolyline
 90
        7
 70
     0
 43
0.0
 10
42.18838293862567
 20
71.2096764182034
 10
41.46659960547269
 20
71.12289308489173
 10
40.74516905009747
 20
71.05762919601902
 10
40.38427738352098
 20
71.03328752935862
 10
40.02303293916704
 20
71.01635419602927
 10
39.66214127259055
 20
71.00612364047643
 10
39.30195516156959
 20
71.00259586269946
  0
LINE
  5
167
330
70
100
AcDbEntity
  8
Standardebene
 62
     7
370
    35
100
AcDbLine
 10
45.07516349345954
 20
73.99520975084026
 30
0.0
 11
44.30187460476397
 21
74.20229030634388
 31
0.0
  0
LWPOLYLINE
  5
168
330
70
100
AcDbEntity
  8
Standardebene
 62
     7
370
    35
100
AcDbPolyline
 90
        3
 70
     0
 43
0.0
 10
43.63194960493133
 20
74.20229030634388
 10
44.13113016036207
 20
74.20229030634388
 10
44.30187460476397
 20
74.20229030634388
  0
LINE
  5
169
330
70
100
AcDbEntity
  8
Standardebene
 62
     7
370
    35
100
AcDbLine
 10
44.30187460476397
 20
71.00259586269946
 30
0.0
 11
45.07516349345954
 21
71.2096764182034
 31
0.0
  0
LINE
  5
16A
330
70
100
AcDbEntity
  8
Standardebene
 62
     7
370
    35
100
AcDbLine
 10
34.30133016281968
 20
74.20229030634388
 30
0.0
 11
33.52804127412411
 21
73.99520975084026
 31
0.0
  0
LWPOLYLINE
  5
16B
330
70
100
AcDbEntity
  8
Standardebene
 62
     7
370
    35
100
AcDbPolyline
 90
        3
 70
     0
 43
0.0
 10
34.30133016281968
 20
74.20229030634388
 10
34.47207460722125
 20
74.20229030634388
 10
34.97160794042976
 20
74.20229030634388
  0
LINE
  5
16C
330
70
100
AcDbEntity
  8
Standardebene
 62
     7
370
    35
100
AcDbLine
 10
33.52804127412411
 20
71.2096764182034
 30
0.0
 11
34.30133016281968
 21
71.00259586269946
 31
0.0
  0
LINE
  5
16D
330
70
100
AcDbEntity
  8
Standardebene
 62
     7
370
    35
100
AcDbLine
 10
81.30156070662527
 20
32.00230698356076
 30
0.0
 11
81.30156070662527
 21
46.00229309117169
 31
0.0
  0
LINE
  5
16E
330
70
100
AcDbEntity
  8
Standardebene
 62
     7
370
    35
100
AcDbLine
 10
73.30126626418094
 20
46.00229309117169
 30
0.0
 11
73.30126626418094
 21
34.91448753838831
 31
0.0
  0
LINE
  5
16F
330
70
100
AcDbEntity
  8
Standardebene
 62
     7
370
    35
100
AcDbLine
 10
42.30197738304176
 20
74.30247919520792
 30
0.0
 11
41.60171349432806
 21
75.00274308392163
 31
0.0
  0
LINE
  5
170
330
70
100
AcDbEntity
  8
Standardebene
 62
     7
370
    35
100
AcDbLine
 10
37.00149127325559
 20
75.00274308392163
 30
0.0
 11
36.3019329400974
 21
74.30247919520792
 31
0.0
  0
LWPOLYLINE
  5
171
330
70
100
AcDbEntity
  8
Standardebene
 62
     7
370
    35
100
AcDbPolyline
 90
       11
 70
     0
 43
0.0
 10
37.00149127325559
 20
75.00274308392163
 10
37.11438016211647
 20
75.00274308392163
 10
37.44105238425684
 20
75.00274308392163
 10
37.94975793968522
 20
75.00274308392163
 10
38.59110793952496
 20
75.00274308392163
 10
39.30195516156959
 20
75.00274308392163
 10
40.01244960583645
 20
75.00274308392163
 10
40.65379960567586
 20
75.00274308392163
 10
41.16250516110425
 20
75.00274308392163
 10
41.48882460546718
 20
75.00274308392163
 10
41.60171349432806
 20
75.00274308392163
  0
LWPOLYLINE
  5
172
330
70
100
AcDbEntity
  8
Standardebene
 62
     7
370
    35
100
AcDbPolyline
 90
       14
 70
     0
 43
0.0
 10
42.30197738304176
 20
74.30247919520792
 10
42.19931904973404
 20
74.30247919520792
 10
41.89945793869776
 20
74.30247919520792
 10
41.42285516103926
 20
74.30247919520792
 10
40.80161349452807
 20
74.30247919520792
 10
40.07841905026436
 20
74.30247919520792
 10
39.30195516156959
 20
74.30247919520792
 10
38.5254912728748
 20
74.30247919520792
 10
37.80194405083334
 20
74.30247919520792
 10
37.18034960654439
 20
74.30247919520792
 10
36.70374682888589
 20
74.30247919520792
 10
36.4038857178496
 20
74.30247919520792
 10
36.3019329400974
 20
74.30247919520792
 10
36.3019329400974
 20
74.20229030634388
  0
LINE
  5
173
330
70
100
AcDbEntity
  8
Standardebene
 62
     7
370
    35
100
AcDbLine
 10
42.30197738304176
 20
74.20229030634388
 30
0.0
 11
42.30197738304176
 21
74.30247919520792
 31
0.0
  0
LINE
  5
174
330
70
100
AcDbEntity
  8
Standardebene
 62
     7
370
    35
100
AcDbLine
 10
44.10184960481397
 20
37.00293198231066
 30
0.0
 11
43.80198849377769
 21
37.30244031556885
 31
0.0
  0
LINE
  5
175
330
70
100
AcDbEntity
  8
Standardebene
 62
     7
370
    35
100
AcDbLine
 10
38.80171627280556
 20
37.30244031556885
 30
0.0
 11
38.5018551617696
 21
37.00293198231066
 31
0.0
  0
LWPOLYLINE
  5
176
330
70
100
AcDbEntity
  8
Standardebene
 62
     7
370
    35
100
AcDbPolyline
 90
       12
 70
     0
 43
0.0
 10
38.80171627280556
 20
37.30244031556885
 10
38.9026107172248
 20
37.30244031556885
 10
39.19859127270634
 20
37.30244031556885
 10
39.66461071703456
 20
37.30244031556885
 10
40.26292182799607
 20
37.30244031556885
 10
40.94589960560299
 20
37.30244031556885
 10
41.65745238320282
 20
37.30244031556885
 10
42.34007738303231
 20
37.30244031556885
 10
42.93874127177125
 20
37.30244031556885
 10
43.40476071609947
 20
37.30244031556885
 10
43.70003571602549
 20
37.30244031556885
 10
43.80198849377769
 20
37.30244031556885
  0
LINE
  5
177
330
70
100
AcDbEntity
  8
Standardebene
 62
     7
370
    35
100
AcDbLine
 10
38.80171627280556
 20
38.82820420407656
 30
0.0
 11
38.80171627280556
 21
37.30244031556885
 31
0.0
  0
LINE
  5
178
330
70
100
AcDbEntity
  8
Standardebene
 62
     7
370
    35
100
AcDbLine
 10
43.80198849377769
 20
37.30244031556885
 30
0.0
 11
43.80198849377769
 21
38.82820420407656
 31
0.0
  0
SPLINE
  5
179
330
70
100
AcDbEntity
  8
Standardebene
 62
     7
370
    35
100
AcDbSpline
210
0.0
220
0.0
230
1.0
 70
     8
 71
     3
 72
     8
 73
     4
 74
     0
 42
0.0000000001
 43
0.0000000001
 40
0.0
 40
0.0
 40
0.0
 40
0.0
 40
1.0
 40
1.0
 40
1.0
 40
1.0
 10
43.80163571600026
 20
38.82820420407656
 30
0.0
 10
43.80163571600026
 20
39.03881253735715
 30
0.0
 10
43.63865238270752
 20
39.21202642620274
 30
0.0
 10
43.43016071609285
 20
39.22719587064327
 30
0.0
  0
SPLINE
  5
17A
330
70
100
AcDbEntity
  8
Standardebene
 62
     7
370
    35
100
AcDbSpline
210
0.0
220
0.0
230
1.0
 70
     8
 71
     3
 72
     8
 73
     4
 74
     0
 42
0.0000000001
 43
0.0000000001
 40
0.0
 40
0.0
 40
0.0
 40
0.0
 40
1.0
 40
1.0
 40
1.0
 40
1.0
 10
39.17354405049041
 20
39.22719587064327
 30
0.0
 10
38.96293571720981
 20
39.21202642620274
 30
0.0
 10
38.80206905058332
 20
39.03669587069091
 30
0.0
 10
38.80171627280556
 20
38.82820420407656
 30
0.0
  0
SPLINE
  5
17B
330
70
100
AcDbEntity
  8
Standardebene
 62
     7
370
    35
100
AcDbSpline
210
0.0
220
0.0
230
1.0
 70
     8
 71
     3
 72
     8
 73
     4
 74
     0
 42
0.0000000001
 43
0.0000000001
 40
0.0
 40
0.0
 40
0.0
 40
0.0
 40
1.0
 40
1.0
 40
1.0
 40
1.0
 10
43.43016071609285
 20
39.22719587064327
 30
0.0
 10
41.93614682757758
 20
39.3330292039502
 30
0.0
 10
40.45941905016909
 20
39.32844309284027
 30
0.0
 10
39.17354405049041
 20
39.22719587064327
 30
0.0
  0
LINE
  5
17C
330
70
100
AcDbEntity
  8
Standardebene
 62
     7
370
    35
100
AcDbLine
 10
39.05007182829925
 20
39.19826809287292
 30
0.0
 11
43.55292738272881
 21
39.19826809287292
 31
0.0
  0
LINE
  5
17D
330
70
100
AcDbEntity
  8
Standardebene
 62
     7
370
    35
100
AcDbLine
 10
71.80160793122245
 20
37.50281809329661
 30
0.0
 11
73.30126626418094
 21
37.50281809329661
 31
0.0
  0
LINE
  5
17E
330
70
100
AcDbEntity
  8
Standardebene
 62
     7
370
    35
100
AcDbLine
 10
73.30126626418094
 20
42.50273753649099
 30
0.0
 11
71.80160793122245
 21
42.50273753649099
 31
0.0
  0
LINE
  5
17F
330
70
100
AcDbEntity
  8
Standardebene
 62
     7
370
    35
100
AcDbLine
 10
35.80169405133337
 20
21.00269587519944
 30
0.0
 11
35.80169405133337
 21
20.80267087524945
 31
0.0
  0
LINE
  5
180
330
70
100
AcDbEntity
  8
Standardebene
 62
     7
370
    35
100
AcDbLine
 10
46.80165793747244
 20
20.80267087524945
 30
0.0
 11
46.80165793747244
 21
21.00269587519944
 31
0.0
  0
LWPOLYLINE
  5
181
330
70
100
AcDbEntity
  8
Standardebene
 62
     7
370
    35
100
AcDbPolyline
 90
        9
 70
     0
 43
0.0
 10
41.30185238329178
 20
20.80267087524945
 10
42.3742968274681
 20
20.80267087524945
 10
43.40652460498796
 20
20.80267087524945
 10
44.35690793808353
 20
20.80267087524945
 10
45.19087460454155
 20
20.80267087524945
 10
45.874557937704
 20
20.80267087524945
 10
46.38326349313238
 20
20.80267087524945
 10
46.6958246041655
 20
20.80267087524945
 10
46.80165793747244
 20
20.80267087524945
  0
LWPOLYLINE
  5
182
330
70
100
AcDbEntity
  8
Standardebene
 62
     7
370
    35
100
AcDbPolyline
 90
        9
 70
     0
 43
0.0
 10
35.80169405133337
 20
20.80267087524945
 10
35.90752738464031
 20
20.80267087524945
 10
36.22044127345088
 20
20.80267087524945
 10
36.72844127332405
 20
20.80267087524945
 10
37.4128301620417
 20
20.80267087524945
 10
38.24573849516676
 20
20.80267087524945
 10
39.19718016159561
 20
20.80267087524945
 10
40.2283496057825
 20
20.80267087524945
 10
41.30185238329178
 20
20.80267087524945
  0
SPLINE
  5
183
330
70
100
AcDbEntity
  8
Standardebene
 62
     7
370
    35
100
AcDbSpline
210
0.0
220
0.0
230
1.0
 70
     8
 71
     3
 72
     8
 73
     4
 74
     0
 42
0.0000000001
 43
0.0000000001
 40
0.0
 40
0.0
 40
0.0
 40
0.0
 40
1.0
 40
1.0
 40
1.0
 40
1.0
 10
35.80169405133337
 20
20.80267087524945
 30
0.0
 10
39.47199405041596
 20
19.29772087562582
 30
0.0
 10
43.40229127165547
 20
19.40814032004269
 30
0.0
 10
46.80165793747244
 20
20.80267087524945
 30
0.0
  0
LINE
  5
184
330
70
100
AcDbEntity
  8
Standardebene
 62
     7
370
    35
100
AcDbLine
 10
70.80148293147246
 20
21.00269587519944
 30
0.0
 11
81.30156070662527
 21
21.00269587519944
 31
0.0
  0
LWPOLYLINE
  5
185
330
70
100
AcDbEntity
  8
Standardebene
 62
     7
370
    35
100
AcDbPolyline
 90
       11
 70
     0
 43
0.0
 10
70.80148293147246
 20
71.00259586269946
 10
70.80148293147246
 20
66.06370697504529
 10
70.80148293147246
 20
61.0842486429569
 10
70.80148293147246
 20
56.07409864420936
 10
70.80148293147246
 20
51.04348753435583
 10
70.80148293147246
 20
46.00229309117169
 10
70.80148293147246
 20
40.96215698132084
 10
70.80148293147246
 20
35.93119309368955
 10
70.80148293147246
 20
30.921043094942
 10
70.80148293147246
 20
25.94158476285362
 10
70.80148293147246
 20
21.00269587519944
  0
LINE
  5
186
330
70
100
AcDbEntity
  8
Standardebene
 62
     7
370
    35
100
AcDbLine
 10
81.30156070662527
 20
71.00259586269946
 30
0.0
 11
70.80148293147246
 21
71.00259586269946
 31
0.0
  0
LWPOLYLINE
  5
187
330
70
100
AcDbEntity
  8
Standardebene
 62
     7
370
    35
100
AcDbPolyline
 90
        4
 70
     0
 43
0.0
 10
81.30156070662527
 20
71.00259586269946
 10
81.30156070662527
 20
65.38178753077133
 10
81.30156070662527
 20
59.71017919885582
 10
81.30156070662527
 20
54.00223475583858
  0
LINE
  5
188
330
70
100
AcDbEntity
  8
Standardebene
 62
     7
370
    35
100
AcDbLine
 10
71.80196070900021
 20
54.00223475583858
 30
0.0
 11
73.30161904195839
 21
54.00223475583858
 31
0.0
  0
LINE
  5
189
330
70
100
AcDbEntity
  8
Standardebene
 62
     7
370
    35
100
AcDbLine
 10
73.05890793090792
 20
35.0026819828107
 30
0.0
 11
71.80196070900021
 21
35.0026819828107
 31
0.0
  0
LINE
  5
18A
330
70
100
AcDbEntity
  8
Standardebene
 62
     7
370
    35
100
AcDbLine
 10
81.30156070662527
 20
32.00230698356076
 30
0.0
 11
73.05890793090792
 21
35.0026819828107
 31
0.0
  0
LWPOLYLINE
  5
18B
330
70
100
AcDbEntity
  8
Standardebene
 62
     7
370
    35
100
AcDbPolyline
 90
        3
 70
     0
 43
0.0
 10
81.30156070662527
 20
32.00230698356076
 10
81.30156070662527
 20
26.47851254049713
 10
81.30156070662527
 20
21.00269587519944
  0
LWPOLYLINE
  5
18C
330
70
100
AcDbEntity
  8
Standardebene
 62
     7
370
    35
100
AcDbPolyline
 90
        4
 70
     0
 43
0.0
 10
71.80196070900021
 20
35.0026819828107
 10
71.80196070900021
 20
41.32763475900726
 10
71.80196070900021
 20
47.66810975742213
 10
71.80196070900021
 20
54.00223475583858
  0
LWPOLYLINE
  5
18D
330
70
100
AcDbEntity
  8
Standardebene
 62
     7
370
    35
100
AcDbPolyline
 90
        3
 70
     0
 43
0.0
 10
68.8315718208539
 20
21.00269587519944
 10
69.81476348727453
 20
21.00269587519944
 10
70.80148293147246
 20
21.00269587519944
  0
LWPOLYLINE
  5
18E
330
70
100
AcDbEntity
  8
Standardebene
 62
     7
370
    35
100
AcDbPolyline
 90
        3
 70
     0
 43
0.0
 10
70.80148293147246
 20
71.00259586269946
 10
69.81476348727453
 20
71.00259586269946
 10
68.8315718208539
 20
71.00259586269946
  0
LWPOLYLINE
  5
18F
330
70
100
AcDbEntity
  8
Standardebene
 62
     7
370
    35
100
AcDbPolyline
 90
       21
 70
     0
 43
0.0
 10
68.8315718208539
 20
21.00269587519944
 10
68.81287459863639
 20
21.00269587519944
 10
68.7874745986427
 20
21.00269587519944
 10
68.75431348753986
 20
21.00269587519944
 10
68.71515515421636
 20
21.00269587519944
 10
68.66894126533892
 20
21.00269587519944
 10
68.61673015424081
 20
21.00269587519944
 10
68.55852182092204
 20
21.00269587519944
 10
68.49431626538261
 20
21.00269587519944
 10
68.42517182095548
 20
21.00269587519944
 10
68.35179404319585
 20
21.00269587519944
 10
68.31334126542788
 20
21.00269587519944
 10
68.27418293210438
 20
21.00269587519944
 10
68.25372182099807
 20
21.00269587519944
 10
68.23361348766983
 20
21.00269587519944
 10
68.21315237656384
 20
21.00269587519944
 10
68.19269126545785
 20
21.00269587519944
 10
68.10802459881242
 20
21.00269587519944
 10
68.02265237661147
 20
21.00269587519944
 10
67.9351634877446
 20
21.00269587519944
 10
67.84661626554445
 20
21.00269587519944
  0
LWPOLYLINE
  5
190
330
70
100
AcDbEntity
  8
Standardebene
 62
     7
370
    35
100
AcDbPolyline
 90
       29
 70
     0
 43
0.0
 10
67.84661626554445
 20
71.00259586269946
 10
67.9351634877446
 20
71.00259586269946
 10
68.02265237661147
 20
71.00259586269946
 10
68.06569126548971
 20
71.00259586269946
 10
68.10837737659018
 20
71.00259586269946
 10
68.12989682102915
 20
71.00259586269946
 10
68.1507107099129
 20
71.00259586269946
 10
68.17223015435185
 20
71.00259586269946
 10
68.19269126545785
 20
71.00259586269946
 10
68.27418293210438
 20
71.00259586269946
 10
68.35108848764065
 20
71.00259586269946
 10
68.38883570985342
 20
71.00259586269946
 10
68.42517182095548
 20
71.00259586269946
 10
68.46044959872426
 20
71.00259586269946
 10
68.49466904316037
 20
71.00259586269946
 10
68.55781626536651
 20
71.00259586269946
 10
68.61637737646304
 20
71.00259586269946
 10
68.64283570978969
 20
71.00259586269946
 10
68.66894126533892
 20
71.00259586269946
 10
68.68093570978023
 20
71.00259586269946
 10
68.69293015422188
 20
71.00259586269946
 10
68.70386626533023
 20
71.00259586269946
 10
68.71515515421636
 20
71.00259586269946
 10
68.75431348753986
 20
71.00259586269946
 10
68.78676904308718
 20
71.00259586269946
 10
68.80052737641698
 20
71.00259586269946
 10
68.81287459863639
 20
71.00259586269946
 10
68.82310515418922
 20
71.00259586269946
 10
68.8315718208539
 20
71.00259586269946
  0
LWPOLYLINE
  5
191
330
70
100
AcDbEntity
  8
Standardebene
 62
     7
370
    35
100
AcDbPolyline
 90
       12
 70
     0
 43
0.0
 10
62.80154126680558
 20
71.00259586269946
 10
62.80154126680558
 20
66.52937364159544
 10
62.80154126680558
 20
62.01275975383574
 10
62.80154126680558
 20
57.46298475497321
 10
62.80154126680558
 20
52.88816253389475
 10
62.80154126680558
 20
48.29922920170872
 10
62.80154126680558
 20
43.70570975841274
 10
62.80154126680558
 20
39.11642364844895
 10
62.80154126680558
 20
34.54265976070345
 10
62.80154126680558
 20
29.9921792062854
 10
62.80154126680558
 20
25.47556531852571
 10
62.80154126680558
 20
21.00269587519944
  0
LWPOLYLINE
  5
192
330
70
100
AcDbEntity
  8
Standardebene
 62
     7
370
    35
100
AcDbPolyline
 90
       12
 70
     0
 43
0.0
 10
61.80176904483336
 20
21.00269587519944
 10
61.80176904483336
 20
25.47415420741498
 10
61.80176904483336
 20
29.99006253961947
 10
61.80176904483336
 20
34.54054309403721
 10
61.80176904483336
 20
39.11536531511567
 10
61.80176904483336
 20
43.70500420285722
 10
61.80176904483336
 20
48.30028753504168
 10
61.80176904483336
 20
52.88957364500547
 10
61.80176904483336
 20
57.46474864386169
 10
61.80176904483336
 20
62.01522919827976
 10
61.80176904483336
 20
66.53078475270648
 10
61.80176904483336
 20
71.00259586269946
  0
LWPOLYLINE
  5
193
330
70
100
AcDbEntity
  8
Standardebene
 62
     7
370
    35
100
AcDbPolyline
 90
        3
 70
     0
 43
0.0
 10
62.80154126680558
 20
21.00269587519944
 10
62.30130237804186
 20
21.00269587519944
 10
61.80176904483336
 20
21.00269587519944
  0
LWPOLYLINE
  5
194
330
70
100
AcDbEntity
  8
Standardebene
 62
     7
370
    35
100
AcDbPolyline
 90
        3
 70
     0
 43
0.0
 10
61.80176904483336
 20
71.00259586269946
 10
62.30130237804186
 20
71.00259586269946
 10
62.80154126680558
 20
71.00259586269946
  0
LINE
  5
195
330
70
100
AcDbEntity
  8
Standardebene
 62
     7
370
    35
100
AcDbLine
 10
62.80154126680558
 20
21.00269587519944
 30
0.0
 11
67.84661626554445
 21
21.00269587519944
 31
0.0
  0
LINE
  5
196
330
70
100
AcDbEntity
  8
Standardebene
 62
     7
370
    35
100
AcDbLine
 10
67.84661626554445
 20
71.00259586269946
 30
0.0
 11
62.80154126680558
 21
71.00259586269946
 31
0.0
  0
LWPOLYLINE
  5
197
330
70
100
AcDbEntity
  8
Standardebene
 62
     7
370
    35
100
AcDbPolyline
 90
       37
 70
     0
 43
0.0
 10
61.80176904483336
 20
21.00269587519944
 10
61.79224404483573
 20
21.00269587519944
 10
61.76472737817611
 20
21.00269587519944
 10
61.74426626707012
 20
21.00269587519944
 10
61.71886626707642
 20
21.00269587519944
 10
61.70510793374662
 20
21.00269587519944
 10
61.68958571152799
 20
21.00269587519944
 10
61.68147182264141
 20
21.00269587519944
 10
61.67300515597673
 20
21.00269587519944
 10
61.66418571153463
 20
21.00269587519944
 10
61.65466071153699
 20
21.00269587519944
 10
61.57352182266823
 20
21.00269587519944
 10
61.47615515602595
 20
21.00269587519944
 10
61.42076904492864
 20
21.00269587519944
 10
61.3615023782769
 20
21.00269587519944
 10
61.33045793383999
 20
21.00269587519944
 10
61.29835515607044
 20
21.00269587519944
 10
61.26484126718984
 20
21.00269587519944
 10
61.2309746005318
 20
21.00269587519944
 10
61.08809960056728
 20
21.00269587519944
 10
60.93146626727328
 20
21.00269587519944
 10
60.89019126728353
 20
21.00269587519944
 10
60.84856348951602
 20
21.00269587519944
 10
60.80517182286035
 20
21.00269587519944
 10
60.76213293398211
 20
21.00269587519944
 10
60.67288015622676
 20
21.00269587519944
 10
60.58256904513811
 20
21.00269587519944
 10
60.49084682293907
 20
21.00269587519944
 10
60.39630237851825
 20
21.00269587519944
 10
60.30069960076414
 20
21.00269587519944
 10
60.20262737856667
 20
21.00269587519944
 10
60.15359126746778
 20
21.00269587519944
 10
60.10314404525815
 20
21.00269587519944
 10
60.05340237860374
 20
21.00269587519944
 10
60.00366071194964
 20
21.00269587519944
 10
59.90241348975263
 20
21.00269587519944
 10
59.80187182311116
 20
21.00269587519944
  0
LWPOLYLINE
  5
198
330
70
100
AcDbEntity
  8
Standardebene
 62
     7
370
    35
100
AcDbPolyline
 90
       35
 70
     0
 43
0.0
 10
59.80187182311116
 20
71.00259586269946
 10
59.90241348975263
 20
71.00259586269946
 10
60.00260237861668
 20
71.00259586269946
 10
60.10102737859191
 20
71.00259586269946
 10
60.19945237856746
 20
71.00259586269946
 10
60.29646626743197
 20
71.00259586269946
 10
60.39277460074128
 20
71.00259586269946
 10
60.44075237850688
 20
71.00259586269946
 10
60.4880246007173
 20
71.00259586269946
 10
60.53494404515026
 20
71.00259586269946
 10
60.58115793402738
 20
71.00259586269946
 10
60.76001626731619
 20
71.00259586269946
 10
60.92829126727408
 20
71.00259586269946
 10
60.96921348948606
 20
71.00259586269946
 10
61.00872460058732
 20
71.00259586269946
 10
61.04788293391082
 20
71.00259586269946
 10
61.08633571167912
 20
71.00259586269946
 10
61.16041904499362
 20
71.00259586269946
 10
61.23062182275404
 20
71.00259586269946
 10
61.29659126718195
 20
71.00259586269946
 10
61.35973848938842
 20
71.00259586269946
 10
61.39007737826981
 20
71.00259586269946
 10
61.41900515604015
 20
71.00259586269946
 10
61.44758015603305
 20
71.00259586269946
 10
61.47474404491522
 20
71.00259586269946
 10
61.57316904489047
 20
71.00259586269946
 10
61.65430793375923
 20
71.00259586269946
 10
61.68852737819503
 20
71.00259586269946
 10
61.71851348929866
 20
71.00259586269946
 10
61.73121348929551
 20
71.00259586269946
 10
61.74391348929235
 20
71.00259586269946
 10
61.75449682262295
 20
71.00259586269946
 10
61.76472737817611
 20
71.00259586269946
 10
61.79224404483573
 20
71.00259586269946
 10
61.80176904483336
 20
71.00259586269946
  0
LWPOLYLINE
  5
199
330
70
100
AcDbEntity
  8
Standardebene
 62
     7
370
    35
100
AcDbPolyline
 90
        4
 70
     0
 43
0.0
 10
30.80177460813898
 20
37.00293198231066
 10
30.80177460813898
 20
31.60437365032669
 10
30.80177460813898
 20
26.26367087388437
 10
30.80177460813898
 20
21.00269587519944
  0
LINE
  5
19A
330
70
100
AcDbEntity
  8
Standardebene
 62
     7
370
    35
100
AcDbLine
 10
49.30179404795835
 20
37.00293198231066
 30
0.0
 11
30.80177460813898
 21
37.00293198231066
 31
0.0
  0
LINE
  5
19B
330
70
100
AcDbEntity
  8
Standardebene
 62
     7
370
    35
100
AcDbLine
 10
30.80177460813898
 20
55.00271253336632
 30
0.0
 11
49.30179404795835
 21
55.00271253336632
 31
0.0
  0
LWPOLYLINE
  5
19C
330
70
100
AcDbEntity
  8
Standardebene
 62
     7
370
    35
100
AcDbPolyline
 90
        4
 70
     0
 43
0.0
 10
30.80177460813898
 20
71.00259586269946
 10
30.80177460813898
 20
65.74126808623709
 10
30.80177460813898
 20
60.40056530979445
 10
30.80177460813898
 20
55.00271253336632
  0
LWPOLYLINE
  5
19D
330
70
100
AcDbEntity
  8
Standardebene
 62
     7
370
    35
100
AcDbPolyline
 90
      103
 70
     0
 43
0.0
 10
49.30179404795835
 20
55.00271253336632
 10
49.74629404784731
 20
54.99177642225764
 10
50.18691349218152
 20
54.95896808893256
 10
50.62329960318357
 20
54.90464031116854
 10
51.0565107141864
 20
54.82985142229818
 10
51.48654682519001
 20
54.73319031121143
 10
51.91234960286147
 20
54.61536253346285
 10
52.01818293616808
 20
54.58290697791554
 10
52.12436904725278
 20
54.54833475570197
 10
52.17693293612865
 20
54.53069586681743
 10
52.2294968250042
 20
54.51270420015545
 10
52.28206071388007
 20
54.49471253349314
 10
52.33462460275561
 20
54.4763680890534
 10
52.54311626937028
 20
54.39840420018384
 10
52.74843293598574
 20
54.3162069779821
 10
53.15236349144015
 20
54.13770142247138
 10
53.54465238023099
 20
53.93944031140987
 10
53.9274162690242
 20
53.72318753368606
 10
54.29889126893129
 20
53.48753197818954
 10
54.4816301577745
 20
53.36300142266509
 10
54.6604884910633
 20
53.23317920047518
 10
54.74974126881867
 20
53.16685697826951
 10
54.8375829354633
 20
53.0984180893979
 10
54.92471904655273
 20
53.02962642274821
 10
55.01114960208663
 20
52.95942364498813
 10
55.34664126866944
 20
52.67014586728277
 10
55.66590515747843
 20
52.36640420069176
 10
55.96894126851392
 20
52.04819864521606
 10
56.25610237955302
 20
51.71588197863215
 10
56.52703571281863
 20
51.36839586760803
 10
56.78174126831074
 20
51.00715142325377
 10
56.84277182385096
 20
50.9147236454992
 10
56.90344960161374
 20
50.82123753441167
 10
56.96201071270994
 20
50.72634031221308
 10
57.01986626825128
 20
50.63144309001451
 10
57.13134404600111
 20
50.43988475672918
 10
57.23823571264102
 20
50.24620975677761
 10
57.43649682370253
 20
49.85286253465348
 10
57.6146496014358
 20
49.45104864586532
 10
57.77339960139606
 20
49.04076809041217
 10
57.91168849025031
 20
48.62237364607243
 10
57.9737773791238
 20
48.41035420168079
 10
58.03022182355409
 20
48.19586531284579
 10
58.05703293465851
 20
48.08756253509484
 10
58.08208015687444
 20
47.97925975734421
 10
58.10571626797965
 20
47.87025142403805
 10
58.12829404575189
 20
47.76124309073223
 10
58.2041412679552
 20
47.32485697973018
 10
58.25776349016403
 20
46.88776531317262
 10
58.29057182348911
 20
46.44890975772688
 10
58.30150793459747
 20
46.00934864672563
 10
58.29127737904431
 20
45.56767086905813
 10
58.25882182349699
 20
45.12564031361319
 10
58.24718015683311
 20
45.01486809141855
 10
58.23412737905851
 20
44.90409586922424
 10
58.22001626795125
 20
44.79402920258512
 10
58.20449404573263
 20
44.68360975816825
 10
58.16921626796387
 20
44.46488753600074
 10
58.12864682352965
 20
44.24792920272141
 10
58.03233849022034
 20
43.81789309171778
 10
57.91521626802728
 20
43.39385420293515
 10
57.77728015695078
 20
42.97581253637285
 10
57.61923571254574
 20
42.5641208698093
 10
57.53174682367855
 20
42.36056809208233
 10
57.43967182370173
 20
42.15877920324384
 10
57.41568293481877
 20
42.10833198103422
 10
57.39098849038061
 20
42.05823753660236
 10
57.36699960149763
 20
42.0081430921705
 10
57.34159960150395
 20
41.95875420329385
 10
57.29115237929432
 20
41.85927086998534
 10
57.23964682375174
 20
41.7615514255653
 10
57.02233571269497
 20
41.37737642566136
 10
56.78668015719844
 20
41.00554864797651
 10
56.53409126837257
 20
40.64571531473331
 10
56.26386349066248
 20
40.29893475926438
 10
55.97599682406753
 20
39.96450142601455
 10
55.66978571303316
 20
39.64312087053932
 10
55.34875793533569
 20
39.33655698172718
 10
55.01432460208586
 20
39.04833753735479
 10
54.66824960217245
 20
38.77775698186694
 10
54.30912182448444
 20
38.52410975970811
 10
53.93764682457735
 20
38.28880698198903
 10
53.55382460245087
 20
38.07043753759928
 10
53.4557523802534
 20
38.01857920427894
 10
53.35697460250008
 20
37.96777920429156
 10
53.30688015806821
 20
37.94308475985339
 10
53.25749126919156
 20
37.91874309319266
 10
53.20704404698194
 20
37.89404864875449
 10
53.15730238032784
 20
37.87041253764929
 10
52.9551607137116
 20
37.7772792043392
 10
52.75160793598494
 20
37.69014309324977
 10
52.33991626942107
 20
37.53068753773432
 10
51.92222738063654
 20
37.39239864887974
 10
51.49854126963134
 20
37.27457087113148
 10
51.06921071418325
 20
37.17790976004473
 10
50.85189960312646
 20
37.13734031561018
 10
50.63353015873673
 20
37.10170976006366
 10
50.52346349209729
 20
37.0858347600676
 10
50.41304404768073
 20
37.07137087118227
 10
50.30262460326386
 20
37.05831809340767
 10
50.19149960329146
 20
37.04702920452187
 10
49.74699960340283
 20
37.01386809341902
 10
49.30179404795835
 20
37.00293198231066
  0
LINE
  5
19E
330
70
100
AcDbEntity
  8
Standardebene
 62
     7
370
    35
100
AcDbLine
 10
30.80177460813898
 20
21.00269587519944
 30
0.0
 11
59.80187182311116
 21
21.00269587519944
 31
0.0
  0
LINE
  5
19F
330
70
100
AcDbEntity
  8
Standardebene
 62
     7
370
    35
100
AcDbLine
 10
59.80187182311116
 20
71.00259586269946
 30
0.0
 11
30.80177460813898
 21
71.00259586269946
 31
0.0
  0
LWPOLYLINE
  5
1A0
330
70
100
AcDbEntity
  8
Standardebene
 62
     7
370
    35
100
AcDbPolyline
 90
        7
 70
     0
 43
0.0
 10
49.30179404795835
 20
55.00377086669928
 10
49.30179404795835
 20
52.03726253410739
 10
49.30179404795835
 20
49.02947920152605
 10
49.30179404795835
 20
46.00017642450576
 10
49.30179404795835
 20
42.97122642526292
 10
49.30179404795835
 20
39.96273753712606
 10
49.30179404795835
 20
36.99658198231225
  0
LWPOLYLINE
  5
1A1
330
70
100
AcDbEntity
  8
Standardebene
 62
     7
370
    35
100
AcDbPolyline
 90
        7
 70
     0
 43
0.0
 10
51.05192460307646
 20
54.83408475563067
 10
51.05192460307646
 20
51.92366808969161
 10
51.05192460307646
 20
48.97726809042794
 10
51.05192460307646
 20
46.01252364672484
 10
51.05192460307646
 20
43.04848475857695
 10
51.05192460307646
 20
40.10173198153584
 10
51.05192460307646
 20
37.19060976004126
  0
LINE
  5
1A2
330
70
100
AcDbEntity
  8
Standardebene
 62
     7
370
    35
100
AcDbLine
 10
68.68587459866794
 20
21.00269587519944
 30
0.0
 11
68.68587459866794
 21
71.00259586269946
 31
0.0
  0
LINE
  5
1A3
330
70
100
AcDbEntity
  8
Standardebene
 62
     7
370
     9
100
AcDbLine
 10
155.3764273547731
 20
214.0283806054758
 30
0.0
 11
193.6598717896465
 21
214.0283806054758
 31
0.0
  0
LINE
  5
1A4
330
70
100
AcDbEntity
  8
Standardebene
 62
     7
370
     9
100
AcDbLine
 10
81.30156070662527
 20
214.0283806054758
 30
0.0
 11
93.30129681473625
 21
214.0283806054758
 31
0.0
  0
LWPOLYLINE
  5
1A5
330
70
100
AcDbEntity
  8
Standardebene
  6
AI-Linetype-10
 62
     7
370
     9
100
AcDbPolyline
 90
        5
 70
     0
 43
0.0
 10
73.30126626418094
 20
214.0283806054758
 10
81.30156070662527
 20
214.0283806054758
 10
81.30156070662527
 20
119.0281472958923
 10
73.30126626418094
 20
119.0281472958923
 10
73.30126626418094
 20
214.0283806054758
  0
LWPOLYLINE
  5
1A7
330
70
100
AcDbEntity
  8
Standardebene
  6
AI-Linetype-11
 62
     7
370
     9
100
AcDbPolyline
 90
        3
 70
     0
 43
0.0
 10
147.3761329123288
 20
195.7407333878255
 10
147.3761329123288
 20
214.0283806054758
 10
155.3764273547731
 20
214.0283806054758
  0
LINE
  5
1A9
330
70
100
AcDbEntity
  8
Standardebene
  6
AI-Linetype-12
 62
     7
370
     9
100
AcDbLine
 10
155.3764273547731
 20
196.0271889433094
 30
0.0
 11
155.3764273547731
 21
214.0283806054758
 31
0.0
  0
LINE
  5
1AB
330
70
100
AcDbEntity
  8
Standardebene
  6
AI-Linetype-13
 62
     7
370
     9
100
AcDbLine
 10
81.30156070662527
 20
46.00229309117169
 30
0.0
 11
81.30156070662527
 21
54.00223475583858
 31
0.0
  0
LINE
  5
1AD
330
70
100
AcDbEntity
  8
Standardebene
  6
AI-Linetype-14
 62
     7
370
     9
100
AcDbLine
 10
73.30126626418094
 20
54.00223475583858
 30
0.0
 11
73.30126626418094
 21
46.00229309117169
 31
0.0
  0
LINE
  5
1B0
330
70
100
AcDbEntity
  8
Bemaßung
 62
     7
370
     9
100
AcDbLine
 10
58.80174682336118
 20
128.2952667380201
 30
0.0
 11
58.80174682336118
 21
89.6054267727578
 31
0.0
  0
LINE
  5
1B1
330
70
100
AcDbEntity
  8
Bemaßung
 62
     7
370
     9
100
AcDbLine
 10
58.80174682336118
 20
90.6176093006308
 30
0.0
 11
73.30126626418094
 21
90.6176093006308
 31
0.0
  0
LWPOLYLINE
  5
1B2
330
70
100
AcDbEntity
  8
Bemaßung
 62
     7
370
     9
100
AcDbPolyline
 90
        4
 70
     0
 43
0.0
 10
58.80174682336118
 20
90.6176093006308
 10
62.30130237804186
 20
90.15688152296835
 10
62.30130237804186
 20
91.07868985607133
 10
58.80174682336118
 20
90.6176093006308
  0
LINE
  5
1B3
330
70
100
AcDbEntity
  8
Bemaßung
 62
     7
370
     9
100
AcDbLine
 10
62.30130237804186
 20
90.16040930074533
 30
0.0
 11
62.27413848915968
 21
90.16040930074533
 31
0.0
  0
LINE
  5
1B4
330
70
100
AcDbEntity
  8
Bemaßung
 62
     7
370
     9
100
AcDbLine
 10
62.30130237804186
 20
90.16040930074533
 30
0.0
 11
62.27413848915968
 21
90.16040930074533
 31
0.0
  0
LINE
  5
1B5
330
70
100
AcDbEntity
  8
Bemaßung
 62
     7
370
     9
100
AcDbLine
 10
62.30130237804186
 20
90.21120930073237
 30
0.0
 11
61.88855237814503
 21
90.21120930073237
 31
0.0
  0
LINE
  5
1B6
330
70
100
AcDbEntity
  8
Bemaßung
 62
     7
370
     9
100
AcDbLine
 10
62.30130237804186
 20
90.26200930071977
 30
0.0
 11
61.50296626713037
 21
90.26200930071977
 31
0.0
  0
LINE
  5
1B7
330
70
100
AcDbEntity
  8
Bemaßung
 62
     7
370
     9
100
AcDbLine
 10
62.30130237804186
 20
90.31280930070714
 30
0.0
 11
61.11702737833795
 21
90.31280930070714
 31
0.0
  0
LINE
  5
1B8
330
70
100
AcDbEntity
  8
Bemaßung
 62
     7
370
     9
100
AcDbLine
 10
62.30130237804186
 20
90.36360930069454
 30
0.0
 11
60.73073571176776
 21
90.36360930069454
 31
0.0
  0
LINE
  5
1B9
330
70
100
AcDbEntity
  8
Bemaßung
 62
     7
370
     9
100
AcDbLine
 10
62.30130237804186
 20
90.41440930068191
 30
0.0
 11
60.3451496007531
 21
90.41440930068191
 31
0.0
  0
LINE
  5
1BA
330
70
100
AcDbEntity
  8
Bemaßung
 62
     7
370
     9
100
AcDbLine
 10
62.30130237804186
 20
90.46520930066897
 30
0.0
 11
59.95956348973844
 21
90.46520930066897
 31
0.0
  0
LINE
  5
1BB
330
70
100
AcDbEntity
  8
Bemaßung
 62
     7
370
     9
100
AcDbLine
 10
62.30130237804186
 20
90.51600930065635
 30
0.0
 11
59.57362460094602
 21
90.51600930065635
 31
0.0
  0
LINE
  5
1BC
330
70
100
AcDbEntity
  8
Bemaßung
 62
     7
370
     9
100
AcDbLine
 10
62.30130237804186
 20
90.56680930064374
 30
0.0
 11
59.18733293437584
 21
90.56680930064374
 31
0.0
  0
LINE
  5
1BD
330
70
100
AcDbEntity
  8
Bemaßung
 62
     7
370
     9
100
AcDbLine
 10
62.30130237804186
 20
90.6176093006308
 30
0.0
 11
58.80174682336118
 21
90.6176093006308
 31
0.0
  0
LINE
  5
1BE
330
70
100
AcDbEntity
  8
Bemaßung
 62
     7
370
     9
100
AcDbLine
 10
62.30130237804186
 20
91.07516207829435
 30
0.0
 11
62.27413848915968
 21
91.07516207829435
 31
0.0
  0
LINE
  5
1BF
330
70
100
AcDbEntity
  8
Bemaßung
 62
     7
370
     9
100
AcDbLine
 10
62.30130237804186
 20
91.07516207829435
 30
0.0
 11
62.27413848915968
 21
91.07516207829435
 31
0.0
  0
LINE
  5
1C0
330
70
100
AcDbEntity
  8
Bemaßung
 62
     7
370
     9
100
AcDbLine
 10
62.30130237804186
 20
91.02436207830697
 30
0.0
 11
61.88855237814503
 21
91.02436207830697
 31
0.0
  0
LINE
  5
1C1
330
70
100
AcDbEntity
  8
Bemaßung
 62
     7
370
     9
100
AcDbLine
 10
62.30130237804186
 20
90.97356207831959
 30
0.0
 11
61.50296626713037
 21
90.97356207831959
 31
0.0
  0
LINE
  5
1C2
330
70
100
AcDbEntity
  8
Bemaßung
 62
     7
370
     9
100
AcDbLine
 10
62.30130237804186
 20
90.92276207833254
 30
0.0
 11
61.11702737833795
 21
90.92276207833254
 31
0.0
  0
LINE
  5
1C3
330
70
100
AcDbEntity
  8
Bemaßung
 62
     7
370
     9
100
AcDbLine
 10
62.30130237804186
 20
90.87196207834514
 30
0.0
 11
60.73073571176776
 21
90.87196207834514
 31
0.0
  0
LINE
  5
1C4
330
70
100
AcDbEntity
  8
Bemaßung
 62
     7
370
     9
100
AcDbLine
 10
62.30130237804186
 20
90.82116207835777
 30
0.0
 11
60.3451496007531
 21
90.82116207835777
 31
0.0
  0
LINE
  5
1C5
330
70
100
AcDbEntity
  8
Bemaßung
 62
     7
370
     9
100
AcDbLine
 10
62.30130237804186
 20
90.77036207837071
 30
0.0
 11
59.95956348973844
 21
90.77036207837071
 31
0.0
  0
LINE
  5
1C6
330
70
100
AcDbEntity
  8
Bemaßung
 62
     7
370
     9
100
AcDbLine
 10
62.30130237804186
 20
90.71956207838331
 30
0.0
 11
59.57362460094602
 21
90.71956207838331
 31
0.0
  0
LINE
  5
1C7
330
70
100
AcDbEntity
  8
Bemaßung
 62
     7
370
     9
100
AcDbLine
 10
62.30130237804186
 20
90.66876207839595
 30
0.0
 11
59.18733293437584
 21
90.66876207839595
 31
0.0
  0
LINE
  5
1C8
330
70
100
AcDbEntity
  8
Bemaßung
 62
     7
370
     9
100
AcDbLine
 10
62.30130237804186
 20
90.6176093006308
 30
0.0
 11
58.80174682336118
 21
90.6176093006308
 31
0.0
  0
LWPOLYLINE
  5
1C9
330
70
100
AcDbEntity
  8
Bemaßung
 62
     7
370
     9
100
AcDbPolyline
 90
        4
 70
     0
 43
0.0
 10
73.30126626418094
 20
90.6176093006308
 10
69.80171070950025
 20
91.07868985607133
 10
69.80171070950025
 20
90.15688152296835
 10
73.30126626418094
 20
90.6176093006308
  0
LINE
  5
1CA
330
70
100
AcDbEntity
  8
Bemaßung
 62
     7
370
     9
100
AcDbLine
 10
69.80171070950025
 20
91.07516207829435
 30
0.0
 11
69.8288745983821
 21
91.07516207829435
 31
0.0
  0
LINE
  5
1CB
330
70
100
AcDbEntity
  8
Bemaßung
 62
     7
370
     9
100
AcDbLine
 10
69.80171070950025
 20
91.07516207829435
 30
0.0
 11
69.8288745983821
 21
91.07516207829435
 31
0.0
  0
LINE
  5
1CC
330
70
100
AcDbEntity
  8
Bemaßung
 62
     7
370
     9
100
AcDbLine
 10
69.80171070950025
 20
91.02436207830697
 30
0.0
 11
70.21446070939709
 21
91.02436207830697
 31
0.0
  0
LINE
  5
1CD
330
70
100
AcDbEntity
  8
Bemaßung
 62
     7
370
     9
100
AcDbLine
 10
69.80171070950025
 20
90.97356207831959
 30
0.0
 11
70.60075237596695
 21
90.97356207831959
 31
0.0
  0
LINE
  5
1CE
330
70
100
AcDbEntity
  8
Bemaßung
 62
     7
370
     9
100
AcDbLine
 10
69.80171070950025
 20
90.92276207833254
 30
0.0
 11
70.98633848698161
 21
90.92276207833254
 31
0.0
  0
LINE
  5
1CF
330
70
100
AcDbEntity
  8
Bemaßung
 62
     7
370
     9
100
AcDbLine
 10
69.80171070950025
 20
90.87196207834514
 30
0.0
 11
71.3726301535518
 21
90.87196207834514
 31
0.0
  0
LINE
  5
1D0
330
70
100
AcDbEntity
  8
Bemaßung
 62
     7
370
     9
100
AcDbLine
 10
69.80171070950025
 20
90.82116207835777
 30
0.0
 11
71.75786348678902
 21
90.82116207835777
 31
0.0
  0
LINE
  5
1D1
330
70
100
AcDbEntity
  8
Bemaßung
 62
     7
370
     9
100
AcDbLine
 10
69.80171070950025
 20
90.77036207837071
 30
0.0
 11
72.14415515335888
 21
90.77036207837071
 31
0.0
  0
LINE
  5
1D2
330
70
100
AcDbEntity
  8
Bemaßung
 62
     7
370
     9
100
AcDbLine
 10
69.80171070950025
 20
90.71956207838331
 30
0.0
 11
72.52974126437354
 21
90.71956207838331
 31
0.0
  0
LINE
  5
1D3
330
70
100
AcDbEntity
  8
Bemaßung
 62
     7
370
     9
100
AcDbLine
 10
69.80171070950025
 20
90.66876207839595
 30
0.0
 11
72.91603293094373
 21
90.66876207839595
 31
0.0
  0
LINE
  5
1D4
330
70
100
AcDbEntity
  8
Bemaßung
 62
     7
370
     9
100
AcDbLine
 10
69.80171070950025
 20
90.6176093006308
 30
0.0
 11
73.30126626418094
 21
90.6176093006308
 31
0.0
  0
LINE
  5
1D5
330
70
100
AcDbEntity
  8
Bemaßung
 62
     7
370
     9
100
AcDbLine
 10
69.80171070950025
 20
90.16040930074533
 30
0.0
 11
69.8288745983821
 21
90.16040930074533
 31
0.0
  0
LINE
  5
1D6
330
70
100
AcDbEntity
  8
Bemaßung
 62
     7
370
     9
100
AcDbLine
 10
69.80171070950025
 20
90.16040930074533
 30
0.0
 11
69.8288745983821
 21
90.16040930074533
 31
0.0
  0
LINE
  5
1D7
330
70
100
AcDbEntity
  8
Bemaßung
 62
     7
370
     9
100
AcDbLine
 10
69.80171070950025
 20
90.21120930073237
 30
0.0
 11
70.21446070939709
 21
90.21120930073237
 31
0.0
  0
LINE
  5
1D8
330
70
100
AcDbEntity
  8
Bemaßung
 62
     7
370
     9
100
AcDbLine
 10
69.80171070950025
 20
90.26200930071977
 30
0.0
 11
70.60075237596695
 21
90.26200930071977
 31
0.0
  0
LINE
  5
1D9
330
70
100
AcDbEntity
  8
Bemaßung
 62
     7
370
     9
100
AcDbLine
 10
69.80171070950025
 20
90.31280930070714
 30
0.0
 11
70.98633848698161
 21
90.31280930070714
 31
0.0
  0
LINE
  5
1DA
330
70
100
AcDbEntity
  8
Bemaßung
 62
     7
370
     9
100
AcDbLine
 10
69.80171070950025
 20
90.36360930069454
 30
0.0
 11
71.3726301535518
 21
90.36360930069454
 31
0.0
  0
LINE
  5
1DB
330
70
100
AcDbEntity
  8
Bemaßung
 62
     7
370
     9
100
AcDbLine
 10
69.80171070950025
 20
90.41440930068191
 30
0.0
 11
71.75786348678902
 21
90.41440930068191
 31
0.0
  0
LINE
  5
1DC
330
70
100
AcDbEntity
  8
Bemaßung
 62
     7
370
     9
100
AcDbLine
 10
69.80171070950025
 20
90.46520930066897
 30
0.0
 11
72.14415515335888
 21
90.46520930066897
 31
0.0
  0
LINE
  5
1DD
330
70
100
AcDbEntity
  8
Bemaßung
 62
     7
370
     9
100
AcDbLine
 10
69.80171070950025
 20
90.51600930065635
 30
0.0
 11
72.52974126437354
 21
90.51600930065635
 31
0.0
  0
LINE
  5
1DE
330
70
100
AcDbEntity
  8
Bemaßung
 62
     7
370
     9
100
AcDbLine
 10
69.80171070950025
 20
90.56680930064374
 30
0.0
 11
72.91603293094373
 21
90.56680930064374
 31
0.0
  0
LINE
  5
1DF
330
70
100
AcDbEntity
  8
Bemaßung
 62
     7
370
     9
100
AcDbLine
 10
69.80171070950025
 20
90.6176093006308
 30
0.0
 11
73.30126626418094
 21
90.6176093006308
 31
0.0
  0
LINE
  5
1E0
330
70
100
AcDbEntity
  8
Bemaßung
 62
     7
370
     9
100
AcDbLine
 10
71.80196070900021
 20
115.1408889635307
 30
0.0
 11
71.80196070900021
 21
99.16816952307948
 31
0.0
  0
LINE
  5
1E1
330
70
100
AcDbEntity
  8
Bemaßung
 62
     7
370
     9
100
AcDbLine
 10
58.80174682336118
 20
101.1680667448016
 30
0.0
 11
71.80196070900021
 21
101.1680667448016
 31
0.0
  0
LWPOLYLINE
  5
1E2
330
70
100
AcDbEntity
  8
Bemaßung
 62
     7
370
     9
100
AcDbPolyline
 90
        4
 70
     0
 43
0.0
 10
58.80174682336118
 20
101.1680667448016
 10
62.30130237804186
 20
100.7073389671392
 10
62.30130237804186
 20
101.6291473002422
 10
58.80174682336118
 20
101.1680667448016
  0
LINE
  5
1E3
330
70
100
AcDbEntity
  8
Bemaßung
 62
     7
370
     9
100
AcDbLine
 10
62.30130237804186
 20
100.7108667449162
 30
0.0
 11
62.27413848915968
 21
100.7108667449162
 31
0.0
  0
LINE
  5
1E4
330
70
100
AcDbEntity
  8
Bemaßung
 62
     7
370
     9
100
AcDbLine
 10
62.30130237804186
 20
100.7108667449162
 30
0.0
 11
62.27413848915968
 21
100.7108667449162
 31
0.0
  0
LINE
  5
1E5
330
70
100
AcDbEntity
  8
Bemaßung
 62
     7
370
     9
100
AcDbLine
 10
62.30130237804186
 20
100.7616667449036
 30
0.0
 11
61.88855237814503
 21
100.7616667449036
 31
0.0
  0
LINE
  5
1E6
330
70
100
AcDbEntity
  8
Bemaßung
 62
     7
370
     9
100
AcDbLine
 10
62.30130237804186
 20
100.8124667448906
 30
0.0
 11
61.50296626713037
 21
100.8124667448906
 31
0.0
  0
LINE
  5
1E7
330
70
100
AcDbEntity
  8
Bemaßung
 62
     7
370
     9
100
AcDbLine
 10
62.30130237804186
 20
100.863266744878
 30
0.0
 11
61.11702737833795
 21
100.863266744878
 31
0.0
  0
LINE
  5
1E8
330
70
100
AcDbEntity
  8
Bemaßung
 62
     7
370
     9
100
AcDbLine
 10
62.30130237804186
 20
100.9144195226428
 30
0.0
 11
60.73073571176776
 21
100.9144195226428
 31
0.0
  0
LINE
  5
1E9
330
70
100
AcDbEntity
  8
Bemaßung
 62
     7
370
     9
100
AcDbLine
 10
62.30130237804186
 20
100.9652195226302
 30
0.0
 11
60.3451496007531
 21
100.9652195226302
 31
0.0
  0
LINE
  5
1EA
330
70
100
AcDbEntity
  8
Bemaßung
 62
     7
370
     9
100
AcDbLine
 10
62.30130237804186
 20
101.0160195226176
 30
0.0
 11
59.95956348973844
 21
101.0160195226176
 31
0.0
  0
LINE
  5
1EB
330
70
100
AcDbEntity
  8
Bemaßung
 62
     7
370
     9
100
AcDbLine
 10
62.30130237804186
 20
101.066819522605
 30
0.0
 11
59.57362460094602
 21
101.066819522605
 31
0.0
  0
LINE
  5
1EC
330
70
100
AcDbEntity
  8
Bemaßung
 62
     7
370
     9
100
AcDbLine
 10
62.30130237804186
 20
101.1176195225923
 30
0.0
 11
59.18733293437584
 21
101.1176195225923
 31
0.0
  0
LINE
  5
1ED
330
70
100
AcDbEntity
  8
Bemaßung
 62
     7
370
     9
100
AcDbLine
 10
62.30130237804186
 20
101.1680667448016
 30
0.0
 11
58.80174682336118
 21
101.1680667448016
 31
0.0
  0
LINE
  5
1EE
330
70
100
AcDbEntity
  8
Bemaßung
 62
     7
370
     9
100
AcDbLine
 10
62.30130237804186
 20
101.6256195224652
 30
0.0
 11
62.27413848915968
 21
101.6256195224652
 31
0.0
  0
LINE
  5
1EF
330
70
100
AcDbEntity
  8
Bemaßung
 62
     7
370
     9
100
AcDbLine
 10
62.30130237804186
 20
101.6256195224652
 30
0.0
 11
62.27413848915968
 21
101.6256195224652
 31
0.0
  0
LINE
  5
1F0
330
70
100
AcDbEntity
  8
Bemaßung
 62
     7
370
     9
100
AcDbLine
 10
62.30130237804186
 20
101.5748195224778
 30
0.0
 11
61.88855237814503
 21
101.5748195224778
 31
0.0
  0
LINE
  5
1F1
330
70
100
AcDbEntity
  8
Bemaßung
 62
     7
370
     9
100
AcDbLine
 10
62.30130237804186
 20
101.5240195224905
 30
0.0
 11
61.50296626713037
 21
101.5240195224905
 31
0.0
  0
LINE
  5
1F2
330
70
100
AcDbEntity
  8
Bemaßung
 62
     7
370
     9
100
AcDbLine
 10
62.30130237804186
 20
101.4732195225034
 30
0.0
 11
61.11702737833795
 21
101.4732195225034
 31
0.0
  0
LINE
  5
1F3
330
70
100
AcDbEntity
  8
Bemaßung
 62
     7
370
     9
100
AcDbLine
 10
62.30130237804186
 20
101.422419522516
 30
0.0
 11
60.73073571176776
 21
101.422419522516
 31
0.0
  0
LINE
  5
1F4
330
70
100
AcDbEntity
  8
Bemaßung
 62
     7
370
     9
100
AcDbLine
 10
62.30130237804186
 20
101.3712667447508
 30
0.0
 11
60.3451496007531
 21
101.3712667447508
 31
0.0
  0
LINE
  5
1F5
330
70
100
AcDbEntity
  8
Bemaßung
 62
     7
370
     9
100
AcDbLine
 10
62.30130237804186
 20
101.3204667447638
 30
0.0
 11
59.95956348973844
 21
101.3204667447638
 31
0.0
  0
LINE
  5
1F6
330
70
100
AcDbEntity
  8
Bemaßung
 62
     7
370
     9
100
AcDbLine
 10
62.30130237804186
 20
101.2696667447764
 30
0.0
 11
59.57362460094602
 21
101.2696667447764
 31
0.0
  0
LINE
  5
1F7
330
70
100
AcDbEntity
  8
Bemaßung
 62
     7
370
     9
100
AcDbLine
 10
62.30130237804186
 20
101.218866744789
 30
0.0
 11
59.18733293437584
 21
101.218866744789
 31
0.0
  0
LINE
  5
1F8
330
70
100
AcDbEntity
  8
Bemaßung
 62
     7
370
     9
100
AcDbLine
 10
62.30130237804186
 20
101.1680667448016
 30
0.0
 11
58.80174682336118
 21
101.1680667448016
 31
0.0
  0
LWPOLYLINE
  5
1F9
330
70
100
AcDbEntity
  8
Bemaßung
 62
     7
370
     9
100
AcDbPolyline
 90
        4
 70
     0
 43
0.0
 10
71.80196070900021
 20
101.1680667448016
 10
68.30134682098623
 20
101.6291473002422
 10
68.30134682098623
 20
100.7073389671392
 10
71.80196070900021
 20
101.1680667448016
  0
LINE
  5
1FA
330
70
100
AcDbEntity
  8
Bemaßung
 62
     7
370
     9
100
AcDbLine
 10
68.30134682098623
 20
101.6256195224652
 30
0.0
 11
68.32851070986841
 21
101.6256195224652
 31
0.0
  0
LINE
  5
1FB
330
70
100
AcDbEntity
  8
Bemaßung
 62
     7
370
     9
100
AcDbLine
 10
68.30134682098623
 20
101.6256195224652
 30
0.0
 11
68.32851070986841
 21
101.6256195224652
 31
0.0
  0
LINE
  5
1FC
330
70
100
AcDbEntity
  8
Bemaßung
 62
     7
370
     9
100
AcDbLine
 10
68.30134682098623
 20
101.5748195224778
 30
0.0
 11
68.7148023764386
 21
101.5748195224778
 31
0.0
  0
LINE
  5
1FD
330
70
100
AcDbEntity
  8
Bemaßung
 62
     7
370
     9
100
AcDbLine
 10
68.30134682098623
 20
101.5240195224905
 30
0.0
 11
69.10038848745326
 21
101.5240195224905
 31
0.0
  0
LINE
  5
1FE
330
70
100
AcDbEntity
  8
Bemaßung
 62
     7
370
     9
100
AcDbLine
 10
68.30134682098623
 20
101.4732195225034
 30
0.0
 11
69.48668015402344
 21
101.4732195225034
 31
0.0
  0
LINE
  5
1FF
330
70
100
AcDbEntity
  8
Bemaßung
 62
     7
370
     9
100
AcDbLine
 10
68.30134682098623
 20
101.422419522516
 30
0.0
 11
69.87226626503811
 21
101.422419522516
 31
0.0
  0
LINE
  5
200
330
70
100
AcDbEntity
  8
Bemaßung
 62
     7
370
     9
100
AcDbLine
 10
68.30134682098623
 20
101.3712667447508
 30
0.0
 11
70.25820515383053
 21
101.3712667447508
 31
0.0
  0
LINE
  5
201
330
70
100
AcDbEntity
  8
Bemaßung
 62
     7
370
     9
100
AcDbLine
 10
68.30134682098623
 20
101.3204667447638
 30
0.0
 11
70.64379126484519
 21
101.3204667447638
 31
0.0
  0
LINE
  5
202
330
70
100
AcDbEntity
  8
Bemaßung
 62
     7
370
     9
100
AcDbLine
 10
68.30134682098623
 20
101.2696667447764
 30
0.0
 11
71.03008293141536
 21
101.2696667447764
 31
0.0
  0
LINE
  5
203
330
70
100
AcDbEntity
  8
Bemaßung
 62
     7
370
     9
100
AcDbLine
 10
68.30134682098623
 20
101.218866744789
 30
0.0
 11
71.41566904243003
 21
101.218866744789
 31
0.0
  0
LINE
  5
204
330
70
100
AcDbEntity
  8
Bemaßung
 62
     7
370
     9
100
AcDbLine
 10
68.30134682098623
 20
101.1680667448016
 30
0.0
 11
71.80196070900021
 21
101.1680667448016
 31
0.0
  0
LINE
  5
205
330
70
100
AcDbEntity
  8
Bemaßung
 62
     7
370
     9
100
AcDbLine
 10
68.30134682098623
 20
100.7108667449162
 30
0.0
 11
68.32851070986841
 21
100.7108667449162
 31
0.0
  0
LINE
  5
206
330
70
100
AcDbEntity
  8
Bemaßung
 62
     7
370
     9
100
AcDbLine
 10
68.30134682098623
 20
100.7108667449162
 30
0.0
 11
68.32851070986841
 21
100.7108667449162
 31
0.0
  0
LINE
  5
207
330
70
100
AcDbEntity
  8
Bemaßung
 62
     7
370
     9
100
AcDbLine
 10
68.30134682098623
 20
100.7616667449036
 30
0.0
 11
68.7148023764386
 21
100.7616667449036
 31
0.0
  0
LINE
  5
208
330
70
100
AcDbEntity
  8
Bemaßung
 62
     7
370
     9
100
AcDbLine
 10
68.30134682098623
 20
100.8124667448906
 30
0.0
 11
69.10038848745326
 21
100.8124667448906
 31
0.0
  0
LINE
  5
209
330
70
100
AcDbEntity
  8
Bemaßung
 62
     7
370
     9
100
AcDbLine
 10
68.30134682098623
 20
100.863266744878
 30
0.0
 11
69.48668015402344
 21
100.863266744878
 31
0.0
  0
LINE
  5
20A
330
70
100
AcDbEntity
  8
Bemaßung
 62
     7
370
     9
100
AcDbLine
 10
68.30134682098623
 20
100.9144195226428
 30
0.0
 11
69.87226626503811
 21
100.9144195226428
 31
0.0
  0
LINE
  5
20B
330
70
100
AcDbEntity
  8
Bemaßung
 62
     7
370
     9
100
AcDbLine
 10
68.30134682098623
 20
100.9652195226302
 30
0.0
 11
70.25820515383053
 21
100.9652195226302
 31
0.0
  0
LINE
  5
20C
330
70
100
AcDbEntity
  8
Bemaßung
 62
     7
370
     9
100
AcDbLine
 10
68.30134682098623
 20
101.0160195226176
 30
0.0
 11
70.64379126484519
 21
101.0160195226176
 31
0.0
  0
LINE
  5
20D
330
70
100
AcDbEntity
  8
Bemaßung
 62
     7
370
     9
100
AcDbLine
 10
68.30134682098623
 20
101.066819522605
 30
0.0
 11
71.03008293141536
 21
101.066819522605
 31
0.0
  0
LINE
  5
20E
330
70
100
AcDbEntity
  8
Bemaßung
 62
     7
370
     9
100
AcDbLine
 10
68.30134682098623
 20
101.1176195225923
 30
0.0
 11
71.41566904243003
 21
101.1176195225923
 31
0.0
  0
LINE
  5
20F
330
70
100
AcDbEntity
  8
Bemaßung
 62
     7
370
     9
100
AcDbLine
 10
68.30134682098623
 20
101.1680667448016
 30
0.0
 11
71.80196070900021
 21
101.1680667448016
 31
0.0
  0
LINE
  5
210
330
70
100
AcDbEntity
  8
Bemaßung
 62
     7
370
     9
100
AcDbLine
 10
169.6261801289884
 20
84.02835841575326
 30
0.0
 11
193.6598717896465
 21
84.02835841575326
 31
0.0
  0
LINE
  5
211
330
70
100
AcDbEntity
  8
Bemaßung
 62
     7
370
     9
100
AcDbLine
 10
191.6599745679243
 20
84.02835841575326
 30
0.0
 11
191.6599745679243
 21
214.0283806054758
 31
0.0
  0
LWPOLYLINE
  5
212
330
70
100
AcDbEntity
  8
Bemaßung
 62
     7
370
     9
100
AcDbPolyline
 90
        4
 70
     0
 43
0.0
 10
191.6599745679243
 20
84.02835841575326
 10
192.1210551233648
 20
87.52826674821172
 10
191.1995995680396
 20
87.52826674821172
 10
191.6599745679243
 20
84.02835841575326
  0
LINE
  5
213
330
70
100
AcDbEntity
  8
Bemaßung
 62
     7
370
     9
100
AcDbLine
 10
192.1175273455879
 20
87.52826674821172
 30
0.0
 11
192.1175273455879
 21
87.50110285932953
 31
0.0
  0
LINE
  5
214
330
70
100
AcDbEntity
  8
Bemaßung
 62
     7
370
     9
100
AcDbLine
 10
192.1175273455879
 20
87.52826674821172
 30
0.0
 11
192.1175273455879
 21
87.50110285932953
 31
0.0
  0
LINE
  5
215
330
70
100
AcDbEntity
  8
Bemaßung
 62
     7
370
     9
100
AcDbLine
 10
192.0667273456005
 20
87.52826674821172
 30
0.0
 11
192.0667273456005
 21
87.11516397053712
 31
0.0
  0
LINE
  5
216
330
70
100
AcDbEntity
  8
Bemaßung
 62
     7
370
     9
100
AcDbLine
 10
192.0159273456131
 20
87.52826674821172
 30
0.0
 11
192.0159273456131
 21
86.72957785952245
 31
0.0
  0
LINE
  5
217
330
70
100
AcDbEntity
  8
Bemaßung
 62
     7
370
     9
100
AcDbLine
 10
191.965127345626
 20
87.52826674821172
 30
0.0
 11
191.965127345626
 21
86.34363897073003
 31
0.0
  0
LINE
  5
218
330
70
100
AcDbEntity
  8
Bemaßung
 62
     7
370
     9
100
AcDbLine
 10
191.9143273456386
 20
87.52826674821172
 30
0.0
 11
191.9143273456386
 21
85.95770008193762
 31
0.0
  0
LINE
  5
219
330
70
100
AcDbEntity
  8
Bemaßung
 62
     7
370
     9
100
AcDbLine
 10
191.8635273456512
 20
87.52826674821172
 30
0.0
 11
191.8635273456512
 21
85.57176119314519
 31
0.0
  0
LINE
  5
21A
330
70
100
AcDbEntity
  8
Bemaßung
 62
     7
370
     9
100
AcDbLine
 10
191.8123745678865
 20
87.52826674821172
 30
0.0
 11
191.8123745678865
 21
85.18617508213052
 31
0.0
  0
LINE
  5
21B
330
70
100
AcDbEntity
  8
Bemaßung
 62
     7
370
     9
100
AcDbLine
 10
191.7615745678991
 20
87.52826674821172
 30
0.0
 11
191.7615745678991
 21
84.80023619333811
 31
0.0
  0
LINE
  5
21C
330
70
100
AcDbEntity
  8
Bemaßung
 62
     7
370
     9
100
AcDbLine
 10
191.7107745679117
 20
87.52826674821172
 30
0.0
 11
191.7107745679117
 21
84.41429730454569
 31
0.0
  0
LINE
  5
21D
330
70
100
AcDbEntity
  8
Bemaßung
 62
     7
370
     9
100
AcDbLine
 10
191.6599745679243
 20
87.52826674821172
 30
0.0
 11
191.6599745679243
 21
84.02835841575326
 31
0.0
  0
LINE
  5
21E
330
70
100
AcDbEntity
  8
Bemaßung
 62
     7
370
     9
100
AcDbLine
 10
191.2031273458163
 20
87.52826674821172
 30
0.0
 11
191.2031273458163
 21
87.50110285932953
 31
0.0
  0
LINE
  5
21F
330
70
100
AcDbEntity
  8
Bemaßung
 62
     7
370
     9
100
AcDbLine
 10
191.2031273458163
 20
87.52826674821172
 30
0.0
 11
191.2031273458163
 21
87.50110285932953
 31
0.0
  0
LINE
  5
220
330
70
100
AcDbEntity
  8
Bemaßung
 62
     7
370
     9
100
AcDbLine
 10
191.2539273458037
 20
87.52826674821172
 30
0.0
 11
191.2539273458037
 21
87.11516397053712
 31
0.0
  0
LINE
  5
221
330
70
100
AcDbEntity
  8
Bemaßung
 62
     7
370
     9
100
AcDbLine
 10
191.3043745680132
 20
87.52826674821172
 30
0.0
 11
191.3043745680132
 21
86.72957785952245
 31
0.0
  0
LINE
  5
222
330
70
100
AcDbEntity
  8
Bemaßung
 62
     7
370
     9
100
AcDbLine
 10
191.3551745680006
 20
87.52826674821172
 30
0.0
 11
191.3551745680006
 21
86.34363897073003
 31
0.0
  0
LINE
  5
223
330
70
100
AcDbEntity
  8
Bemaßung
 62
     7
370
     9
100
AcDbLine
 10
191.405974567988
 20
87.52826674821172
 30
0.0
 11
191.405974567988
 21
85.95770008193762
 31
0.0
  0
LINE
  5
224
330
70
100
AcDbEntity
  8
Bemaßung
 62
     7
370
     9
100
AcDbLine
 10
191.4567745679751
 20
87.52826674821172
 30
0.0
 11
191.4567745679751
 21
85.57176119314519
 31
0.0
  0
LINE
  5
225
330
70
100
AcDbEntity
  8
Bemaßung
 62
     7
370
     9
100
AcDbLine
 10
191.5075745679625
 20
87.52826674821172
 30
0.0
 11
191.5075745679625
 21
85.18617508213052
 31
0.0
  0
LINE
  5
226
330
70
100
AcDbEntity
  8
Bemaßung
 62
     7
370
     9
100
AcDbLine
 10
191.5583745679498
 20
87.52826674821172
 30
0.0
 11
191.5583745679498
 21
84.80023619333811
 31
0.0
  0
LINE
  5
227
330
70
100
AcDbEntity
  8
Bemaßung
 62
     7
370
     9
100
AcDbLine
 10
191.6091745679372
 20
87.52826674821172
 30
0.0
 11
191.6091745679372
 21
84.41429730454569
 31
0.0
  0
LINE
  5
228
330
70
100
AcDbEntity
  8
Bemaßung
 62
     7
370
     9
100
AcDbLine
 10
191.6599745679243
 20
87.52826674821172
 30
0.0
 11
191.6599745679243
 21
84.02835841575326
 31
0.0
  0
LWPOLYLINE
  5
229
330
70
100
AcDbEntity
  8
Bemaßung
 62
     7
370
     9
100
AcDbPolyline
 90
        4
 70
     0
 43
0.0
 10
191.6599745679243
 20
214.0283806054758
 10
191.1995995680396
 20
210.5281194952396
 10
192.1210551233648
 20
210.5281194952396
 10
191.6599745679243
 20
214.0283806054758
  0
LINE
  5
22A
330
70
100
AcDbEntity
  8
Bemaßung
 62
     7
370
     9
100
AcDbLine
 10
191.2031273458163
 20
210.5281194952396
 30
0.0
 11
191.2031273458163
 21
210.5552833841217
 31
0.0
  0
LINE
  5
22B
330
70
100
AcDbEntity
  8
Bemaßung
 62
     7
370
     9
100
AcDbLine
 10
191.2031273458163
 20
210.5281194952396
 30
0.0
 11
191.2031273458163
 21
210.5552833841217
 31
0.0
  0
LINE
  5
22C
330
70
100
AcDbEntity
  8
Bemaßung
 62
     7
370
     9
100
AcDbLine
 10
191.2539273458037
 20
210.5281194952396
 30
0.0
 11
191.2539273458037
 21
210.9415750506919
 31
0.0
  0
LINE
  5
22D
330
70
100
AcDbEntity
  8
Bemaßung
 62
     7
370
     9
100
AcDbLine
 10
191.3043745680132
 20
210.5281194952396
 30
0.0
 11
191.3043745680132
 21
211.3271611617066
 31
0.0
  0
LINE
  5
22E
330
70
100
AcDbEntity
  8
Bemaßung
 62
     7
370
     9
100
AcDbLine
 10
191.3551745680006
 20
210.5281194952396
 30
0.0
 11
191.3551745680006
 21
211.7134528282768
 31
0.0
  0
LINE
  5
22F
330
70
100
AcDbEntity
  8
Bemaßung
 62
     7
370
     9
100
AcDbLine
 10
191.405974567988
 20
210.5281194952396
 30
0.0
 11
191.405974567988
 21
212.0986861615136
 31
0.0
  0
LINE
  5
230
330
70
100
AcDbEntity
  8
Bemaßung
 62
     7
370
     9
100
AcDbLine
 10
191.4567745679751
 20
210.5281194952396
 30
0.0
 11
191.4567745679751
 21
212.4849778280839
 31
0.0
  0
LINE
  5
231
330
70
100
AcDbEntity
  8
Bemaßung
 62
     7
370
     9
100
AcDbLine
 10
191.5075745679625
 20
210.5281194952396
 30
0.0
 11
191.5075745679625
 21
212.8705639390985
 31
0.0
  0
LINE
  5
232
330
70
100
AcDbEntity
  8
Bemaßung
 62
     7
370
     9
100
AcDbLine
 10
191.5583745679498
 20
210.5281194952396
 30
0.0
 11
191.5583745679498
 21
213.2568556056687
 31
0.0
  0
LINE
  5
233
330
70
100
AcDbEntity
  8
Bemaßung
 62
     7
370
     9
100
AcDbLine
 10
191.6091745679372
 20
210.5281194952396
 30
0.0
 11
191.6091745679372
 21
213.642441716683
 31
0.0
  0
LINE
  5
234
330
70
100
AcDbEntity
  8
Bemaßung
 62
     7
370
     9
100
AcDbLine
 10
191.6599745679243
 20
210.5281194952396
 30
0.0
 11
191.6599745679243
 21
214.0283806054758
 31
0.0
  0
LINE
  5
235
330
70
100
AcDbEntity
  8
Bemaßung
 62
     7
370
     9
100
AcDbLine
 10
192.1175273455879
 20
210.5281194952396
 30
0.0
 11
192.1175273455879
 21
210.5552833841217
 31
0.0
  0
LINE
  5
236
330
70
100
AcDbEntity
  8
Bemaßung
 62
     7
370
     9
100
AcDbLine
 10
192.1175273455879
 20
210.5281194952396
 30
0.0
 11
192.1175273455879
 21
210.5552833841217
 31
0.0
  0
LINE
  5
237
330
70
100
AcDbEntity
  8
Bemaßung
 62
     7
370
     9
100
AcDbLine
 10
192.0667273456005
 20
210.5281194952396
 30
0.0
 11
192.0667273456005
 21
210.9415750506919
 31
0.0
  0
LINE
  5
238
330
70
100
AcDbEntity
  8
Bemaßung
 62
     7
370
     9
100
AcDbLine
 10
192.0159273456131
 20
210.5281194952396
 30
0.0
 11
192.0159273456131
 21
211.3271611617066
 31
0.0
  0
LINE
  5
239
330
70
100
AcDbEntity
  8
Bemaßung
 62
     7
370
     9
100
AcDbLine
 10
191.965127345626
 20
210.5281194952396
 30
0.0
 11
191.965127345626
 21
211.7134528282768
 31
0.0
  0
LINE
  5
23A
330
70
100
AcDbEntity
  8
Bemaßung
 62
     7
370
     9
100
AcDbLine
 10
191.9143273456386
 20
210.5281194952396
 30
0.0
 11
191.9143273456386
 21
212.0986861615136
 31
0.0
  0
LINE
  5
23B
330
70
100
AcDbEntity
  8
Bemaßung
 62
     7
370
     9
100
AcDbLine
 10
191.8635273456512
 20
210.5281194952396
 30
0.0
 11
191.8635273456512
 21
212.4849778280839
 31
0.0
  0
LINE
  5
23C
330
70
100
AcDbEntity
  8
Bemaßung
 62
     7
370
     9
100
AcDbLine
 10
191.8123745678865
 20
210.5281194952396
 30
0.0
 11
191.8123745678865
 21
212.8705639390985
 31
0.0
  0
LINE
  5
23D
330
70
100
AcDbEntity
  8
Bemaßung
 62
     7
370
     9
100
AcDbLine
 10
191.7615745678991
 20
210.5281194952396
 30
0.0
 11
191.7615745678991
 21
213.2568556056687
 31
0.0
  0
LINE
  5
23E
330
70
100
AcDbEntity
  8
Bemaßung
 62
     7
370
     9
100
AcDbLine
 10
191.7107745679117
 20
210.5281194952396
 30
0.0
 11
191.7107745679117
 21
213.642441716683
 31
0.0
  0
LINE
  5
23F
330
70
100
AcDbEntity
  8
Bemaßung
 62
     7
370
     9
100
AcDbLine
 10
191.6599745679243
 20
210.5281194952396
 30
0.0
 11
191.6599745679243
 21
214.0283806054758
 31
0.0
  0
LINE
  5
240
330
70
100
AcDbEntity
  8
Bemaßung
 62
     7
370
     9
100
AcDbLine
 10
81.30156070662527
 20
119.0281472958923
 30
0.0
 11
93.30129681473625
 21
119.0281472958923
 31
0.0
  0
LINE
  5
241
330
70
100
AcDbEntity
  8
Bemaßung
 62
     7
370
     9
100
AcDbLine
 10
91.30139959301404
 20
119.0281472958923
 30
0.0
 11
91.30139959301404
 21
214.0283806054758
 31
0.0
  0
LWPOLYLINE
  5
242
330
70
100
AcDbEntity
  8
Bemaßung
 62
     7
370
     9
100
AcDbPolyline
 90
        4
 70
     0
 43
0.0
 10
91.30139959301404
 20
119.0281472958923
 10
91.76248014845425
 20
122.5280556283508
 10
90.84067181535159
 20
122.5280556283508
 10
91.30139959301404
 20
119.0281472958923
  0
LINE
  5
243
330
70
100
AcDbEntity
  8
Bemaßung
 62
     7
370
     9
100
AcDbLine
 10
91.75895237067761
 20
122.5280556283508
 30
0.0
 11
91.75895237067761
 21
122.5008917394686
 31
0.0
  0
LINE
  5
244
330
70
100
AcDbEntity
  8
Bemaßung
 62
     7
370
     9
100
AcDbLine
 10
91.75895237067761
 20
122.5280556283508
 30
0.0
 11
91.75895237067761
 21
122.5008917394686
 31
0.0
  0
LINE
  5
245
330
70
100
AcDbEntity
  8
Bemaßung
 62
     7
370
     9
100
AcDbLine
 10
91.70815237069021
 20
122.5280556283508
 30
0.0
 11
91.70815237069021
 21
122.1149528506762
 31
0.0
  0
LINE
  5
246
330
70
100
AcDbEntity
  8
Bemaßung
 62
     7
370
     9
100
AcDbLine
 10
91.65735237070284
 20
122.5280556283508
 30
0.0
 11
91.65735237070284
 21
121.7297195174393
 31
0.0
  0
LINE
  5
247
330
70
100
AcDbEntity
  8
Bemaßung
 62
     7
370
     9
100
AcDbLine
 10
91.60655237071546
 20
122.5280556283508
 30
0.0
 11
91.60655237071546
 21
121.3434278508691
 31
0.0
  0
LINE
  5
248
330
70
100
AcDbEntity
  8
Bemaßung
 62
     7
370
     9
100
AcDbLine
 10
91.5557523707284
 20
122.5280556283508
 30
0.0
 11
91.5557523707284
 21
120.9574889620767
 31
0.0
  0
LINE
  5
249
330
70
100
AcDbEntity
  8
Bemaßung
 62
     7
370
     9
100
AcDbLine
 10
91.50495237074101
 20
122.5280556283508
 30
0.0
 11
91.50495237074101
 21
120.5715500732843
 31
0.0
  0
LINE
  5
24A
330
70
100
AcDbEntity
  8
Bemaßung
 62
     7
370
     9
100
AcDbLine
 10
91.45415237075363
 20
122.5280556283508
 30
0.0
 11
91.45415237075363
 21
120.1856111844918
 31
0.0
  0
LINE
  5
24B
330
70
100
AcDbEntity
  8
Bemaßung
 62
     7
370
     9
100
AcDbLine
 10
91.4029995929888
 20
122.5280556283508
 30
0.0
 11
91.4029995929888
 21
119.8000250734772
 31
0.0
  0
LINE
  5
24C
330
70
100
AcDbEntity
  8
Bemaßung
 62
     7
370
     9
100
AcDbLine
 10
91.35219959300142
 20
122.5280556283508
 30
0.0
 11
91.35219959300142
 21
119.4140861846848
 31
0.0
  0
LINE
  5
24D
330
70
100
AcDbEntity
  8
Bemaßung
 62
     7
370
     9
100
AcDbLine
 10
91.30139959301404
 20
122.5280556283508
 30
0.0
 11
91.30139959301404
 21
119.0281472958923
 31
0.0
  0
LINE
  5
24E
330
70
100
AcDbEntity
  8
Bemaßung
 62
     7
370
     9
100
AcDbLine
 10
90.84455237090599
 20
122.5280556283508
 30
0.0
 11
90.84455237090599
 21
122.5008917394686
 31
0.0
  0
LINE
  5
24F
330
70
100
AcDbEntity
  8
Bemaßung
 62
     7
370
     9
100
AcDbLine
 10
90.84455237090599
 20
122.5280556283508
 30
0.0
 11
90.84455237090599
 21
122.5008917394686
 31
0.0
  0
LINE
  5
250
330
70
100
AcDbEntity
  8
Bemaßung
 62
     7
370
     9
100
AcDbLine
 10
90.89499959311563
 20
122.5280556283508
 30
0.0
 11
90.89499959311563
 21
122.1149528506762
 31
0.0
  0
LINE
  5
251
330
70
100
AcDbEntity
  8
Bemaßung
 62
     7
370
     9
100
AcDbLine
 10
90.945799593103
 20
122.5280556283508
 30
0.0
 11
90.945799593103
 21
121.7297195174393
 31
0.0
  0
LINE
  5
252
330
70
100
AcDbEntity
  8
Bemaßung
 62
     7
370
     9
100
AcDbLine
 10
90.9965995930904
 20
122.5280556283508
 30
0.0
 11
90.9965995930904
 21
121.3434278508691
 31
0.0
  0
LINE
  5
253
330
70
100
AcDbEntity
  8
Bemaßung
 62
     7
370
     9
100
AcDbLine
 10
91.04739959307746
 20
122.5280556283508
 30
0.0
 11
91.04739959307746
 21
120.9574889620767
 31
0.0
  0
LINE
  5
254
330
70
100
AcDbEntity
  8
Bemaßung
 62
     7
370
     9
100
AcDbLine
 10
91.09819959306483
 20
122.5280556283508
 30
0.0
 11
91.09819959306483
 21
120.5715500732843
 31
0.0
  0
LINE
  5
255
330
70
100
AcDbEntity
  8
Bemaßung
 62
     7
370
     9
100
AcDbLine
 10
91.14899959305223
 20
122.5280556283508
 30
0.0
 11
91.14899959305223
 21
120.1856111844918
 31
0.0
  0
LINE
  5
256
330
70
100
AcDbEntity
  8
Bemaßung
 62
     7
370
     9
100
AcDbLine
 10
91.19979959303959
 20
122.5280556283508
 30
0.0
 11
91.19979959303959
 21
119.8000250734772
 31
0.0
  0
LINE
  5
257
330
70
100
AcDbEntity
  8
Bemaßung
 62
     7
370
     9
100
AcDbLine
 10
91.25059959302666
 20
122.5280556283508
 30
0.0
 11
91.25059959302666
 21
119.4140861846848
 31
0.0
  0
LINE
  5
258
330
70
100
AcDbEntity
  8
Bemaßung
 62
     7
370
     9
100
AcDbLine
 10
91.30139959301404
 20
122.5280556283508
 30
0.0
 11
91.30139959301404
 21
119.0281472958923
 31
0.0
  0
LWPOLYLINE
  5
259
330
70
100
AcDbEntity
  8
Bemaßung
 62
     7
370
     9
100
AcDbPolyline
 90
        4
 70
     0
 43
0.0
 10
91.30139959301404
 20
214.0283806054758
 10
90.84067181535159
 20
210.5281194952396
 10
91.76248014845425
 20
210.5281194952396
 10
91.30139959301404
 20
214.0283806054758
  0
LINE
  5
25A
330
70
100
AcDbEntity
  8
Bemaßung
 62
     7
370
     9
100
AcDbLine
 10
90.84455237090599
 20
210.5281194952396
 30
0.0
 11
90.84455237090599
 21
210.5552833841217
 31
0.0
  0
LINE
  5
25B
330
70
100
AcDbEntity
  8
Bemaßung
 62
     7
370
     9
100
AcDbLine
 10
90.84455237090599
 20
210.5281194952396
 30
0.0
 11
90.84455237090599
 21
210.5552833841217
 31
0.0
  0
LINE
  5
25C
330
70
100
AcDbEntity
  8
Bemaßung
 62
     7
370
     9
100
AcDbLine
 10
90.89499959311563
 20
210.5281194952396
 30
0.0
 11
90.89499959311563
 21
210.9415750506919
 31
0.0
  0
LINE
  5
25D
330
70
100
AcDbEntity
  8
Bemaßung
 62
     7
370
     9
100
AcDbLine
 10
90.945799593103
 20
210.5281194952396
 30
0.0
 11
90.945799593103
 21
211.3271611617066
 31
0.0
  0
LINE
  5
25E
330
70
100
AcDbEntity
  8
Bemaßung
 62
     7
370
     9
100
AcDbLine
 10
90.9965995930904
 20
210.5281194952396
 30
0.0
 11
90.9965995930904
 21
211.7134528282768
 31
0.0
  0
LINE
  5
25F
330
70
100
AcDbEntity
  8
Bemaßung
 62
     7
370
     9
100
AcDbLine
 10
91.04739959307746
 20
210.5281194952396
 30
0.0
 11
91.04739959307746
 21
212.0986861615136
 31
0.0
  0
LINE
  5
260
330
70
100
AcDbEntity
  8
Bemaßung
 62
     7
370
     9
100
AcDbLine
 10
91.09819959306483
 20
210.5281194952396
 30
0.0
 11
91.09819959306483
 21
212.4849778280839
 31
0.0
  0
LINE
  5
261
330
70
100
AcDbEntity
  8
Bemaßung
 62
     7
370
     9
100
AcDbLine
 10
91.14899959305223
 20
210.5281194952396
 30
0.0
 11
91.14899959305223
 21
212.8705639390985
 31
0.0
  0
LINE
  5
262
330
70
100
AcDbEntity
  8
Bemaßung
 62
     7
370
     9
100
AcDbLine
 10
91.19979959303959
 20
210.5281194952396
 30
0.0
 11
91.19979959303959
 21
213.2568556056687
 31
0.0
  0
LINE
  5
263
330
70
100
AcDbEntity
  8
Bemaßung
 62
     7
370
     9
100
AcDbLine
 10
91.25059959302666
 20
210.5281194952396
 30
0.0
 11
91.25059959302666
 21
213.642441716683
 31
0.0
  0
LINE
  5
264
330
70
100
AcDbEntity
  8
Bemaßung
 62
     7
370
     9
100
AcDbLine
 10
91.30139959301404
 20
210.5281194952396
 30
0.0
 11
91.30139959301404
 21
214.0283806054758
 31
0.0
  0
LINE
  5
265
330
70
100
AcDbEntity
  8
Bemaßung
 62
     7
370
     9
100
AcDbLine
 10
91.75895237067761
 20
210.5281194952396
 30
0.0
 11
91.75895237067761
 21
210.5552833841217
 31
0.0
  0
LINE
  5
266
330
70
100
AcDbEntity
  8
Bemaßung
 62
     7
370
     9
100
AcDbLine
 10
91.75895237067761
 20
210.5281194952396
 30
0.0
 11
91.75895237067761
 21
210.5552833841217
 31
0.0
  0
LINE
  5
267
330
70
100
AcDbEntity
  8
Bemaßung
 62
     7
370
     9
100
AcDbLine
 10
91.70815237069021
 20
210.5281194952396
 30
0.0
 11
91.70815237069021
 21
210.9415750506919
 31
0.0
  0
LINE
  5
268
330
70
100
AcDbEntity
  8
Bemaßung
 62
     7
370
     9
100
AcDbLine
 10
91.65735237070284
 20
210.5281194952396
 30
0.0
 11
91.65735237070284
 21
211.3271611617066
 31
0.0
  0
LINE
  5
269
330
70
100
AcDbEntity
  8
Bemaßung
 62
     7
370
     9
100
AcDbLine
 10
91.60655237071546
 20
210.5281194952396
 30
0.0
 11
91.60655237071546
 21
211.7134528282768
 31
0.0
  0
LINE
  5
26A
330
70
100
AcDbEntity
  8
Bemaßung
 62
     7
370
     9
100
AcDbLine
 10
91.5557523707284
 20
210.5281194952396
 30
0.0
 11
91.5557523707284
 21
212.0986861615136
 31
0.0
  0
LINE
  5
26B
330
70
100
AcDbEntity
  8
Bemaßung
 62
     7
370
     9
100
AcDbLine
 10
91.50495237074101
 20
210.5281194952396
 30
0.0
 11
91.50495237074101
 21
212.4849778280839
 31
0.0
  0
LINE
  5
26C
330
70
100
AcDbEntity
  8
Bemaßung
 62
     7
370
     9
100
AcDbLine
 10
91.45415237075363
 20
210.5281194952396
 30
0.0
 11
91.45415237075363
 21
212.8705639390985
 31
0.0
  0
LINE
  5
26D
330
70
100
AcDbEntity
  8
Bemaßung
 62
     7
370
     9
100
AcDbLine
 10
91.4029995929888
 20
210.5281194952396
 30
0.0
 11
91.4029995929888
 21
213.2568556056687
 31
0.0
  0
LINE
  5
26E
330
70
100
AcDbEntity
  8
Bemaßung
 62
     7
370
     9
100
AcDbLine
 10
91.35219959300142
 20
210.5281194952396
 30
0.0
 11
91.35219959300142
 21
213.642441716683
 31
0.0
  0
LINE
  5
26F
330
70
100
AcDbEntity
  8
Bemaßung
 62
     7
370
     9
100
AcDbLine
 10
91.30139959301404
 20
210.5281194952396
 30
0.0
 11
91.30139959301404
 21
214.0283806054758
 31
0.0
  0
LINE
  5
270
330
70
100
AcDbEntity
  8
Bemaßung
 62
     7
370
     9
100
AcDbLine
 10
81.30156070662527
 20
54.00223475583858
 30
0.0
 11
93.30129681473625
 21
54.00223475583858
 31
0.0
  0
LINE
  5
271
330
70
100
AcDbEntity
  8
Bemaßung
 62
     7
370
     9
100
AcDbLine
 10
81.30156070662527
 20
46.00229309117169
 30
0.0
 11
93.30129681473625
 21
46.00229309117169
 31
0.0
  0
LINE
  5
272
330
70
100
AcDbEntity
  8
Bemaßung
 62
     7
370
     9
100
AcDbLine
 10
91.30139959301404
 20
54.00223475583858
 30
0.0
 11
91.30139959301404
 21
46.00229309117169
 31
0.0
  0
LWPOLYLINE
  5
273
330
70
100
AcDbEntity
  8
Bemaßung
 62
     7
370
     9
100
AcDbPolyline
 90
        4
 70
     0
 43
0.0
 10
91.30139959301404
 20
54.00223475583858
 10
90.84067181535159
 20
50.50232642338013
 10
91.76248014845425
 20
50.50232642338013
 10
91.30139959301404
 20
54.00223475583858
  0
LINE
  5
274
330
70
100
AcDbEntity
  8
Bemaßung
 62
     7
370
     9
100
AcDbLine
 10
90.84455237090599
 20
50.50232642338013
 30
0.0
 11
90.84455237090599
 21
50.5294903122623
 31
0.0
  0
LINE
  5
275
330
70
100
AcDbEntity
  8
Bemaßung
 62
     7
370
     9
100
AcDbLine
 10
90.84455237090599
 20
50.50232642338013
 30
0.0
 11
90.84455237090599
 21
50.5294903122623
 31
0.0
  0
LINE
  5
276
330
70
100
AcDbEntity
  8
Bemaßung
 62
     7
370
     9
100
AcDbLine
 10
90.89499959311563
 20
50.50232642338013
 30
0.0
 11
90.89499959311563
 21
50.91542920105473
 31
0.0
  0
LINE
  5
277
330
70
100
AcDbEntity
  8
Bemaßung
 62
     7
370
     9
100
AcDbLine
 10
90.945799593103
 20
50.50232642338013
 30
0.0
 11
90.945799593103
 21
51.30136808984715
 31
0.0
  0
LINE
  5
278
330
70
100
AcDbEntity
  8
Bemaßung
 62
     7
370
     9
100
AcDbLine
 10
90.9965995930904
 20
50.50232642338013
 30
0.0
 11
90.9965995930904
 21
51.68730697863956
 31
0.0
  0
LINE
  5
279
330
70
100
AcDbEntity
  8
Bemaßung
 62
     7
370
     9
100
AcDbLine
 10
91.04739959307746
 20
50.50232642338013
 30
0.0
 11
91.04739959307746
 21
52.07359864520943
 31
0.0
  0
LINE
  5
27A
330
70
100
AcDbEntity
  8
Bemaßung
 62
     7
370
     9
100
AcDbLine
 10
91.09819959306483
 20
50.50232642338013
 30
0.0
 11
91.09819959306483
 21
52.45883197844666
 31
0.0
  0
LINE
  5
27B
330
70
100
AcDbEntity
  8
Bemaßung
 62
     7
370
     9
100
AcDbLine
 10
91.14899959305223
 20
50.50232642338013
 30
0.0
 11
91.14899959305223
 21
52.84477086723907
 31
0.0
  0
LINE
  5
27C
330
70
100
AcDbEntity
  8
Bemaßung
 62
     7
370
     9
100
AcDbLine
 10
91.19979959303959
 20
50.50232642338013
 30
0.0
 11
91.19979959303959
 21
53.23070975603149
 31
0.0
  0
LINE
  5
27D
330
70
100
AcDbEntity
  8
Bemaßung
 62
     7
370
     9
100
AcDbLine
 10
91.25059959302666
 20
50.50232642338013
 30
0.0
 11
91.25059959302666
 21
53.61700142260136
 31
0.0
  0
LINE
  5
27E
330
70
100
AcDbEntity
  8
Bemaßung
 62
     7
370
     9
100
AcDbLine
 10
91.30139959301404
 20
50.50232642338013
 30
0.0
 11
91.30139959301404
 21
54.00223475583858
 31
0.0
  0
LINE
  5
27F
330
70
100
AcDbEntity
  8
Bemaßung
 62
     7
370
     9
100
AcDbLine
 10
91.75895237067761
 20
50.50232642338013
 30
0.0
 11
91.75895237067761
 21
50.5294903122623
 31
0.0
  0
LINE
  5
280
330
70
100
AcDbEntity
  8
Bemaßung
 62
     7
370
     9
100
AcDbLine
 10
91.75895237067761
 20
50.50232642338013
 30
0.0
 11
91.75895237067761
 21
50.5294903122623
 31
0.0
  0
LINE
  5
281
330
70
100
AcDbEntity
  8
Bemaßung
 62
     7
370
     9
100
AcDbLine
 10
91.70815237069021
 20
50.50232642338013
 30
0.0
 11
91.70815237069021
 21
50.91542920105473
 31
0.0
  0
LINE
  5
282
330
70
100
AcDbEntity
  8
Bemaßung
 62
     7
370
     9
100
AcDbLine
 10
91.65735237070284
 20
50.50232642338013
 30
0.0
 11
91.65735237070284
 21
51.30136808984715
 31
0.0
  0
LINE
  5
283
330
70
100
AcDbEntity
  8
Bemaßung
 62
     7
370
     9
100
AcDbLine
 10
91.60655237071546
 20
50.50232642338013
 30
0.0
 11
91.60655237071546
 21
51.68730697863956
 31
0.0
  0
LINE
  5
284
330
70
100
AcDbEntity
  8
Bemaßung
 62
     7
370
     9
100
AcDbLine
 10
91.5557523707284
 20
50.50232642338013
 30
0.0
 11
91.5557523707284
 21
52.07359864520943
 31
0.0
  0
LINE
  5
285
330
70
100
AcDbEntity
  8
Bemaßung
 62
     7
370
     9
100
AcDbLine
 10
91.50495237074101
 20
50.50232642338013
 30
0.0
 11
91.50495237074101
 21
52.45883197844666
 31
0.0
  0
LINE
  5
286
330
70
100
AcDbEntity
  8
Bemaßung
 62
     7
370
     9
100
AcDbLine
 10
91.45415237075363
 20
50.50232642338013
 30
0.0
 11
91.45415237075363
 21
52.84477086723907
 31
0.0
  0
LINE
  5
287
330
70
100
AcDbEntity
  8
Bemaßung
 62
     7
370
     9
100
AcDbLine
 10
91.4029995929888
 20
50.50232642338013
 30
0.0
 11
91.4029995929888
 21
53.23070975603149
 31
0.0
  0
LINE
  5
288
330
70
100
AcDbEntity
  8
Bemaßung
 62
     7
370
     9
100
AcDbLine
 10
91.35219959300142
 20
50.50232642338013
 30
0.0
 11
91.35219959300142
 21
53.61700142260136
 31
0.0
  0
LINE
  5
289
330
70
100
AcDbEntity
  8
Bemaßung
 62
     7
370
     9
100
AcDbLine
 10
91.30139959301404
 20
50.50232642338013
 30
0.0
 11
91.30139959301404
 21
54.00223475583858
 31
0.0
  0
LWPOLYLINE
  5
28A
330
70
100
AcDbEntity
  8
Bemaßung
 62
     7
370
     9
100
AcDbPolyline
 90
        4
 70
     0
 43
0.0
 10
91.30139959301404
 20
46.00229309117169
 10
91.76248014845425
 20
49.5025542014079
 10
90.84067181535159
 20
49.5025542014079
 10
91.30139959301404
 20
46.00229309117169
  0
LINE
  5
28B
330
70
100
AcDbEntity
  8
Bemaßung
 62
     7
370
     9
100
AcDbLine
 10
91.75895237067761
 20
49.5025542014079
 30
0.0
 11
91.75895237067761
 21
49.47503753474797
 31
0.0
  0
LINE
  5
28C
330
70
100
AcDbEntity
  8
Bemaßung
 62
     7
370
     9
100
AcDbLine
 10
91.75895237067761
 20
49.5025542014079
 30
0.0
 11
91.75895237067761
 21
49.47503753474797
 31
0.0
  0
LINE
  5
28D
330
70
100
AcDbEntity
  8
Bemaßung
 62
     7
370
     9
100
AcDbLine
 10
91.70815237069021
 20
49.5025542014079
 30
0.0
 11
91.70815237069021
 21
49.08980420151106
 31
0.0
  0
LINE
  5
28E
330
70
100
AcDbEntity
  8
Bemaßung
 62
     7
370
     9
100
AcDbLine
 10
91.65735237070284
 20
49.5025542014079
 30
0.0
 11
91.65735237070284
 21
48.70386531271865
 31
0.0
  0
LINE
  5
28F
330
70
100
AcDbEntity
  8
Bemaßung
 62
     7
370
     9
100
AcDbLine
 10
91.60655237071546
 20
49.5025542014079
 30
0.0
 11
91.60655237071546
 21
48.31792642392622
 31
0.0
  0
LINE
  5
290
330
70
100
AcDbEntity
  8
Bemaßung
 62
     7
370
     9
100
AcDbLine
 10
91.5557523707284
 20
49.5025542014079
 30
0.0
 11
91.5557523707284
 21
47.93163475735604
 31
0.0
  0
LINE
  5
291
330
70
100
AcDbEntity
  8
Bemaßung
 62
     7
370
     9
100
AcDbLine
 10
91.50495237074101
 20
49.5025542014079
 30
0.0
 11
91.50495237074101
 21
47.54569586856361
 31
0.0
  0
LINE
  5
292
330
70
100
AcDbEntity
  8
Bemaßung
 62
     7
370
     9
100
AcDbLine
 10
91.45415237075363
 20
49.5025542014079
 30
0.0
 11
91.45415237075363
 21
47.16046253532671
 31
0.0
  0
LINE
  5
293
330
70
100
AcDbEntity
  8
Bemaßung
 62
     7
370
     9
100
AcDbLine
 10
91.4029995929888
 20
49.5025542014079
 30
0.0
 11
91.4029995929888
 21
46.77452364653429
 31
0.0
  0
LINE
  5
294
330
70
100
AcDbEntity
  8
Bemaßung
 62
     7
370
     9
100
AcDbLine
 10
91.35219959300142
 20
49.5025542014079
 30
0.0
 11
91.35219959300142
 21
46.38823197996411
 31
0.0
  0
LINE
  5
295
330
70
100
AcDbEntity
  8
Bemaßung
 62
     7
370
     9
100
AcDbLine
 10
91.30139959301404
 20
49.5025542014079
 30
0.0
 11
91.30139959301404
 21
46.00229309117169
 31
0.0
  0
LINE
  5
296
330
70
100
AcDbEntity
  8
Bemaßung
 62
     7
370
     9
100
AcDbLine
 10
90.84455237090599
 20
49.5025542014079
 30
0.0
 11
90.84455237090599
 21
49.47503753474797
 31
0.0
  0
LINE
  5
297
330
70
100
AcDbEntity
  8
Bemaßung
 62
     7
370
     9
100
AcDbLine
 10
90.84455237090599
 20
49.5025542014079
 30
0.0
 11
90.84455237090599
 21
49.47503753474797
 31
0.0
  0
LINE
  5
298
330
70
100
AcDbEntity
  8
Bemaßung
 62
     7
370
     9
100
AcDbLine
 10
90.89499959311563
 20
49.5025542014079
 30
0.0
 11
90.89499959311563
 21
49.08980420151106
 31
0.0
  0
LINE
  5
299
330
70
100
AcDbEntity
  8
Bemaßung
 62
     7
370
     9
100
AcDbLine
 10
90.945799593103
 20
49.5025542014079
 30
0.0
 11
90.945799593103
 21
48.70386531271865
 31
0.0
  0
LINE
  5
29A
330
70
100
AcDbEntity
  8
Bemaßung
 62
     7
370
     9
100
AcDbLine
 10
90.9965995930904
 20
49.5025542014079
 30
0.0
 11
90.9965995930904
 21
48.31792642392622
 31
0.0
  0
LINE
  5
29B
330
70
100
AcDbEntity
  8
Bemaßung
 62
     7
370
     9
100
AcDbLine
 10
91.04739959307746
 20
49.5025542014079
 30
0.0
 11
91.04739959307746
 21
47.93163475735604
 31
0.0
  0
LINE
  5
29C
330
70
100
AcDbEntity
  8
Bemaßung
 62
     7
370
     9
100
AcDbLine
 10
91.09819959306483
 20
49.5025542014079
 30
0.0
 11
91.09819959306483
 21
47.54569586856361
 31
0.0
  0
LINE
  5
29D
330
70
100
AcDbEntity
  8
Bemaßung
 62
     7
370
     9
100
AcDbLine
 10
91.14899959305223
 20
49.5025542014079
 30
0.0
 11
91.14899959305223
 21
47.16046253532671
 31
0.0
  0
LINE
  5
29E
330
70
100
AcDbEntity
  8
Bemaßung
 62
     7
370
     9
100
AcDbLine
 10
91.19979959303959
 20
49.5025542014079
 30
0.0
 11
91.19979959303959
 21
46.77452364653429
 31
0.0
  0
LINE
  5
29F
330
70
100
AcDbEntity
  8
Bemaßung
 62
     7
370
     9
100
AcDbLine
 10
91.25059959302666
 20
49.5025542014079
 30
0.0
 11
91.25059959302666
 21
46.38823197996411
 31
0.0
  0
LINE
  5
2A0
330
70
100
AcDbEntity
  8
Bemaßung
 62
     7
370
     9
100
AcDbLine
 10
91.30139959301404
 20
49.5025542014079
 30
0.0
 11
91.30139959301404
 21
46.00229309117169
 31
0.0
  0
LINE
  5
2A1
330
70
100
AcDbEntity
  8
Bemaßung
 62
     7
370
     9
100
AcDbLine
 10
81.30156070662527
 20
54.00223475583858
 30
0.0
 11
81.30156070662527
 21
81.38861691184295
 31
0.0
  0
LINE
  5
2A2
330
70
100
AcDbEntity
  8
Bemaßung
 62
     7
370
     9
100
AcDbLine
 10
73.30126626418094
 20
54.00223475583858
 30
0.0
 11
73.30126626418094
 21
81.38861691184295
 31
0.0
  0
LINE
  5
2A3
330
70
100
AcDbEntity
  8
Bemaßung
 62
     7
370
     9
100
AcDbLine
 10
81.30156070662527
 20
79.388366912343
 30
0.0
 11
73.30126626418094
 21
79.388366912343
 31
0.0
  0
LWPOLYLINE
  5
2A4
330
70
100
AcDbEntity
  8
Bemaßung
 62
     7
370
     9
100
AcDbPolyline
 90
        4
 70
     0
 43
0.0
 10
81.30156070662527
 20
79.388366912343
 10
77.80129959638905
 20
79.84909469000577
 10
77.80129959638905
 20
78.92728635690279
 10
81.30156070662527
 20
79.388366912343
  0
LINE
  5
2A5
330
70
100
AcDbEntity
  8
Bemaßung
 62
     7
370
     9
100
AcDbLine
 10
77.80129959638905
 20
79.84556691222881
 30
0.0
 11
77.82916904082644
 21
79.84556691222881
 31
0.0
  0
LINE
  5
2A6
330
70
100
AcDbEntity
  8
Bemaßung
 62
     7
370
     9
100
AcDbLine
 10
77.80129959638905
 20
79.84556691222881
 30
0.0
 11
77.82916904082644
 21
79.84556691222881
 31
0.0
  0
LINE
  5
2A7
330
70
100
AcDbEntity
  8
Bemaßung
 62
     7
370
     9
100
AcDbLine
 10
77.80129959638905
 20
79.79476691224141
 30
0.0
 11
78.21475515184141
 21
79.79476691224141
 31
0.0
  0
LINE
  5
2A8
330
70
100
AcDbEntity
  8
Bemaßung
 62
     7
370
     9
100
AcDbLine
 10
77.80129959638905
 20
79.7443196900318
 30
0.0
 11
78.60034126285608
 21
79.7443196900318
 31
0.0
  0
LINE
  5
2A9
330
70
100
AcDbEntity
  8
Bemaßung
 62
     7
370
     9
100
AcDbLine
 10
77.80129959638905
 20
79.69351969004474
 30
0.0
 11
78.9862801516485
 21
79.69351969004474
 31
0.0
  0
LINE
  5
2AA
330
70
100
AcDbEntity
  8
Bemaßung
 62
     7
370
     9
100
AcDbLine
 10
77.80129959638905
 20
79.64271969005735
 30
0.0
 11
79.37257181821836
 21
79.64271969005735
 31
0.0
  0
LINE
  5
2AB
330
70
100
AcDbEntity
  8
Bemaßung
 62
     7
370
     9
100
AcDbLine
 10
77.80129959638905
 20
79.59191969006997
 30
0.0
 11
79.75815792923334
 21
79.59191969006997
 31
0.0
  0
LINE
  5
2AC
330
70
100
AcDbEntity
  8
Bemaßung
 62
     7
370
     9
100
AcDbLine
 10
77.80129959638905
 20
79.54111969008259
 30
0.0
 11
80.14374404024801
 21
79.54111969008259
 31
0.0
  0
LINE
  5
2AD
330
70
100
AcDbEntity
  8
Bemaßung
 62
     7
370
     9
100
AcDbLine
 10
77.80129959638905
 20
79.48996691231776
 30
0.0
 11
80.52968292904044
 21
79.48996691231776
 31
0.0
  0
LINE
  5
2AE
330
70
100
AcDbEntity
  8
Bemaßung
 62
     7
370
     9
100
AcDbLine
 10
77.80129959638905
 20
79.43916691233038
 30
0.0
 11
80.91597459561029
 21
79.43916691233038
 31
0.0
  0
LINE
  5
2AF
330
70
100
AcDbEntity
  8
Bemaßung
 62
     7
370
     9
100
AcDbLine
 10
77.80129959638905
 20
79.388366912343
 30
0.0
 11
81.30156070662527
 21
79.388366912343
 31
0.0
  0
LINE
  5
2B0
330
70
100
AcDbEntity
  8
Bemaßung
 62
     7
370
     9
100
AcDbLine
 10
77.80129959638905
 20
78.93116691245753
 30
0.0
 11
77.82916904082644
 21
78.93116691245753
 31
0.0
  0
LINE
  5
2B1
330
70
100
AcDbEntity
  8
Bemaßung
 62
     7
370
     9
100
AcDbLine
 10
77.80129959638905
 20
78.93116691245753
 30
0.0
 11
77.82916904082644
 21
78.93116691245753
 31
0.0
  0
LINE
  5
2B2
330
70
100
AcDbEntity
  8
Bemaßung
 62
     7
370
     9
100
AcDbLine
 10
77.80129959638905
 20
78.98231969022235
 30
0.0
 11
78.21475515184141
 21
78.98231969022235
 31
0.0
  0
LINE
  5
2B3
330
70
100
AcDbEntity
  8
Bemaßung
 62
     7
370
     9
100
AcDbLine
 10
77.80129959638905
 20
79.03311969020973
 30
0.0
 11
78.60034126285608
 21
79.03311969020973
 31
0.0
  0
LINE
  5
2B4
330
70
100
AcDbEntity
  8
Bemaßung
 62
     7
370
     9
100
AcDbLine
 10
77.80129959638905
 20
79.0839196901971
 30
0.0
 11
78.9862801516485
 21
79.0839196901971
 31
0.0
  0
LINE
  5
2B5
330
70
100
AcDbEntity
  8
Bemaßung
 62
     7
370
     9
100
AcDbLine
 10
77.80129959638905
 20
79.13471969018416
 30
0.0
 11
79.37257181821836
 21
79.13471969018416
 31
0.0
  0
LINE
  5
2B6
330
70
100
AcDbEntity
  8
Bemaßung
 62
     7
370
     9
100
AcDbLine
 10
77.80129959638905
 20
79.18551969017156
 30
0.0
 11
79.75815792923334
 21
79.18551969017156
 31
0.0
  0
LINE
  5
2B7
330
70
100
AcDbEntity
  8
Bemaßung
 62
     7
370
     9
100
AcDbLine
 10
77.80129959638905
 20
79.23596691238117
 30
0.0
 11
80.14374404024801
 21
79.23596691238117
 31
0.0
  0
LINE
  5
2B8
330
70
100
AcDbEntity
  8
Bemaßung
 62
     7
370
     9
100
AcDbLine
 10
77.80129959638905
 20
79.28676691236856
 30
0.0
 11
80.52968292904044
 21
79.28676691236856
 31
0.0
  0
LINE
  5
2B9
330
70
100
AcDbEntity
  8
Bemaßung
 62
     7
370
     9
100
AcDbLine
 10
77.80129959638905
 20
79.33756691235593
 30
0.0
 11
80.91597459561029
 21
79.33756691235593
 31
0.0
  0
LINE
  5
2BA
330
70
100
AcDbEntity
  8
Bemaßung
 62
     7
370
     9
100
AcDbLine
 10
77.80129959638905
 20
79.388366912343
 30
0.0
 11
81.30156070662527
 21
79.388366912343
 31
0.0
  0
LWPOLYLINE
  5
2BB
330
70
100
AcDbEntity
  8
Bemaßung
 62
     7
370
     9
100
AcDbPolyline
 90
        4
 70
     0
 43
0.0
 10
73.30126626418094
 20
79.388366912343
 10
76.8018801521946
 20
78.92728635690279
 10
76.8018801521946
 20
79.84909469000577
 10
73.30126626418094
 20
79.388366912343
  0
LINE
  5
2BC
330
70
100
AcDbEntity
  8
Bemaßung
 62
     7
370
     9
100
AcDbLine
 10
76.8018801521946
 20
78.93116691245753
 30
0.0
 11
76.77471626331243
 21
78.93116691245753
 31
0.0
  0
LINE
  5
2BD
330
70
100
AcDbEntity
  8
Bemaßung
 62
     7
370
     9
100
AcDbLine
 10
76.8018801521946
 20
78.93116691245753
 30
0.0
 11
76.77471626331243
 21
78.93116691245753
 31
0.0
  0
LINE
  5
2BE
330
70
100
AcDbEntity
  8
Bemaßung
 62
     7
370
     9
100
AcDbLine
 10
76.8018801521946
 20
78.98231969022235
 30
0.0
 11
76.38842459674224
 21
78.98231969022235
 31
0.0
  0
LINE
  5
2BF
330
70
100
AcDbEntity
  8
Bemaßung
 62
     7
370
     9
100
AcDbLine
 10
76.8018801521946
 20
79.03311969020973
 30
0.0
 11
76.00283848572757
 21
79.03311969020973
 31
0.0
  0
LINE
  5
2C0
330
70
100
AcDbEntity
  8
Bemaßung
 62
     7
370
     9
100
AcDbLine
 10
76.8018801521946
 20
79.0839196901971
 30
0.0
 11
75.61654681915739
 21
79.0839196901971
 31
0.0
  0
LINE
  5
2C1
330
70
100
AcDbEntity
  8
Bemaßung
 62
     7
370
     9
100
AcDbLine
 10
76.8018801521946
 20
79.13471969018416
 30
0.0
 11
75.23096070814273
 21
79.13471969018416
 31
0.0
  0
LINE
  5
2C2
330
70
100
AcDbEntity
  8
Bemaßung
 62
     7
370
     9
100
AcDbLine
 10
76.8018801521946
 20
79.18551969017156
 30
0.0
 11
74.84502181935031
 21
79.18551969017156
 31
0.0
  0
LINE
  5
2C3
330
70
100
AcDbEntity
  8
Bemaßung
 62
     7
370
     9
100
AcDbLine
 10
76.8018801521946
 20
79.23596691238117
 30
0.0
 11
74.45943570833565
 21
79.23596691238117
 31
0.0
  0
LINE
  5
2C4
330
70
100
AcDbEntity
  8
Bemaßung
 62
     7
370
     9
100
AcDbLine
 10
76.8018801521946
 20
79.28676691236856
 30
0.0
 11
74.07314404176545
 21
79.28676691236856
 31
0.0
  0
LINE
  5
2C5
330
70
100
AcDbEntity
  8
Bemaßung
 62
     7
370
     9
100
AcDbLine
 10
76.8018801521946
 20
79.33756691235593
 30
0.0
 11
73.6875579307508
 21
79.33756691235593
 31
0.0
  0
LINE
  5
2C6
330
70
100
AcDbEntity
  8
Bemaßung
 62
     7
370
     9
100
AcDbLine
 10
76.8018801521946
 20
79.388366912343
 30
0.0
 11
73.30126626418094
 21
79.388366912343
 31
0.0
  0
LINE
  5
2C7
330
70
100
AcDbEntity
  8
Bemaßung
 62
     7
370
     9
100
AcDbLine
 10
76.8018801521946
 20
79.84556691222881
 30
0.0
 11
76.77471626331243
 21
79.84556691222881
 31
0.0
  0
LINE
  5
2C8
330
70
100
AcDbEntity
  8
Bemaßung
 62
     7
370
     9
100
AcDbLine
 10
76.8018801521946
 20
79.84556691222881
 30
0.0
 11
76.77471626331243
 21
79.84556691222881
 31
0.0
  0
LINE
  5
2C9
330
70
100
AcDbEntity
  8
Bemaßung
 62
     7
370
     9
100
AcDbLine
 10
76.8018801521946
 20
79.79476691224141
 30
0.0
 11
76.38842459674224
 21
79.79476691224141
 31
0.0
  0
LINE
  5
2CA
330
70
100
AcDbEntity
  8
Bemaßung
 62
     7
370
     9
100
AcDbLine
 10
76.8018801521946
 20
79.7443196900318
 30
0.0
 11
76.00283848572757
 21
79.7443196900318
 31
0.0
  0
LINE
  5
2CB
330
70
100
AcDbEntity
  8
Bemaßung
 62
     7
370
     9
100
AcDbLine
 10
76.8018801521946
 20
79.69351969004474
 30
0.0
 11
75.61654681915739
 21
79.69351969004474
 31
0.0
  0
LINE
  5
2CC
330
70
100
AcDbEntity
  8
Bemaßung
 62
     7
370
     9
100
AcDbLine
 10
76.8018801521946
 20
79.64271969005735
 30
0.0
 11
75.23096070814273
 21
79.64271969005735
 31
0.0
  0
LINE
  5
2CD
330
70
100
AcDbEntity
  8
Bemaßung
 62
     7
370
     9
100
AcDbLine
 10
76.8018801521946
 20
79.59191969006997
 30
0.0
 11
74.84502181935031
 21
79.59191969006997
 31
0.0
  0
LINE
  5
2CE
330
70
100
AcDbEntity
  8
Bemaßung
 62
     7
370
     9
100
AcDbLine
 10
76.8018801521946
 20
79.54111969008259
 30
0.0
 11
74.45943570833565
 21
79.54111969008259
 31
0.0
  0
LINE
  5
2CF
330
70
100
AcDbEntity
  8
Bemaßung
 62
     7
370
     9
100
AcDbLine
 10
76.8018801521946
 20
79.48996691231776
 30
0.0
 11
74.07314404176545
 21
79.48996691231776
 31
0.0
  0
LINE
  5
2D0
330
70
100
AcDbEntity
  8
Bemaßung
 62
     7
370
     9
100
AcDbLine
 10
76.8018801521946
 20
79.43916691233038
 30
0.0
 11
73.6875579307508
 21
79.43916691233038
 31
0.0
  0
LINE
  5
2D1
330
70
100
AcDbEntity
  8
Bemaßung
 62
     7
370
     9
100
AcDbLine
 10
76.8018801521946
 20
79.388366912343
 30
0.0
 11
73.30126626418094
 21
79.388366912343
 31
0.0
  0
LINE
  5
2D2
330
70
100
AcDbEntity
  8
Bemaßung
 62
     7
370
     9
100
AcDbLine
 10
73.29862491990053
 20
119.0364563384435
 30
0.0
 11
73.29862491990053
 21
89.74053315570282
 31
0.0
  0
MTEXT
  5
2D4
330
70
100
AcDbEntity
  8
Text
100
AcDbMText
 10
61.47775046613013
 20
91.35966896316269
 30
0.0
 40
0.2
 41
0.0
 46
0.0
 71
     7
 72
     1
  1
\C7;\FINDEX Univers 45 Light|b0|i0|c1;\H3.447529;\W1.000000;14,5
 73
     1
 44
1.0
  0
MTEXT
  5
2D5
330
70
100
AcDbEntity
  8
Text
100
AcDbMText
 10
62.86472437664493
 20
102.3161222837878
 30
0.0
 40
0.2
 41
0.0
 46
0.0
 71
     7
 72
     1
  1
\C7;\FINDEX Univers 45 Light|b0|i0|c1;\H3.447529;\W1.000000;13
 73
     1
 44
1.0
  0
MTEXT
  5
2D6
330
70
100
AcDbEntity
  8
Text
100
AcDbMText
 10
189.9045582614431
 20
146.5359091498352
 30
0.0
 40
0.2
 41
0.0
 46
0.0
 71
     7
 72
     1
  1
\C7;\FINDEX Univers 45 Light|b0|i0|c1;\H3.447529;\W1.000000;130
 11
0.0000000000000001
 21
1.0
 31
0.0
 73
     1
 44
1.0
  0
MTEXT
  5
2D7
330
70
100
AcDbEntity
  8
Text
100
AcDbMText
 10
89.54599844495291
 20
194.734517536223
 30
0.0
 40
0.2
 41
0.0
 46
0.0
 71
     7
 72
     1
  1
\C7;\FINDEX Univers 45 Light|b0|i0|c1;\H3.447529;\W1.000000;95
 11
0.0000000000000001
 21
1.0
 31
0.0
 73
     1
 44
1.0
  0
MTEXT
  5
2D8
330
70
100
AcDbEntity
  8
Text
100
AcDbMText
 10
89.54599844495291
 20
49.38329059637814
 30
0.0
 40
0.2
 41
0.0
 46
0.0
 71
     7
 72
     1
  1
\C7;\FINDEX Univers 45 Light|b0|i0|c1;\H3.447529;\W1.000000;8
 11
0.0000000000000001
 21
1.0
 31
0.0
 73
     1
 44
1.0
  0
MTEXT
  5
2D9
330
70
100
AcDbEntity
  8
Text
100
AcDbMText
 10
76.68304543167559
 20
81.1436379865602
 30
0.0
 40
0.2
 41
0.0
 46
0.0
 71
     7
 72
     1
  1
\C7;\FINDEX Univers 45 Light|b0|i0|c1;\H3.447529;\W1.000000;8
 73
     1
 44
1.0
  0
LINE
  5
2DA
330
70
100
AcDbEntity
  8
Text
 62
     7
370
     9
100
AcDbLine
 10
76.24855953848575
 20
214.023188025434
 30
0.0
 11
17.35464190397572
 21
214.023188025434
 31
0.0
  0
LINE
  5
2DB
330
70
100
AcDbEntity
  8
Text
 62
     7
370
     9
100
AcDbLine
 10
31.19456263995572
 20
159.0234627920514
 30
0.0
 11
17.35464190397572
 21
159.0234627920514
 31
0.0
  0
LINE
  5
2DC
330
70
100
AcDbEntity
  8
Text
 62
     7
370
     9
100
AcDbLine
 10
19.35512508817501
 20
214.023188025434
 30
0.0
 11
19.35512508817501
 21
159.0234627920514
 31
0.0
  0
LWPOLYLINE
  5
2DD
330
70
100
AcDbEntity
  8
Text
 62
     7
370
     9
100
AcDbPolyline
 90
        4
 70
     0
 43
0.0
 10
19.35512508817501
 20
214.023188025434
 10
18.89384900635696
 20
210.5241063402091
 10
19.81561722016039
 20
210.5241063402091
 10
19.35512508817501
 20
214.023188025434
  0
LINE
  5
2DE
330
70
100
AcDbEntity
  8
Text
 62
     7
370
     9
100
AcDbLine
 10
18.8976903605392
 20
210.5241063402091
 30
0.0
 11
18.8976903605392
 21
210.550917424503
 31
0.0
  0
LINE
  5
2DF
330
70
100
AcDbEntity
  8
Text
 62
     7
370
     9
100
AcDbLine
 10
18.8976903605392
 20
210.5241063402091
 30
0.0
 11
18.8976903605392
 21
210.550917424503
 31
0.0
  0
LINE
  5
2E0
330
70
100
AcDbEntity
  8
Text
 62
     7
370
     9
100
AcDbLine
 10
18.94856870471013
 20
210.5241063402091
 30
0.0
 11
18.94856870471013
 21
210.9363855574561
 31
0.0
  0
LINE
  5
2E1
330
70
100
AcDbEntity
  8
Text
 62
     7
370
     9
100
AcDbLine
 10
18.99913346894709
 20
210.5241063402091
 30
0.0
 11
18.99913346894709
 21
211.3222456653263
 31
0.0
  0
LINE
  5
2E2
330
70
100
AcDbEntity
  8
Text
 62
     7
370
     9
100
AcDbLine
 10
19.05001181311802
 20
210.5241063402091
 30
0.0
 11
19.05001181311802
 21
211.7084977481134
 31
0.0
  0
LINE
  5
2E3
330
70
100
AcDbEntity
  8
Text
 62
     7
370
     9
100
AcDbLine
 10
19.1009685522726
 20
210.5241063402091
 30
0.0
 11
19.1009685522726
 21
212.0946714359161
 31
0.0
  0
LINE
  5
2E4
330
70
100
AcDbEntity
  8
Text
 62
     7
370
     9
100
AcDbLine
 10
19.15184689644289
 20
210.5241063402091
 30
0.0
 11
19.15184689644289
 21
212.4797475939536
 31
0.0
  0
LINE
  5
2E5
330
70
100
AcDbEntity
  8
Text
 62
     7
370
     9
100
AcDbLine
 10
19.20280363559682
 20
210.5241063402091
 30
0.0
 11
19.20280363559682
 21
212.8659996767407
 31
0.0
  0
LINE
  5
2E6
330
70
100
AcDbEntity
  8
Text
 62
     7
370
     9
100
AcDbLine
 10
19.25289802993445
 20
210.5241063402091
 30
0.0
 11
19.25289802993445
 21
213.2522517595271
 31
0.0
  0
LINE
  5
2E7
330
70
100
AcDbEntity
  8
Text
 62
     7
370
     9
100
AcDbLine
 10
19.30385476908839
 20
210.5241063402091
 30
0.0
 11
19.30385476908839
 21
213.6377198924809
 31
0.0
  0
LINE
  5
2E8
330
70
100
AcDbEntity
  8
Text
 62
     7
370
     9
100
AcDbLine
 10
19.35512508817501
 20
210.5241063402091
 30
0.0
 11
19.35512508817501
 21
214.023188025434
 31
0.0
  0
LINE
  5
2E9
330
70
100
AcDbEntity
  8
Text
 62
     7
370
     9
100
AcDbLine
 10
19.81177586597751
 20
210.5241063402091
 30
0.0
 11
19.81177586597751
 21
210.550917424503
 31
0.0
  0
LINE
  5
2EA
330
70
100
AcDbEntity
  8
Text
 62
     7
370
     9
100
AcDbLine
 10
19.81177586597751
 20
210.5241063402091
 30
0.0
 11
19.81177586597751
 21
210.550917424503
 31
0.0
  0
LINE
  5
2EB
330
70
100
AcDbEntity
  8
Text
 62
     7
370
     9
100
AcDbLine
 10
19.76128949672356
 20
210.5241063402091
 30
0.0
 11
19.76128949672356
 21
210.9363855574561
 31
0.0
  0
LINE
  5
2EC
330
70
100
AcDbEntity
  8
Text
 62
     7
370
     9
100
AcDbLine
 10
19.71072473248659
 20
210.5241063402091
 30
0.0
 11
19.71072473248659
 21
211.3222456653263
 31
0.0
  0
LINE
  5
2ED
330
70
100
AcDbEntity
  8
Text
 62
     7
370
     9
100
AcDbLine
 10
19.65984638831566
 20
210.5241063402091
 30
0.0
 11
19.65984638831566
 21
211.7084977481134
 31
0.0
  0
LINE
  5
2EE
330
70
100
AcDbEntity
  8
Text
 62
     7
370
     9
100
AcDbLine
 10
19.60849767424539
 20
210.5241063402091
 30
0.0
 11
19.60849767424539
 21
212.0946714359161
 31
0.0
  0
LINE
  5
2EF
330
70
100
AcDbEntity
  8
Text
 62
     7
370
     9
100
AcDbLine
 10
19.55801130499144
 20
210.5241063402091
 30
0.0
 11
19.55801130499144
 21
212.4797475939536
 31
0.0
  0
LINE
  5
2F0
330
70
100
AcDbEntity
  8
Text
 62
     7
370
     9
100
AcDbLine
 10
19.5070545658375
 20
210.5241063402091
 30
0.0
 11
19.5070545658375
 21
212.8659996767407
 31
0.0
  0
LINE
  5
2F1
330
70
100
AcDbEntity
  8
Text
 62
     7
370
     9
100
AcDbLine
 10
19.45656819658354
 20
210.5241063402091
 30
0.0
 11
19.45656819658354
 21
213.2522517595271
 31
0.0
  0
LINE
  5
2F2
330
70
100
AcDbEntity
  8
Text
 62
     7
370
     9
100
AcDbLine
 10
19.40568985241261
 20
210.5241063402091
 30
0.0
 11
19.40568985241261
 21
213.6377198924809
 31
0.0
  0
LINE
  5
2F3
330
70
100
AcDbEntity
  8
Text
 62
     7
370
     9
100
AcDbLine
 10
19.35512508817501
 20
210.5241063402091
 30
0.0
 11
19.35512508817501
 21
214.023188025434
 31
0.0
  0
LWPOLYLINE
  5
2F4
330
70
100
AcDbEntity
  8
Text
 62
     7
370
     9
100
AcDbPolyline
 90
        4
 70
     0
 43
0.0
 10
19.35512508817501
 20
159.0234627920514
 10
19.81561722016039
 20
162.5240339819593
 10
18.89384900635696
 20
162.5240339819593
 10
19.35512508817501
 20
159.0234627920514
  0
LINE
  5
2F5
330
70
100
AcDbEntity
  8
Text
 62
     7
370
     9
100
AcDbLine
 10
19.81177586597751
 20
162.5240339819593
 30
0.0
 11
19.81177586597751
 21
162.4968309227491
 31
0.0
  0
LINE
  5
2F6
330
70
100
AcDbEntity
  8
Text
 62
     7
370
     9
100
AcDbLine
 10
19.81177586597751
 20
162.5240339819593
 30
0.0
 11
19.81177586597751
 21
162.4968309227491
 31
0.0
  0
LINE
  5
2F7
330
70
100
AcDbEntity
  8
Text
 62
     7
370
     9
100
AcDbLine
 10
19.76128949672356
 20
162.5240339819593
 30
0.0
 11
19.76128949672356
 21
162.1102652600293
 31
0.0
  0
LINE
  5
2F8
330
70
100
AcDbEntity
  8
Text
 62
     7
370
     9
100
AcDbLine
 10
19.71072473248659
 20
162.5240339819593
 30
0.0
 11
19.71072473248659
 21
161.7247971270755
 31
0.0
  0
LINE
  5
2F9
330
70
100
AcDbEntity
  8
Text
 62
     7
370
     9
100
AcDbLine
 10
19.65984638831566
 20
162.5240339819593
 30
0.0
 11
19.65984638831566
 21
161.3389370192054
 31
0.0
  0
LINE
  5
2FA
330
70
100
AcDbEntity
  8
Text
 62
     7
370
     9
100
AcDbLine
 10
19.60849767424539
 20
162.5240339819593
 30
0.0
 11
19.60849767424539
 21
160.9530769113346
 31
0.0
  0
LINE
  5
2FB
330
70
100
AcDbEntity
  8
Text
 62
     7
370
     9
100
AcDbLine
 10
19.55801130499144
 20
162.5240339819593
 30
0.0
 11
19.55801130499144
 21
160.5672168034652
 31
0.0
  0
LINE
  5
2FC
330
70
100
AcDbEntity
  8
Text
 62
     7
370
     9
100
AcDbLine
 10
19.5070545658375
 20
162.5240339819593
 30
0.0
 11
19.5070545658375
 21
160.1817486705114
 31
0.0
  0
LINE
  5
2FD
330
70
100
AcDbEntity
  8
Text
 62
     7
370
     9
100
AcDbLine
 10
19.45656819658354
 20
162.5240339819593
 30
0.0
 11
19.45656819658354
 21
159.7954965877243
 31
0.0
  0
LINE
  5
2FE
330
70
100
AcDbEntity
  8
Text
 62
     7
370
     9
100
AcDbLine
 10
19.40568985241261
 20
162.5240339819593
 30
0.0
 11
19.40568985241261
 21
159.4100284547712
 31
0.0
  0
LINE
  5
2FF
330
70
100
AcDbEntity
  8
Text
 62
     7
370
     9
100
AcDbLine
 10
19.35512508817501
 20
162.5240339819593
 30
0.0
 11
19.35512508817501
 21
159.0234627920514
 31
0.0
  0
LINE
  5
300
330
70
100
AcDbEntity
  8
Text
 62
     7
370
     9
100
AcDbLine
 10
18.8976903605392
 20
162.5240339819593
 30
0.0
 11
18.8976903605392
 21
162.4968309227491
 31
0.0
  0
LINE
  5
301
330
70
100
AcDbEntity
  8
Text
 62
     7
370
     9
100
AcDbLine
 10
18.8976903605392
 20
162.5240339819593
 30
0.0
 11
18.8976903605392
 21
162.4968309227491
 31
0.0
  0
LINE
  5
302
330
70
100
AcDbEntity
  8
Text
 62
     7
370
     9
100
AcDbLine
 10
18.94856870471013
 20
162.5240339819593
 30
0.0
 11
18.94856870471013
 21
162.1102652600293
 31
0.0
  0
LINE
  5
303
330
70
100
AcDbEntity
  8
Text
 62
     7
370
     9
100
AcDbLine
 10
18.99913346894709
 20
162.5240339819593
 30
0.0
 11
18.99913346894709
 21
161.7247971270755
 31
0.0
  0
LINE
  5
304
330
70
100
AcDbEntity
  8
Text
 62
     7
370
     9
100
AcDbLine
 10
19.05001181311802
 20
162.5240339819593
 30
0.0
 11
19.05001181311802
 21
161.3389370192054
 31
0.0
  0
LINE
  5
305
330
70
100
AcDbEntity
  8
Text
 62
     7
370
     9
100
AcDbLine
 10
19.1009685522726
 20
162.5240339819593
 30
0.0
 11
19.1009685522726
 21
160.9530769113346
 31
0.0
  0
LINE
  5
306
330
70
100
AcDbEntity
  8
Text
 62
     7
370
     9
100
AcDbLine
 10
19.15184689644289
 20
162.5240339819593
 30
0.0
 11
19.15184689644289
 21
160.5672168034652
 31
0.0
  0
LINE
  5
307
330
70
100
AcDbEntity
  8
Text
 62
     7
370
     9
100
AcDbLine
 10
19.20280363559682
 20
162.5240339819593
 30
0.0
 11
19.20280363559682
 21
160.1817486705114
 31
0.0
  0
LINE
  5
308
330
70
100
AcDbEntity
  8
Text
 62
     7
370
     9
100
AcDbLine
 10
19.25289802993445
 20
162.5240339819593
 30
0.0
 11
19.25289802993445
 21
159.7954965877243
 31
0.0
  0
LINE
  5
309
330
70
100
AcDbEntity
  8
Text
 62
     7
370
     9
100
AcDbLine
 10
19.30385476908839
 20
162.5240339819593
 30
0.0
 11
19.30385476908839
 21
159.4100284547712
 31
0.0
  0
LINE
  5
30A
330
70
100
AcDbEntity
  8
Text
 62
     7
370
     9
100
AcDbLine
 10
19.35512508817501
 20
162.5240339819593
 30
0.0
 11
19.35512508817501
 21
159.0234627920514
 31
0.0
  0
LINE
  5
30B
330
70
100
AcDbEntity
  8
Text
 62
     7
370
     9
100
AcDbLine
 10
30.65413684618855
 20
84.02149275111716
 30
0.0
 11
17.35464190397572
 21
84.02149275111716
 31
0.0
  0
LINE
  5
30C
330
70
100
AcDbEntity
  8
Text
  6
AI-Linetype-15
 62
     7
370
     9
100
AcDbLine
 10
59.65697398035768
 20
84.02149275111716
 30
0.0
 11
30.65413684618855
 21
84.02149275111716
 31
0.0
  0
LINE
  5
30E
330
70
100
AcDbEntity
  8
Text
 62
     7
370
     9
100
AcDbLine
 10
19.35512508817501
 20
159.0234627920514
 30
0.0
 11
19.35512508817501
 21
84.02149275111716
 31
0.0
  0
LWPOLYLINE
  5
30F
330
70
100
AcDbEntity
  8
Text
 62
     7
370
     9
100
AcDbPolyline
 90
        4
 70
     0
 43
0.0
 10
19.35512508817501
 20
159.0234627920514
 10
18.89384900635696
 20
155.5243811068258
 10
19.81561722016039
 20
155.5243811068258
 10
19.35512508817501
 20
159.0234627920514
  0
LINE
  5
310
330
70
100
AcDbEntity
  8
Text
 62
     7
370
     9
100
AcDbLine
 10
18.8976903605392
 20
155.5243811068258
 30
0.0
 11
18.8976903605392
 21
155.5511921911191
 31
0.0
  0
LINE
  5
311
330
70
100
AcDbEntity
  8
Text
 62
     7
370
     9
100
AcDbLine
 10
18.8976903605392
 20
155.5243811068258
 30
0.0
 11
18.8976903605392
 21
155.5511921911191
 31
0.0
  0
LINE
  5
312
330
70
100
AcDbEntity
  8
Text
 62
     7
370
     9
100
AcDbLine
 10
18.94856870471013
 20
155.5243811068258
 30
0.0
 11
18.94856870471013
 21
155.9366603240728
 31
0.0
  0
LINE
  5
313
330
70
100
AcDbEntity
  8
Text
 62
     7
370
     9
100
AcDbLine
 10
18.99913346894709
 20
155.5243811068258
 30
0.0
 11
18.99913346894709
 21
156.322520431943
 31
0.0
  0
LINE
  5
314
330
70
100
AcDbEntity
  8
Text
 62
     7
370
     9
100
AcDbLine
 10
19.05001181311802
 20
155.5243811068258
 30
0.0
 11
19.05001181311802
 21
156.7086941197458
 31
0.0
  0
LINE
  5
315
330
70
100
AcDbEntity
  8
Text
 62
     7
370
     9
100
AcDbLine
 10
19.1009685522726
 20
155.5243811068258
 30
0.0
 11
19.1009685522726
 21
157.0949462025335
 31
0.0
  0
LINE
  5
316
330
70
100
AcDbEntity
  8
Text
 62
     7
370
     9
100
AcDbLine
 10
19.15184689644289
 20
155.5243811068258
 30
0.0
 11
19.15184689644289
 21
157.4804143354866
 31
0.0
  0
LINE
  5
317
330
70
100
AcDbEntity
  8
Text
 62
     7
370
     9
100
AcDbLine
 10
19.20280363559682
 20
155.5243811068258
 30
0.0
 11
19.20280363559682
 21
157.8662744433568
 31
0.0
  0
LINE
  5
318
330
70
100
AcDbEntity
  8
Text
 62
     7
370
     9
100
AcDbLine
 10
19.25289802993445
 20
155.5243811068258
 30
0.0
 11
19.25289802993445
 21
158.2517425763105
 31
0.0
  0
LINE
  5
319
330
70
100
AcDbEntity
  8
Text
 62
     7
370
     9
100
AcDbLine
 10
19.30385476908839
 20
155.5243811068258
 30
0.0
 11
19.30385476908839
 21
158.637994659097
 31
0.0
  0
LINE
  5
31A
330
70
100
AcDbEntity
  8
Text
 62
     7
370
     9
100
AcDbLine
 10
19.35512508817501
 20
155.5243811068258
 30
0.0
 11
19.35512508817501
 21
159.0234627920514
 31
0.0
  0
LINE
  5
31B
330
70
100
AcDbEntity
  8
Text
 62
     7
370
     9
100
AcDbLine
 10
19.81177586597751
 20
155.5243811068258
 30
0.0
 11
19.81177586597751
 21
155.5511921911191
 31
0.0
  0
LINE
  5
31C
330
70
100
AcDbEntity
  8
Text
 62
     7
370
     9
100
AcDbLine
 10
19.81177586597751
 20
155.5243811068258
 30
0.0
 11
19.81177586597751
 21
155.5511921911191
 31
0.0
  0
LINE
  5
31D
330
70
100
AcDbEntity
  8
Text
 62
     7
370
     9
100
AcDbLine
 10
19.76128949672356
 20
155.5243811068258
 30
0.0
 11
19.76128949672356
 21
155.9366603240728
 31
0.0
  0
LINE
  5
31E
330
70
100
AcDbEntity
  8
Text
 62
     7
370
     9
100
AcDbLine
 10
19.71072473248659
 20
155.5243811068258
 30
0.0
 11
19.71072473248659
 21
156.322520431943
 31
0.0
  0
LINE
  5
31F
330
70
100
AcDbEntity
  8
Text
 62
     7
370
     9
100
AcDbLine
 10
19.65984638831566
 20
155.5243811068258
 30
0.0
 11
19.65984638831566
 21
156.7086941197458
 31
0.0
  0
LINE
  5
320
330
70
100
AcDbEntity
  8
Text
 62
     7
370
     9
100
AcDbLine
 10
19.60849767424539
 20
155.5243811068258
 30
0.0
 11
19.60849767424539
 21
157.0949462025335
 31
0.0
  0
LINE
  5
321
330
70
100
AcDbEntity
  8
Text
 62
     7
370
     9
100
AcDbLine
 10
19.55801130499144
 20
155.5243811068258
 30
0.0
 11
19.55801130499144
 21
157.4804143354866
 31
0.0
  0
LINE
  5
322
330
70
100
AcDbEntity
  8
Text
 62
     7
370
     9
100
AcDbLine
 10
19.5070545658375
 20
155.5243811068258
 30
0.0
 11
19.5070545658375
 21
157.8662744433568
 31
0.0
  0
LINE
  5
323
330
70
100
AcDbEntity
  8
Text
 62
     7
370
     9
100
AcDbLine
 10
19.45656819658354
 20
155.5243811068258
 30
0.0
 11
19.45656819658354
 21
158.2517425763105
 31
0.0
  0
LINE
  5
324
330
70
100
AcDbEntity
  8
Text
 62
     7
370
     9
100
AcDbLine
 10
19.40568985241261
 20
155.5243811068258
 30
0.0
 11
19.40568985241261
 21
158.637994659097
 31
0.0
  0
LINE
  5
325
330
70
100
AcDbEntity
  8
Text
 62
     7
370
     9
100
AcDbLine
 10
19.35512508817501
 20
155.5243811068258
 30
0.0
 11
19.35512508817501
 21
159.0234627920514
 31
0.0
  0
LWPOLYLINE
  5
326
330
70
100
AcDbEntity
  8
Text
 62
     7
370
     9
100
AcDbPolyline
 90
        4
 70
     0
 43
0.0
 10
19.35512508817501
 20
84.02149275111716
 10
19.81561722016039
 20
87.52096641125971
 10
18.89384900635696
 20
87.52096641125971
 10
19.35512508817501
 20
84.02149275111716
  0
LINE
  5
327
330
70
100
AcDbEntity
  8
Text
 62
     7
370
     9
100
AcDbLine
 10
19.81177586597751
 20
87.52096641125971
 30
0.0
 11
19.81177586597751
 21
87.49415532696644
 31
0.0
  0
LINE
  5
328
330
70
100
AcDbEntity
  8
Text
 62
     7
370
     9
100
AcDbLine
 10
19.81177586597751
 20
87.52096641125971
 30
0.0
 11
19.81177586597751
 21
87.49415532696644
 31
0.0
  0
LINE
  5
329
330
70
100
AcDbEntity
  8
Text
 62
     7
370
     9
100
AcDbLine
 10
19.76128949672356
 20
87.52096641125971
 30
0.0
 11
19.76128949672356
 21
87.1082952190957
 31
0.0
  0
LINE
  5
32A
330
70
100
AcDbEntity
  8
Text
 62
     7
370
     9
100
AcDbLine
 10
19.71072473248659
 20
87.52096641125971
 30
0.0
 11
19.71072473248659
 21
86.72243511122621
 31
0.0
  0
LINE
  5
32B
330
70
100
AcDbEntity
  8
Text
 62
     7
370
     9
100
AcDbLine
 10
19.65984638831566
 20
87.52096641125971
 30
0.0
 11
19.65984638831566
 21
86.3357910535228
 31
0.0
  0
LINE
  5
32C
330
70
100
AcDbEntity
  8
Text
 62
     7
370
     9
100
AcDbLine
 10
19.60849767424539
 20
87.52096641125971
 30
0.0
 11
19.60849767424539
 21
85.95071489548535
 31
0.0
  0
LINE
  5
32D
330
70
100
AcDbEntity
  8
Text
 62
     7
370
     9
100
AcDbLine
 10
19.55801130499144
 20
87.52096641125971
 30
0.0
 11
19.55801130499144
 21
85.56485478761587
 31
0.0
  0
LINE
  5
32E
330
70
100
AcDbEntity
  8
Text
 62
     7
370
     9
100
AcDbLine
 10
19.5070545658375
 20
87.52096641125971
 30
0.0
 11
19.5070545658375
 21
85.1782891248961
 31
0.0
  0
LINE
  5
32F
330
70
100
AcDbEntity
  8
Text
 62
     7
370
     9
100
AcDbLine
 10
19.45656819658354
 20
87.52096641125971
 30
0.0
 11
19.45656819658354
 21
84.79242901702535
 31
0.0
  0
LINE
  5
330
330
70
100
AcDbEntity
  8
Text
 62
     7
370
     9
100
AcDbLine
 10
19.40568985241261
 20
87.52096641125971
 30
0.0
 11
19.40568985241261
 21
84.4073528589879
 31
0.0
  0
LINE
  5
331
330
70
100
AcDbEntity
  8
Text
 62
     7
370
     9
100
AcDbLine
 10
19.35512508817501
 20
87.52096641125971
 30
0.0
 11
19.35512508817501
 21
84.02149275111716
 31
0.0
  0
LINE
  5
332
330
70
100
AcDbEntity
  8
Text
 62
     7
370
     9
100
AcDbLine
 10
18.8976903605392
 20
87.52096641125971
 30
0.0
 11
18.8976903605392
 21
87.49415532696644
 31
0.0
  0
LINE
  5
333
330
70
100
AcDbEntity
  8
Text
 62
     7
370
     9
100
AcDbLine
 10
18.8976903605392
 20
87.52096641125971
 30
0.0
 11
18.8976903605392
 21
87.49415532696644
 31
0.0
  0
LINE
  5
334
330
70
100
AcDbEntity
  8
Text
 62
     7
370
     9
100
AcDbLine
 10
18.94856870471013
 20
87.52096641125971
 30
0.0
 11
18.94856870471013
 21
87.1082952190957
 31
0.0
  0
LINE
  5
335
330
70
100
AcDbEntity
  8
Text
 62
     7
370
     9
100
AcDbLine
 10
18.99913346894709
 20
87.52096641125971
 30
0.0
 11
18.99913346894709
 21
86.72243511122621
 31
0.0
  0
LINE
  5
336
330
70
100
AcDbEntity
  8
Text
 62
     7
370
     9
100
AcDbLine
 10
19.05001181311802
 20
87.52096641125971
 30
0.0
 11
19.05001181311802
 21
86.3357910535228
 31
0.0
  0
LINE
  5
337
330
70
100
AcDbEntity
  8
Text
 62
     7
370
     9
100
AcDbLine
 10
19.1009685522726
 20
87.52096641125971
 30
0.0
 11
19.1009685522726
 21
85.95071489548535
 31
0.0
  0
LINE
  5
338
330
70
100
AcDbEntity
  8
Text
 62
     7
370
     9
100
AcDbLine
 10
19.15184689644289
 20
87.52096641125971
 30
0.0
 11
19.15184689644289
 21
85.56485478761587
 31
0.0
  0
LINE
  5
339
330
70
100
AcDbEntity
  8
Text
 62
     7
370
     9
100
AcDbLine
 10
19.20280363559682
 20
87.52096641125971
 30
0.0
 11
19.20280363559682
 21
85.1782891248961
 31
0.0
  0
LINE
  5
33A
330
70
100
AcDbEntity
  8
Text
 62
     7
370
     9
100
AcDbLine
 10
19.25289802993445
 20
87.52096641125971
 30
0.0
 11
19.25289802993445
 21
84.79242901702535
 31
0.0
  0
LINE
  5
33B
330
70
100
AcDbEntity
  8
Text
 62
     7
370
     9
100
AcDbLine
 10
19.30385476908839
 20
87.52096641125971
 30
0.0
 11
19.30385476908839
 21
84.4073528589879
 31
0.0
  0
LINE
  5
33C
330
70
100
AcDbEntity
  8
Text
 62
     7
370
     9
100
AcDbLine
 10
19.35512508817501
 20
87.52096641125971
 30
0.0
 11
19.35512508817501
 21
84.02149275111716
 31
0.0
  0
MTEXT
  5
33D
330
70
100
AcDbEntity
  8
Text
100
AcDbMText
 10
17.62486088630016
 20
182.4100114154435
 30
0.0
 40
0.2
 41
0.0
 46
0.0
 71
     7
 72
     1
  1
\C7;\FINDEX Univers 45 Light|b0|i0|c1;\H5.550364;\W1.000000;55
 11
0.0000000000000001
 21
1.0
 31
0.0
 73
     1
 44
1.0
  0
MTEXT
  5
33E
330
70
100
AcDbEntity
  8
Text
100
AcDbMText
 10
17.88169275472554
 20
116.1547963169899
 30
0.0
 40
0.2
 41
0.0
 46
0.0
 71
     7
 72
     1
  1
\C7;\FINDEX Univers 45 Light|b0|i0|c1;\H5.550364;\W1.000000;75
 11
0.0000000000000001
 21
1.0
 31
0.0
 73
     1
 44
1.0
  0
ENDSEC
  0
SECTION
  2
OBJECTS
  0
DICTIONARY
  5
C
330
0
100
AcDbDictionary
281
     1
  3
ACAD_COLOR
350
63
  3
ACAD_DETAILVIEWSTYLE
350
6A
  3
ACAD_GROUP
350
D
  3
ACAD_LAYOUT
350
62
  3
ACAD_MATERIAL
350
10
  3
ACAD_MLEADERSTYLE
350
66
  3
ACAD_MLINESTYLE
350
5F
  3
ACAD_PLOTSETTINGS
350
61
  3
ACAD_PLOTSTYLENAME
350
E
  3
ACAD_SCALELIST
350
42
  3
ACAD_SECTIONVIEWSTYLE
350
68
  3
ACAD_TABLESTYLE
350
64
  3
ACAD_VISUALSTYLE
350
29
  3
ACDB_RECOMPOSE_DATA
350
347
  3
AcDbVariableDictionary
350
33F
  0
DICTIONARY
  5
63
102
{ACAD_REACTORS
330
C
102
}
330
C
100
AcDbDictionary
281
     1
  0
DICTIONARY
  5
6A
102
{ACAD_REACTORS
330
C
102
}
330
C
100
AcDbDictionary
281
     1
  3
Imperial24
350
6B
  0
DICTIONARY
  5
D
102
{ACAD_REACTORS
330
C
102
}
330
C
100
AcDbDictionary
281
     1
  0
DICTIONARY
  5
62
102
{ACAD_REACTORS
330
C
102
}
330
C
100
AcDbDictionary
281
     1
  3
Layout1
350
6F
  3
Layout2
350
77
  3
Model
350
73
  0
DICTIONARY
  5
10
102
{ACAD_REACTORS
330
C
102
}
330
C
100
AcDbDictionary
281
     1
  3
ByBlock
350
19
  3
ByLayer
350
11
  3
Global
350
21
  0
DICTIONARY
  5
66
102
{ACAD_REACTORS
330
C
102
}
330
C
100
AcDbDictionary
281
     1
  3
Standard
350
67
  0
DICTIONARY
  5
5F
102
{ACAD_REACTORS
330
C
102
}
330
C
100
AcDbDictionary
281
     1
  3
Standard
350
60
  0
DICTIONARY
  5
61
102
{ACAD_REACTORS
330
C
102
}
330
C
100
AcDbDictionary
281
     1
  0
ACDBDICTIONARYWDFLT
  5
E
102
{ACAD_REACTORS
330
C
102
}
330
C
100
AcDbDictionary
281
     1
  3
Normal
350
F
100
AcDbDictionaryWithDefault
340
F
  0
DICTIONARY
  5
42
102
{ACAD_REACTORS
330
C
102
}
330
C
100
AcDbDictionary
281
     1
  3
A0
350
43
  3
A1
350
44
  3
A2
350
45
  3
A3
350
46
  3
A4
350
47
  3
A5
350
48
  3
A6
350
49
  3
A7
350
4A
  3
A8
350
4B
  3
A9
350
4C
  3
B0
350
4D
  3
B1
350
4E
  3
B2
350
4F
  3
B3
350
50
  3
B4
350
51
  3
B5
350
52
  3
B6
350
53
  0
DICTIONARY
  5
68
102
{ACAD_REACTORS
330
C
102
}
330
C
100
AcDbDictionary
281
     1
  3
Imperial24
350
69
  0
DICTIONARY
  5
64
102
{ACAD_REACTORS
330
C
102
}
330
C
100
AcDbDictionary
281
     1
  3
Standard
350
65
  0
DICTIONARY
  5
29
102
{ACAD_REACTORS
330
C
102
}
330
C
100
AcDbDictionary
281
     1
  3
2dWireframe
350
2F
  3
Basic
350
2E
  3
Brighten
350
35
  3
ColorChange
350
39
  3
Conceptual
350
32
  3
Dim
350
34
  3
EdgeColorOff
350
41
  3
Facepattern
350
38
  3
Flat
350
2A
  3
FlatWithEdges
350
2B
  3
Gouraud
350
2C
  3
GouraudWithEdges
350
2D
  3
Hidden
350
31
  3
JitterOff
350
3F
  3
Linepattern
350
37
  3
OverhangOff
350
40
  3
Realistic
350
33
  3
Shaded
350
3E
  3
Shaded with edges
350
3D
  3
Shades of Gray
350
3A
  3
Sketchy
350
3B
  3
Thicken
350
36
  3
Wireframe
350
30
  3
X-Ray
350
3C
  0
XRECORD
  5
347
102
{ACAD_REACTORS
330
C
102
}
330
C
100
AcDbXrecord
280
     1
 90
        1
330
65
  0
DICTIONARY
  5
33F
102
{ACAD_REACTORS
330
C
102
}
330
C
100
AcDbDictionary
281
     1
  3
CANNOSCALE
350
344
  3
CMLEADERSTYLE
350
341
  3
CTABLESTYLE
350
340
  3
CVIEWDETAILSTYLE
350
342
  3
CVIEWSECTIONSTYLE
350
343
  0
ACDBDETAILVIEWSTYLE
  5
6B
102
{ACAD_REACTORS
330
6A
102
}
330
6A
100
AcDbModelDocViewStyle
 70
     0
  3
Imperial24
290
     1
300
Imperial24
 90
        0
100
AcDbDetailViewStyle
 70
     0
 71
     0
 90
        3
 71
     1
340
55
 62
   256
 40
0.24
340
0
 62
   256
 40
0.24
300

 40
0.36
280
     3
 71
     2
340
5D
 90
       25
 62
   256
 71
     3
340
55
 62
   256
 40
0.24
 90
        1
 40
0.75
 90
        1
300
%<\AcVar ViewType \f "%tc1">% %<\AcVar ViewDetailId>%\PSCALE %<\AcVar ViewScale \f "%sn">%
 71
     4
340
5D
 90
       25
 62
   256
340
5D
 90
       25
 62
   256
280
     0
  0
LAYOUT
  5
6F
102
{ACAD_REACTORS
330
62
102
}
330
62
100
AcDbPlotSettings
  1

  2

  4

  6

 40
0.0
 41
0.0
 42
0.0
 43
0.0
 44
0.0
 45
0.0
 46
0.0
 47
0.0
 48
0.0
 49
0.0
140
0.0
141
0.0
142
1.0
143
1.0
 70
   688
 72
     0
 73
     0
 74
     5
  7

 75
    16
147
1.0
 76
     0
 77
     2
 78
   300
148
0.0
149
0.0
100
AcDbLayout
  1
Layout1
 70
     1
 71
     1
 10
0.0
 20
0.0
 11
12.0
 21
9.0
 12
0.0
 22
0.0
 32
0.0
 14
0.0
 24
0.0
 34
0.0
 15
0.0
 25
0.0
 35
0.0
146
0.0
 13
0.0
 23
0.0
 33
0.0
 16
1.0
 26
0.0
 36
0.0
 17
0.0
 27
1.0
 37
0.0
 76
     0
330
6C
  0
LAYOUT
  5
77
102
{ACAD_REACTORS
330
62
102
}
330
62
100
AcDbPlotSettings
  1

  2

  4

  6

 40
0.0
 41
0.0
 42
0.0
 43
0.0
 44
0.0
 45
0.0
 46
0.0
 47
0.0
 48
0.0
 49
0.0
140
0.0
141
0.0
142
1.0
143
1.0
 70
   688
 72
     0
 73
     0
 74
     5
  7

 75
    16
147
1.0
 76
     0
 77
     2
 78
   300
148
0.0
149
0.0
100
AcDbLayout
  1
Layout2
 70
     1
 71
     2
 10
0.0
 20
0.0
 11
12.0
 21
9.0
 12
0.0
 22
0.0
 32
0.0
 14
0.0
 24
0.0
 34
0.0
 15
0.0
 25
0.0
 35
0.0
146
0.0
 13
0.0
 23
0.0
 33
0.0
 16
1.0
 26
0.0
 36
0.0
 17
0.0
 27
1.0
 37
0.0
 76
     0
330
74
  0
LAYOUT
  5
73
102
{ACAD_REACTORS
330
62
102
}
330
62
100
AcDbPlotSettings
  1

  2

  4

  6

 40
0.0
 41
0.0
 42
0.0
 43
0.0
 44
0.0
 45
0.0
 46
0.0
 47
0.0
 48
0.0
 49
0.0
140
0.0
141
0.0
142
1.0
143
1.0
 70
  1712
 72
     0
 73
     0
 74
     0
  7

 75
     0
147
1.0
 76
     0
 77
     2
 78
   300
148
0.0
149
0.0
100
AcDbLayout
  1
Model
 70
     1
 71
     0
 10
0.0
 20
0.0
 11
12.0
 21
9.0
 12
0.0
 22
0.0
 32
0.0
 14
0.0
 24
0.0
 34
0.0
 15
0.0
 25
0.0
 35
0.0
146
0.0
 13
0.0
 23
0.0
 33
0.0
 16
1.0
 26
0.0
 36
0.0
 17
0.0
 27
1.0
 37
0.0
 76
     0
330
70
  0
MATERIAL
  5
19
102
{ACAD_XDICTIONARY
360
1A
102
}
102
{ACAD_REACTORS
330
10
102
}
330
10
100
AcDbMaterial
  1
ByBlock
 72
     0
 43
0.0208333333333333
 43
0.0
 43
0.0
 43
0.0
 43
0.0
 43
0.0208333333333333
 43
0.0
 43
0.0
 43
0.0
 43
0.0
 43
1.0
 43
0.0
 43
0.0
 43
0.0
 43
0.0
 43
1.0
 77
     0
 47
0.0208333333333333
 47
0.0
 47
0.0
 47
0.0
 47
0.0
 47
0.0208333333333333
 47
0.0
 47
0.0
 47
0.0
 47
0.0
 47
1.0
 47
0.0
 47
0.0
 47
0.0
 47
0.0
 47
1.0
171
     0
 49
0.0208333333333333
 49
0.0
 49
0.0
 49
0.0
 49
0.0
 49
0.0208333333333333
 49
0.0
 49
0.0
 49
0.0
 49
0.0
 49
1.0
 49
0.0
 49
0.0
 49
0.0
 49
0.0
 49
1.0
175
     0
142
0.0208333333333333
142
0.0
142
0.0
142
0.0
142
0.0
142
0.0208333333333333
142
0.0
142
0.0
142
0.0
142
0.0
142
1.0
142
0.0
142
0.0
142
0.0
142
0.0
142
1.0
179
     0
144
0.0208333333333333
144
0.0
144
0.0
144
0.0
144
0.0
144
0.0208333333333333
144
0.0
144
0.0
144
0.0
144
0.0
144
1.0
144
0.0
144
0.0
144
0.0
144
0.0
144
1.0
147
0.0208333333333333
147
0.0
147
0.0
147
0.0
147
0.0
147
0.0208333333333333
147
0.0
147
0.0
147
0.0
147
0.0
147
1.0
147
0.0
147
0.0
147
0.0
147
0.0
147
1.0
  0
MATERIAL
  5
11
102
{ACAD_XDICTIONARY
360
12
102
}
102
{ACAD_REACTORS
330
10
102
}
330
10
100
AcDbMaterial
  1
ByLayer
 72
     0
 43
0.0208333333333333
 43
0.0
 43
0.0
 43
0.0
 43
0.0
 43
0.0208333333333333
 43
0.0
 43
0.0
 43
0.0
 43
0.0
 43
1.0
 43
0.0
 43
0.0
 43
0.0
 43
0.0
 43
1.0
 77
     0
 47
0.0208333333333333
 47
0.0
 47
0.0
 47
0.0
 47
0.0
 47
0.0208333333333333
 47
0.0
 47
0.0
 47
0.0
 47
0.0
 47
1.0
 47
0.0
 47
0.0
 47
0.0
 47
0.0
 47
1.0
171
     0
 49
0.0208333333333333
 49
0.0
 49
0.0
 49
0.0
 49
0.0
 49
0.0208333333333333
 49
0.0
 49
0.0
 49
0.0
 49
0.0
 49
1.0
 49
0.0
 49
0.0
 49
0.0
 49
0.0
 49
1.0
175
     0
142
0.0208333333333333
142
0.0
142
0.0
142
0.0
142
0.0
142
0.0208333333333333
142
0.0
142
0.0
142
0.0
142
0.0
142
1.0
142
0.0
142
0.0
142
0.0
142
0.0
142
1.0
179
     0
144
0.0208333333333333
144
0.0
144
0.0
144
0.0
144
0.0
144
0.0208333333333333
144
0.0
144
0.0
144
0.0
144
0.0
144
1.0
144
0.0
144
0.0
144
0.0
144
0.0
144
1.0
147
0.0208333333333333
147
0.0
147
0.0
147
0.0
147
0.0
147
0.0208333333333333
147
0.0
147
0.0
147
0.0
147
0.0
147
1.0
147
0.0
147
0.0
147
0.0
147
0.0
147
1.0
  0
MATERIAL
  5
21
102
{ACAD_XDICTIONARY
360
22
102
}
102
{ACAD_REACTORS
330
10
102
}
330
10
100
AcDbMaterial
  1
Global
 72
     0
 43
0.0208333333333333
 43
0.0
 43
0.0
 43
0.0
 43
0.0
 43
0.0208333333333333
 43
0.0
 43
0.0
 43
0.0
 43
0.0
 43
1.0
 43
0.0
 43
0.0
 43
0.0
 43
0.0
 43
1.0
 77
     0
 47
0.0208333333333333
 47
0.0
 47
0.0
 47
0.0
 47
0.0
 47
0.0208333333333333
 47
0.0
 47
0.0
 47
0.0
 47
0.0
 47
1.0
 47
0.0
 47
0.0
 47
0.0
 47
0.0
 47
1.0
171
     0
 49
0.0208333333333333
 49
0.0
 49
0.0
 49
0.0
 49
0.0
 49
0.0208333333333333
 49
0.0
 49
0.0
 49
0.0
 49
0.0
 49
1.0
 49
0.0
 49
0.0
 49
0.0
 49
0.0
 49
1.0
175
     0
142
0.0208333333333333
142
0.0
142
0.0
142
0.0
142
0.0
142
0.0208333333333333
142
0.0
142
0.0
142
0.0
142
0.0
142
1.0
142
0.0
142
0.0
142
0.0
142
0.0
142
1.0
179
     0
144
0.0208333333333333
144
0.0
144
0.0
144
0.0
144
0.0
144
0.0208333333333333
144
0.0
144
0.0
144
0.0
144
0.0
144
1.0
144
0.0
144
0.0
144
0.0
144
0.0
144
1.0
147
0.0208333333333333
147
0.0
147
0.0
147
0.0
147
0.0
147
0.0208333333333333
147
0.0
147
0.0
147
0.0
147
0.0
147
1.0
147
0.0
147
0.0
147
0.0
147
0.0
147
1.0
  0
MLEADERSTYLE
  5
67
102
{ACAD_REACTORS
330
66
102
}
330
66
100
AcDbMLeaderStyle
179
     2
170
     2
171
     1
172
     0
 90
        2
 40
0.0
 41
0.0
173
     1
 91
-1056964608
340
5B
 92
       -2
290
     1
 42
0.09
291
     1
 43
0.36
  3
Standard
 44
0.18
300

342
55
174
     1
178
     6
175
     1
176
     0
 93
-1056964608
 45
0.18
292
     0
297
     0
 46
0.18
 94
-1056964608
 47
1.0
 49
1.0
140
1.0
293
     1
141
0.0
294
     1
177
     0
142
1.0
295
     1
296
     0
143
0.125
271
     0
272
     9
273
     9
298
     1
  0
MLINESTYLE
  5
60
102
{ACAD_REACTORS
330
5F
102
}
330
5F
100
AcDbMlineStyle
  2
STANDARD
 70
     0
  3

 62
   256
 51
90.0
 52
90.0
 71
     2
 49
0.5
 62
   256
  6
BYLAYER
 49
-0.5
 62
   256
  6
BYLAYER
  0
ACDBPLACEHOLDER
  5
F
102
{ACAD_REACTORS
330
E
102
}
330
E
  0
SCALE
  5
43
102
{ACAD_REACTORS
330
42
102
}
330
42
100
AcDbScale
 70
     0
300
1:1
140
1.0
141
1.0
290
     1
  0
SCALE
  5
44
102
{ACAD_REACTORS
330
42
102
}
330
42
100
AcDbScale
 70
     0
300
1/128" = 1'-0"
140
0.0078125
141
12.0
290
     0
  0
SCALE
  5
45
102
{ACAD_REACTORS
330
42
102
}
330
42
100
AcDbScale
 70
     0
300
1/64" = 1'-0"
140
0.015625
141
12.0
290
     0
  0
SCALE
  5
46
102
{ACAD_REACTORS
330
42
102
}
330
42
100
AcDbScale
 70
     0
300
1/32" = 1'-0"
140
0.03125
141
12.0
290
     0
  0
SCALE
  5
47
102
{ACAD_REACTORS
330
42
102
}
330
42
100
AcDbScale
 70
     0
300
1/16" = 1'-0"
140
0.0625
141
12.0
290
     0
  0
SCALE
  5
48
102
{ACAD_REACTORS
330
42
102
}
330
42
100
AcDbScale
 70
     0
300
3/32" = 1'-0"
140
0.09375
141
12.0
290
     0
  0
SCALE
  5
49
102
{ACAD_REACTORS
330
42
102
}
330
42
100
AcDbScale
 70
     0
300
1/8" = 1'-0"
140
0.125
141
12.0
290
     0
  0
SCALE
  5
4A
102
{ACAD_REACTORS
330
42
102
}
330
42
100
AcDbScale
 70
     0
300
3/16" = 1'-0"
140
0.1875
141
12.0
290
     0
  0
SCALE
  5
4B
102
{ACAD_REACTORS
330
42
102
}
330
42
100
AcDbScale
 70
     0
300
1/4" = 1'-0"
140
0.25
141
12.0
290
     0
  0
SCALE
  5
4C
102
{ACAD_REACTORS
330
42
102
}
330
42
100
AcDbScale
 70
     0
300
3/8" = 1'-0"
140
0.375
141
12.0
290
     0
  0
SCALE
  5
4D
102
{ACAD_REACTORS
330
42
102
}
330
42
100
AcDbScale
 70
     0
300
1/2" = 1'-0"
140
0.5
141
12.0
290
     0
  0
SCALE
  5
4E
102
{ACAD_REACTORS
330
42
102
}
330
42
100
AcDbScale
 70
     0
300
3/4" = 1'-0"
140
0.75
141
12.0
290
     0
  0
SCALE
  5
4F
102
{ACAD_REACTORS
330
42
102
}
330
42
100
AcDbScale
 70
     0
300
1" = 1'-0"
140
1.0
141
12.0
290
     0
  0
SCALE
  5
50
102
{ACAD_REACTORS
330
42
102
}
330
42
100
AcDbScale
 70
     0
300
1-1/2" = 1'-0"
140
1.5
141
12.0
290
     0
  0
SCALE
  5
51
102
{ACAD_REACTORS
330
42
102
}
330
42
100
AcDbScale
 70
     0
300
3" = 1'-0"
140
3.0
141
12.0
290
     0
  0
SCALE
  5
52
102
{ACAD_REACTORS
330
42
102
}
330
42
100
AcDbScale
 70
     0
300
6" = 1'-0"
140
6.0
141
12.0
290
     0
  0
SCALE
  5
53
102
{ACAD_REACTORS
330
42
102
}
330
42
100
AcDbScale
 70
     0
300
1'-0" = 1'-0"
140
12.0
141
12.0
290
     0
  0
ACDBSECTIONVIEWSTYLE
  5
69
102
{ACAD_REACTORS
330
68
102
}
330
68
100
AcDbModelDocViewStyle
 70
     0
  3
Imperial24
290
     1
300
Imperial24
 90
        0
100
AcDbSectionViewStyle
 70
     0
 71
     0
 90
       78
 71
     1
340
55
 62
   256
 40
0.24
340
0
340
0
 62
   256
 40
0.24
300
I, O, Q, S, X, Z
 40
0.48
 90
        3
 40
0.18
 90
        1
 71
     2
340
5D
 90
       25
 62
   256
340
5D
 90
       50
 62
   256
 40
0.24
 40
0.0
 40
0.24
 71
     3
340
55
 62
   256
 40
0.24
 90
        1
 40
0.75
 90
        1
300
%<\AcVar ViewType \f "%tc1">% %<\AcVar ViewSectionStartId>%-%<\AcVar ViewSectionEndId>%\PSCALE %<\AcVar ViewScale \f "%sn">%
 71
     4
 62
   256
 62
   257
300
ANSI31
 40
1.0
 90
        0
290
     0
290
     0
 90
        6
 40
0.0
 40
1.570796326794896
 40
0.2617993877991494
 40
1.308996938995747
 40
-0.2617993877991494
 40
1.832595714594046
  0
TABLESTYLE
  5
65
102
{ACAD_XDICTIONARY
360
345
102
}
102
{ACAD_REACTORS
330
64
102
}
330
64
100
AcDbTableStyle
280
     0
  3
Standard
 70
     0
 71
     0
 40
0.06
 41
0.06
280
     0
281
     0
  7
Standard
140
0.18
170
     2
 62
     0
 63
     7
283
     0
 90
      512
 91
        0
  1

274
    -2
284
     1
 64
     0
275
    -2
285
     1
 65
     0
276
    -2
286
     1
 66
     0
277
    -2
287
     1
 67
     0
278
    -2
288
     1
 68
     0
279
    -2
289
     1
 69
     0
  7
Standard
140
0.25
170
     5
 62
     0
 63
     7
283
     0
 90
      512
 91
        0
  1

274
    -2
284
     1
 64
     0
275
    -2
285
     1
 65
     0
276
    -2
286
     1
 66
     0
277
    -2
287
     1
 67
     0
278
    -2
288
     1
 68
     0
279
    -2
289
     1
 69
     0
  7
Standard
140
0.18
170
     5
 62
     0
 63
     7
283
     0
 90
      512
 91
        0
  1

274
    -2
284
     1
 64
     0
275
    -2
285
     1
 65
     0
276
    -2
286
     1
 66
     0
277
    -2
287
     1
 67
     0
278
    -2
288
     1
 68
     0
279
    -2
289
     1
 69
     0
  0
VISUALSTYLE
  5
2F
102
{ACAD_REACTORS
330
29
102
}
330
29
100
AcDbVisualStyle
  2
2dWireframe
 70
     4
177
     3
291
     0
 70
    58
 90
        0
176
     1
 90
        2
176
     1
 90
        0
176
     1
 90
        0
176
     1
 40
0.6
176
     1
 40
30.0
176
     1
 62
     7
420
 16777215
176
     1
 90
        1
176
     1
 90
        4
176
     1
 62
     7
176
     1
 62
   257
176
     1
 90
        1
176
     1
 90
        1
176
     1
 40
1.0
176
     1
 90
        0
176
     1
 62
   257
176
     1
 40
1.0
176
     1
 90
        1
176
     1
 90
        6
176
     1
 90
        2
176
     1
 62
     7
176
     1
 90
        5
176
     1
 90
        0
176
     1
 90
        0
176
     1
290
     0
176
     1
 90
        1
176
     1
 40
0.0
176
     1
 90
        0
176
     1
290
     1
176
     1
290
     1
176
     1
290
     0
176
     1
290
     0
176
     1
290
     0
176
     1
290
     0
176
     1
290
     0
176
     1
290
     0
176
     1
290
     0
176
     1
 90
       50
176
     1
 40
0.0
176
     1
 40
1.0
176
     1
 90
        0
176
     1
 62
    18
420
        0
176
     1
 90
       50
176
     1
 90
        3
176
     1
 62
     5
420
      255
176
     1
290
     0
176
     1
 90
       50
176
     1
 90
       50
176
     1
 90
       50
176
     1
290
     0
176
     1
 90
       50
176
     1
 62
   256
176
     0
 40
1.0
176
     0
 90
        2
176
     1
  1
strokes_ogs.tif
176
     1
290
     0
176
     1
 40
1.0
176
     1
 40
1.0
176
     1
  0
VISUALSTYLE
  5
2E
102
{ACAD_REACTORS
330
29
102
}
330
29
100
AcDbVisualStyle
  2
Basic
 70
     7
177
     3
291
     1
 70
    58
 90
        1
176
     1
 90
        0
176
     1
 90
        1
176
     1
 90
        0
176
     1
 40
0.6
176
     1
 40
30.0
176
     1
 62
     7
420
 16777215
176
     1
 90
        0
176
     1
 90
        4
176
     1
 62
     7
176
     1
 62
   257
176
     1
 90
        1
176
     1
 90
        1
176
     1
 40
1.0
176
     1
 90
        8
176
     1
 62
     7
176
     1
 40
1.0
176
     1
 90
        1
176
     1
 90
        6
176
     1
 90
        2
176
     1
 62
     7
176
     1
 90
        5
176
     1
 90
        0
176
     1
 90
        0
176
     1
290
     0
176
     1
 90
        1
176
     1
 40
0.0
176
     1
 90
        0
176
     1
290
     0
176
     1
290
     1
176
     1
290
     1
176
     1
290
     0
176
     1
290
     0
176
     1
290
     0
176
     1
290
     0
176
     1
290
     0
176
     1
290
     0
176
     1
 90
       50
176
     1
 40
0.0
176
     1
 40
1.0
176
     1
 90
        0
176
     1
 62
    18
420
        0
176
     1
 90
       50
176
     1
 90
        3
176
     1
 62
     5
420
      255
176
     1
290
     0
176
     1
 90
       50
176
     1
 90
       50
176
     1
 90
       50
176
     1
290
     0
176
     1
 90
       50
176
     1
 62
   256
176
     0
 40
1.0
176
     0
 90
        2
176
     1
  1
strokes_ogs.tif
176
     1
290
     0
176
     1
 40
1.0
176
     1
 40
1.0
176
     1
  0
VISUALSTYLE
  5
35
102
{ACAD_REACTORS
330
29
102
}
330
29
100
AcDbVisualStyle
  2
Brighten
 70
    12
177
     3
291
     1
 70
    58
 90
        2
176
     1
 90
        2
176
     1
 90
        0
176
     1
 90
        0
176
     1
 40
0.6
176
     1
 40
30.0
176
     1
 62
     7
420
 16777215
176
     1
 90
        1
176
     1
 90
        4
176
     1
 62
     7
176
     1
 62
   257
176
     1
 90
        1
176
     1
 90
        1
176
     1
 40
1.0
176
     1
 90
        8
176
     1
 62
     7
176
     1
 40
1.0
176
     1
 90
        1
176
     1
 90
        6
176
     1
 90
        2
176
     1
 62
     7
176
     1
 90
        5
176
     1
 90
        0
176
     1
 90
        0
176
     1
290
     0
176
     1
 90
        1
176
     1
 40
50.0
176
     1
 90
        0
176
     1
290
     0
176
     1
290
     1
176
     1
290
     1
176
     1
290
     0
176
     1
290
     0
176
     1
290
     0
176
     1
290
     0
176
     1
290
     0
176
     1
290
     0
176
     1
 90
       50
176
     1
 40
0.0
176
     1
 40
1.0
176
     1
 90
        0
176
     1
 62
    18
420
        0
176
     1
 90
       50
176
     1
 90
        3
176
     1
 62
     5
420
      255
176
     1
290
     0
176
     1
 90
       50
176
     1
 90
       50
176
     1
 90
       50
176
     1
290
     0
176
     1
 90
       50
176
     1
 62
   256
176
     0
 40
1.0
176
     0
 90
        2
176
     1
  1
strokes_ogs.tif
176
     1
290
     0
176
     1
 40
1.0
176
     1
 40
1.0
176
     1
  0
VISUALSTYLE
  5
39
102
{ACAD_REACTORS
330
29
102
}
330
29
100
AcDbVisualStyle
  2
ColorChange
 70
    16
177
     3
291
     1
 70
    58
 90
        2
176
     1
 90
        2
176
     1
 90
        3
176
     1
 90
        0
176
     1
 40
0.6
176
     1
 40
30.0
176
     1
 62
     8
420
  8421504
176
     1
 90
        1
176
     1
 90
        4
176
     1
 62
     7
176
     1
 62
   257
176
     1
 90
        1
176
     1
 90
        1
176
     1
 40
1.0
176
     1
 90
        8
176
     1
 62
     8
420
  8421504
176
     1
 40
1.0
176
     1
 90
        1
176
     1
 90
        6
176
     1
 90
        2
176
     1
 62
     7
176
     1
 90
        5
176
     1
 90
        0
176
     1
 90
        0
176
     1
290
     0
176
     1
 90
        1
176
     1
 40
0.0
176
     1
 90
        0
176
     1
290
     0
176
     1
290
     1
176
     1
290
     1
176
     1
290
     0
176
     1
290
     0
176
     1
290
     0
176
     1
290
     0
176
     1
290
     0
176
     1
290
     0
176
     1
 90
       50
176
     1
 40
0.0
176
     1
 40
1.0
176
     1
 90
        0
176
     1
 62
    18
420
        0
176
     1
 90
       50
176
     1
 90
        3
176
     1
 62
     5
420
      255
176
     1
290
     0
176
     1
 90
       50
176
     1
 90
       50
176
     1
 90
       50
176
     1
290
     0
176
     1
 90
       50
176
     1
 62
   256
176
     0
 40
1.0
176
     0
 90
        2
176
     1
  1
strokes_ogs.tif
176
     1
290
     0
176
     1
 40
1.0
176
     1
 40
1.0
176
     1
  0
VISUALSTYLE
  5
32
102
{ACAD_REACTORS
330
29
102
}
330
29
100
AcDbVisualStyle
  2
Conceptual
 70
     9
177
     3
291
     0
 70
    58
 90
        3
176
     1
 90
        2
176
     1
 90
        0
176
     1
 90
        0
176
     1
 40
0.6
176
     1
 40
30.0
176
     1
 62
     7
420
 16777215
176
     1
 90
        2
176
     1
 90
        2
176
     1
 62
     7
176
     1
 62
   257
176
     1
 90
        1
176
     1
 90
        1
176
     1
 40
179.0
176
     1
 90
        8
176
     1
 62
     7
176
     1
 40
1.0
176
     1
 90
        1
176
     1
 90
        6
176
     1
 90
        2
176
     1
 62
     7
176
     1
 90
        3
176
     1
 90
        0
176
     1
 90
        0
176
     1
290
     0
176
     1
 90
        1
176
     1
 40
0.0
176
     1
 90
        0
176
     1
290
     0
176
     1
290
     1
176
     1
290
     1
176
     1
290
     0
176
     1
290
     0
176
     1
290
     0
176
     1
290
     0
176
     1
290
     0
176
     1
290
     0
176
     1
 90
       50
176
     1
 40
0.0
176
     1
 40
1.0
176
     1
 90
        0
176
     1
 62
    18
420
        0
176
     1
 90
       50
176
     1
 90
        3
176
     1
 62
     5
420
      255
176
     1
290
     0
176
     1
 90
       50
176
     1
 90
       50
176
     1
 90
       50
176
     1
290
     0
176
     1
 90
       50
176
     1
 62
   256
176
     0
 40
1.0
176
     0
 90
        2
176
     1
  1
strokes_ogs.tif
176
     1
290
     0
176
     1
 40
1.0
176
     1
 40
1.0
176
     1
  0
VISUALSTYLE
  5
34
102
{ACAD_REACTORS
330
29
102
}
330
29
100
AcDbVisualStyle
  2
Dim
 70
    11
177
     3
291
     1
 70
    58
 90
        2
176
     1
 90
        2
176
     1
 90
        0
176
     1
 90
        0
176
     1
 40
0.6
176
     1
 40
30.0
176
     1
 62
     7
420
 16777215
176
     1
 90
        1
176
     1
 90
        4
176
     1
 62
     7
176
     1
 62
   257
176
     1
 90
        1
176
     1
 90
        1
176
     1
 40
1.0
176
     1
 90
        8
176
     1
 62
     7
176
     1
 40
1.0
176
     1
 90
        1
176
     1
 90
        6
176
     1
 90
        2
176
     1
 62
     7
176
     1
 90
        5
176
     1
 90
        0
176
     1
 90
        0
176
     1
290
     0
176
     1
 90
        1
176
     1
 40
-50.0
176
     1
 90
        0
176
     1
290
     0
176
     1
290
     1
176
     1
290
     1
176
     1
290
     0
176
     1
290
     0
176
     1
290
     0
176
     1
290
     0
176
     1
290
     0
176
     1
290
     0
176
     1
 90
       50
176
     1
 40
0.0
176
     1
 40
1.0
176
     1
 90
        0
176
     1
 62
    18
420
        0
176
     1
 90
       50
176
     1
 90
        3
176
     1
 62
     5
420
      255
176
     1
290
     0
176
     1
 90
       50
176
     1
 90
       50
176
     1
 90
       50
176
     1
290
     0
176
     1
 90
       50
176
     1
 62
   256
176
     0
 40
1.0
176
     0
 90
        2
176
     1
  1
strokes_ogs.tif
176
     1
290
     0
176
     1
 40
1.0
176
     1
 40
1.0
176
     1
  0
VISUALSTYLE
  5
41
102
{ACAD_REACTORS
330
29
102
}
330
29
100
AcDbVisualStyle
  2
EdgeColorOff
 70
    22
177
     3
291
     1
 70
    58
 90
        2
176
     0
 90
        2
176
     0
 90
        0
176
     0
 90
        0
176
     0
 40
0.6
176
     0
 40
30.0
176
     0
 62
     7
420
 16777215
176
     0
 90
        1
176
     0
 90
        4
176
     0
 62
     7
176
     0
 62
   257
176
     0
 90
        1
176
     0
 90
        1
176
     0
 40
1.0
176
     0
 90
        8
176
     2
 62
     7
176
     0
 40
1.0
176
     0
 90
        1
176
     0
 90
        6
176
     0
 90
        2
176
     0
 62
     7
176
     0
 90
        5
176
     0
 90
        0
176
     0
 90
        0
176
     0
290
     0
176
     0
 90
        1
176
     0
 40
0.0
176
     0
 90
        0
176
     0
290
     0
176
     0
290
     1
176
     0
290
     1
176
     0
290
     0
176
     0
290
     0
176
     0
290
     0
176
     0
290
     0
176
     0
290
     0
176
     0
290
     0
176
     0
 90
       50
176
     0
 40
0.0
176
     0
 40
1.0
176
     0
 90
        0
176
     0
 62
    18
420
        0
176
     0
 90
       50
176
     0
 90
        3
176
     0
 62
     5
420
      255
176
     0
290
     0
176
     0
 90
       50
176
     0
 90
       50
176
     0
 90
       50
176
     0
290
     0
176
     0
 90
       50
176
     0
 62
   256
176
     0
 40
1.0
176
     0
 90
        2
176
     0
  1
strokes_ogs.tif
176
     0
290
     0
176
     0
 40
1.0
176
     0
 40
1.0
176
     0
  0
VISUALSTYLE
  5
38
102
{ACAD_REACTORS
330
29
102
}
330
29
100
AcDbVisualStyle
  2
Facepattern
 70
    15
177
     3
291
     1
 70
    58
 90
        2
176
     1
 90
        2
176
     1
 90
        0
176
     1
 90
        0
176
     1
 40
0.6
176
     1
 40
30.0
176
     1
 62
     7
420
 16777215
176
     1
 90
        1
176
     1
 90
        4
176
     1
 62
     7
176
     1
 62
   257
176
     1
 90
        1
176
     1
 90
        1
176
     1
 40
1.0
176
     1
 90
        8
176
     1
 62
     7
176
     1
 40
1.0
176
     1
 90
        1
176
     1
 90
        6
176
     1
 90
        2
176
     1
 62
     7
176
     1
 90
        5
176
     1
 90
        0
176
     1
 90
        0
176
     1
290
     0
176
     1
 90
        1
176
     1
 40
0.0
176
     1
 90
        0
176
     1
290
     0
176
     1
290
     1
176
     1
290
     1
176
     1
290
     0
176
     1
290
     0
176
     1
290
     0
176
     1
290
     0
176
     1
290
     0
176
     1
290
     0
176
     1
 90
       50
176
     1
 40
0.0
176
     1
 40
1.0
176
     1
 90
        0
176
     1
 62
    18
420
        0
176
     1
 90
       50
176
     1
 90
        3
176
     1
 62
     5
420
      255
176
     1
290
     0
176
     1
 90
       50
176
     1
 90
       50
176
     1
 90
       50
176
     1
290
     0
176
     1
 90
       50
176
     1
 62
   256
176
     0
 40
1.0
176
     0
 90
        2
176
     1
  1
strokes_ogs.tif
176
     1
290
     0
176
     1
 40
1.0
176
     1
 40
1.0
176
     1
  0
VISUALSTYLE
  5
2A
102
{ACAD_REACTORS
330
29
102
}
330
29
100
AcDbVisualStyle
  2
Flat
 70
     0
177
     3
291
     1
 70
    58
 90
        2
176
     1
 90
        1
176
     1
 90
        1
176
     1
 90
        2
176
     1
 40
0.6
176
     1
 40
30.0
176
     1
 62
     7
420
 16777215
176
     1
 90
        0
176
     1
 90
        0
176
     1
 62
     7
176
     1
 62
   257
176
     1
 90
        1
176
     1
 90
        1
176
     1
 40
1.0
176
     1
 90
        8
176
     1
 62
     7
176
     1
 40
1.0
176
     1
 90
        1
176
     1
 90
        6
176
     1
 90
        2
176
     1
 62
     7
176
     1
 90
        5
176
     1
 90
        0
176
     1
 90
        0
176
     1
290
     0
176
     1
 90
       13
176
     1
 40
0.0
176
     1
 90
        0
176
     1
290
     0
176
     1
290
     1
176
     1
290
     1
176
     1
290
     0
176
     1
290
     0
176
     1
290
     0
176
     1
290
     0
176
     1
290
     0
176
     1
290
     0
176
     1
 90
       50
176
     1
 40
0.0
176
     1
 40
1.0
176
     1
 90
        0
176
     1
 62
    18
420
        0
176
     1
 90
       50
176
     1
 90
        3
176
     1
 62
     5
420
      255
176
     1
290
     0
176
     1
 90
       50
176
     1
 90
       50
176
     1
 90
       50
176
     1
290
     0
176
     1
 90
       50
176
     1
 62
   256
176
     0
 40
1.0
176
     0
 90
        2
176
     1
  1
strokes_ogs.tif
176
     1
290
     0
176
     1
 40
1.0
176
     1
 40
1.0
176
     1
  0
VISUALSTYLE
  5
2B
102
{ACAD_REACTORS
330
29
102
}
330
29
100
AcDbVisualStyle
  2
FlatWithEdges
 70
     1
177
     3
291
     1
 70
    58
 90
        2
176
     1
 90
        1
176
     1
 90
        1
176
     1
 90
        2
176
     1
 40
0.6
176
     1
 40
30.0
176
     1
 62
     7
420
 16777215
176
     1
 90
        1
176
     1
 90
        0
176
     1
 62
     7
176
     1
 62
   257
176
     1
 90
        1
176
     1
 90
        1
176
     1
 40
1.0
176
     1
 90
        0
176
     1
 62
   257
176
     1
 40
1.0
176
     1
 90
        1
176
     1
 90
        6
176
     1
 90
        2
176
     1
 62
     7
176
     1
 90
        5
176
     1
 90
        0
176
     1
 90
        0
176
     1
290
     0
176
     1
 90
       13
176
     1
 40
0.0
176
     1
 90
        0
176
     1
290
     0
176
     1
290
     1
176
     1
290
     1
176
     1
290
     0
176
     1
290
     0
176
     1
290
     0
176
     1
290
     0
176
     1
290
     0
176
     1
290
     0
176
     1
 90
       50
176
     1
 40
0.0
176
     1
 40
1.0
176
     1
 90
        0
176
     1
 62
    18
420
        0
176
     1
 90
       50
176
     1
 90
        3
176
     1
 62
     5
420
      255
176
     1
290
     0
176
     1
 90
       50
176
     1
 90
       50
176
     1
 90
       50
176
     1
290
     0
176
     1
 90
       50
176
     1
 62
   256
176
     0
 40
1.0
176
     0
 90
        2
176
     1
  1
strokes_ogs.tif
176
     1
290
     0
176
     1
 40
1.0
176
     1
 40
1.0
176
     1
  0
VISUALSTYLE
  5
2C
102
{ACAD_REACTORS
330
29
102
}
330
29
100
AcDbVisualStyle
  2
Gouraud
 70
     2
177
     3
291
     1
 70
    58
 90
        2
176
     1
 90
        2
176
     1
 90
        1
176
     1
 90
        2
176
     1
 40
0.6
176
     1
 40
30.0
176
     1
 62
     7
420
 16777215
176
     1
 90
        0
176
     1
 90
        0
176
     1
 62
     7
176
     1
 62
   257
176
     1
 90
        1
176
     1
 90
        1
176
     1
 40
1.0
176
     1
 90
        0
176
     1
 62
     7
176
     1
 40
1.0
176
     1
 90
        1
176
     1
 90
        6
176
     1
 90
        2
176
     1
 62
     7
176
     1
 90
        5
176
     1
 90
        0
176
     1
 90
        0
176
     1
290
     0
176
     1
 90
       13
176
     1
 40
0.0
176
     1
 90
        0
176
     1
290
     0
176
     1
290
     1
176
     1
290
     1
176
     1
290
     0
176
     1
290
     0
176
     1
290
     0
176
     1
290
     0
176
     1
290
     0
176
     1
290
     0
176
     1
 90
       50
176
     1
 40
0.0
176
     1
 40
1.0
176
     1
 90
        0
176
     1
 62
    18
420
        0
176
     1
 90
       50
176
     1
 90
        3
176
     1
 62
     5
420
      255
176
     1
290
     0
176
     1
 90
       50
176
     1
 90
       50
176
     1
 90
       50
176
     1
290
     0
176
     1
 90
       50
176
     1
 62
   256
176
     0
 40
1.0
176
     0
 90
        2
176
     1
  1
strokes_ogs.tif
176
     1
290
     0
176
     1
 40
1.0
176
     1
 40
1.0
176
     1
  0
VISUALSTYLE
  5
2D
102
{ACAD_REACTORS
330
29
102
}
330
29
100
AcDbVisualStyle
  2
GouraudWithEdges
 70
     3
177
     3
291
     1
 70
    58
 90
        2
176
     1
 90
        2
176
     1
 90
        1
176
     1
 90
        2
176
     1
 40
0.6
176
     1
 40
30.0
176
     1
 62
     7
420
 16777215
176
     1
 90
        1
176
     1
 90
        0
176
     1
 62
     7
176
     1
 62
   257
176
     1
 90
        1
176
     1
 90
        1
176
     1
 40
1.0
176
     1
 90
        0
176
     1
 62
   257
176
     1
 40
1.0
176
     1
 90
        1
176
     1
 90
        6
176
     1
 90
        2
176
     1
 62
     7
176
     1
 90
        5
176
     1
 90
        0
176
     1
 90
        0
176
     1
290
     0
176
     1
 90
       13
176
     1
 40
0.0
176
     1
 90
        0
176
     1
290
     0
176
     1
290
     1
176
     1
290
     1
176
     1
290
     0
176
     1
290
     0
176
     1
290
     0
176
     1
290
     0
176
     1
290
     0
176
     1
290
     0
176
     1
 90
       50
176
     1
 40
0.0
176
     1
 40
1.0
176
     1
 90
        0
176
     1
 62
    18
420
        0
176
     1
 90
       50
176
     1
 90
        3
176
     1
 62
     5
420
      255
176
     1
290
     0
176
     1
 90
       50
176
     1
 90
       50
176
     1
 90
       50
176
     1
290
     0
176
     1
 90
       50
176
     1
 62
   256
176
     0
 40
1.0
176
     0
 90
        2
176
     1
  1
strokes_ogs.tif
176
     1
290
     0
176
     1
 40
1.0
176
     1
 40
1.0
176
     1
  0
VISUALSTYLE
  5
31
102
{ACAD_REACTORS
330
29
102
}
330
29
100
AcDbVisualStyle
  2
Hidden
 70
     6
177
     3
291
     0
 70
    58
 90
        1
176
     1
 90
        2
176
     1
 90
        2
176
     1
 90
        0
176
     1
 40
0.6
176
     1
 40
30.0
176
     1
 62
     7
420
 16777215
176
     1
 90
        2
176
     1
 90
        2
176
     1
 62
     7
176
     1
 62
   257
176
     1
 90
        2
176
     1
 90
        1
176
     1
 40
40.0
176
     1
 90
        0
176
     1
 62
   257
176
     1
 40
1.0
176
     1
 90
        1
176
     1
 90
        6
176
     1
 90
        2
176
     1
 62
     7
176
     1
 90
        3
176
     1
 90
        0
176
     1
 90
        0
176
     1
290
     0
176
     1
 90
        1
176
     1
 40
0.0
176
     1
 90
        0
176
     1
290
     0
176
     1
290
     1
176
     1
290
     1
176
     1
290
     0
176
     1
290
     0
176
     1
290
     0
176
     1
290
     0
176
     1
290
     0
176
     1
290
     0
176
     1
 90
       50
176
     1
 40
0.0
176
     1
 40
1.0
176
     1
 90
        0
176
     1
 62
    18
420
        0
176
     1
 90
       50
176
     1
 90
        3
176
     1
 62
     5
420
      255
176
     1
290
     0
176
     1
 90
       50
176
     1
 90
       50
176
     1
 90
       50
176
     1
290
     0
176
     1
 90
       50
176
     1
 62
   256
176
     0
 40
1.0
176
     0
 90
        2
176
     1
  1
strokes_ogs.tif
176
     1
290
     0
176
     1
 40
1.0
176
     1
 40
1.0
176
     1
  0
VISUALSTYLE
  5
3F
102
{ACAD_REACTORS
330
29
102
}
330
29
100
AcDbVisualStyle
  2
JitterOff
 70
    20
177
     3
291
     1
 70
    58
 90
        2
176
     0
 90
        2
176
     0
 90
        0
176
     0
 90
        0
176
     0
 40
0.6
176
     0
 40
30.0
176
     0
 62
     7
420
 16777215
176
     0
 90
        1
176
     0
 90
        4
176
     0
 62
     7
176
     0
 62
   257
176
     0
 90
        1
176
     0
 90
        1
176
     0
 40
1.0
176
     0
 90
       10
176
     2
 62
     7
176
     0
 40
1.0
176
     0
 90
        1
176
     0
 90
        6
176
     0
 90
        2
176
     0
 62
     7
176
     0
 90
        5
176
     0
 90
        0
176
     0
 90
        0
176
     0
290
     0
176
     0
 90
        1
176
     0
 40
0.0
176
     0
 90
        0
176
     0
290
     0
176
     0
290
     1
176
     0
290
     1
176
     0
290
     0
176
     0
290
     0
176
     0
290
     0
176
     0
290
     0
176
     0
290
     0
176
     0
290
     0
176
     0
 90
       50
176
     0
 40
0.0
176
     0
 40
1.0
176
     0
 90
        0
176
     0
 62
    18
420
        0
176
     0
 90
       50
176
     0
 90
        3
176
     0
 62
     5
420
      255
176
     0
290
     0
176
     0
 90
       50
176
     0
 90
       50
176
     0
 90
       50
176
     0
290
     0
176
     0
 90
       50
176
     0
 62
   256
176
     0
 40
1.0
176
     0
 90
        2
176
     0
  1
strokes_ogs.tif
176
     0
290
     0
176
     0
 40
1.0
176
     0
 40
1.0
176
     0
  0
VISUALSTYLE
  5
37
102
{ACAD_REACTORS
330
29
102
}
330
29
100
AcDbVisualStyle
  2
Linepattern
 70
    14
177
     3
291
     1
 70
    58
 90
        2
176
     1
 90
        2
176
     1
 90
        0
176
     1
 90
        0
176
     1
 40
0.6
176
     1
 40
30.0
176
     1
 62
     7
420
 16777215
176
     1
 90
        1
176
     1
 90
        4
176
     1
 62
     7
176
     1
 62
   257
176
     1
 90
        7
176
     1
 90
        7
176
     1
 40
1.0
176
     1
 90
        8
176
     1
 62
     7
176
     1
 40
1.0
176
     1
 90
        1
176
     1
 90
        6
176
     1
 90
        2
176
     1
 62
     7
176
     1
 90
        5
176
     1
 90
        0
176
     1
 90
        0
176
     1
290
     0
176
     1
 90
        1
176
     1
 40
0.0
176
     1
 90
        0
176
     1
290
     0
176
     1
290
     1
176
     1
290
     1
176
     1
290
     0
176
     1
290
     0
176
     1
290
     0
176
     1
290
     0
176
     1
290
     0
176
     1
290
     0
176
     1
 90
       50
176
     1
 40
0.0
176
     1
 40
1.0
176
     1
 90
        0
176
     1
 62
    18
420
        0
176
     1
 90
       50
176
     1
 90
        3
176
     1
 62
     5
420
      255
176
     1
290
     0
176
     1
 90
       50
176
     1
 90
       50
176
     1
 90
       50
176
     1
290
     0
176
     1
 90
       50
176
     1
 62
   256
176
     0
 40
1.0
176
     0
 90
        2
176
     1
  1
strokes_ogs.tif
176
     1
290
     0
176
     1
 40
1.0
176
     1
 40
1.0
176
     1
  0
VISUALSTYLE
  5
40
102
{ACAD_REACTORS
330
29
102
}
330
29
100
AcDbVisualStyle
  2
OverhangOff
 70
    21
177
     3
291
     1
 70
    58
 90
        2
176
     0
 90
        2
176
     0
 90
        0
176
     0
 90
        0
176
     0
 40
0.6
176
     0
 40
30.0
176
     0
 62
     7
420
 16777215
176
     0
 90
        1
176
     0
 90
        4
176
     0
 62
     7
176
     0
 62
   257
176
     0
 90
        1
176
     0
 90
        1
176
     0
 40
1.0
176
     0
 90
        9
176
     2
 62
     7
176
     0
 40
1.0
176
     0
 90
        1
176
     0
 90
        6
176
     0
 90
        2
176
     0
 62
     7
176
     0
 90
        5
176
     0
 90
        0
176
     0
 90
        0
176
     0
290
     0
176
     0
 90
        1
176
     0
 40
0.0
176
     0
 90
        0
176
     0
290
     0
176
     0
290
     1
176
     0
290
     1
176
     0
290
     0
176
     0
290
     0
176
     0
290
     0
176
     0
290
     0
176
     0
290
     0
176
     0
290
     0
176
     0
 90
       50
176
     0
 40
0.0
176
     0
 40
1.0
176
     0
 90
        0
176
     0
 62
    18
420
        0
176
     0
 90
       50
176
     0
 90
        3
176
     0
 62
     5
420
      255
176
     0
290
     0
176
     0
 90
       50
176
     0
 90
       50
176
     0
 90
       50
176
     0
290
     0
176
     0
 90
       50
176
     0
 62
   256
176
     0
 40
1.0
176
     0
 90
        2
176
     0
  1
strokes_ogs.tif
176
     0
290
     0
176
     0
 40
1.0
176
     0
 40
1.0
176
     0
  0
VISUALSTYLE
  5
33
102
{ACAD_REACTORS
330
29
102
}
330
29
100
AcDbVisualStyle
  2
Realistic
 70
     8
177
     3
291
     0
 70
    58
 90
        2
176
     1
 90
        3
176
     1
 90
        0
176
     1
 90
        2
176
     1
 40
0.6
176
     1
 40
30.0
176
     1
 62
     7
420
 16777215
176
     1
 90
        0
176
     1
 90
        0
176
     1
 62
     7
176
     1
 62
   257
176
     1
 90
        1
176
     1
 90
        1
176
     1
 40
1.0
176
     1
 90
        8
176
     1
 62
   257
176
     1
 40
1.0
176
     1
 90
        1
176
     1
 90
        6
176
     1
 90
        2
176
     1
 62
     7
176
     1
 90
        3
176
     1
 90
        0
176
     1
 90
        0
176
     1
290
     0
176
     1
 90
       13
176
     1
 40
0.0
176
     1
 90
        0
176
     1
290
     0
176
     1
290
     1
176
     1
290
     1
176
     1
290
     0
176
     1
290
     0
176
     1
290
     0
176
     1
290
     0
176
     1
290
     0
176
     1
290
     0
176
     1
 90
       50
176
     1
 40
0.0
176
     1
 40
1.0
176
     1
 90
        0
176
     1
 62
    18
420
        0
176
     1
 90
       50
176
     1
 90
        3
176
     1
 62
     5
420
      255
176
     1
290
     0
176
     1
 90
       50
176
     1
 90
       50
176
     1
 90
       50
176
     1
290
     0
176
     1
 90
       50
176
     1
 62
   256
176
     0
 40
1.0
176
     0
 90
        2
176
     1
  1
strokes_ogs.tif
176
     1
290
     0
176
     1
 40
1.0
176
     1
 40
1.0
176
     1
  0
VISUALSTYLE
  5
3E
102
{ACAD_REACTORS
330
29
102
}
330
29
100
AcDbVisualStyle
  2
Shaded
 70
    27
177
     3
291
     0
 70
    58
 90
        2
176
     1
 90
        2
176
     1
 90
        1
176
     1
 90
        2
176
     1
 40
0.6
176
     1
 40
30.0
176
     1
 62
     7
420
 16777215
176
     1
 90
        0
176
     1
 90
        4
176
     1
 62
     7
176
     1
 62
   257
176
     1
 90
        1
176
     1
 90
        1
176
     1
 40
1.0
176
     1
 90
        8
176
     1
 62
   257
176
     1
 40
1.0
176
     1
 90
        1
176
     1
 90
        6
176
     1
 90
        2
176
     1
 62
     8
420
  7895160
176
     1
 90
        3
176
     1
 90
        0
176
     1
 90
        0
176
     1
290
     0
176
     1
 90
        5
176
     1
 40
0.0
176
     1
 90
        0
176
     1
290
     0
176
     1
290
     1
176
     1
290
     1
176
     1
290
     0
176
     1
290
     0
176
     1
290
     0
176
     1
290
     0
176
     1
290
     0
176
     1
290
     0
176
     1
 90
       50
176
     1
 40
0.0
176
     1
 40
1.0
176
     1
 90
        0
176
     1
 62
    18
420
        0
176
     1
 90
       50
176
     1
 90
        3
176
     1
 62
     5
420
      255
176
     1
290
     0
176
     1
 90
       50
176
     1
 90
       50
176
     1
 90
       50
176
     1
290
     0
176
     1
 90
       50
176
     1
 62
   256
176
     0
 40
1.0
176
     0
 90
        2
176
     1
  1
strokes_ogs.tif
176
     1
290
     0
176
     1
 40
1.0
176
     1
 40
1.0
176
     1
  0
VISUALSTYLE
  5
3D
102
{ACAD_REACTORS
330
29
102
}
330
29
100
AcDbVisualStyle
  2
Shaded with edges
 70
    26
177
     3
291
     0
 70
    58
 90
        2
176
     1
 90
        2
176
     1
 90
        1
176
     1
 90
        2
176
     1
 40
0.6
176
     1
 40
30.0
176
     1
 62
     7
420
 16777215
176
     1
 90
        1
176
     1
 90
        2
176
     1
 62
     7
176
     1
 62
   257
176
     1
 90
        2
176
     1
 90
        1
176
     1
 40
1.0
176
     1
 90
        8
176
     1
 62
   257
176
     1
 40
1.0
176
     1
 90
        1
176
     1
 90
        6
176
     1
 90
        2
176
     1
 62
     7
176
     1
 90
        3
176
     1
 90
        0
176
     1
 90
        0
176
     1
290
     0
176
     1
 90
        5
176
     1
 40
0.0
176
     1
 90
        0
176
     1
290
     0
176
     1
290
     1
176
     1
290
     1
176
     1
290
     0
176
     1
290
     0
176
     1
290
     0
176
     1
290
     0
176
     1
290
     0
176
     1
290
     0
176
     1
 90
       50
176
     1
 40
0.0
176
     1
 40
1.0
176
     1
 90
        0
176
     1
 62
    18
420
        0
176
     1
 90
       50
176
     1
 90
        3
176
     1
 62
     5
420
      255
176
     1
290
     0
176
     1
 90
       50
176
     1
 90
       50
176
     1
 90
       50
176
     1
290
     0
176
     1
 90
       50
176
     1
 62
   256
176
     0
 40
1.0
176
     0
 90
        2
176
     1
  1
strokes_ogs.tif
176
     1
290
     0
176
     1
 40
1.0
176
     1
 40
1.0
176
     1
  0
VISUALSTYLE
  5
3A
102
{ACAD_REACTORS
330
29
102
}
330
29
100
AcDbVisualStyle
  2
Shades of Gray
 70
    23
177
     3
291
     0
 70
    58
 90
        2
176
     1
 90
        2
176
     1
 90
        3
176
     1
 90
        0
176
     1
 40
0.6
176
     1
 40
30.0
176
     1
 62
     7
420
 16777215
176
     1
 90
        2
176
     1
 90
        2
176
     1
 62
     7
176
     1
 62
     7
176
     1
 90
        1
176
     1
 90
        1
176
     1
 40
40.0
176
     1
 90
        8
176
     1
 62
     7
176
     1
 40
1.0
176
     1
 90
        1
176
     1
 90
        6
176
     1
 90
        2
176
     1
 62
     7
176
     1
 90
        3
176
     1
 90
        0
176
     1
 90
        0
176
     1
290
     0
176
     1
 90
        1
176
     1
 40
0.0
176
     1
 90
        0
176
     1
290
     0
176
     1
290
     1
176
     1
290
     1
176
     1
290
     0
176
     1
290
     0
176
     1
290
     0
176
     1
290
     0
176
     1
290
     0
176
     1
290
     0
176
     1
 90
       50
176
     1
 40
0.0
176
     1
 40
1.0
176
     1
 90
        0
176
     1
 62
    18
420
        0
176
     1
 90
       50
176
     1
 90
        3
176
     1
 62
     5
420
      255
176
     1
290
     0
176
     1
 90
       50
176
     1
 90
       50
176
     1
 90
       50
176
     1
290
     0
176
     1
 90
       50
176
     1
 62
   256
176
     0
 40
1.0
176
     0
 90
        2
176
     1
  1
strokes_ogs.tif
176
     1
290
     0
176
     1
 40
1.0
176
     1
 40
1.0
176
     1
  0
VISUALSTYLE
  5
3B
102
{ACAD_REACTORS
330
29
102
}
330
29
100
AcDbVisualStyle
  2
Sketchy
 70
    24
177
     3
291
     0
 70
    58
 90
        1
176
     1
 90
        2
176
     1
 90
        2
176
     1
 90
        0
176
     1
 40
0.6
176
     1
 40
30.0
176
     1
 62
     7
420
 16777215
176
     1
 90
        2
176
     1
 90
        2
176
     1
 62
     7
176
     1
 62
     7
176
     1
 90
        1
176
     1
 90
        1
176
     1
 40
40.0
176
     1
 90
       11
176
     1
 62
     7
176
     1
 40
1.0
176
     1
 90
        1
176
     1
 90
        6
176
     1
 90
        2
176
     1
 62
     7
176
     1
 90
        6
176
     1
 90
        0
176
     1
 90
        0
176
     1
290
     0
176
     1
 90
        1
176
     1
 40
0.0
176
     1
 90
        0
176
     1
290
     0
176
     1
290
     1
176
     1
290
     1
176
     1
290
     0
176
     1
290
     0
176
     1
290
     0
176
     1
290
     0
176
     1
290
     0
176
     1
290
     0
176
     1
 90
       50
176
     1
 40
0.0
176
     1
 40
1.0
176
     1
 90
        0
176
     1
 62
    18
420
        0
176
     1
 90
       50
176
     1
 90
        3
176
     1
 62
     5
420
      255
176
     1
290
     0
176
     1
 90
       50
176
     1
 90
       50
176
     1
 90
       50
176
     1
290
     0
176
     1
 90
       50
176
     1
 62
   256
176
     0
 40
1.0
176
     0
 90
        2
176
     1
  1
strokes_ogs.tif
176
     1
290
     0
176
     1
 40
1.0
176
     1
 40
1.0
176
     1
  0
VISUALSTYLE
  5
36
102
{ACAD_REACTORS
330
29
102
}
330
29
100
AcDbVisualStyle
  2
Thicken
 70
    13
177
     3
291
     1
 70
    58
 90
        2
176
     1
 90
        2
176
     1
 90
        0
176
     1
 90
        0
176
     1
 40
0.6
176
     1
 40
30.0
176
     1
 62
     7
420
 16777215
176
     1
 90
        1
176
     1
 90
        4
176
     1
 62
     7
176
     1
 62
   257
176
     1
 90
        1
176
     1
 90
        1
176
     1
 40
1.0
176
     1
 90
       12
176
     1
 62
     7
176
     1
 40
1.0
176
     1
 90
        1
176
     1
 90
        6
176
     1
 90
        2
176
     1
 62
     7
176
     1
 90
        5
176
     1
 90
        0
176
     1
 90
        0
176
     1
290
     0
176
     1
 90
        1
176
     1
 40
0.0
176
     1
 90
        0
176
     1
290
     0
176
     1
290
     1
176
     1
290
     1
176
     1
290
     0
176
     1
290
     0
176
     1
290
     0
176
     1
290
     0
176
     1
290
     0
176
     1
290
     0
176
     1
 90
       50
176
     1
 40
0.0
176
     1
 40
1.0
176
     1
 90
        0
176
     1
 62
    18
420
        0
176
     1
 90
       50
176
     1
 90
        3
176
     1
 62
     5
420
      255
176
     1
290
     0
176
     1
 90
       50
176
     1
 90
       50
176
     1
 90
       50
176
     1
290
     0
176
     1
 90
       50
176
     1
 62
   256
176
     0
 40
1.0
176
     0
 90
        2
176
     1
  1
strokes_ogs.tif
176
     1
290
     0
176
     1
 40
1.0
176
     1
 40
1.0
176
     1
  0
VISUALSTYLE
  5
30
102
{ACAD_REACTORS
330
29
102
}
330
29
100
AcDbVisualStyle
  2
Wireframe
 70
     5
177
     3
291
     0
 70
    58
 90
        0
176
     1
 90
        2
176
     1
 90
        0
176
     1
 90
        0
176
     1
 40
0.6
176
     1
 40
30.0
176
     1
 62
     7
420
 16777215
176
     1
 90
        1
176
     1
 90
        4
176
     1
 62
     7
176
     1
 62
   257
176
     1
 90
        1
176
     1
 90
        1
176
     1
 40
1.0
176
     1
 90
        0
176
     1
 62
   257
176
     1
 40
1.0
176
     1
 90
        1
176
     1
 90
        6
176
     1
 90
        2
176
     1
 62
     7
176
     1
 90
        3
176
     1
 90
        0
176
     1
 90
        0
176
     1
290
     0
176
     1
 90
        1
176
     1
 40
0.0
176
     1
 90
        0
176
     1
290
     0
176
     1
290
     1
176
     1
290
     1
176
     1
290
     0
176
     1
290
     0
176
     1
290
     0
176
     1
290
     0
176
     1
290
     0
176
     1
290
     0
176
     1
 90
       50
176
     1
 40
0.0
176
     1
 40
1.0
176
     1
 90
        0
176
     1
 62
    18
420
        0
176
     1
 90
       50
176
     1
 90
        3
176
     1
 62
     5
420
      255
176
     1
290
     0
176
     1
 90
       50
176
     1
 90
       50
176
     1
 90
       50
176
     1
290
     0
176
     1
 90
       50
176
     1
 62
   256
176
     0
 40
1.0
176
     0
 90
        2
176
     1
  1
strokes_ogs.tif
176
     1
290
     0
176
     1
 40
1.0
176
     1
 40
1.0
176
     1
  0
VISUALSTYLE
  5
3C
102
{ACAD_REACTORS
330
29
102
}
330
29
100
AcDbVisualStyle
  2
X-Ray
 70
    25
177
     3
291
     0
 70
    58
 90
        2
176
     1
 90
        2
176
     1
 90
        1
176
     1
 90
        1
176
     1
 40
0.5
176
     1
 40
30.0
176
     1
 62
     7
420
 16777215
176
     1
 90
        1
176
     1
 90
        0
176
     1
 62
     7
176
     1
 62
   257
176
     1
 90
        1
176
     1
 90
        1
176
     1
 40
1.0
176
     1
 90
        8
176
     1
 62
     7
176
     1
 40
1.0
176
     1
 90
        1
176
     1
 90
        6
176
     1
 90
        2
176
     1
 62
     7
176
     1
 90
        3
176
     1
 90
        0
176
     1
 90
        0
176
     1
290
     0
176
     1
 90
       13
176
     1
 40
0.0
176
     1
 90
        0
176
     1
290
     0
176
     1
290
     1
176
     1
290
     1
176
     1
290
     0
176
     1
290
     0
176
     1
290
     0
176
     1
290
     0
176
     1
290
     0
176
     1
290
     0
176
     1
 90
       50
176
     1
 40
0.0
176
     1
 40
1.0
176
     1
 90
        0
176
     1
 62
    18
420
        0
176
     1
 90
       50
176
     1
 90
        3
176
     1
 62
     5
420
      255
176
     1
290
     0
176
     1
 90
       50
176
     1
 90
       50
176
     1
 90
       50
176
     1
290
     0
176
     1
 90
       50
176
     1
 62
   256
176
     0
 40
1.0
176
     0
 90
        2
176
     1
  1
strokes_ogs.tif
176
     1
290
     0
176
     1
 40
1.0
176
     1
 40
1.0
176
     1
  0
DICTIONARYVAR
  5
344
102
{ACAD_REACTORS
330
33F
102
}
330
33F
100
DictionaryVariables
280
     0
  1
1:1
  0
DICTIONARYVAR
  5
341
102
{ACAD_REACTORS
330
33F
102
}
330
33F
100
DictionaryVariables
280
     0
  1
STANDARD
  0
DICTIONARYVAR
  5
340
102
{ACAD_REACTORS
330
33F
102
}
330
33F
100
DictionaryVariables
280
     0
  1
STANDARD
  0
DICTIONARYVAR
  5
342
102
{ACAD_REACTORS
330
33F
102
}
330
33F
100
DictionaryVariables
280
     0
  1
Imperial24
  0
DICTIONARYVAR
  5
343
102
{ACAD_REACTORS
330
33F
102
}
330
33F
100
DictionaryVariables
280
     0
  1
Imperial24
  0
DICTIONARY
  5
1A
330
19
100
AcDbDictionary
280
     1
281
     1
  3
BUMPTILE
360
1C
  3
DIFFUSETILE
360
1B
  3
OPACITYTILE
360
1F
  3
REFLECTIONTILE
360
1E
  3
REFRACTIONTILE
360
20
  3
SPECULARTILE
360
1D
  0
DICTIONARY
  5
12
330
11
100
AcDbDictionary
280
     1
281
     1
  3
BUMPTILE
360
14
  3
DIFFUSETILE
360
13
  3
OPACITYTILE
360
17
  3
REFLECTIONTILE
360
16
  3
REFRACTIONTILE
360
18
  3
SPECULARTILE
360
15
  0
DICTIONARY
  5
22
330
21
100
AcDbDictionary
280
     1
281
     1
  3
BUMPTILE
360
24
  3
DIFFUSETILE
360
23
  3
OPACITYTILE
360
27
  3
REFLECTIONTILE
360
26
  3
REFRACTIONTILE
360
28
  3
SPECULARTILE
360
25
  0
DICTIONARY
  5
345
330
65
100
AcDbDictionary
280
     1
281
     1
  3
ACAD_ROUNDTRIP_2008_TABLESTYLE_CELLSTYLEMAP
360
346
  0
XRECORD
  5
1C
102
{ACAD_REACTORS
330
1A
102
}
330
1A
100
AcDbXrecord
280
     1
270
     1
271
     1
  0
XRECORD
  5
1B
102
{ACAD_REACTORS
330
1A
102
}
330
1A
100
AcDbXrecord
280
     1
270
     1
271
     1
  0
XRECORD
  5
1F
102
{ACAD_REACTORS
330
1A
102
}
330
1A
100
AcDbXrecord
280
     1
270
     1
271
     1
  0
XRECORD
  5
1E
102
{ACAD_REACTORS
330
1A
102
}
330
1A
100
AcDbXrecord
280
     1
270
     1
271
     1
  0
XRECORD
  5
20
102
{ACAD_REACTORS
330
1A
102
}
330
1A
100
AcDbXrecord
280
     1
270
     1
271
     1
  0
XRECORD
  5
1D
102
{ACAD_REACTORS
330
1A
102
}
330
1A
100
AcDbXrecord
280
     1
270
     1
271
     1
  0
XRECORD
  5
14
102
{ACAD_REACTORS
330
12
102
}
330
12
100
AcDbXrecord
280
     1
270
     1
271
     1
  0
XRECORD
  5
13
102
{ACAD_REACTORS
330
12
102
}
330
12
100
AcDbXrecord
280
     1
270
     1
271
     1
  0
XRECORD
  5
17
102
{ACAD_REACTORS
330
12
102
}
330
12
100
AcDbXrecord
280
     1
270
     1
271
     1
  0
XRECORD
  5
16
102
{ACAD_REACTORS
330
12
102
}
330
12
100
AcDbXrecord
280
     1
270
     1
271
     1
  0
XRECORD
  5
18
102
{ACAD_REACTORS
330
12
102
}
330
12
100
AcDbXrecord
280
     1
270
     1
271
     1
  0
XRECORD
  5
15
102
{ACAD_REACTORS
330
12
102
}
330
12
100
AcDbXrecord
280
     1
270
     1
271
     1
  0
XRECORD
  5
24
102
{ACAD_REACTORS
330
22
102
}
330
22
100
AcDbXrecord
280
     1
270
     1
271
     1
  0
XRECORD
  5
23
102
{ACAD_REACTORS
330
22
102
}
330
22
100
AcDbXrecord
280
     1
270
     1
271
     1
  0
XRECORD
  5
27
102
{ACAD_REACTORS
330
22
102
}
330
22
100
AcDbXrecord
280
     1
270
     1
271
     1
  0
XRECORD
  5
26
102
{ACAD_REACTORS
330
22
102
}
330
22
100
AcDbXrecord
280
     1
270
     1
271
     1
  0
XRECORD
  5
28
102
{ACAD_REACTORS
330
22
102
}
330
22
100
AcDbXrecord
280
     1
270
     1
271
     1
  0
XRECORD
  5
25
102
{ACAD_REACTORS
330
22
102
}
330
22
100
AcDbXrecord
280
     1
270
     1
271
     1
  0
CELLSTYLEMAP
  5
346
102
{ACAD_REACTORS
330
345
102
}
330
345
100
AcDbCellStyleMap
 90
        3
300
CELLSTYLE
  1
TABLEFORMAT_BEGIN
 90
        5
170
     1
 91
        0
 92
    32768
 62
   257
 93
        1
300
CONTENTFORMAT
  1
CONTENTFORMAT_BEGIN
 90
        0
 91
        0
 92
      512
 93
        0
300

 40
0.0
140
1.0
 94
        5
 62
     0
340
55
144
0.25
309
CONTENTFORMAT_END
171
     0
 94
        0
309
TABLEFORMAT_END
  1
CELLSTYLE_BEGIN
 90
        1
 91
        1
300
_TITLE
309
CELLSTYLE_END
300
CELLSTYLE
  1
TABLEFORMAT_BEGIN
 90
        5
170
     1
 91
        0
 92
        0
 62
   257
 93
        1
300
CONTENTFORMAT
  1
CONTENTFORMAT_BEGIN
 90
        0
 91
        0
 92
      512
 93
        0
300

 40
0.0
140
1.0
 94
        5
 62
     0
340
55
144
0.18
309
CONTENTFORMAT_END
171
     0
 94
        0
309
TABLEFORMAT_END
  1
CELLSTYLE_BEGIN
 90
        2
 91
        1
300
_HEADER
309
CELLSTYLE_END
300
CELLSTYLE
  1
TABLEFORMAT_BEGIN
 90
        5
170
     1
 91
        0
 92
        0
 62
   257
 93
        1
300
CONTENTFORMAT
  1
CONTENTFORMAT_BEGIN
 90
        0
 91
        0
 92
      512
 93
        0
300

 40
0.0
140
1.0
 94
        2
 62
     0
340
55
144
0.18
309
CONTENTFORMAT_END
171
     0
 94
        0
309
TABLEFORMAT_END
  1
CELLSTYLE_BEGIN
 90
        3
 91
        2
300
_DATA
309
CELLSTYLE_END
  0
ENDSEC
  0
EOF
