ISO-10303-21;
HEADER;
/* Generated by software containing ST-Developer
 * from STEP Tools, Inc. (www.steptools.com) 
 */
/* OPTION: using custom schema-name function */

FILE_DESCRIPTION(
/* description */ (''),
/* implementation_level */ '2;1');

FILE_NAME(
/* name */ '836270_stp.stp',
/* time_stamp */ '2017-05-15T08:36:22+02:00',
/* author */ (''),
/* organization */ (''),
/* preprocessor_version */ 'ST-DEVELOPER v15',
/* originating_system */ 'SIEMENS PLM Software NX 9.0',
/* authorisation */ '');

FILE_SCHEMA (('AUTOMOTIVE_DESIGN { 1 0 10303 214 3 1 1 1 }'));
ENDSEC;

DATA;
#10=PROPERTY_DEFINITION_REPRESENTATION(#14,#12);
#11=PROPERTY_DEFINITION_REPRESENTATION(#15,#13);
#12=REPRESENTATION('',(#16),#534);
#13=REPRESENTATION('',(#17),#534);
#14=PROPERTY_DEFINITION('pmi validation property','',#21);
#15=PROPERTY_DEFINITION('pmi validation property','',#21);
#16=VALUE_REPRESENTATION_ITEM('number of annotations',COUNT_MEASURE(0.));
#17=VALUE_REPRESENTATION_ITEM('number of views',COUNT_MEASURE(0.));
#18=SHAPE_REPRESENTATION_RELATIONSHIP('None',
'relationship between reic1F4CA23Dza45-None and reic1F4CA23Dza45-None',
#30,#19);
#19=ADVANCED_BREP_SHAPE_REPRESENTATION('reic1F4CA23Dza45-None',(#40),#534);
#20=SHAPE_DEFINITION_REPRESENTATION(#21,#30);
#21=PRODUCT_DEFINITION_SHAPE('','',#22);
#22=PRODUCT_DEFINITION(' ','',#24,#23);
#23=PRODUCT_DEFINITION_CONTEXT('part definition',#29,'design');
#24=PRODUCT_DEFINITION_FORMATION_WITH_SPECIFIED_SOURCE(' ',' ',#26,
 .NOT_KNOWN.);
#25=PRODUCT_RELATED_PRODUCT_CATEGORY('part','',(#26));
#26=PRODUCT('reic1F4CA23Dza45','reic1F4CA23Dza45',' ',(#27));
#27=PRODUCT_CONTEXT(' ',#29,'mechanical');
#28=APPLICATION_PROTOCOL_DEFINITION('international standard',
'automotive_design',2010,#29);
#29=APPLICATION_CONTEXT(
'core data for automotive mechanical design processes');
#30=SHAPE_REPRESENTATION('reic1F4CA23Dza45-None',(#273),#534);
#31=PRESENTATION_LAYER_ASSIGNMENT('10','Layer 10',(#40));
#32=STYLED_ITEM('',(#33),#40);
#33=PRESENTATION_STYLE_ASSIGNMENT((#34));
#34=SURFACE_STYLE_USAGE(.BOTH.,#35);
#35=SURFACE_SIDE_STYLE('',(#36));
#36=SURFACE_STYLE_FILL_AREA(#37);
#37=FILL_AREA_STYLE('',(#38));
#38=FILL_AREA_STYLE_COLOUR('',#39);
#39=COLOUR_RGB('RAL 7035',0.8,0.8,0.8);
#40=MANIFOLD_SOLID_BREP('',#41);
#41=CLOSED_SHELL('',(#63,#64,#65,#66,#67,#68,#69,#70,#71,#72,#73,#74,#75,
#76,#77,#78,#79,#80,#81,#82,#83));
#42=PLANE('',#282);
#43=PLANE('',#288);
#44=PLANE('',#292);
#45=PLANE('',#296);
#46=PLANE('',#305);
#47=PLANE('',#307);
#48=PLANE('',#312);
#49=TOROIDAL_SURFACE('',#280,11.5,3.);
#50=TOROIDAL_SURFACE('',#300,5.5,3.);
#51=TOROIDAL_SURFACE('',#301,4.83192996118502,1.);
#52=FACE_OUTER_BOUND('',#130,.T.);
#53=FACE_OUTER_BOUND('',#131,.T.);
#54=FACE_OUTER_BOUND('',#156,.T.);
#55=FACE_OUTER_BOUND('',#161,.T.);
#56=CYLINDRICAL_SURFACE('',#279,8.5);
#57=CYLINDRICAL_SURFACE('',#284,8.);
#58=CYLINDRICAL_SURFACE('',#290,16.);
#59=CYLINDRICAL_SURFACE('',#293,25.);
#60=CYLINDRICAL_SURFACE('',#303,4.);
#61=CYLINDRICAL_SURFACE('',#309,3.);
#62=CYLINDRICAL_SURFACE('',#313,3.);
#63=ADVANCED_FACE('',(#92,#93),#84,.T.);
#64=ADVANCED_FACE('',(#94,#95),#56,.T.);
#65=ADVANCED_FACE('',(#52),#49,.F.);
#66=ADVANCED_FACE('',(#53),#42,.F.);
#67=ADVANCED_FACE('',(#96,#97),#57,.T.);
#68=ADVANCED_FACE('',(#98,#99),#85,.T.);
#69=ADVANCED_FACE('',(#100,#101),#43,.F.);
#70=ADVANCED_FACE('',(#102,#103),#58,.T.);
#71=ADVANCED_FACE('',(#104,#105),#44,.F.);
#72=ADVANCED_FACE('',(#106,#107),#59,.T.);
#73=ADVANCED_FACE('',(#108,#109),#45,.F.);
#74=ADVANCED_FACE('',(#110,#111),#86,.T.);
#75=ADVANCED_FACE('',(#112,#113),#50,.T.);
#76=ADVANCED_FACE('',(#114,#115),#51,.T.);
#77=ADVANCED_FACE('',(#116,#117),#60,.F.);
#78=ADVANCED_FACE('',(#118,#119),#46,.T.);
#79=ADVANCED_FACE('',(#54),#47,.T.);
#80=ADVANCED_FACE('',(#120,#121),#61,.T.);
#81=ADVANCED_FACE('',(#122,#123),#87,.T.);
#82=ADVANCED_FACE('',(#55),#48,.F.);
#83=ADVANCED_FACE('',(#124,#125),#62,.F.);
#84=CONICAL_SURFACE('',#276,8.5,75.);
#85=CONICAL_SURFACE('',#286,10.0723145172501,8.00000000000004);
#86=CONICAL_SURFACE('',#299,8.5,25.);
#87=CONICAL_SURFACE('',#310,3.,59.9999999999999);
#88=B_SPLINE_CURVE_WITH_KNOTS('',3,(#399,#400,#401,#402,#403,#404,#405,
#406,#407,#408,#409,#410,#411,#412,#413,#414,#415,#416),.UNSPECIFIED.,.F.,
 .F.,(4,2,2,2,2,2,2,2,4),(0.,0.25,0.375,0.4375,0.5,0.5625,0.625,0.75,1.),
 .UNSPECIFIED.);
#89=B_SPLINE_CURVE_WITH_KNOTS('',3,(#423,#424,#425,#426,#427,#428,#429,
#430,#431,#432,#433,#434,#435,#436,#437,#438,#439,#440,#441),
 .UNSPECIFIED.,.F.,.F.,(4,3,3,3,3,3,4),(0.,0.176941491428419,0.354380722284361,
0.522908072479236,0.6775449196424,0.833362614608932,1.),.UNSPECIFIED.);
#90=B_SPLINE_CURVE_WITH_KNOTS('',3,(#446,#447,#448,#449,#450,#451,#452,
#453,#454,#455,#456,#457,#458,#459,#460,#461,#462,#463,#464),
 .UNSPECIFIED.,.F.,.F.,(4,3,3,3,3,3,4),(0.,0.163204032814351,0.32852908319577,
0.47623560761116,0.679512299963075,0.956384332875836,1.),.UNSPECIFIED.);
#91=B_SPLINE_CURVE_WITH_KNOTS('',3,(#465,#466,#467,#468,#469,#470,#471,
#472,#473,#474,#475,#476,#477,#478,#479,#480,#481,#482,#483),
 .UNSPECIFIED.,.F.,.F.,(4,3,3,3,3,3,4),(0.,0.277093936809808,0.488872647716438,
0.648425806648804,0.809239538853255,0.954823092309914,1.),.UNSPECIFIED.);
#92=FACE_BOUND('',#126,.T.);
#93=FACE_BOUND('',#127,.T.);
#94=FACE_BOUND('',#128,.T.);
#95=FACE_BOUND('',#129,.T.);
#96=FACE_BOUND('',#132,.T.);
#97=FACE_BOUND('',#133,.T.);
#98=FACE_BOUND('',#134,.T.);
#99=FACE_BOUND('',#135,.T.);
#100=FACE_BOUND('',#136,.T.);
#101=FACE_BOUND('',#137,.T.);
#102=FACE_BOUND('',#138,.T.);
#103=FACE_BOUND('',#139,.T.);
#104=FACE_BOUND('',#140,.T.);
#105=FACE_BOUND('',#141,.T.);
#106=FACE_BOUND('',#142,.T.);
#107=FACE_BOUND('',#143,.T.);
#108=FACE_BOUND('',#144,.T.);
#109=FACE_BOUND('',#145,.T.);
#110=FACE_BOUND('',#146,.T.);
#111=FACE_BOUND('',#147,.T.);
#112=FACE_BOUND('',#148,.T.);
#113=FACE_BOUND('',#149,.T.);
#114=FACE_BOUND('',#150,.T.);
#115=FACE_BOUND('',#151,.T.);
#116=FACE_BOUND('',#152,.T.);
#117=FACE_BOUND('',#153,.T.);
#118=FACE_BOUND('',#154,.T.);
#119=FACE_BOUND('',#155,.T.);
#120=FACE_BOUND('',#157,.T.);
#121=FACE_BOUND('',#158,.T.);
#122=FACE_BOUND('',#159,.T.);
#123=FACE_BOUND('',#160,.T.);
#124=FACE_BOUND('',#162,.T.);
#125=FACE_BOUND('',#163,.T.);
#126=EDGE_LOOP('',(#164));
#127=EDGE_LOOP('',(#165,#166));
#128=EDGE_LOOP('',(#167));
#129=EDGE_LOOP('',(#168,#169));
#130=EDGE_LOOP('',(#170,#171,#172,#173));
#131=EDGE_LOOP('',(#174));
#132=EDGE_LOOP('',(#175));
#133=EDGE_LOOP('',(#176));
#134=EDGE_LOOP('',(#177));
#135=EDGE_LOOP('',(#178));
#136=EDGE_LOOP('',(#179));
#137=EDGE_LOOP('',(#180));
#138=EDGE_LOOP('',(#181));
#139=EDGE_LOOP('',(#182));
#140=EDGE_LOOP('',(#183));
#141=EDGE_LOOP('',(#184));
#142=EDGE_LOOP('',(#185));
#143=EDGE_LOOP('',(#186));
#144=EDGE_LOOP('',(#187));
#145=EDGE_LOOP('',(#188));
#146=EDGE_LOOP('',(#189));
#147=EDGE_LOOP('',(#190));
#148=EDGE_LOOP('',(#191));
#149=EDGE_LOOP('',(#192));
#150=EDGE_LOOP('',(#193));
#151=EDGE_LOOP('',(#194));
#152=EDGE_LOOP('',(#195));
#153=EDGE_LOOP('',(#196,#197,#198,#199));
#154=EDGE_LOOP('',(#200));
#155=EDGE_LOOP('',(#201));
#156=EDGE_LOOP('',(#202));
#157=EDGE_LOOP('',(#203));
#158=EDGE_LOOP('',(#204));
#159=EDGE_LOOP('',(#205));
#160=EDGE_LOOP('',(#206));
#161=EDGE_LOOP('',(#207));
#162=EDGE_LOOP('',(#208));
#163=EDGE_LOOP('',(#209));
#164=ORIENTED_EDGE('',*,*,#231,.F.);
#165=ORIENTED_EDGE('',*,*,#232,.F.);
#166=ORIENTED_EDGE('',*,*,#233,.T.);
#167=ORIENTED_EDGE('',*,*,#234,.T.);
#168=ORIENTED_EDGE('',*,*,#235,.F.);
#169=ORIENTED_EDGE('',*,*,#236,.T.);
#170=ORIENTED_EDGE('',*,*,#237,.F.);
#171=ORIENTED_EDGE('',*,*,#236,.F.);
#172=ORIENTED_EDGE('',*,*,#238,.F.);
#173=ORIENTED_EDGE('',*,*,#233,.F.);
#174=ORIENTED_EDGE('',*,*,#239,.F.);
#175=ORIENTED_EDGE('',*,*,#240,.T.);
#176=ORIENTED_EDGE('',*,*,#239,.T.);
#177=ORIENTED_EDGE('',*,*,#240,.F.);
#178=ORIENTED_EDGE('',*,*,#241,.F.);
#179=ORIENTED_EDGE('',*,*,#242,.F.);
#180=ORIENTED_EDGE('',*,*,#241,.T.);
#181=ORIENTED_EDGE('',*,*,#242,.T.);
#182=ORIENTED_EDGE('',*,*,#243,.F.);
#183=ORIENTED_EDGE('',*,*,#243,.T.);
#184=ORIENTED_EDGE('',*,*,#244,.T.);
#185=ORIENTED_EDGE('',*,*,#244,.F.);
#186=ORIENTED_EDGE('',*,*,#231,.T.);
#187=ORIENTED_EDGE('',*,*,#245,.T.);
#188=ORIENTED_EDGE('',*,*,#246,.T.);
#189=ORIENTED_EDGE('',*,*,#247,.T.);
#190=ORIENTED_EDGE('',*,*,#248,.T.);
#191=ORIENTED_EDGE('',*,*,#248,.F.);
#192=ORIENTED_EDGE('',*,*,#234,.F.);
#193=ORIENTED_EDGE('',*,*,#247,.F.);
#194=ORIENTED_EDGE('',*,*,#246,.F.);
#195=ORIENTED_EDGE('',*,*,#249,.T.);
#196=ORIENTED_EDGE('',*,*,#237,.T.);
#197=ORIENTED_EDGE('',*,*,#232,.T.);
#198=ORIENTED_EDGE('',*,*,#238,.T.);
#199=ORIENTED_EDGE('',*,*,#235,.T.);
#200=ORIENTED_EDGE('',*,*,#250,.F.);
#201=ORIENTED_EDGE('',*,*,#249,.F.);
#202=ORIENTED_EDGE('',*,*,#251,.T.);
#203=ORIENTED_EDGE('',*,*,#250,.T.);
#204=ORIENTED_EDGE('',*,*,#252,.T.);
#205=ORIENTED_EDGE('',*,*,#251,.F.);
#206=ORIENTED_EDGE('',*,*,#252,.F.);
#207=ORIENTED_EDGE('',*,*,#253,.T.);
#208=ORIENTED_EDGE('',*,*,#253,.F.);
#209=ORIENTED_EDGE('',*,*,#245,.F.);
#210=VERTEX_POINT('',#398);
#211=VERTEX_POINT('',#417);
#212=VERTEX_POINT('',#418);
#213=VERTEX_POINT('',#422);
#214=VERTEX_POINT('',#442);
#215=VERTEX_POINT('',#443);
#216=VERTEX_POINT('',#486);
#217=VERTEX_POINT('',#489);
#218=VERTEX_POINT('',#492);
#219=VERTEX_POINT('',#495);
#220=VERTEX_POINT('',#498);
#221=VERTEX_POINT('',#501);
#222=VERTEX_POINT('',#505);
#223=VERTEX_POINT('',#507);
#224=VERTEX_POINT('',#510);
#225=VERTEX_POINT('',#512);
#226=VERTEX_POINT('',#517);
#227=VERTEX_POINT('',#520);
#228=VERTEX_POINT('',#523);
#229=VERTEX_POINT('',#526);
#230=VERTEX_POINT('',#530);
#231=EDGE_CURVE('',#210,#210,#254,.T.);
#232=EDGE_CURVE('',#211,#212,#88,.T.);
#233=EDGE_CURVE('',#211,#212,#255,.T.);
#234=EDGE_CURVE('',#213,#213,#256,.T.);
#235=EDGE_CURVE('',#214,#215,#89,.T.);
#236=EDGE_CURVE('',#214,#215,#257,.T.);
#237=EDGE_CURVE('',#215,#211,#90,.T.);
#238=EDGE_CURVE('',#212,#214,#91,.T.);
#239=EDGE_CURVE('',#216,#216,#258,.T.);
#240=EDGE_CURVE('',#217,#217,#259,.T.);
#241=EDGE_CURVE('',#218,#218,#260,.T.);
#242=EDGE_CURVE('',#219,#219,#261,.T.);
#243=EDGE_CURVE('',#220,#220,#262,.T.);
#244=EDGE_CURVE('',#221,#221,#263,.T.);
#245=EDGE_CURVE('',#222,#222,#264,.T.);
#246=EDGE_CURVE('',#223,#223,#265,.T.);
#247=EDGE_CURVE('',#224,#224,#266,.T.);
#248=EDGE_CURVE('',#225,#225,#267,.T.);
#249=EDGE_CURVE('',#226,#226,#268,.T.);
#250=EDGE_CURVE('',#227,#227,#269,.T.);
#251=EDGE_CURVE('',#228,#228,#270,.T.);
#252=EDGE_CURVE('',#229,#229,#271,.T.);
#253=EDGE_CURVE('',#230,#230,#272,.T.);
#254=CIRCLE('',#274,25.);
#255=CIRCLE('',#275,10.7235428646924);
#256=CIRCLE('',#277,8.5);
#257=CIRCLE('',#278,8.5);
#258=CIRCLE('',#281,8.);
#259=CIRCLE('',#283,8.);
#260=CIRCLE('',#285,10.0723145172501);
#261=CIRCLE('',#287,16.);
#262=CIRCLE('',#289,16.);
#263=CIRCLE('',#291,25.);
#264=CIRCLE('',#294,3.);
#265=CIRCLE('',#295,4.83192996118502);
#266=CIRCLE('',#297,5.73823774822167);
#267=CIRCLE('',#298,8.21892336110995);
#268=CIRCLE('',#302,4.);
#269=CIRCLE('',#304,3.);
#270=CIRCLE('',#306,1.93747343209687);
#271=CIRCLE('',#308,3.);
#272=CIRCLE('',#311,3.);
#273=AXIS2_PLACEMENT_3D('',#396,#314,#315);
#274=AXIS2_PLACEMENT_3D('',#397,#316,#317);
#275=AXIS2_PLACEMENT_3D('',#419,#318,#319);
#276=AXIS2_PLACEMENT_3D('',#420,#320,#321);
#277=AXIS2_PLACEMENT_3D('',#421,#322,#323);
#278=AXIS2_PLACEMENT_3D('',#444,#324,#325);
#279=AXIS2_PLACEMENT_3D('',#445,#326,#327);
#280=AXIS2_PLACEMENT_3D('',#484,#328,#329);
#281=AXIS2_PLACEMENT_3D('',#485,#330,#331);
#282=AXIS2_PLACEMENT_3D('',#487,#332,#333);
#283=AXIS2_PLACEMENT_3D('',#488,#334,#335);
#284=AXIS2_PLACEMENT_3D('',#490,#336,#337);
#285=AXIS2_PLACEMENT_3D('',#491,#338,#339);
#286=AXIS2_PLACEMENT_3D('',#493,#340,#341);
#287=AXIS2_PLACEMENT_3D('',#494,#342,#343);
#288=AXIS2_PLACEMENT_3D('',#496,#344,#345);
#289=AXIS2_PLACEMENT_3D('',#497,#346,#347);
#290=AXIS2_PLACEMENT_3D('',#499,#348,#349);
#291=AXIS2_PLACEMENT_3D('',#500,#350,#351);
#292=AXIS2_PLACEMENT_3D('',#502,#352,#353);
#293=AXIS2_PLACEMENT_3D('',#503,#354,#355);
#294=AXIS2_PLACEMENT_3D('',#504,#356,#357);
#295=AXIS2_PLACEMENT_3D('',#506,#358,#359);
#296=AXIS2_PLACEMENT_3D('',#508,#360,#361);
#297=AXIS2_PLACEMENT_3D('',#509,#362,#363);
#298=AXIS2_PLACEMENT_3D('',#511,#364,#365);
#299=AXIS2_PLACEMENT_3D('',#513,#366,#367);
#300=AXIS2_PLACEMENT_3D('',#514,#368,#369);
#301=AXIS2_PLACEMENT_3D('',#515,#370,#371);
#302=AXIS2_PLACEMENT_3D('',#516,#372,#373);
#303=AXIS2_PLACEMENT_3D('',#518,#374,#375);
#304=AXIS2_PLACEMENT_3D('',#519,#376,#377);
#305=AXIS2_PLACEMENT_3D('',#521,#378,#379);
#306=AXIS2_PLACEMENT_3D('',#522,#380,#381);
#307=AXIS2_PLACEMENT_3D('',#524,#382,#383);
#308=AXIS2_PLACEMENT_3D('',#525,#384,#385);
#309=AXIS2_PLACEMENT_3D('',#527,#386,#387);
#310=AXIS2_PLACEMENT_3D('',#528,#388,#389);
#311=AXIS2_PLACEMENT_3D('',#529,#390,#391);
#312=AXIS2_PLACEMENT_3D('',#531,#392,#393);
#313=AXIS2_PLACEMENT_3D('',#532,#394,#395);
#314=DIRECTION('',(0.,0.,1.));
#315=DIRECTION('',(1.,0.,0.));
#316=DIRECTION('',(0.,1.07731794520314E-016,-1.));
#317=DIRECTION('',(0.,1.,1.04083408558608E-016));
#318=DIRECTION('',(0.,1.07731794520314E-016,-1.));
#319=DIRECTION('',(0.,1.,1.61767756968495E-016));
#320=DIRECTION('',(0.,1.07731794520314E-016,-1.));
#321=DIRECTION('',(0.,1.,1.21041753079198E-016));
#322=DIRECTION('',(0.,1.07731794520314E-016,-1.));
#323=DIRECTION('',(0.,-1.,0.));
#324=DIRECTION('',(0.,-1.07731794520314E-016,1.));
#325=DIRECTION('',(0.,1.,2.04085114820801E-016));
#326=DIRECTION('',(0.,1.07731794520314E-016,-1.));
#327=DIRECTION('',(0.,1.,1.07731794520314E-016));
#328=DIRECTION('',(0.,1.07731794520314E-016,-1.));
#329=DIRECTION('',(0.,1.,1.19636101791504E-016));
#330=DIRECTION('',(0.,0.,1.));
#331=DIRECTION('',(1.,0.,0.));
#332=DIRECTION('',(0.,0.,1.));
#333=DIRECTION('',(-1.,0.,0.));
#334=DIRECTION('',(0.,0.,-1.));
#335=DIRECTION('',(1.,0.,0.));
#336=DIRECTION('',(0.,0.,-1.));
#337=DIRECTION('',(1.,0.,0.));
#338=DIRECTION('',(0.,0.,1.));
#339=DIRECTION('',(1.,0.,0.));
#340=DIRECTION('',(0.,0.,1.));
#341=DIRECTION('',(-1.,0.,2.53390335898458E-016));
#342=DIRECTION('',(0.,0.,1.));
#343=DIRECTION('',(1.,0.,0.));
#344=DIRECTION('',(0.,0.,1.));
#345=DIRECTION('',(-1.,0.,0.));
#346=DIRECTION('',(0.,0.,1.));
#347=DIRECTION('',(1.,0.,0.));
#348=DIRECTION('',(0.,0.,-1.));
#349=DIRECTION('',(1.,0.,0.));
#350=DIRECTION('',(0.,1.07731794520314E-016,-1.));
#351=DIRECTION('',(0.,1.,1.07731794520314E-016));
#352=DIRECTION('',(0.,-1.07731794520314E-016,1.));
#353=DIRECTION('',(0.,-1.,-1.07731794520314E-016));
#354=DIRECTION('',(0.,1.07731794520314E-016,-1.));
#355=DIRECTION('',(0.,1.,1.07731794520314E-016));
#356=DIRECTION('',(0.,1.07731794520314E-016,-1.));
#357=DIRECTION('',(0.,1.,0.));
#358=DIRECTION('',(0.,-1.07731794520314E-016,1.));
#359=DIRECTION('',(0.,1.,0.));
#360=DIRECTION('',(0.,1.07731794520314E-016,-1.));
#361=DIRECTION('',(0.,1.,1.07552855510562E-016));
#362=DIRECTION('',(0.,1.07731794520314E-016,-1.));
#363=DIRECTION('',(0.,1.,0.));
#364=DIRECTION('',(0.,-1.07731794520314E-016,1.));
#365=DIRECTION('',(0.,1.,0.));
#366=DIRECTION('',(0.,1.07731794520314E-016,-1.));
#367=DIRECTION('',(0.,1.,4.3842346167311E-017));
#368=DIRECTION('',(0.,-1.07731794520314E-016,1.));
#369=DIRECTION('',(0.,-1.,0.));
#370=DIRECTION('',(0.,1.07731794520314E-016,-1.));
#371=DIRECTION('',(0.,1.,0.));
#372=DIRECTION('',(0.,1.,0.));
#373=DIRECTION('',(0.,0.,-1.));
#374=DIRECTION('',(0.,1.,0.));
#375=DIRECTION('',(0.,0.,1.));
#376=DIRECTION('',(0.,-1.,0.));
#377=DIRECTION('',(0.,0.,-1.));
#378=DIRECTION('',(0.,-1.,0.));
#379=DIRECTION('',(0.,0.,-1.));
#380=DIRECTION('',(0.,-1.,0.));
#381=DIRECTION('',(0.,0.,1.));
#382=DIRECTION('',(0.,-1.,0.));
#383=DIRECTION('',(0.,0.,1.));
#384=DIRECTION('',(0.,1.,0.));
#385=DIRECTION('',(0.,0.,1.));
#386=DIRECTION('',(0.,1.,0.));
#387=DIRECTION('',(0.,0.,-1.));
#388=DIRECTION('',(0.,1.,0.));
#389=DIRECTION('',(0.,1.6996792810308E-017,-1.));
#390=DIRECTION('',(0.,-1.07731794520314E-016,1.));
#391=DIRECTION('',(0.,1.,0.));
#392=DIRECTION('',(0.,1.07731794520314E-016,-1.));
#393=DIRECTION('',(0.,1.,1.07552855510562E-016));
#394=DIRECTION('',(0.,1.07731794520314E-016,-1.));
#395=DIRECTION('',(0.,1.,0.));
#396=CARTESIAN_POINT('',(0.,0.,0.));
#397=CARTESIAN_POINT('',(0.,1.82262622123933E-015,5.));
#398=CARTESIAN_POINT('',(0.,25.,5.));
#399=CARTESIAN_POINT('',(-3.94269803978215,-9.97243720150666,8.8253651601832));
#400=CARTESIAN_POINT('',(-3.84233800324524,-12.3659183877895,8.23884146473706));
#401=CARTESIAN_POINT('',(-3.61904692383172,-14.7513225914612,7.63580756478335));
#402=CARTESIAN_POINT('',(-2.92068780787932,-18.2763362062369,6.7408767249353));
#403=CARTESIAN_POINT('',(-2.63210199868708,-19.4439306246968,6.44330506026159));
#404=CARTESIAN_POINT('',(-1.97912292792499,-21.1242967728502,6.01418464951383));
#405=CARTESIAN_POINT('',(-1.72720854298638,-21.6753670644505,5.87329684105699));
#406=CARTESIAN_POINT('',(-1.0344115619952,-22.6713512533039,5.61847737679362));
#407=CARTESIAN_POINT('',(-0.530536255257121,-23.1856417061201,5.48676889057395));
#408=CARTESIAN_POINT('',(0.71411407599365,-23.0740813736558,5.51533768779891));
#409=CARTESIAN_POINT('',(1.15240382284241,-22.5344500336635,5.65352009468944));
#410=CARTESIAN_POINT('',(1.80530250153572,-21.5188725884438,5.91331279440074));
#411=CARTESIAN_POINT('',(2.04393488242721,-20.9747810133285,6.05239040035925));
#412=CARTESIAN_POINT('',(2.66954914088227,-19.3050923107271,6.47870319151178));
#413=CARTESIAN_POINT('',(2.95102489481489,-18.1440017276884,6.77454464167124));
#414=CARTESIAN_POINT('',(3.62528894205955,-14.6749910642167,7.65503402556375));
#415=CARTESIAN_POINT('',(3.84370929844152,-12.3332144414272,8.24685558224337));
#416=CARTESIAN_POINT('',(3.94269803978271,-9.97243720150645,8.8253651601832));
#417=CARTESIAN_POINT('',(-3.94269803978215,-9.97243720150666,8.8253651601832));
#418=CARTESIAN_POINT('',(3.94269803978271,-9.97243720150645,8.8253651601832));
#419=CARTESIAN_POINT('',(0.,1.41051276783731E-015,8.8253651601832));
#420=CARTESIAN_POINT('',(0.,1.34632654011492E-015,9.42116167511352));
#421=CARTESIAN_POINT('',(0.,1.70568200440604E-016,20.3349160120712));
#422=CARTESIAN_POINT('',(0.,-8.5,20.3349160120712));
#423=CARTESIAN_POINT('',(3.32530251352289,-7.82255477408489,11.7231426390504));
#424=CARTESIAN_POINT('',(3.07169486111078,-7.93036126293281,12.102480495831));
#425=CARTESIAN_POINT('',(2.75010789781097,-8.05187907613062,12.4402847270328));
#426=CARTESIAN_POINT('',(2.38352701742582,-8.15897045939015,12.7122887412572));
#427=CARTESIAN_POINT('',(2.0164269466468,-8.2662135167288,12.9846779961716));
#428=CARTESIAN_POINT('',(1.5924584051583,-8.36162245000853,13.1987632226853));
#429=CARTESIAN_POINT('',(1.14640069949568,-8.42233729057415,13.3322011215753));
#430=CARTESIAN_POINT('',(0.72281801058751,-8.47999295955359,13.458915632493));
#431=CARTESIAN_POINT('',(0.266339433214456,-8.50749484013256,13.5159405333811));
#432=CARTESIAN_POINT('',(-0.17898872905775,-8.49811526368467,13.4959933727269));
#433=CARTESIAN_POINT('',(-0.588802985647632,-8.48948368707494,13.4776369526593));
#434=CARTESIAN_POINT('',(-1.00024381306871,-8.44975008823412,13.3940911186454));
#435=CARTESIAN_POINT('',(-1.38082018898727,-8.38709339435809,13.2541091627297));
#436=CARTESIAN_POINT('',(-1.76478710682758,-8.32387849413846,13.1128801123544));
#437=CARTESIAN_POINT('',(-2.1272754059039,-8.23622613117475,12.9112905769676));
#438=CARTESIAN_POINT('',(-2.44594957680746,-8.14047484288941,12.6650166931186));
#439=CARTESIAN_POINT('',(-2.78650813206898,-8.03814800444366,12.401830386414));
#440=CARTESIAN_POINT('',(-3.08601062199982,-7.92427575288625,12.0810674587937));
#441=CARTESIAN_POINT('',(-3.32530251352234,-7.82255477408513,11.7231426390504));
#442=CARTESIAN_POINT('',(3.32530251352289,-7.82255477408489,11.7231426390504));
#443=CARTESIAN_POINT('',(-3.32530251352234,-7.82255477408513,11.7231426390504));
#444=CARTESIAN_POINT('',(0.,1.09832999991839E-015,11.7231426390504));
#445=CARTESIAN_POINT('',(0.,2.36128519384091E-015,0.));
#446=CARTESIAN_POINT('',(-3.32530251352234,-7.82255477408513,11.7231426390504));
#447=CARTESIAN_POINT('',(-3.44807244186699,-7.77036630585453,11.5395074803617));
#448=CARTESIAN_POINT('',(-3.55960395756136,-7.73817846613436,11.3386766337773));
#449=CARTESIAN_POINT('',(-3.65217354718521,-7.74060018960116,11.1314497789516));
#450=CARTESIAN_POINT('',(-3.74547795985014,-7.74304113685636,10.9225779447296));
#451=CARTESIAN_POINT('',(-3.82128400397049,-7.78249654235966,10.7016803408569));
#452=CARTESIAN_POINT('',(-3.87469017778277,-7.86054802648794,10.4933660081729));
#453=CARTESIAN_POINT('',(-3.92264338742949,-7.93063017082571,10.306321324861));
#454=CARTESIAN_POINT('',(-3.95431742986788,-8.03265646077471,10.1248961725833));
#455=CARTESIAN_POINT('',(-3.97331023360699,-8.15543743714473,9.96130877675647));
#456=CARTESIAN_POINT('',(-3.9993662270183,-8.32387914566106,9.73688524422354));
#457=CARTESIAN_POINT('',(-4.00317523492801,-8.53492377150869,9.53902002051433));
#458=CARTESIAN_POINT('',(-3.99804585981146,-8.76401528678391,9.37498278981676));
#459=CARTESIAN_POINT('',(-3.99107934406698,-9.07515838157221,9.15219386828716));
#460=CARTESIAN_POINT('',(-3.96800461285921,-9.42951810514096,8.98302897027892));
#461=CARTESIAN_POINT('',(-3.9506175609482,-9.79581553631737,8.87340532469192));
#462=CARTESIAN_POINT('',(-3.94784332110454,-9.85426115052514,8.85591401639241));
#463=CARTESIAN_POINT('',(-3.94518308897036,-9.91317139527344,8.83988827399948));
#464=CARTESIAN_POINT('',(-3.94269803978215,-9.97243720150666,8.8253651601832));
#465=CARTESIAN_POINT('',(3.94269803978271,-9.97243720150645,8.8253651601832));
#466=CARTESIAN_POINT('',(3.95828601152236,-9.60068049058238,8.91646431782342));
#467=CARTESIAN_POINT('',(3.98189898298162,-9.2385403931257,9.06792252311477));
#468=CARTESIAN_POINT('',(3.99355614635534,-8.9152222266041,9.27304338319969));
#469=CARTESIAN_POINT('',(4.00248803157997,-8.66749122534559,9.43020991854947));
#470=CARTESIAN_POINT('',(4.00438091147243,-8.43657908851662,9.62322582959897));
#471=CARTESIAN_POINT('',(3.98495956854582,-8.24710439851976,9.84655048269751));
#472=CARTESIAN_POINT('',(3.97030170000941,-8.10410218145129,10.0151002796106));
#473=CARTESIAN_POINT('',(3.94263936034737,-7.9823127335911,10.2051975809244));
#474=CARTESIAN_POINT('',(3.89647690171789,-7.8964945109492,10.4041392339583));
#475=CARTESIAN_POINT('',(3.85008208699994,-7.81024432720462,10.604082248395));
#476=CARTESIAN_POINT('',(3.78304445777497,-7.75909001316564,10.8183106229585));
#477=CARTESIAN_POINT('',(3.69840420522907,-7.74492971839777,11.0237474642304));
#478=CARTESIAN_POINT('',(3.62132478031177,-7.73203434835177,11.2108328415274));
#479=CARTESIAN_POINT('',(3.52834209768643,-7.74826016148186,11.3949000261788));
#480=CARTESIAN_POINT('',(3.42525220075637,-7.78381855288115,11.5658284926922));
#481=CARTESIAN_POINT('',(3.39298863430321,-7.79494709755956,11.6193231813312));
#482=CARTESIAN_POINT('',(3.35962467006609,-7.80796471281735,11.6718047035451));
#483=CARTESIAN_POINT('',(3.32530251352289,-7.82255477408489,11.7231426390504));
#484=CARTESIAN_POINT('',(0.,1.09832999991839E-015,11.7231426390504));
#485=CARTESIAN_POINT('',(0.,0.,-41.));
#486=CARTESIAN_POINT('',(8.,0.,-41.));
#487=CARTESIAN_POINT('',(0.,0.,-41.));
#488=CARTESIAN_POINT('',(0.,0.,-33.2452839712988));
#489=CARTESIAN_POINT('',(8.,0.,-33.2452839712988));
#490=CARTESIAN_POINT('',(0.,0.,-41.));
#491=CARTESIAN_POINT('',(0.,0.,-18.5));
#492=CARTESIAN_POINT('',(10.0723145172501,0.,-18.5));
#493=CARTESIAN_POINT('',(0.,0.,-18.5));
#494=CARTESIAN_POINT('',(0.,0.,-18.5));
#495=CARTESIAN_POINT('',(16.,0.,-18.5));
#496=CARTESIAN_POINT('',(0.,16.,-18.5));
#497=CARTESIAN_POINT('',(0.,0.,0.));
#498=CARTESIAN_POINT('',(16.,0.,0.));
#499=CARTESIAN_POINT('',(0.,0.,-41.));
#500=CARTESIAN_POINT('',(0.,2.36128519384091E-015,-2.69329486300786E-015));
#501=CARTESIAN_POINT('',(0.,25.,0.));
#502=CARTESIAN_POINT('',(0.,25.,1.34664743150393E-015));
#503=CARTESIAN_POINT('',(0.,2.36128519384091E-015,0.));
#504=CARTESIAN_POINT('',(0.,-1.4093276143701E-015,27.5));
#505=CARTESIAN_POINT('',(0.,3.,27.5));
#506=CARTESIAN_POINT('',(0.,-6.01339155467738E-016,27.5));
#507=CARTESIAN_POINT('',(0.,4.83192996118502,27.5));
#508=CARTESIAN_POINT('',(0.,-1.77635683940025E-015,27.5));
#509=CARTESIAN_POINT('',(0.,-5.39136784681804E-016,26.9226182617407));
#510=CARTESIAN_POINT('',(0.,5.73823774822167,26.9226182617407));
#511=CARTESIAN_POINT('',(0.,3.39799292374601E-017,21.6027707972933));
#512=CARTESIAN_POINT('',(0.,8.21892336110995,21.6027707972933));
#513=CARTESIAN_POINT('',(0.,9.89175089143056E-017,21.));
#514=CARTESIAN_POINT('',(0.,1.70568200440604E-016,20.3349160120712));
#515=CARTESIAN_POINT('',(0.,-4.93607360947423E-016,26.5));
#516=CARTESIAN_POINT('',(2.77034971776333E-013,-7.67405000000127,9.50000000000085));
#517=CARTESIAN_POINT('',(2.77034971776333E-013,-7.67405000000127,5.50000000000085));
#518=CARTESIAN_POINT('',(2.77034971776333E-013,-24.6740500000013,9.50000000000085));
#519=CARTESIAN_POINT('',(2.77034971776333E-013,-7.67405000000127,9.50000000000085));
#520=CARTESIAN_POINT('',(2.77034971776333E-013,-7.67405000000127,6.50000000000085));
#521=CARTESIAN_POINT('',(2.77034971776333E-013,-7.67405000000127,9.50000000000085));
#522=CARTESIAN_POINT('',(2.77034971776333E-013,-8.98750000000127,9.50000000000085));
#523=CARTESIAN_POINT('',(2.77034971776333E-013,-8.98750000000127,11.4374734320977));
#524=CARTESIAN_POINT('',(2.77034971776333E-013,-8.98750000000127,9.50000000000085));
#525=CARTESIAN_POINT('',(2.77034971776333E-013,-8.37405000000127,9.50000000000085));
#526=CARTESIAN_POINT('',(2.77034971776333E-013,-8.37405000000127,12.5000000000009));
#527=CARTESIAN_POINT('',(2.77034971776333E-013,-8.98750000000127,9.50000000000085));
#528=CARTESIAN_POINT('',(2.77034971776333E-013,-8.37405000000127,9.50000000000085));
#529=CARTESIAN_POINT('',(0.,2.4690169883612E-015,-8.5));
#530=CARTESIAN_POINT('',(0.,3.,-8.5));
#531=CARTESIAN_POINT('',(0.,2.4690169883612E-015,-8.5));
#532=CARTESIAN_POINT('',(0.,-1.4093276143701E-015,27.5));
#533=MECHANICAL_DESIGN_GEOMETRIC_PRESENTATION_REPRESENTATION('',(#32),#534);
#534=(
GEOMETRIC_REPRESENTATION_CONTEXT(3)
GLOBAL_UNCERTAINTY_ASSIGNED_CONTEXT((#535))
GLOBAL_UNIT_ASSIGNED_CONTEXT((#541,#537,#536))
REPRESENTATION_CONTEXT('836270_stp','TOP_LEVEL_ASSEMBLY_PART')
);
#535=UNCERTAINTY_MEASURE_WITH_UNIT(LENGTH_MEASURE(0.0508),#541,
'DISTANCE_ACCURACY_VALUE','Maximum Tolerance applied to model');
#536=(
NAMED_UNIT(*)
SI_UNIT($,.STERADIAN.)
SOLID_ANGLE_UNIT()
);
#537=(
CONVERSION_BASED_UNIT('DEGREE',#539)
NAMED_UNIT(#538)
PLANE_ANGLE_UNIT()
);
#538=DIMENSIONAL_EXPONENTS(0.,0.,0.,0.,0.,0.,0.);
#539=PLANE_ANGLE_MEASURE_WITH_UNIT(PLANE_ANGLE_MEASURE(0.0174532925),#540);
#540=(
NAMED_UNIT(*)
PLANE_ANGLE_UNIT()
SI_UNIT($,.RADIAN.)
);
#541=(
LENGTH_UNIT()
NAMED_UNIT(*)
SI_UNIT(.MILLI.,.METRE.)
);
ENDSEC;
END-ISO-10303-21;
