ISO-10303-21;
HEADER;
/* Generated by software containing ST-Developer
 * from STEP Tools, Inc. (www.steptools.com) 
 */
/* OPTION: using custom schema-name function */

FILE_DESCRIPTION(
/* description */ (''),
/* implementation_level */ '2;1');

FILE_NAME(
/* name */ '836265_stp.stp',
/* time_stamp */ '2017-05-12T07:39:14+02:00',
/* author */ (''),
/* organization */ (''),
/* preprocessor_version */ 'ST-DEVELOPER v15',
/* originating_system */ 'SIEMENS PLM Software NX 9.0',
/* authorisation */ '');

FILE_SCHEMA (('AUTOMOTIVE_DESIGN { 1 0 10303 214 3 1 1 1 }'));
ENDSEC;

DATA;
#10=PROPERTY_DEFINITION_REPRESENTATION(#14,#12);
#11=PROPERTY_DEFINITION_REPRESENTATION(#15,#13);
#12=REPRESENTATION('',(#16),#293);
#13=REPRESENTATION('',(#17),#293);
#14=PROPERTY_DEFINITION('pmi validation property','',#21);
#15=PROPERTY_DEFINITION('pmi validation property','',#21);
#16=VALUE_REPRESENTATION_ITEM('number of annotations',COUNT_MEASURE(0.));
#17=VALUE_REPRESENTATION_ITEM('number of views',COUNT_MEASURE(0.));
#18=SHAPE_REPRESENTATION_RELATIONSHIP('None',
'relationship between reic0AD8C65Btq80-None and reic0AD8C65Btq80-None',
#30,#19);
#19=ADVANCED_BREP_SHAPE_REPRESENTATION('reic0AD8C65Btq80-None',(#40),#293);
#20=SHAPE_DEFINITION_REPRESENTATION(#21,#30);
#21=PRODUCT_DEFINITION_SHAPE('','',#22);
#22=PRODUCT_DEFINITION(' ','',#24,#23);
#23=PRODUCT_DEFINITION_CONTEXT('part definition',#29,'design');
#24=PRODUCT_DEFINITION_FORMATION_WITH_SPECIFIED_SOURCE(' ',' ',#26,
 .NOT_KNOWN.);
#25=PRODUCT_RELATED_PRODUCT_CATEGORY('part','',(#26));
#26=PRODUCT('reic0AD8C65Btq80','reic0AD8C65Btq80',' ',(#27));
#27=PRODUCT_CONTEXT(' ',#29,'mechanical');
#28=APPLICATION_PROTOCOL_DEFINITION('international standard',
'automotive_design',2010,#29);
#29=APPLICATION_CONTEXT(
'core data for automotive mechanical design processes');
#30=SHAPE_REPRESENTATION('reic0AD8C65Btq80-None',(#176),#293);
#31=PRESENTATION_LAYER_ASSIGNMENT('210','Layer 210',(#40));
#32=STYLED_ITEM('',(#33),#40);
#33=PRESENTATION_STYLE_ASSIGNMENT((#34));
#34=SURFACE_STYLE_USAGE(.BOTH.,#35);
#35=SURFACE_SIDE_STYLE('',(#36));
#36=SURFACE_STYLE_FILL_AREA(#37);
#37=FILL_AREA_STYLE('',(#38));
#38=FILL_AREA_STYLE_COLOUR('',#39);
#39=COLOUR_RGB('Orange',1.,0.499992370489052,0.);
#40=MANIFOLD_SOLID_BREP('',#41);
#41=CLOSED_SHELL('',(#72,#73,#74,#75,#76,#77,#78,#79,#80,#81,#82,#83,#84));
#42=TOROIDAL_SURFACE('',#196,19.2575713359273,3.01304845909276);
#43=CONICAL_SURFACE('',#182,10.0723145172501,8.00000000000004);
#44=CONICAL_SURFACE('',#192,18.475,74.9866342062103);
#45=CONICAL_SURFACE('',#195,15.,30.0685828218624);
#46=CYLINDRICAL_SURFACE('',#180,8.);
#47=CYLINDRICAL_SURFACE('',#186,16.);
#48=CYLINDRICAL_SURFACE('',#189,25.);
#49=CYLINDRICAL_SURFACE('',#200,6.);
#50=FACE_BOUND('',#93,.T.);
#51=FACE_BOUND('',#94,.T.);
#52=FACE_BOUND('',#95,.T.);
#53=FACE_BOUND('',#96,.T.);
#54=FACE_BOUND('',#97,.T.);
#55=FACE_BOUND('',#98,.T.);
#56=FACE_BOUND('',#99,.T.);
#57=FACE_BOUND('',#100,.T.);
#58=FACE_BOUND('',#101,.T.);
#59=FACE_BOUND('',#102,.T.);
#60=FACE_BOUND('',#103,.T.);
#61=FACE_BOUND('',#104,.T.);
#62=FACE_BOUND('',#105,.T.);
#63=FACE_BOUND('',#106,.T.);
#64=FACE_BOUND('',#107,.T.);
#65=FACE_BOUND('',#108,.T.);
#66=FACE_BOUND('',#109,.T.);
#67=FACE_BOUND('',#110,.T.);
#68=FACE_BOUND('',#112,.T.);
#69=FACE_BOUND('',#113,.T.);
#70=FACE_BOUND('',#114,.T.);
#71=FACE_BOUND('',#115,.T.);
#72=ADVANCED_FACE('',(#90),#85,.F.);
#73=ADVANCED_FACE('',(#50,#51),#46,.T.);
#74=ADVANCED_FACE('',(#52,#53),#43,.T.);
#75=ADVANCED_FACE('',(#54,#55),#86,.F.);
#76=ADVANCED_FACE('',(#56,#57),#47,.T.);
#77=ADVANCED_FACE('',(#58,#59),#48,.T.);
#78=ADVANCED_FACE('',(#60,#61),#87,.F.);
#79=ADVANCED_FACE('',(#62,#63),#44,.T.);
#80=ADVANCED_FACE('',(#64,#65),#45,.T.);
#81=ADVANCED_FACE('',(#66,#67),#42,.F.);
#82=ADVANCED_FACE('',(#91),#88,.F.);
#83=ADVANCED_FACE('',(#68,#69),#49,.F.);
#84=ADVANCED_FACE('',(#70,#71),#89,.T.);
#85=PLANE('',#178);
#86=PLANE('',#184);
#87=PLANE('',#190);
#88=PLANE('',#198);
#89=PLANE('',#201);
#90=FACE_OUTER_BOUND('',#92,.T.);
#91=FACE_OUTER_BOUND('',#111,.T.);
#92=EDGE_LOOP('',(#116));
#93=EDGE_LOOP('',(#117));
#94=EDGE_LOOP('',(#118));
#95=EDGE_LOOP('',(#119));
#96=EDGE_LOOP('',(#120));
#97=EDGE_LOOP('',(#121));
#98=EDGE_LOOP('',(#122));
#99=EDGE_LOOP('',(#123));
#100=EDGE_LOOP('',(#124));
#101=EDGE_LOOP('',(#125));
#102=EDGE_LOOP('',(#126));
#103=EDGE_LOOP('',(#127));
#104=EDGE_LOOP('',(#128));
#105=EDGE_LOOP('',(#129));
#106=EDGE_LOOP('',(#130));
#107=EDGE_LOOP('',(#131));
#108=EDGE_LOOP('',(#132));
#109=EDGE_LOOP('',(#133));
#110=EDGE_LOOP('',(#134));
#111=EDGE_LOOP('',(#135));
#112=EDGE_LOOP('',(#136));
#113=EDGE_LOOP('',(#137));
#114=EDGE_LOOP('',(#138));
#115=EDGE_LOOP('',(#139));
#116=ORIENTED_EDGE('',*,*,#152,.F.);
#117=ORIENTED_EDGE('',*,*,#153,.T.);
#118=ORIENTED_EDGE('',*,*,#152,.T.);
#119=ORIENTED_EDGE('',*,*,#153,.F.);
#120=ORIENTED_EDGE('',*,*,#154,.F.);
#121=ORIENTED_EDGE('',*,*,#154,.T.);
#122=ORIENTED_EDGE('',*,*,#155,.F.);
#123=ORIENTED_EDGE('',*,*,#155,.T.);
#124=ORIENTED_EDGE('',*,*,#156,.F.);
#125=ORIENTED_EDGE('',*,*,#157,.T.);
#126=ORIENTED_EDGE('',*,*,#158,.T.);
#127=ORIENTED_EDGE('',*,*,#156,.T.);
#128=ORIENTED_EDGE('',*,*,#158,.F.);
#129=ORIENTED_EDGE('',*,*,#157,.F.);
#130=ORIENTED_EDGE('',*,*,#159,.F.);
#131=ORIENTED_EDGE('',*,*,#160,.T.);
#132=ORIENTED_EDGE('',*,*,#161,.T.);
#133=ORIENTED_EDGE('',*,*,#159,.T.);
#134=ORIENTED_EDGE('',*,*,#160,.F.);
#135=ORIENTED_EDGE('',*,*,#162,.T.);
#136=ORIENTED_EDGE('',*,*,#162,.F.);
#137=ORIENTED_EDGE('',*,*,#163,.F.);
#138=ORIENTED_EDGE('',*,*,#163,.T.);
#139=ORIENTED_EDGE('',*,*,#161,.F.);
#140=VERTEX_POINT('',#256);
#141=VERTEX_POINT('',#259);
#142=VERTEX_POINT('',#262);
#143=VERTEX_POINT('',#265);
#144=VERTEX_POINT('',#268);
#145=VERTEX_POINT('',#271);
#146=VERTEX_POINT('',#273);
#147=VERTEX_POINT('',#277);
#148=VERTEX_POINT('',#280);
#149=VERTEX_POINT('',#282);
#150=VERTEX_POINT('',#286);
#151=VERTEX_POINT('',#289);
#152=EDGE_CURVE('',#140,#140,#164,.T.);
#153=EDGE_CURVE('',#141,#141,#165,.T.);
#154=EDGE_CURVE('',#142,#142,#166,.T.);
#155=EDGE_CURVE('',#143,#143,#167,.T.);
#156=EDGE_CURVE('',#144,#144,#168,.T.);
#157=EDGE_CURVE('',#145,#145,#169,.T.);
#158=EDGE_CURVE('',#146,#146,#170,.T.);
#159=EDGE_CURVE('',#147,#147,#171,.T.);
#160=EDGE_CURVE('',#148,#148,#172,.T.);
#161=EDGE_CURVE('',#149,#149,#173,.T.);
#162=EDGE_CURVE('',#150,#150,#174,.T.);
#163=EDGE_CURVE('',#151,#151,#175,.T.);
#164=CIRCLE('',#177,8.);
#165=CIRCLE('',#179,8.);
#166=CIRCLE('',#181,10.0723145172501);
#167=CIRCLE('',#183,16.);
#168=CIRCLE('',#185,16.);
#169=CIRCLE('',#187,25.);
#170=CIRCLE('',#188,25.);
#171=CIRCLE('',#191,18.475);
#172=CIRCLE('',#193,16.65);
#173=CIRCLE('',#194,15.);
#174=CIRCLE('',#197,6.);
#175=CIRCLE('',#199,6.);
#176=AXIS2_PLACEMENT_3D('',#254,#202,#203);
#177=AXIS2_PLACEMENT_3D('',#255,#204,#205);
#178=AXIS2_PLACEMENT_3D('',#257,#206,#207);
#179=AXIS2_PLACEMENT_3D('',#258,#208,#209);
#180=AXIS2_PLACEMENT_3D('',#260,#210,#211);
#181=AXIS2_PLACEMENT_3D('',#261,#212,#213);
#182=AXIS2_PLACEMENT_3D('',#263,#214,#215);
#183=AXIS2_PLACEMENT_3D('',#264,#216,#217);
#184=AXIS2_PLACEMENT_3D('',#266,#218,#219);
#185=AXIS2_PLACEMENT_3D('',#267,#220,#221);
#186=AXIS2_PLACEMENT_3D('',#269,#222,#223);
#187=AXIS2_PLACEMENT_3D('',#270,#224,#225);
#188=AXIS2_PLACEMENT_3D('',#272,#226,#227);
#189=AXIS2_PLACEMENT_3D('',#274,#228,#229);
#190=AXIS2_PLACEMENT_3D('',#275,#230,#231);
#191=AXIS2_PLACEMENT_3D('',#276,#232,#233);
#192=AXIS2_PLACEMENT_3D('',#278,#234,#235);
#193=AXIS2_PLACEMENT_3D('',#279,#236,#237);
#194=AXIS2_PLACEMENT_3D('',#281,#238,#239);
#195=AXIS2_PLACEMENT_3D('',#283,#240,#241);
#196=AXIS2_PLACEMENT_3D('',#284,#242,#243);
#197=AXIS2_PLACEMENT_3D('',#285,#244,#245);
#198=AXIS2_PLACEMENT_3D('',#287,#246,#247);
#199=AXIS2_PLACEMENT_3D('',#288,#248,#249);
#200=AXIS2_PLACEMENT_3D('',#290,#250,#251);
#201=AXIS2_PLACEMENT_3D('',#291,#252,#253);
#202=DIRECTION('',(0.,0.,1.));
#203=DIRECTION('',(1.,0.,0.));
#204=DIRECTION('',(0.,0.,1.));
#205=DIRECTION('',(1.,0.,0.));
#206=DIRECTION('',(0.,0.,1.));
#207=DIRECTION('',(-1.,0.,0.));
#208=DIRECTION('',(0.,0.,-1.));
#209=DIRECTION('',(1.,0.,0.));
#210=DIRECTION('',(0.,0.,-1.));
#211=DIRECTION('',(1.,0.,0.));
#212=DIRECTION('',(0.,0.,1.));
#213=DIRECTION('',(1.,0.,0.));
#214=DIRECTION('',(0.,0.,1.));
#215=DIRECTION('',(-1.,0.,2.53390335898458E-016));
#216=DIRECTION('',(0.,0.,1.));
#217=DIRECTION('',(1.,0.,0.));
#218=DIRECTION('',(0.,0.,1.));
#219=DIRECTION('',(-1.,0.,0.));
#220=DIRECTION('',(0.,0.,1.));
#221=DIRECTION('',(1.,0.,0.));
#222=DIRECTION('',(0.,0.,-1.));
#223=DIRECTION('',(1.,0.,0.));
#224=DIRECTION('',(0.,0.,-1.));
#225=DIRECTION('',(-1.,0.,0.));
#226=DIRECTION('',(0.,0.,1.));
#227=DIRECTION('',(1.,0.,0.));
#228=DIRECTION('',(0.,0.,-1.));
#229=DIRECTION('',(1.,0.,0.));
#230=DIRECTION('',(0.,0.,1.));
#231=DIRECTION('',(-1.,0.,0.));
#232=DIRECTION('',(0.,0.,1.));
#233=DIRECTION('',(-1.,0.,0.));
#234=DIRECTION('',(0.,0.,-1.));
#235=DIRECTION('',(-1.,0.,7.40732097792845E-018));
#236=DIRECTION('',(0.,0.,1.));
#237=DIRECTION('',(-1.,0.,0.));
#238=DIRECTION('',(0.,0.,-1.));
#239=DIRECTION('',(-1.,0.,0.));
#240=DIRECTION('',(0.,0.,-1.));
#241=DIRECTION('',(-1.,0.,2.33653494327404E-017));
#242=DIRECTION('',(0.,0.,-1.));
#243=DIRECTION('',(-1.,0.,0.));
#244=DIRECTION('',(0.,0.,1.));
#245=DIRECTION('',(-1.,0.,0.));
#246=DIRECTION('',(0.,0.,-1.));
#247=DIRECTION('',(-1.,0.,0.));
#248=DIRECTION('',(0.,0.,-1.));
#249=DIRECTION('',(-1.,0.,0.));
#250=DIRECTION('',(0.,0.,-1.));
#251=DIRECTION('',(-1.,0.,0.));
#252=DIRECTION('',(0.,0.,1.));
#253=DIRECTION('',(1.,0.,0.));
#254=CARTESIAN_POINT('',(0.,0.,0.));
#255=CARTESIAN_POINT('',(0.,0.,-41.));
#256=CARTESIAN_POINT('',(8.,0.,-41.));
#257=CARTESIAN_POINT('',(0.,0.,-41.));
#258=CARTESIAN_POINT('',(0.,0.,-33.2452839712988));
#259=CARTESIAN_POINT('',(8.,0.,-33.2452839712988));
#260=CARTESIAN_POINT('',(0.,0.,-41.));
#261=CARTESIAN_POINT('',(0.,0.,-18.5));
#262=CARTESIAN_POINT('',(10.0723145172501,0.,-18.5));
#263=CARTESIAN_POINT('',(0.,0.,-18.5));
#264=CARTESIAN_POINT('',(0.,0.,-18.5));
#265=CARTESIAN_POINT('',(16.,0.,-18.5));
#266=CARTESIAN_POINT('',(0.,0.,-18.5));
#267=CARTESIAN_POINT('',(0.,0.,0.));
#268=CARTESIAN_POINT('',(16.,0.,0.));
#269=CARTESIAN_POINT('',(0.,0.,-41.));
#270=CARTESIAN_POINT('',(0.,0.,5.));
#271=CARTESIAN_POINT('',(-25.,0.,5.));
#272=CARTESIAN_POINT('',(0.,0.,-6.93889390390723E-015));
#273=CARTESIAN_POINT('',(25.,0.,-6.93889390390723E-015));
#274=CARTESIAN_POINT('',(0.,0.,-18.5));
#275=CARTESIAN_POINT('',(0.,15.95,-6.93889390390723E-015));
#276=CARTESIAN_POINT('',(0.,0.,6.75000000000001));
#277=CARTESIAN_POINT('',(-18.475,0.,6.75000000000001));
#278=CARTESIAN_POINT('',(0.,0.,6.75000000000001));
#279=CARTESIAN_POINT('',(0.,0.,8.14999999999998));
#280=CARTESIAN_POINT('',(-16.65,0.,8.14999999999998));
#281=CARTESIAN_POINT('',(0.,0.,11.));
#282=CARTESIAN_POINT('',(-15.,0.,11.));
#283=CARTESIAN_POINT('',(0.,0.,11.));
#284=CARTESIAN_POINT('',(0.,0.,9.65964656290523));
#285=CARTESIAN_POINT('',(0.,0.,-31.));
#286=CARTESIAN_POINT('',(-6.,0.,-31.));
#287=CARTESIAN_POINT('',(0.,0.,-31.));
#288=CARTESIAN_POINT('',(0.,0.,11.));
#289=CARTESIAN_POINT('',(-6.,0.,11.));
#290=CARTESIAN_POINT('',(0.,0.,11.));
#291=CARTESIAN_POINT('',(0.,0.,11.));
#292=MECHANICAL_DESIGN_GEOMETRIC_PRESENTATION_REPRESENTATION('',(#32),#293);
#293=(
GEOMETRIC_REPRESENTATION_CONTEXT(3)
GLOBAL_UNCERTAINTY_ASSIGNED_CONTEXT((#294))
GLOBAL_UNIT_ASSIGNED_CONTEXT((#300,#296,#295))
REPRESENTATION_CONTEXT('836265_stp','TOP_LEVEL_ASSEMBLY_PART')
);
#294=UNCERTAINTY_MEASURE_WITH_UNIT(LENGTH_MEASURE(2.E-005),#300,
'DISTANCE_ACCURACY_VALUE','Maximum Tolerance applied to model');
#295=(
NAMED_UNIT(*)
SI_UNIT($,.STERADIAN.)
SOLID_ANGLE_UNIT()
);
#296=(
CONVERSION_BASED_UNIT('DEGREE',#298)
NAMED_UNIT(#297)
PLANE_ANGLE_UNIT()
);
#297=DIMENSIONAL_EXPONENTS(0.,0.,0.,0.,0.,0.,0.);
#298=PLANE_ANGLE_MEASURE_WITH_UNIT(PLANE_ANGLE_MEASURE(0.0174532925),#299);
#299=(
NAMED_UNIT(*)
PLANE_ANGLE_UNIT()
SI_UNIT($,.RADIAN.)
);
#300=(
LENGTH_UNIT()
NAMED_UNIT(*)
SI_UNIT(.MILLI.,.METRE.)
);
ENDSEC;
END-ISO-10303-21;
