  0
SECTION
  2
HEADER
  9
$ACADVER
  1
AC1032
  9
$ACADMAINTVER
 90
      228
  9
$DWGCODEPAGE
  3
ANSI_1252
  9
$REQUIREDVERSIONS
160
                 0
  9
$INSBASE
 10
0.0
 20
0.0
 30
0.0
  9
$EXTMIN
 10
1.000000000000000E+20
 20
1.000000000000000E+20
 30
1.000000000000000E+20
  9
$EXTMAX
 10
-1.000000000000000E+20
 20
-1.000000000000000E+20
 30
-1.000000000000000E+20
  9
$LIMMIN
 10
0.0
 20
0.0
  9
$LIMMAX
 10
12.0
 20
9.0
  9
$ORTHOMODE
 70
     0
  9
$REGENMODE
 70
     1
  9
$FILLMODE
 70
     1
  9
$QTEXTMODE
 70
     0
  9
$MIRRTEXT
 70
     0
  9
$LTSCALE
 40
1.0
  9
$ATTMODE
 70
     1
  9
$TEXTSIZE
 40
0.2
  9
$TRACEWID
 40
0.05
  9
$TEXTSTYLE
  7
Standard
  9
$CLAYER
  8
0
  9
$CELTYPE
  6
ByLayer
  9
$CECOLOR
 62
   256
  9
$CELTSCALE
 40
1.0
  9
$DISPSILH
 70
     0
  9
$DIMSCALE
 40
1.0
  9
$DIMASZ
 40
0.18
  9
$DIMEXO
 40
0.0625
  9
$DIMDLI
 40
0.38
  9
$DIMRND
 40
0.0
  9
$DIMDLE
 40
0.0
  9
$DIMEXE
 40
0.18
  9
$DIMTP
 40
0.0
  9
$DIMTM
 40
0.0
  9
$DIMTXT
 40
0.18
  9
$DIMCEN
 40
0.09
  9
$DIMTSZ
 40
0.0
  9
$DIMTOL
 70
     0
  9
$DIMLIM
 70
     0
  9
$DIMTIH
 70
     1
  9
$DIMTOH
 70
     1
  9
$DIMSE1
 70
     0
  9
$DIMSE2
 70
     0
  9
$DIMTAD
 70
     0
  9
$DIMZIN
 70
     0
  9
$DIMBLK
  1

  9
$DIMASO
 70
     1
  9
$DIMSHO
 70
     1
  9
$DIMPOST
  1

  9
$DIMAPOST
  1

  9
$DIMALT
 70
     0
  9
$DIMALTD
 70
     2
  9
$DIMALTF
 40
25.4
  9
$DIMLFAC
 40
1.0
  9
$DIMTOFL
 70
     0
  9
$DIMTVP
 40
0.0
  9
$DIMTIX
 70
     0
  9
$DIMSOXD
 70
     0
  9
$DIMSAH
 70
     0
  9
$DIMBLK1
  1

  9
$DIMBLK2
  1

  9
$DIMSTYLE
  2
Standard
  9
$DIMCLRD
 70
     0
  9
$DIMCLRE
 70
     0
  9
$DIMCLRT
 70
     0
  9
$DIMTFAC
 40
1.0
  9
$DIMGAP
 40
0.09
  9
$DIMJUST
 70
     0
  9
$DIMSD1
 70
     0
  9
$DIMSD2
 70
     0
  9
$DIMTOLJ
 70
     1
  9
$DIMTZIN
 70
     0
  9
$DIMALTZ
 70
     0
  9
$DIMALTTZ
 70
     0
  9
$DIMUPT
 70
     0
  9
$DIMDEC
 70
     4
  9
$DIMTDEC
 70
     4
  9
$DIMALTU
 70
     2
  9
$DIMALTTD
 70
     2
  9
$DIMTXSTY
  7
Standard
  9
$DIMAUNIT
 70
     0
  9
$DIMADEC
 70
     0
  9
$DIMALTRND
 40
0.0
  9
$DIMAZIN
 70
     0
  9
$DIMDSEP
 70
    46
  9
$DIMATFIT
 70
     3
  9
$DIMFRAC
 70
     0
  9
$DIMLDRBLK
  1

  9
$DIMLUNIT
 70
     2
  9
$DIMLWD
 70
    -2
  9
$DIMLWE
 70
    -2
  9
$DIMTMOVE
 70
     0
  9
$DIMFXL
 40
1.0
  9
$DIMFXLON
 70
     0
  9
$DIMJOGANG
 40
0.7853981633974483
  9
$DIMTFILL
 70
     0
  9
$DIMTFILLCLR
 70
     0
  9
$DIMARCSYM
 70
     0
  9
$DIMLTYPE
  6

  9
$DIMLTEX1
  6

  9
$DIMLTEX2
  6

  9
$DIMTXTDIRECTION
 70
     0
  9
$LUNITS
 70
     2
  9
$LUPREC
 70
     4
  9
$SKETCHINC
 40
0.1
  9
$FILLETRAD
 40
0.0
  9
$AUNITS
 70
     0
  9
$AUPREC
 70
     0
  9
$MENU
  1
.
  9
$ELEVATION
 40
0.0
  9
$PELEVATION
 40
0.0
  9
$THICKNESS
 40
0.0
  9
$LIMCHECK
 70
     0
  9
$CHAMFERA
 40
0.0
  9
$CHAMFERB
 40
0.0
  9
$CHAMFERC
 40
0.0
  9
$CHAMFERD
 40
0.0
  9
$SKPOLY
 70
     0
  9
$TDCREATE
 40
2460095.410729167
  9
$TDUCREATE
 40
2460095.327395833
  9
$TDUPDATE
 40
2460095.410729167
  9
$TDUUPDATE
 40
2460095.327395833
  9
$TDINDWG
 40
0.0000000000
  9
$TDUSRTIMER
 40
0.0000000000
  9
$USRTIMER
 70
     1
  9
$ANGBASE
 50
0.0
  9
$ANGDIR
 70
     0
  9
$PDMODE
 70
     0
  9
$PDSIZE
 40
0.0
  9
$PLINEWID
 40
0.0
  9
$SPLFRAME
 70
     0
  9
$SPLINETYPE
 70
     6
  9
$SPLINESEGS
 70
     8
  9
$HANDSEED
  5
187
  9
$SURFTAB1
 70
     6
  9
$SURFTAB2
 70
     6
  9
$SURFTYPE
 70
     6
  9
$SURFU
 70
     6
  9
$SURFV
 70
     6
  9
$UCSBASE
  2

  9
$UCSNAME
  2

  9
$UCSORG
 10
0.0
 20
0.0
 30
0.0
  9
$UCSXDIR
 10
1.0
 20
0.0
 30
0.0
  9
$UCSYDIR
 10
0.0
 20
1.0
 30
0.0
  9
$UCSORTHOREF
  2

  9
$UCSORTHOVIEW
 70
     0
  9
$UCSORGTOP
 10
0.0
 20
0.0
 30
0.0
  9
$UCSORGBOTTOM
 10
0.0
 20
0.0
 30
0.0
  9
$UCSORGLEFT
 10
0.0
 20
0.0
 30
0.0
  9
$UCSORGRIGHT
 10
0.0
 20
0.0
 30
0.0
  9
$UCSORGFRONT
 10
0.0
 20
0.0
 30
0.0
  9
$UCSORGBACK
 10
0.0
 20
0.0
 30
0.0
  9
$PUCSBASE
  2

  9
$PUCSNAME
  2

  9
$PUCSORG
 10
0.0
 20
0.0
 30
0.0
  9
$PUCSXDIR
 10
1.0
 20
0.0
 30
0.0
  9
$PUCSYDIR
 10
0.0
 20
1.0
 30
0.0
  9
$PUCSORTHOREF
  2

  9
$PUCSORTHOVIEW
 70
     0
  9
$PUCSORGTOP
 10
0.0
 20
0.0
 30
0.0
  9
$PUCSORGBOTTOM
 10
0.0
 20
0.0
 30
0.0
  9
$PUCSORGLEFT
 10
0.0
 20
0.0
 30
0.0
  9
$PUCSORGRIGHT
 10
0.0
 20
0.0
 30
0.0
  9
$PUCSORGFRONT
 10
0.0
 20
0.0
 30
0.0
  9
$PUCSORGBACK
 10
0.0
 20
0.0
 30
0.0
  9
$USERI1
 70
     0
  9
$USERI2
 70
     0
  9
$USERI3
 70
     0
  9
$USERI4
 70
     0
  9
$USERI5
 70
     0
  9
$USERR1
 40
0.0
  9
$USERR2
 40
0.0
  9
$USERR3
 40
0.0
  9
$USERR4
 40
0.0
  9
$USERR5
 40
0.0
  9
$WORLDVIEW
 70
     1
  9
$SHADEDGE
 70
     3
  9
$SHADEDIF
 70
    70
  9
$TILEMODE
 70
     1
  9
$MAXACTVP
 70
    64
  9
$PINSBASE
 10
0.0
 20
0.0
 30
0.0
  9
$PLIMCHECK
 70
     0
  9
$PEXTMIN
 10
1.000000000000000E+20
 20
1.000000000000000E+20
 30
1.000000000000000E+20
  9
$PEXTMAX
 10
-1.000000000000000E+20
 20
-1.000000000000000E+20
 30
-1.000000000000000E+20
  9
$PLIMMIN
 10
0.0
 20
0.0
  9
$PLIMMAX
 10
12.0
 20
9.0
  9
$UNITMODE
 70
     0
  9
$VISRETAIN
 70
     1
  9
$PLINEGEN
 70
     0
  9
$PSLTSCALE
 70
     1
  9
$TREEDEPTH
 70
  3020
  9
$CMLSTYLE
  2
Standard
  9
$CMLJUST
 70
     0
  9
$CMLSCALE
 40
1.0
  9
$PROXYGRAPHICS
 70
     1
  9
$MEASUREMENT
 70
     0
  9
$CELWEIGHT
370
    -1
  9
$ENDCAPS
280
     0
  9
$JOINSTYLE
280
     0
  9
$LWDISPLAY
290
     1
  9
$INSUNITS
 70
     4
  9
$HYPERLINKBASE
  1

  9
$STYLESHEET
  1

  9
$XEDIT
290
     1
  9
$CEPSNTYPE
380
     0
  9
$PSTYLEMODE
290
     1
  9
$FINGERPRINTGUID
  2
{56EAD32E-454C-874D-9654-E2B192E73CCF}
  9
$VERSIONGUID
  2
{A7C310A5-729E-2849-B95D-5DABA7E1D5B8}
  9
$EXTNAMES
290
     1
  9
$PSVPSCALE
 40
0.0
  9
$OLESTARTUP
290
     0
  9
$SORTENTS
280
   127
  9
$INDEXCTL
280
     0
  9
$HIDETEXT
280
     1
  9
$XCLIPFRAME
280
     2
  9
$HALOGAP
280
     0
  9
$OBSCOLOR
 70
   257
  9
$OBSLTYPE
280
     0
  9
$INTERSECTIONDISPLAY
280
     0
  9
$INTERSECTIONCOLOR
 70
   257
  9
$DIMASSOC
280
     2
  9
$PROJECTNAME
  1

  9
$CAMERADISPLAY
290
     0
  9
$LENSLENGTH
 40
50.0
  9
$CAMERAHEIGHT
 40
0.0
  9
$STEPSPERSEC
 40
2.0
  9
$STEPSIZE
 40
6.0
  9
$3DDWFPREC
 40
2.0
  9
$PSOLWIDTH
 40
0.25
  9
$PSOLHEIGHT
 40
4.0
  9
$LOFTANG1
 40
1.570796326794896
  9
$LOFTANG2
 40
1.570796326794896
  9
$LOFTMAG1
 40
0.0
  9
$LOFTMAG2
 40
0.0
  9
$LOFTPARAM
 70
     7
  9
$LOFTNORMALS
280
     1
  9
$LATITUDE
 40
37.795
  9
$LONGITUDE
 40
-122.394
  9
$NORTHDIRECTION
 40
0.0
  9
$TIMEZONE
 70
 -8000
  9
$LIGHTGLYPHDISPLAY
280
     1
  9
$TILEMODELIGHTSYNCH
280
     1
  9
$CMATERIAL
347
11
  9
$SOLIDHIST
280
     0
  9
$SHOWHIST
280
     1
  9
$DWFFRAME
280
     2
  9
$DGNFRAME
280
     0
  9
$REALWORLDSCALE
290
     1
  9
$INTERFERECOLOR
 62
     1
  9
$INTERFEREOBJVS
345
33
  9
$INTERFEREVPVS
346
30
  9
$CSHADOW
280
     0
  9
$SHADOWPLANELOCATION
 40
0.0
  0
ENDSEC
  0
SECTION
  2
CLASSES
  0
CLASS
  1
ACDBDICTIONARYWDFLT
  2
AcDbDictionaryWithDefault
  3
ObjectDBX Classes
 90
        0
 91
        1
280
     0
281
     0
  0
CLASS
  1
MATERIAL
  2
AcDbMaterial
  3
ObjectDBX Classes
 90
     1153
 91
        3
280
     0
281
     0
  0
CLASS
  1
VISUALSTYLE
  2
AcDbVisualStyle
  3
ObjectDBX Classes
 90
     4095
 91
       24
280
     0
281
     0
  0
CLASS
  1
SCALE
  2
AcDbScale
  3
ObjectDBX Classes
 90
     1153
 91
       17
280
     0
281
     0
  0
CLASS
  1
TABLESTYLE
  2
AcDbTableStyle
  3
ObjectDBX Classes
 90
     4095
 91
        1
280
     0
281
     0
  0
CLASS
  1
MLEADERSTYLE
  2
AcDbMLeaderStyle
  3
ACDB_MLEADERSTYLE_CLASS
 90
     4095
 91
        1
280
     0
281
     0
  0
CLASS
  1
ACDBSECTIONVIEWSTYLE
  2
AcDbSectionViewStyle
  3
ObjectDBX Classes
 90
     1025
 91
        1
280
     0
281
     0
  0
CLASS
  1
ACDBDETAILVIEWSTYLE
  2
AcDbDetailViewStyle
  3
ObjectDBX Classes
 90
     1025
 91
        1
280
     0
281
     0
  0
CLASS
  1
DICTIONARYVAR
  2
AcDbDictionaryVar
  3
ObjectDBX Classes
 90
        0
 91
        5
280
     0
281
     0
  0
CLASS
  1
CELLSTYLEMAP
  2
AcDbCellStyleMap
  3
ObjectDBX Classes
 90
     1152
 91
        1
280
     0
281
     0
  0
ENDSEC
  0
SECTION
  2
TABLES
  0
TABLE
  2
VPORT
  5
8
330
0
100
AcDbSymbolTable
 70
     1
  0
VPORT
  5
57
330
8
100
AcDbSymbolTableRecord
100
AcDbViewportTableRecord
  2
*Active
 70
     0
 10
0.0
 20
0.0
 11
1.0
 21
1.0
 12
0.0
 22
0.0
 13
0.0
 23
0.0
 14
1.0
 24
1.0
 15
0.0
 25
0.0
 16
0.0
 26
0.0
 36
1.0
 17
99.61652926159393
 27
144.9424247513005
 37
0.0
 40
97.22198890912048
 41
2.076422930192522
 42
50.0
 43
0.0
 44
0.0
 50
0.0
 51
0.0
 71
     0
 72
   100
 73
     1
 74
     1
 75
     0
 76
     0
 77
     0
 78
     0
281
     0
 65
     1
110
0.0
120
0.0
130
0.0
111
1.0
121
0.0
131
0.0
112
0.0
122
1.0
132
0.0
 79
     0
146
0.0
 60
     3
 61
     5
292
     1
282
     1
141
0.0
142
0.0
 63
   250
421
  3355443
  0
ENDTAB
  0
TABLE
  2
LTYPE
  5
5
330
0
100
AcDbSymbolTable
 70
     1
  0
LTYPE
  5
5B
330
5
100
AcDbSymbolTableRecord
100
AcDbLinetypeTableRecord
  2
ByBlock
 70
     0
  3

 72
    65
 73
     0
 40
0.0
  0
LTYPE
  5
5C
330
5
100
AcDbSymbolTableRecord
100
AcDbLinetypeTableRecord
  2
ByLayer
 70
     0
  3

 72
    65
 73
     0
 40
0.0
  0
LTYPE
  5
5D
330
5
100
AcDbSymbolTableRecord
100
AcDbLinetypeTableRecord
  2
Continuous
 70
     0
  3
Solid line
 72
    65
 73
     0
 40
0.0
  0
ENDTAB
  0
TABLE
  2
LAYER
  5
2
330
0
100
AcDbSymbolTable
 70
     5
  0
LAYER
  5
54
330
2
100
AcDbSymbolTableRecord
100
AcDbLayerTableRecord
  2
0
 70
     0
 62
     7
  6
Continuous
370
    -3
390
F
347
21
348
0
  0
LAYER
  5
78
330
2
100
AcDbSymbolTableRecord
100
AcDbLayerTableRecord
  2
grau 10%
 70
     0
 62
     7
  6
Continuous
370
     0
390
F
347
21
348
0
  0
LAYER
  5
97
330
2
100
AcDbSymbolTableRecord
100
AcDbLayerTableRecord
  2
Standardebene
 70
     0
 62
     7
  6
Continuous
370
     0
390
F
347
21
348
0
  0
LAYER
  5
98
330
2
100
AcDbSymbolTableRecord
100
AcDbLayerTableRecord
  2
Bemaßung
 70
     1
 62
     7
  6
Continuous
370
     0
390
F
347
21
348
0
  0
LAYER
  5
177
330
2
100
AcDbSymbolTableRecord
100
AcDbLayerTableRecord
  2
Text
 70
     1
 62
     7
  6
Continuous
370
     0
390
F
347
21
348
0
  0
ENDTAB
  0
TABLE
  2
STYLE
  5
3
330
0
100
AcDbSymbolTable
 70
     2
  0
STYLE
  5
55
330
3
100
AcDbSymbolTableRecord
100
AcDbTextStyleTableRecord
  2
Standard
 70
     0
 40
0.0
 41
1.0
 50
0.0
 71
     0
 42
0.2
  3
txt
  4

  0
STYLE
  5
5A
330
3
100
AcDbSymbolTableRecord
100
AcDbTextStyleTableRecord
  2
Annotative
 70
     0
 40
0.0
 41
1.0
 50
0.0
 71
     0
 42
0.2
  3
txt
  4

1001
AcadAnnotative
1000
AnnotativeData
1002
{
1070
     1
1070
     1
1002
}
  0
ENDTAB
  0
TABLE
  2
VIEW
  5
6
330
0
100
AcDbSymbolTable
 70
     0
  0
ENDTAB
  0
TABLE
  2
UCS
  5
7
330
0
100
AcDbSymbolTable
 70
     0
  0
ENDTAB
  0
TABLE
  2
APPID
  5
9
330
0
100
AcDbSymbolTable
 70
     2
  0
APPID
  5
56
330
9
100
AcDbSymbolTableRecord
100
AcDbRegAppTableRecord
  2
ACAD
 70
     0
  0
APPID
  5
5E
330
9
100
AcDbSymbolTableRecord
100
AcDbRegAppTableRecord
  2
AcadAnnotative
 70
     0
  0
ENDTAB
  0
TABLE
  2
DIMSTYLE
  5
A
330
0
100
AcDbSymbolTable
 70
     2
100
AcDbDimStyleTable
 71
     0
  0
DIMSTYLE
105
58
330
A
100
AcDbSymbolTableRecord
100
AcDbDimStyleTableRecord
  2
Standard
 70
     0
340
55
  0
DIMSTYLE
105
59
330
A
100
AcDbSymbolTableRecord
100
AcDbDimStyleTableRecord
  2
Annotative
 70
     0
340
55
1001
AcadAnnotative
1000
AnnotativeData
1002
{
1070
     1
1070
     1
1002
}
  0
ENDTAB
  0
TABLE
  2
BLOCK_RECORD
  5
1
330
0
100
AcDbSymbolTable
 70
     1
  0
BLOCK_RECORD
  5
70
330
1
100
AcDbSymbolTableRecord
100
AcDbBlockTableRecord
  2
*Model_Space
340
73
 70
     0
280
     1
281
     0
  0
BLOCK_RECORD
  5
6C
330
1
100
AcDbSymbolTableRecord
100
AcDbBlockTableRecord
  2
*Paper_Space
340
6F
 70
     0
280
     1
281
     0
  0
BLOCK_RECORD
  5
74
330
1
100
AcDbSymbolTableRecord
100
AcDbBlockTableRecord
  2
*Paper_Space0
340
77
 70
     0
280
     1
281
     0
  0
ENDTAB
  0
ENDSEC
  0
SECTION
  2
BLOCKS
  0
BLOCK
  5
71
330
70
100
AcDbEntity
  8
0
100
AcDbBlockBegin
  2
*Model_Space
 70
     0
 10
0.0
 20
0.0
 30
0.0
  3
*Model_Space
  1

  0
ENDBLK
  5
72
330
70
100
AcDbEntity
  8
0
100
AcDbBlockEnd
  0
BLOCK
  5
6D
330
6C
100
AcDbEntity
 67
     1
  8
0
100
AcDbBlockBegin
  2
*Paper_Space
 70
     0
 10
0.0
 20
0.0
 30
0.0
  3
*Paper_Space
  1

  0
ENDBLK
  5
6E
330
6C
100
AcDbEntity
 67
     1
  8
0
100
AcDbBlockEnd
  0
BLOCK
  5
75
330
74
100
AcDbEntity
 67
     1
  8
0
100
AcDbBlockBegin
  2
*Paper_Space0
 70
     0
 10
0.0
 20
0.0
 30
0.0
  3
*Paper_Space0
  1

  0
ENDBLK
  5
76
330
74
100
AcDbEntity
 67
     1
  8
0
100
AcDbBlockEnd
  0
ENDSEC
  0
SECTION
  2
ENTITIES
  0
LINE
  5
79
330
70
100
AcDbEntity
  8
grau 10%
 62
     7
370
    35
100
AcDbLine
 10
41.53047019228181
 20
140.4240763537828
 30
0.0
 11
22.53021186369874
 21
140.4240763537828
 31
0.0
  0
LINE
  5
7A
330
70
100
AcDbEntity
  8
grau 10%
 62
     7
370
    35
100
AcDbLine
 10
41.53047019228181
 20
182.4236818988385
 30
0.0
 11
22.53021186369874
 21
182.4236818988385
 31
0.0
  0
LINE
  5
7B
330
70
100
AcDbEntity
  8
grau 10%
 62
     7
370
    35
100
AcDbLine
 10
21.53079241950396
 20
183.4241596763662
 30
0.0
 11
21.53079241950396
 21
191.4241013410328
 31
0.0
  0
LINE
  5
7C
330
70
100
AcDbEntity
  8
grau 10%
 62
     7
370
    35
100
AcDbLine
 10
22.53021186369874
 20
192.423873563005
 30
0.0
 11
41.53047019228181
 21
192.423873563005
 31
0.0
  0
LINE
  5
7D
330
70
100
AcDbEntity
  8
grau 10%
 62
     7
370
    35
100
AcDbLine
 10
22.53021186369874
 20
150.4239152401719
 30
0.0
 11
41.53047019228181
 21
150.4239152401719
 31
0.0
  0
LWPOLYLINE
  5
7E
330
70
100
AcDbEntity
  8
grau 10%
 62
     7
370
    35
100
AcDbPolyline
 90
        4
 70
     0
 43
0.0
 10
181.5306840461705
 20
152.4238124618941
 10
181.5306840461705
 20
180.4237846771163
 10
180.5305590464208
 20
181.4239096768662
 10
92.72910906837109
 20
181.4239096768662
  0
SPLINE
  5
7F
330
70
100
AcDbEntity
  8
grau 10%
 62
     7
370
    35
100
AcDbSpline
210
0.0
220
0.0
230
1.0
 70
     8
 71
     3
 72
     8
 73
     4
 74
     0
 42
0.0000000001
 43
0.0000000001
 40
0.0
 40
0.0
 40
0.0
 40
0.0
 40
1.0
 40
1.0
 40
1.0
 40
1.0
 10
77.53073684994834
 20
192.4235207852272
 30
0.0
 10
79.73312851606455
 20
185.7285041202346
 30
0.0
 10
85.93319795895892
 20
181.4683596768552
 30
0.0
 10
92.72910906837109
 20
181.4239096768662
 30
0.0
  0
LINE
  5
80
330
70
100
AcDbEntity
  8
grau 10%
 62
     7
370
    35
100
AcDbLine
 10
77.53073684994834
 20
192.423873563005
 30
0.0
 11
41.53047019228181
 21
192.423873563005
 31
0.0
  0
LINE
  5
81
330
70
100
AcDbEntity
  8
grau 10%
 62
     7
370
    35
100
AcDbLine
 10
21.53079241950396
 20
141.4242013535328
 30
0.0
 11
21.53079241950396
 21
149.4237902404219
 31
0.0
  0
LINE
  5
82
330
70
100
AcDbEntity
  8
grau 10%
 62
     7
370
    35
100
AcDbLine
 10
21.53079241950396
 20
183.4241596763662
 30
0.0
 11
22.53021186369874
 21
182.4236818988385
 31
0.0
  0
LINE
  5
83
330
70
100
AcDbEntity
  8
grau 10%
 62
     7
370
    35
100
AcDbLine
 10
22.53021186369874
 20
192.423873563005
 30
0.0
 11
21.53079241950396
 21
191.4241013410328
 31
0.0
  0
LINE
  5
84
330
70
100
AcDbEntity
  8
grau 10%
 62
     7
370
    35
100
AcDbLine
 10
21.53079241950396
 20
141.4242013535328
 30
0.0
 11
22.53021186369874
 21
140.4240763537828
 31
0.0
  0
LINE
  5
85
330
70
100
AcDbEntity
  8
grau 10%
 62
     7
370
    35
100
AcDbLine
 10
41.53047019228181
 20
192.423873563005
 30
0.0
 11
41.53047019228181
 21
182.4236818988385
 31
0.0
  0
LINE
  5
86
330
70
100
AcDbEntity
  8
grau 10%
 62
     7
370
    35
100
AcDbLine
 10
22.53021186369874
 20
150.4239152401719
 30
0.0
 11
21.53079241950396
 21
149.4237902404219
 31
0.0
  0
LINE
  5
87
330
70
100
AcDbEntity
  8
grau 10%
 62
     7
370
    35
100
AcDbLine
 10
41.53047019228181
 20
182.4236818988385
 30
0.0
 11
43.53072019178178
 21
182.4236818988385
 31
0.0
  0
SPLINE
  5
88
330
70
100
AcDbEntity
  8
grau 10%
 62
     7
370
    35
100
AcDbSpline
210
0.0
220
0.0
230
1.0
 70
     8
 71
     3
 72
     8
 73
     4
 74
     0
 42
0.0000000001
 43
0.0000000001
 40
0.0
 40
0.0
 40
0.0
 40
0.0
 40
1.0
 40
1.0
 40
1.0
 40
1.0
 10
59.53025074333748
 20
166.4241513472828
 30
0.0
 10
59.53025074333748
 20
175.2605291228514
 30
0.0
 10
52.36709796735038
 20
182.4236818988385
 30
0.0
 10
43.53072019178178
 20
182.4236818988385
 30
0.0
  0
SPLINE
  5
89
330
70
100
AcDbEntity
  8
grau 10%
 62
     7
370
    35
100
AcDbSpline
210
0.0
220
0.0
230
1.0
 70
     8
 71
     3
 72
     8
 73
     4
 74
     0
 42
0.0000000001
 43
0.0000000001
 40
0.0
 40
0.0
 40
0.0
 40
0.0
 40
1.0
 40
1.0
 40
1.0
 40
1.0
 10
43.53072019178178
 20
150.4239152401719
 30
0.0
 10
52.36709796735038
 20
150.4239152401719
 30
0.0
 10
59.53025074333748
 20
157.5877735717142
 30
0.0
 10
59.53025074333748
 20
166.4241513472828
 30
0.0
  0
LWPOLYLINE
  5
8A
330
70
100
AcDbEntity
  8
grau 10%
 62
     7
370
    35
100
AcDbPolyline
 90
        4
 70
     0
 43
0.0
 10
43.53072019178178
 20
150.4239152401719
 10
41.53047019228181
 20
150.4239152401719
 10
41.53047019228181
 20
140.4240763537828
 10
77.53073684994834
 20
140.4240763537828
  0
SPLINE
  5
8B
330
70
100
AcDbEntity
  8
grau 10%
 62
     7
370
    35
100
AcDbSpline
210
0.0
220
0.0
230
1.0
 70
     8
 71
     3
 72
     8
 73
     4
 74
     0
 42
0.0000000001
 43
0.0000000001
 40
0.0
 40
0.0
 40
0.0
 40
0.0
 40
1.0
 40
1.0
 40
1.0
 40
1.0
 10
92.72910906837109
 20
151.4240402399219
 30
0.0
 10
85.68060907013338
 20
151.4240402399219
 30
0.0
 10
79.69679240496249
 20
146.8657985743946
 30
0.0
 10
77.53073684994834
 20
140.4240763537828
 30
0.0
  0
LWPOLYLINE
  5
8C
330
70
100
AcDbEntity
  8
grau 10%
 62
     7
370
    35
100
AcDbPolyline
 90
        3
 70
     0
 43
0.0
 10
92.72910906837109
 20
151.4240402399219
 10
180.5305590464208
 20
151.4240402399219
 10
181.5306840461705
 20
152.4238124618941
  0
LWPOLYLINE
  5
8D
330
70
100
AcDbEntity
  8
grau 10%
 62
     7
370
    35
100
AcDbPolyline
 90
        3
 70
     0
 43
0.0
 10
180.5305590464208
 20
106.0786314929971
 10
180.5305590464208
 20
111.0785509361915
 10
92.72910906837109
 20
111.0785509361915
  0
LWPOLYLINE
  5
8E
330
70
100
AcDbEntity
  8
grau 10%
 62
     7
370
    35
100
AcDbPolyline
 90
        4
 70
     0
 43
0.0
 10
77.53073684994834
 20
111.0785509361915
 10
22.53021186369874
 20
111.0785509361915
 10
22.53021186369874
 20
109.4289620477149
 10
41.53047019228181
 20
106.0786314929971
  0
LINE
  5
8F
330
70
100
AcDbEntity
  8
grau 10%
 62
     7
370
    35
100
AcDbLine
 10
21.53079241950396
 20
109.6053509365597
 30
0.0
 11
21.53079241950396
 21
111.0785509361915
 31
0.0
  0
LWPOLYLINE
  5
90
330
70
100
AcDbEntity
  8
grau 10%
 62
     7
370
    35
100
AcDbPolyline
 90
       12
 70
     0
 43
0.0
 10
92.72910906837109
 20
111.0785509361915
 10
90.91089240215882
 20
111.0785509361915
 10
89.11560629149654
 20
111.0785509361915
 10
87.36723962526724
 20
111.0785509361915
 10
85.68872295901995
 20
111.0785509361915
 10
84.10122295941683
 20
111.0785509361915
 10
82.62590629311906
 20
111.0785509361915
 10
81.28147018234418
 20
111.0785509361915
 10
80.08520073819861
 20
111.0785509361915
 10
79.05226740512354
 20
111.0785509361915
 10
78.19748684978176
 20
111.0785509361915
 10
77.53073684994834
 20
111.0785509361915
  0
LINE
  5
91
330
70
100
AcDbEntity
  8
grau 10%
 62
     7
370
    35
100
AcDbLine
 10
181.5306840461705
 20
111.0785509361915
 30
0.0
 11
181.5306840461705
 21
106.0786314929971
 31
0.0
  0
LINE
  5
92
330
70
100
AcDbEntity
  8
grau 10%
 62
     7
370
    35
100
AcDbLine
 10
77.53073684994834
 20
111.0785509361915
 30
0.0
 11
77.53073684994834
 21
106.0786314929971
 31
0.0
  0
LINE
  5
93
330
70
100
AcDbEntity
  8
grau 10%
 62
     7
370
    35
100
AcDbLine
 10
180.5305590464208
 20
111.0785509361915
 30
0.0
 11
181.5306840461705
 21
111.0785509361915
 31
0.0
  0
LWPOLYLINE
  5
94
330
70
100
AcDbEntity
  8
grau 10%
 62
     7
370
    35
100
AcDbPolyline
 90
       15
 70
     0
 43
0.0
 10
181.5306840461705
 20
106.0786314929971
 10
180.5305590464208
 20
106.0786314929971
 10
92.72910906837109
 20
106.0786314929971
 10
90.91089240215882
 20
106.0786314929971
 10
89.11560629149654
 20
106.0786314929971
 10
87.36723962526724
 20
106.0786314929971
 10
85.68872295901995
 20
106.0786314929971
 10
84.10122295941683
 20
106.0786314929971
 10
82.62590629311906
 20
106.0786314929971
 10
81.28147018234418
 20
106.0786314929971
 10
80.08520073819861
 20
106.0786314929971
 10
79.05226740512354
 20
106.0786314929971
 10
78.19748684978176
 20
106.0786314929971
 10
77.53073684994834
 20
106.0786314929971
 10
41.53047019228181
 20
106.0786314929971
  0
LINE
  5
95
330
70
100
AcDbEntity
  8
grau 10%
 62
     7
370
    35
100
AcDbLine
 10
22.53021186369874
 20
109.4289620477149
 30
0.0
 11
21.53079241950396
 21
109.6053509365597
 31
0.0
  0
LINE
  5
96
330
70
100
AcDbEntity
  8
grau 10%
 62
     7
370
    35
100
AcDbLine
 10
21.53079241950396
 20
111.0785509361915
 30
0.0
 11
22.53021186369874
 21
111.0785509361915
 31
0.0
  0
LINE
  5
99
330
70
100
AcDbEntity
  8
Bemaßung
 62
     7
370
     9
100
AcDbLine
 10
43.53072019178178
 20
182.4236818988385
 30
0.0
 11
13.93195908807499
 21
182.4236818988385
 31
0.0
  0
LINE
  5
9A
330
70
100
AcDbEntity
  8
Bemaßung
 62
     7
370
     9
100
AcDbLine
 10
41.53047019228181
 20
150.4239152401719
 30
0.0
 11
13.93195908807499
 21
150.4239152401719
 31
0.0
  0
LINE
  5
9B
330
70
100
AcDbEntity
  8
Bemaßung
 62
     7
370
     9
100
AcDbLine
 10
15.93220908757367
 20
182.4236818988385
 30
0.0
 11
15.93220908757367
 21
150.4239152401719
 31
0.0
  0
LWPOLYLINE
  5
9C
330
70
100
AcDbEntity
  8
Bemaßung
 62
     7
370
     9
100
AcDbPolyline
 90
        4
 70
     0
 43
0.0
 10
15.93220908757367
 20
182.4236818988385
 10
15.60342019876738
 20
179.9238985661303
 10
16.26170353193565
 20
179.9238985661303
 10
15.93220908757367
 20
182.4236818988385
  0
LINE
  5
9D
330
70
100
AcDbEntity
  8
Bemaßung
 62
     7
370
     9
100
AcDbLine
 10
15.62740908765034
 20
179.9238985661303
 30
0.0
 11
15.62740908765034
 21
180.1084013438617
 31
0.0
  0
LINE
  5
9E
330
70
100
AcDbEntity
  8
Bemaßung
 62
     7
370
     9
100
AcDbLine
 10
15.62740908765034
 20
179.9238985661303
 30
0.0
 11
15.62740908765034
 21
180.1084013438617
 31
0.0
  0
LINE
  5
9F
330
70
100
AcDbEntity
  8
Bemaßung
 62
     7
370
     9
100
AcDbLine
 10
15.67820908763724
 20
179.9238985661303
 30
0.0
 11
15.67820908763724
 21
180.4946930104319
 31
0.0
  0
LINE
  5
A0
330
70
100
AcDbEntity
  8
Bemaßung
 62
     7
370
     9
100
AcDbLine
 10
15.72936186540239
 20
179.9238985661303
 30
0.0
 11
15.72936186540239
 21
180.8802791214466
 31
0.0
  0
LINE
  5
A1
330
70
100
AcDbEntity
  8
Bemaßung
 62
     7
370
     9
100
AcDbLine
 10
15.77980908761201
 20
179.9238985661303
 30
0.0
 11
15.77980908761201
 21
181.2665707880167
 31
0.0
  0
LINE
  5
A2
330
70
100
AcDbEntity
  8
Bemaßung
 62
     7
370
     9
100
AcDbLine
 10
15.83096186537683
 20
179.9238985661303
 30
0.0
 11
15.83096186537683
 21
181.6518041212536
 31
0.0
  0
LINE
  5
A3
330
70
100
AcDbEntity
  8
Bemaßung
 62
     7
370
     9
100
AcDbLine
 10
15.88176186536421
 20
179.9238985661303
 30
0.0
 11
15.88176186536421
 21
182.0380957878238
 31
0.0
  0
LINE
  5
A4
330
70
100
AcDbEntity
  8
Bemaßung
 62
     7
370
     9
100
AcDbLine
 10
15.93220908757367
 20
179.9238985661303
 30
0.0
 11
15.93220908757367
 21
182.4236818988385
 31
0.0
  0
LINE
  5
A5
330
70
100
AcDbEntity
  8
Bemaßung
 62
     7
370
     9
100
AcDbLine
 10
16.23736186527493
 20
179.9238985661303
 30
0.0
 11
16.23736186527493
 21
180.1084013438617
 31
0.0
  0
LINE
  5
A6
330
70
100
AcDbEntity
  8
Bemaßung
 62
     7
370
     9
100
AcDbLine
 10
16.23736186527493
 20
179.9238985661303
 30
0.0
 11
16.23736186527493
 21
180.1084013438617
 31
0.0
  0
LINE
  5
A7
330
70
100
AcDbEntity
  8
Bemaßung
 62
     7
370
     9
100
AcDbLine
 10
16.1862090875101
 20
179.9238985661303
 30
0.0
 11
16.1862090875101
 21
180.4946930104319
 31
0.0
  0
LINE
  5
A8
330
70
100
AcDbEntity
  8
Bemaßung
 62
     7
370
     9
100
AcDbLine
 10
16.13576186530064
 20
179.9238985661303
 30
0.0
 11
16.13576186530064
 21
180.8802791214466
 31
0.0
  0
LINE
  5
A9
330
70
100
AcDbEntity
  8
Bemaßung
 62
     7
370
     9
100
AcDbLine
 10
16.08496186531326
 20
179.9238985661303
 30
0.0
 11
16.08496186531326
 21
181.2665707880167
 31
0.0
  0
LINE
  5
AA
330
70
100
AcDbEntity
  8
Bemaßung
 62
     7
370
     9
100
AcDbLine
 10
16.03380908754812
 20
179.9238985661303
 30
0.0
 11
16.03380908754812
 21
181.6518041212536
 31
0.0
  0
LINE
  5
AB
330
70
100
AcDbEntity
  8
Bemaßung
 62
     7
370
     9
100
AcDbLine
 10
15.98336186533882
 20
179.9238985661303
 30
0.0
 11
15.98336186533882
 21
182.0380957878238
 31
0.0
  0
LINE
  5
AC
330
70
100
AcDbEntity
  8
Bemaßung
 62
     7
370
     9
100
AcDbLine
 10
15.93220908757367
 20
179.9238985661303
 30
0.0
 11
15.93220908757367
 21
182.4236818988385
 31
0.0
  0
LWPOLYLINE
  5
AD
330
70
100
AcDbEntity
  8
Bemaßung
 62
     7
370
     9
100
AcDbPolyline
 90
        4
 70
     0
 43
0.0
 10
15.93220908757367
 20
150.4239152401719
 10
16.26170353193565
 20
152.9240513506578
 10
15.60342019876738
 20
152.9240513506578
 10
15.93220908757367
 20
150.4239152401719
  0
LINE
  5
AE
330
70
100
AcDbEntity
  8
Bemaßung
 62
     7
370
     9
100
AcDbLine
 10
16.23736186527493
 20
152.9240513506578
 30
0.0
 11
16.23736186527493
 21
152.7391957951483
 31
0.0
  0
LINE
  5
AF
330
70
100
AcDbEntity
  8
Bemaßung
 62
     7
370
     9
100
AcDbLine
 10
16.23736186527493
 20
152.9240513506578
 30
0.0
 11
16.23736186527493
 21
152.7391957951483
 31
0.0
  0
LINE
  5
B0
330
70
100
AcDbEntity
  8
Bemaßung
 62
     7
370
     9
100
AcDbLine
 10
16.1862090875101
 20
152.9240513506578
 30
0.0
 11
16.1862090875101
 21
152.3529041285784
 31
0.0
  0
LINE
  5
B1
330
70
100
AcDbEntity
  8
Bemaßung
 62
     7
370
     9
100
AcDbLine
 10
16.13576186530064
 20
152.9240513506578
 30
0.0
 11
16.13576186530064
 21
151.9673180175638
 31
0.0
  0
LINE
  5
B2
330
70
100
AcDbEntity
  8
Bemaßung
 62
     7
370
     9
100
AcDbLine
 10
16.08496186531326
 20
152.9240513506578
 30
0.0
 11
16.08496186531326
 21
151.5813791287714
 31
0.0
  0
LINE
  5
B3
330
70
100
AcDbEntity
  8
Bemaßung
 62
     7
370
     9
100
AcDbLine
 10
16.03380908754812
 20
152.9240513506578
 30
0.0
 11
16.03380908754812
 21
151.1957930177564
 31
0.0
  0
LINE
  5
B4
330
70
100
AcDbEntity
  8
Bemaßung
 62
     7
370
     9
100
AcDbLine
 10
15.98336186533882
 20
152.9240513506578
 30
0.0
 11
15.98336186533882
 21
150.8095013511865
 31
0.0
  0
LINE
  5
B5
330
70
100
AcDbEntity
  8
Bemaßung
 62
     7
370
     9
100
AcDbLine
 10
15.93220908757367
 20
152.9240513506578
 30
0.0
 11
15.93220908757367
 21
150.4239152401719
 31
0.0
  0
LINE
  5
B6
330
70
100
AcDbEntity
  8
Bemaßung
 62
     7
370
     9
100
AcDbLine
 10
15.62740908765034
 20
152.9240513506578
 30
0.0
 11
15.62740908765034
 21
152.7391957951483
 31
0.0
  0
LINE
  5
B7
330
70
100
AcDbEntity
  8
Bemaßung
 62
     7
370
     9
100
AcDbLine
 10
15.62740908765034
 20
152.9240513506578
 30
0.0
 11
15.62740908765034
 21
152.7391957951483
 31
0.0
  0
LINE
  5
B8
330
70
100
AcDbEntity
  8
Bemaßung
 62
     7
370
     9
100
AcDbLine
 10
15.67820908763724
 20
152.9240513506578
 30
0.0
 11
15.67820908763724
 21
152.3529041285784
 31
0.0
  0
LINE
  5
B9
330
70
100
AcDbEntity
  8
Bemaßung
 62
     7
370
     9
100
AcDbLine
 10
15.72936186540239
 20
152.9240513506578
 30
0.0
 11
15.72936186540239
 21
151.9673180175638
 31
0.0
  0
LINE
  5
BA
330
70
100
AcDbEntity
  8
Bemaßung
 62
     7
370
     9
100
AcDbLine
 10
15.77980908761201
 20
152.9240513506578
 30
0.0
 11
15.77980908761201
 21
151.5813791287714
 31
0.0
  0
LINE
  5
BB
330
70
100
AcDbEntity
  8
Bemaßung
 62
     7
370
     9
100
AcDbLine
 10
15.83096186537683
 20
152.9240513506578
 30
0.0
 11
15.83096186537683
 21
151.1957930177564
 31
0.0
  0
LINE
  5
BC
330
70
100
AcDbEntity
  8
Bemaßung
 62
     7
370
     9
100
AcDbLine
 10
15.88176186536421
 20
152.9240513506578
 30
0.0
 11
15.88176186536421
 21
150.8095013511865
 31
0.0
  0
LINE
  5
BD
330
70
100
AcDbEntity
  8
Bemaßung
 62
     7
370
     9
100
AcDbLine
 10
15.93220908757367
 20
152.9240513506578
 30
0.0
 11
15.93220908757367
 21
150.4239152401719
 31
0.0
  0
LINE
  5
BE
330
70
100
AcDbEntity
  8
Bemaßung
 62
     7
370
     9
100
AcDbLine
 10
41.53047019228181
 20
140.4240763537828
 30
0.0
 11
5.314303534675017
 21
140.4240763537828
 31
0.0
  0
LINE
  5
BF
330
70
100
AcDbEntity
  8
Bemaßung
 62
     7
370
     9
100
AcDbLine
 10
41.53047019228181
 20
192.423873563005
 30
0.0
 11
5.314303534675017
 21
192.423873563005
 31
0.0
  0
LINE
  5
C0
330
70
100
AcDbEntity
  8
Bemaßung
 62
     7
370
     9
100
AcDbLine
 10
7.31420075639722
 20
140.4240763537828
 30
0.0
 11
7.31420075639722
 21
192.423873563005
 31
0.0
  0
LWPOLYLINE
  5
C1
330
70
100
AcDbEntity
  8
Bemaßung
 62
     7
370
     9
100
AcDbPolyline
 90
        4
 70
     0
 43
0.0
 10
7.31420075639722
 20
140.4240763537828
 10
7.64369520075936
 20
142.924212464269
 10
6.985411867590602
 20
142.924212464269
 10
7.31420075639722
 20
140.4240763537828
  0
LINE
  5
C2
330
70
100
AcDbEntity
  8
Bemaßung
 62
     7
370
     9
100
AcDbLine
 10
7.619353534098632
 20
142.924212464269
 30
0.0
 11
7.619353534098632
 21
142.7393569087595
 31
0.0
  0
LINE
  5
C3
330
70
100
AcDbEntity
  8
Bemaßung
 62
     7
370
     9
100
AcDbLine
 10
7.619353534098632
 20
142.924212464269
 30
0.0
 11
7.619353534098632
 21
142.7393569087595
 31
0.0
  0
LINE
  5
C4
330
70
100
AcDbEntity
  8
Bemaßung
 62
     7
370
     9
100
AcDbLine
 10
7.568200756333809
 20
142.924212464269
 30
0.0
 11
7.568200756333809
 21
142.3530652421897
 31
0.0
  0
LINE
  5
C5
330
70
100
AcDbEntity
  8
Bemaßung
 62
     7
370
     9
100
AcDbLine
 10
7.517753534124189
 20
142.924212464269
 30
0.0
 11
7.517753534124189
 21
141.9674791311747
 31
0.0
  0
LINE
  5
C6
330
70
100
AcDbEntity
  8
Bemaßung
 62
     7
370
     9
100
AcDbLine
 10
7.466600756359045
 20
142.924212464269
 30
0.0
 11
7.466600756359045
 21
141.5811874646045
 31
0.0
  0
LINE
  5
C7
330
70
100
AcDbEntity
  8
Bemaßung
 62
     7
370
     9
100
AcDbLine
 10
7.416153534149424
 20
142.924212464269
 30
0.0
 11
7.416153534149424
 21
141.1959541313676
 31
0.0
  0
LINE
  5
C8
330
70
100
AcDbEntity
  8
Bemaßung
 62
     7
370
     9
100
AcDbLine
 10
7.365353534162363
 20
142.924212464269
 30
0.0
 11
7.365353534162363
 21
140.8096624647974
 31
0.0
  0
LINE
  5
C9
330
70
100
AcDbEntity
  8
Bemaßung
 62
     7
370
     9
100
AcDbLine
 10
7.31420075639722
 20
142.924212464269
 30
0.0
 11
7.31420075639722
 21
140.4240763537828
 31
0.0
  0
LINE
  5
CA
330
70
100
AcDbEntity
  8
Bemaßung
 62
     7
370
     9
100
AcDbLine
 10
7.009753534251009
 20
142.924212464269
 30
0.0
 11
7.009753534251009
 21
142.7393569087595
 31
0.0
  0
LINE
  5
CB
330
70
100
AcDbEntity
  8
Bemaßung
 62
     7
370
     9
100
AcDbLine
 10
7.009753534251009
 20
142.924212464269
 30
0.0
 11
7.009753534251009
 21
142.7393569087595
 31
0.0
  0
LINE
  5
CC
330
70
100
AcDbEntity
  8
Bemaßung
 62
     7
370
     9
100
AcDbLine
 10
7.06020075646063
 20
142.924212464269
 30
0.0
 11
7.06020075646063
 21
142.3530652421897
 31
0.0
  0
LINE
  5
CD
330
70
100
AcDbEntity
  8
Bemaßung
 62
     7
370
     9
100
AcDbLine
 10
7.111353534225773
 20
142.924212464269
 30
0.0
 11
7.111353534225773
 21
141.9674791311747
 31
0.0
  0
LINE
  5
CE
330
70
100
AcDbEntity
  8
Bemaßung
 62
     7
370
     9
100
AcDbLine
 10
7.161800756435393
 20
142.924212464269
 30
0.0
 11
7.161800756435393
 21
141.5811874646045
 31
0.0
  0
LINE
  5
CF
330
70
100
AcDbEntity
  8
Bemaßung
 62
     7
370
     9
100
AcDbLine
 10
7.212600756422776
 20
142.924212464269
 30
0.0
 11
7.212600756422776
 21
141.1959541313676
 31
0.0
  0
LINE
  5
D0
330
70
100
AcDbEntity
  8
Bemaßung
 62
     7
370
     9
100
AcDbLine
 10
7.263753534187599
 20
142.924212464269
 30
0.0
 11
7.263753534187599
 21
140.8096624647974
 31
0.0
  0
LINE
  5
D1
330
70
100
AcDbEntity
  8
Bemaßung
 62
     7
370
     9
100
AcDbLine
 10
7.31420075639722
 20
142.924212464269
 30
0.0
 11
7.31420075639722
 21
140.4240763537828
 31
0.0
  0
LWPOLYLINE
  5
D2
330
70
100
AcDbEntity
  8
Bemaßung
 62
     7
370
     9
100
AcDbPolyline
 90
        4
 70
     0
 43
0.0
 10
7.31420075639722
 20
192.423873563005
 10
6.985411867590602
 20
189.9237374525191
 10
7.64369520075936
 20
189.9237374525191
 10
7.31420075639722
 20
192.423873563005
  0
LINE
  5
D3
330
70
100
AcDbEntity
  8
Bemaßung
 62
     7
370
     9
100
AcDbLine
 10
7.009753534251009
 20
189.9237374525191
 30
0.0
 11
7.009753534251009
 21
190.1085930080282
 31
0.0
  0
LINE
  5
D4
330
70
100
AcDbEntity
  8
Bemaßung
 62
     7
370
     9
100
AcDbLine
 10
7.009753534251009
 20
189.9237374525191
 30
0.0
 11
7.009753534251009
 21
190.1085930080282
 31
0.0
  0
LINE
  5
D5
330
70
100
AcDbEntity
  8
Bemaßung
 62
     7
370
     9
100
AcDbLine
 10
7.06020075646063
 20
189.9237374525191
 30
0.0
 11
7.06020075646063
 21
190.4948846745984
 31
0.0
  0
LINE
  5
D6
330
70
100
AcDbEntity
  8
Bemaßung
 62
     7
370
     9
100
AcDbLine
 10
7.111353534225773
 20
189.9237374525191
 30
0.0
 11
7.111353534225773
 21
190.8801180078353
 31
0.0
  0
LINE
  5
D7
330
70
100
AcDbEntity
  8
Bemaßung
 62
     7
370
     9
100
AcDbLine
 10
7.161800756435393
 20
189.9237374525191
 30
0.0
 11
7.161800756435393
 21
191.2664096744058
 31
0.0
  0
LINE
  5
D8
330
70
100
AcDbEntity
  8
Bemaßung
 62
     7
370
     9
100
AcDbLine
 10
7.212600756422776
 20
189.9237374525191
 30
0.0
 11
7.212600756422776
 21
191.6519957854202
 31
0.0
  0
LINE
  5
D9
330
70
100
AcDbEntity
  8
Bemaßung
 62
     7
370
     9
100
AcDbLine
 10
7.263753534187599
 20
189.9237374525191
 30
0.0
 11
7.263753534187599
 21
192.0382874519903
 31
0.0
  0
LINE
  5
DA
330
70
100
AcDbEntity
  8
Bemaßung
 62
     7
370
     9
100
AcDbLine
 10
7.31420075639722
 20
189.9237374525191
 30
0.0
 11
7.31420075639722
 21
192.423873563005
 31
0.0
  0
LINE
  5
DB
330
70
100
AcDbEntity
  8
Bemaßung
 62
     7
370
     9
100
AcDbLine
 10
7.619353534098632
 20
189.9237374525191
 30
0.0
 11
7.619353534098632
 21
190.1085930080282
 31
0.0
  0
LINE
  5
DC
330
70
100
AcDbEntity
  8
Bemaßung
 62
     7
370
     9
100
AcDbLine
 10
7.619353534098632
 20
189.9237374525191
 30
0.0
 11
7.619353534098632
 21
190.1085930080282
 31
0.0
  0
LINE
  5
DD
330
70
100
AcDbEntity
  8
Bemaßung
 62
     7
370
     9
100
AcDbLine
 10
7.568200756333809
 20
189.9237374525191
 30
0.0
 11
7.568200756333809
 21
190.4948846745984
 31
0.0
  0
LINE
  5
DE
330
70
100
AcDbEntity
  8
Bemaßung
 62
     7
370
     9
100
AcDbLine
 10
7.517753534124189
 20
189.9237374525191
 30
0.0
 11
7.517753534124189
 21
190.8801180078353
 31
0.0
  0
LINE
  5
DF
330
70
100
AcDbEntity
  8
Bemaßung
 62
     7
370
     9
100
AcDbLine
 10
7.466600756359045
 20
189.9237374525191
 30
0.0
 11
7.466600756359045
 21
191.2664096744058
 31
0.0
  0
LINE
  5
E0
330
70
100
AcDbEntity
  8
Bemaßung
 62
     7
370
     9
100
AcDbLine
 10
7.416153534149424
 20
189.9237374525191
 30
0.0
 11
7.416153534149424
 21
191.6519957854202
 31
0.0
  0
LINE
  5
E1
330
70
100
AcDbEntity
  8
Bemaßung
 62
     7
370
     9
100
AcDbLine
 10
7.365353534162363
 20
189.9237374525191
 30
0.0
 11
7.365353534162363
 21
192.0382874519903
 31
0.0
  0
LINE
  5
E2
330
70
100
AcDbEntity
  8
Bemaßung
 62
     7
370
     9
100
AcDbLine
 10
7.31420075639722
 20
189.9237374525191
 30
0.0
 11
7.31420075639722
 21
192.423873563005
 31
0.0
  0
LINE
  5
E3
330
70
100
AcDbEntity
  8
Bemaßung
 62
     7
370
     9
100
AcDbLine
 10
182.030559045363
 20
181.4239096768662
 30
0.0
 11
198.5236257079063
 21
181.4239096768662
 31
0.0
  0
LINE
  5
E4
330
70
100
AcDbEntity
  8
Bemaßung
 62
     7
370
     9
100
AcDbLine
 10
182.030559045363
 20
151.4240402399219
 30
0.0
 11
198.5236257079063
 21
151.4240402399219
 31
0.0
  0
LINE
  5
E5
330
70
100
AcDbEntity
  8
Bemaßung
 62
     7
370
     9
100
AcDbLine
 10
196.5233757084063
 20
181.4239096768662
 30
0.0
 11
196.5233757084063
 21
151.4240402399219
 31
0.0
  0
LWPOLYLINE
  5
E6
330
70
100
AcDbEntity
  8
Bemaßung
 62
     7
370
     9
100
AcDbPolyline
 90
        4
 70
     0
 43
0.0
 10
196.5233757084063
 20
181.4239096768662
 10
196.1942340418219
 20
178.9241263441578
 10
196.8525173749907
 20
178.9241263441578
 10
196.5233757084063
 20
181.4239096768662
  0
LINE
  5
E7
330
70
100
AcDbEntity
  8
Bemaßung
 62
     7
370
     9
100
AcDbLine
 10
196.2189284862601
 20
178.9241263441578
 30
0.0
 11
196.2189284862601
 21
179.1089818996672
 31
0.0
  0
LINE
  5
E8
330
70
100
AcDbEntity
  8
Bemaßung
 62
     7
370
     9
100
AcDbLine
 10
196.2189284862601
 20
178.9241263441578
 30
0.0
 11
196.2189284862601
 21
179.1089818996672
 31
0.0
  0
LINE
  5
E9
330
70
100
AcDbEntity
  8
Bemaßung
 62
     7
370
     9
100
AcDbLine
 10
196.2697284862475
 20
178.9241263441578
 30
0.0
 11
196.2697284862475
 21
179.4945680106819
 31
0.0
  0
LINE
  5
EA
330
70
100
AcDbEntity
  8
Bemaßung
 62
     7
370
     9
100
AcDbLine
 10
196.3205284862349
 20
178.9241263441578
 30
0.0
 11
196.3205284862349
 21
179.8805068994743
 31
0.0
  0
LINE
  5
EB
330
70
100
AcDbEntity
  8
Bemaßung
 62
     7
370
     9
100
AcDbLine
 10
196.3713284862223
 20
178.9241263441578
 30
0.0
 11
196.3713284862223
 21
180.266093010489
 31
0.0
  0
LINE
  5
EC
330
70
100
AcDbEntity
  8
Bemaßung
 62
     7
370
     9
100
AcDbLine
 10
196.4221284862096
 20
178.9241263441578
 30
0.0
 11
196.4221284862096
 21
180.6523846770592
 31
0.0
  0
LINE
  5
ED
330
70
100
AcDbEntity
  8
Bemaßung
 62
     7
370
     9
100
AcDbLine
 10
196.4725757084189
 20
178.9241263441578
 30
0.0
 11
196.4725757084189
 21
181.0379707880738
 31
0.0
  0
LINE
  5
EE
330
70
100
AcDbEntity
  8
Bemaßung
 62
     7
370
     9
100
AcDbLine
 10
196.5233757084063
 20
178.9241263441578
 30
0.0
 11
196.5233757084063
 21
181.4239096768662
 31
0.0
  0
LINE
  5
EF
330
70
100
AcDbEntity
  8
Bemaßung
 62
     7
370
     9
100
AcDbLine
 10
196.8281757083303
 20
178.9241263441578
 30
0.0
 11
196.8281757083303
 21
179.1089818996672
 31
0.0
  0
LINE
  5
F0
330
70
100
AcDbEntity
  8
Bemaßung
 62
     7
370
     9
100
AcDbLine
 10
196.8281757083303
 20
178.9241263441578
 30
0.0
 11
196.8281757083303
 21
179.1089818996672
 31
0.0
  0
LINE
  5
F1
330
70
100
AcDbEntity
  8
Bemaßung
 62
     7
370
     9
100
AcDbLine
 10
196.7773757083429
 20
178.9241263441578
 30
0.0
 11
196.7773757083429
 21
179.4945680106819
 31
0.0
  0
LINE
  5
F2
330
70
100
AcDbEntity
  8
Bemaßung
 62
     7
370
     9
100
AcDbLine
 10
196.7265757083555
 20
178.9241263441578
 30
0.0
 11
196.7265757083555
 21
179.8805068994743
 31
0.0
  0
LINE
  5
F3
330
70
100
AcDbEntity
  8
Bemaßung
 62
     7
370
     9
100
AcDbLine
 10
196.6757757083682
 20
178.9241263441578
 30
0.0
 11
196.6757757083682
 21
180.266093010489
 31
0.0
  0
LINE
  5
F4
330
70
100
AcDbEntity
  8
Bemaßung
 62
     7
370
     9
100
AcDbLine
 10
196.6249757083811
 20
178.9241263441578
 30
0.0
 11
196.6249757083811
 21
180.6523846770592
 31
0.0
  0
LINE
  5
F5
330
70
100
AcDbEntity
  8
Bemaßung
 62
     7
370
     9
100
AcDbLine
 10
196.5741757083937
 20
178.9241263441578
 30
0.0
 11
196.5741757083937
 21
181.0379707880738
 31
0.0
  0
LINE
  5
F6
330
70
100
AcDbEntity
  8
Bemaßung
 62
     7
370
     9
100
AcDbLine
 10
196.5233757084063
 20
178.9241263441578
 30
0.0
 11
196.5233757084063
 21
181.4239096768662
 31
0.0
  0
LWPOLYLINE
  5
F7
330
70
100
AcDbEntity
  8
Bemaßung
 62
     7
370
     9
100
AcDbPolyline
 90
        4
 70
     0
 43
0.0
 10
196.5233757084063
 20
151.4240402399219
 10
196.8525173749907
 20
153.9241763504078
 10
196.1942340418219
 20
153.9241763504078
 10
196.5233757084063
 20
151.4240402399219
  0
LINE
  5
F8
330
70
100
AcDbEntity
  8
Bemaßung
 62
     7
370
     9
100
AcDbLine
 10
196.8281757083303
 20
153.9241763504078
 30
0.0
 11
196.8281757083303
 21
153.7393207948986
 31
0.0
  0
LINE
  5
F9
330
70
100
AcDbEntity
  8
Bemaßung
 62
     7
370
     9
100
AcDbLine
 10
196.8281757083303
 20
153.9241763504078
 30
0.0
 11
196.8281757083303
 21
153.7393207948986
 31
0.0
  0
LINE
  5
FA
330
70
100
AcDbEntity
  8
Bemaßung
 62
     7
370
     9
100
AcDbLine
 10
196.7773757083429
 20
153.9241763504078
 30
0.0
 11
196.7773757083429
 21
153.3530291283284
 31
0.0
  0
LINE
  5
FB
330
70
100
AcDbEntity
  8
Bemaßung
 62
     7
370
     9
100
AcDbLine
 10
196.7265757083555
 20
153.9241763504078
 30
0.0
 11
196.7265757083555
 21
152.9674430173138
 31
0.0
  0
LINE
  5
FC
330
70
100
AcDbEntity
  8
Bemaßung
 62
     7
370
     9
100
AcDbLine
 10
196.6757757083682
 20
153.9241763504078
 30
0.0
 11
196.6757757083682
 21
152.5815041285214
 31
0.0
  0
LINE
  5
FD
330
70
100
AcDbEntity
  8
Bemaßung
 62
     7
370
     9
100
AcDbLine
 10
196.6249757083811
 20
153.9241763504078
 30
0.0
 11
196.6249757083811
 21
152.1959180175067
 31
0.0
  0
LINE
  5
FE
330
70
100
AcDbEntity
  8
Bemaßung
 62
     7
370
     9
100
AcDbLine
 10
196.5741757083937
 20
153.9241763504078
 30
0.0
 11
196.5741757083937
 21
151.8096263509365
 31
0.0
  0
LINE
  5
FF
330
70
100
AcDbEntity
  8
Bemaßung
 62
     7
370
     9
100
AcDbLine
 10
196.5233757084063
 20
153.9241763504078
 30
0.0
 11
196.5233757084063
 21
151.4240402399219
 31
0.0
  0
LINE
  5
100
330
70
100
AcDbEntity
  8
Bemaßung
 62
     7
370
     9
100
AcDbLine
 10
196.2189284862601
 20
153.9241763504078
 30
0.0
 11
196.2189284862601
 21
153.7393207948986
 31
0.0
  0
LINE
  5
101
330
70
100
AcDbEntity
  8
Bemaßung
 62
     7
370
     9
100
AcDbLine
 10
196.2189284862601
 20
153.9241763504078
 30
0.0
 11
196.2189284862601
 21
153.7393207948986
 31
0.0
  0
LINE
  5
102
330
70
100
AcDbEntity
  8
Bemaßung
 62
     7
370
     9
100
AcDbLine
 10
196.2697284862475
 20
153.9241763504078
 30
0.0
 11
196.2697284862475
 21
153.3530291283284
 31
0.0
  0
LINE
  5
103
330
70
100
AcDbEntity
  8
Bemaßung
 62
     7
370
     9
100
AcDbLine
 10
196.3205284862349
 20
153.9241763504078
 30
0.0
 11
196.3205284862349
 21
152.9674430173138
 31
0.0
  0
LINE
  5
104
330
70
100
AcDbEntity
  8
Bemaßung
 62
     7
370
     9
100
AcDbLine
 10
196.3713284862223
 20
153.9241763504078
 30
0.0
 11
196.3713284862223
 21
152.5815041285214
 31
0.0
  0
LINE
  5
105
330
70
100
AcDbEntity
  8
Bemaßung
 62
     7
370
     9
100
AcDbLine
 10
196.4221284862096
 20
153.9241763504078
 30
0.0
 11
196.4221284862096
 21
152.1959180175067
 31
0.0
  0
LINE
  5
106
330
70
100
AcDbEntity
  8
Bemaßung
 62
     7
370
     9
100
AcDbLine
 10
196.4725757084189
 20
153.9241763504078
 30
0.0
 11
196.4725757084189
 21
151.8096263509365
 31
0.0
  0
LINE
  5
107
330
70
100
AcDbEntity
  8
Bemaßung
 62
     7
370
     9
100
AcDbLine
 10
196.5233757084063
 20
153.9241763504078
 30
0.0
 11
196.5233757084063
 21
151.4240402399219
 31
0.0
  0
LINE
  5
108
330
70
100
AcDbEntity
  8
Bemaßung
 62
     7
370
     9
100
AcDbLine
 10
21.53079241950396
 20
143.6742013519461
 30
0.0
 11
21.53079241950396
 21
128.6730319112519
 31
0.0
  0
LINE
  5
109
330
70
100
AcDbEntity
  8
Bemaßung
 62
     7
370
     9
100
AcDbLine
 10
181.5306840461705
 20
154.6738124603074
 30
0.0
 11
181.5306840461705
 21
128.6730319112519
 31
0.0
  0
LINE
  5
10A
330
70
100
AcDbEntity
  8
Bemaßung
 62
     7
370
     9
100
AcDbLine
 10
21.53079241950396
 20
130.6729291329744
 30
0.0
 11
181.5306840461705
 21
130.6729291329744
 31
0.0
  0
LWPOLYLINE
  5
10B
330
70
100
AcDbEntity
  8
Bemaßung
 62
     7
370
     9
100
AcDbPolyline
 90
        4
 70
     0
 43
0.0
 10
21.53079241950396
 20
130.6729291329744
 10
24.03022297443467
 20
130.3437874663897
 10
24.03022297443467
 20
131.0020707995585
 10
21.53079241950396
 20
130.6729291329744
  0
LINE
  5
10C
330
70
100
AcDbEntity
  8
Bemaßung
 62
     7
370
     9
100
AcDbLine
 10
24.03022297443467
 20
130.3677763552727
 30
0.0
 11
23.84607297448073
 21
130.3677763552727
 31
0.0
  0
LINE
  5
10D
330
70
100
AcDbEntity
  8
Bemaßung
 62
     7
370
     9
100
AcDbLine
 10
24.03022297443467
 20
130.3677763552727
 30
0.0
 11
23.84607297448073
 21
130.3677763552727
 31
0.0
  0
LINE
  5
10E
330
70
100
AcDbEntity
  8
Bemaßung
 62
     7
370
     9
100
AcDbLine
 10
24.03022297443467
 20
130.41857635526
 30
0.0
 11
23.46013408568831
 21
130.41857635526
 31
0.0
  0
LINE
  5
10F
330
70
100
AcDbEntity
  8
Bemaßung
 62
     7
370
     9
100
AcDbLine
 10
24.03022297443467
 20
130.4693763552474
 30
0.0
 11
23.07419519689588
 21
130.4693763552474
 31
0.0
  0
LINE
  5
110
330
70
100
AcDbEntity
  8
Bemaßung
 62
     7
370
     9
100
AcDbLine
 10
24.03022297443467
 20
130.5201763552345
 30
0.0
 11
22.6879035303257
 21
130.5201763552345
 31
0.0
  0
LINE
  5
111
330
70
100
AcDbEntity
  8
Bemaßung
 62
     7
370
     9
100
AcDbLine
 10
24.03022297443467
 20
130.5713291329996
 30
0.0
 11
22.30196464153328
 21
130.5713291329996
 31
0.0
  0
LINE
  5
112
330
70
100
AcDbEntity
  8
Bemaßung
 62
     7
370
     9
100
AcDbLine
 10
24.03022297443467
 20
130.622129132987
 30
0.0
 11
21.91673130829638
 21
130.622129132987
 31
0.0
  0
LINE
  5
113
330
70
100
AcDbEntity
  8
Bemaßung
 62
     7
370
     9
100
AcDbLine
 10
24.03022297443467
 20
130.6729291329744
 30
0.0
 11
21.53079241950396
 21
130.6729291329744
 31
0.0
  0
LINE
  5
114
330
70
100
AcDbEntity
  8
Bemaßung
 62
     7
370
     9
100
AcDbLine
 10
24.03022297443467
 20
130.977729132898
 30
0.0
 11
23.84607297448073
 21
130.977729132898
 31
0.0
  0
LINE
  5
115
330
70
100
AcDbEntity
  8
Bemaßung
 62
     7
370
     9
100
AcDbLine
 10
24.03022297443467
 20
130.977729132898
 30
0.0
 11
23.84607297448073
 21
130.977729132898
 31
0.0
  0
LINE
  5
116
330
70
100
AcDbEntity
  8
Bemaßung
 62
     7
370
     9
100
AcDbLine
 10
24.03022297443467
 20
130.9269291329107
 30
0.0
 11
23.46013408568831
 21
130.9269291329107
 31
0.0
  0
LINE
  5
117
330
70
100
AcDbEntity
  8
Bemaßung
 62
     7
370
     9
100
AcDbLine
 10
24.03022297443467
 20
130.8761291329233
 30
0.0
 11
23.07419519689588
 21
130.8761291329233
 31
0.0
  0
LINE
  5
118
330
70
100
AcDbEntity
  8
Bemaßung
 62
     7
370
     9
100
AcDbLine
 10
24.03022297443467
 20
130.8253291329362
 30
0.0
 11
22.6879035303257
 21
130.8253291329362
 31
0.0
  0
LINE
  5
119
330
70
100
AcDbEntity
  8
Bemaßung
 62
     7
370
     9
100
AcDbLine
 10
24.03022297443467
 20
130.7745291329488
 30
0.0
 11
22.30196464153328
 21
130.7745291329488
 31
0.0
  0
LINE
  5
11A
330
70
100
AcDbEntity
  8
Bemaßung
 62
     7
370
     9
100
AcDbLine
 10
24.03022297443467
 20
130.7237291329615
 30
0.0
 11
21.91673130829638
 21
130.7237291329615
 31
0.0
  0
LINE
  5
11B
330
70
100
AcDbEntity
  8
Bemaßung
 62
     7
370
     9
100
AcDbLine
 10
24.03022297443467
 20
130.6729291329744
 30
0.0
 11
21.53079241950396
 21
130.6729291329744
 31
0.0
  0
LWPOLYLINE
  5
11C
330
70
100
AcDbEntity
  8
Bemaßung
 62
     7
370
     9
100
AcDbPolyline
 90
        4
 70
     0
 43
0.0
 10
181.5306840461705
 20
130.6729291329744
 10
179.0305479356846
 20
131.0020707995585
 10
179.0305479356846
 20
130.3437874663897
 10
181.5306840461705
 20
130.6729291329744
  0
LINE
  5
11D
330
70
100
AcDbEntity
  8
Bemaßung
 62
     7
370
     9
100
AcDbLine
 10
179.0305479356846
 20
130.977729132898
 30
0.0
 11
179.2154034911941
 21
130.977729132898
 31
0.0
  0
LINE
  5
11E
330
70
100
AcDbEntity
  8
Bemaßung
 62
     7
370
     9
100
AcDbLine
 10
179.0305479356846
 20
130.977729132898
 30
0.0
 11
179.2154034911941
 21
130.977729132898
 31
0.0
  0
LINE
  5
11F
330
70
100
AcDbEntity
  8
Bemaßung
 62
     7
370
     9
100
AcDbLine
 10
179.0305479356846
 20
130.9269291329107
 30
0.0
 11
179.6009896022087
 21
130.9269291329107
 31
0.0
  0
LINE
  5
120
330
70
100
AcDbEntity
  8
Bemaßung
 62
     7
370
     9
100
AcDbLine
 10
179.0305479356846
 20
130.8761291329233
 30
0.0
 11
179.9872812687786
 21
130.8761291329233
 31
0.0
  0
LINE
  5
121
330
70
100
AcDbEntity
  8
Bemaßung
 62
     7
370
     9
100
AcDbLine
 10
179.0305479356846
 20
130.8253291329362
 30
0.0
 11
180.3728673797936
 21
130.8253291329362
 31
0.0
  0
LINE
  5
122
330
70
100
AcDbEntity
  8
Bemaßung
 62
     7
370
     9
100
AcDbLine
 10
179.0305479356846
 20
130.7745291329488
 30
0.0
 11
180.7591590463634
 21
130.7745291329488
 31
0.0
  0
LINE
  5
123
330
70
100
AcDbEntity
  8
Bemaßung
 62
     7
370
     9
100
AcDbLine
 10
179.0305479356846
 20
130.7237291329615
 30
0.0
 11
181.1443923796007
 21
130.7237291329615
 31
0.0
  0
LINE
  5
124
330
70
100
AcDbEntity
  8
Bemaßung
 62
     7
370
     9
100
AcDbLine
 10
179.0305479356846
 20
130.6729291329744
 30
0.0
 11
181.5306840461705
 21
130.6729291329744
 31
0.0
  0
LINE
  5
125
330
70
100
AcDbEntity
  8
Bemaßung
 62
     7
370
     9
100
AcDbLine
 10
179.0305479356846
 20
130.3677763552727
 30
0.0
 11
179.2154034911941
 21
130.3677763552727
 31
0.0
  0
LINE
  5
126
330
70
100
AcDbEntity
  8
Bemaßung
 62
     7
370
     9
100
AcDbLine
 10
179.0305479356846
 20
130.3677763552727
 30
0.0
 11
179.2154034911941
 21
130.3677763552727
 31
0.0
  0
LINE
  5
127
330
70
100
AcDbEntity
  8
Bemaßung
 62
     7
370
     9
100
AcDbLine
 10
179.0305479356846
 20
130.41857635526
 30
0.0
 11
179.6009896022087
 21
130.41857635526
 31
0.0
  0
LINE
  5
128
330
70
100
AcDbEntity
  8
Bemaßung
 62
     7
370
     9
100
AcDbLine
 10
179.0305479356846
 20
130.4693763552474
 30
0.0
 11
179.9872812687786
 21
130.4693763552474
 31
0.0
  0
LINE
  5
129
330
70
100
AcDbEntity
  8
Bemaßung
 62
     7
370
     9
100
AcDbLine
 10
179.0305479356846
 20
130.5201763552345
 30
0.0
 11
180.3728673797936
 21
130.5201763552345
 31
0.0
  0
LINE
  5
12A
330
70
100
AcDbEntity
  8
Bemaßung
 62
     7
370
     9
100
AcDbLine
 10
179.0305479356846
 20
130.5713291329996
 30
0.0
 11
180.7591590463634
 21
130.5713291329996
 31
0.0
  0
LINE
  5
12B
330
70
100
AcDbEntity
  8
Bemaßung
 62
     7
370
     9
100
AcDbLine
 10
179.0305479356846
 20
130.622129132987
 30
0.0
 11
181.1443923796007
 21
130.622129132987
 31
0.0
  0
LINE
  5
12C
330
70
100
AcDbEntity
  8
Bemaßung
 62
     7
370
     9
100
AcDbLine
 10
179.0305479356846
 20
130.6729291329744
 30
0.0
 11
181.5306840461705
 21
130.6729291329744
 31
0.0
  0
LINE
  5
12D
330
70
100
AcDbEntity
  8
Bemaßung
 62
     7
370
     9
100
AcDbLine
 10
175.5305590499468
 20
106.0786314929971
 30
0.0
 11
198.5302590441969
 21
106.0786314929971
 31
0.0
  0
LINE
  5
12E
330
70
100
AcDbEntity
  8
Bemaßung
 62
     7
370
     9
100
AcDbLine
 10
175.5305590499468
 20
111.0785509361915
 30
0.0
 11
198.5302590441969
 21
111.0785509361915
 31
0.0
  0
LINE
  5
12F
330
70
100
AcDbEntity
  8
Bemaßung
 62
     7
370
     9
100
AcDbLine
 10
196.5307146002521
 20
97.32868427296248
 30
0.0
 11
196.5307146002521
 21
119.8284981562262
 31
0.0
  0
LWPOLYLINE
  5
130
330
70
100
AcDbEntity
  8
Bemaßung
 62
     7
370
     9
100
AcDbPolyline
 90
        4
 70
     0
 43
0.0
 10
196.5307146002521
 20
106.0786314929971
 10
196.2015729336677
 20
103.5788481602887
 10
196.8595034890587
 20
103.5788481602887
 10
196.5307146002521
 20
106.0786314929971
  0
LINE
  5
131
330
70
100
AcDbEntity
  8
Bemaßung
 62
     7
370
     9
100
AcDbLine
 10
196.2255618225507
 20
103.5788481602887
 30
0.0
 11
196.2255618225507
 21
103.7637037157981
 31
0.0
  0
LINE
  5
132
330
70
100
AcDbEntity
  8
Bemaßung
 62
     7
370
     9
100
AcDbLine
 10
196.2255618225507
 20
103.5788481602887
 30
0.0
 11
196.2255618225507
 21
103.7637037157981
 31
0.0
  0
LINE
  5
133
330
70
100
AcDbEntity
  8
Bemaßung
 62
     7
370
     9
100
AcDbLine
 10
196.2763618225381
 20
103.5788481602887
 30
0.0
 11
196.2763618225381
 21
104.1492898268128
 31
0.0
  0
LINE
  5
134
330
70
100
AcDbEntity
  8
Bemaßung
 62
     7
370
     9
100
AcDbLine
 10
196.3271618225251
 20
103.5788481602887
 30
0.0
 11
196.3271618225251
 21
104.5352287156052
 31
0.0
  0
LINE
  5
135
330
70
100
AcDbEntity
  8
Bemaßung
 62
     7
370
     9
100
AcDbLine
 10
196.3779618225125
 20
103.5788481602887
 30
0.0
 11
196.3779618225125
 21
104.9211676043976
 31
0.0
  0
LINE
  5
136
330
70
100
AcDbEntity
  8
Bemaßung
 62
     7
370
     9
100
AcDbLine
 10
196.4287618224999
 20
103.5788481602887
 30
0.0
 11
196.4287618224999
 21
105.3071064931901
 31
0.0
  0
LINE
  5
137
330
70
100
AcDbEntity
  8
Bemaßung
 62
     7
370
     9
100
AcDbLine
 10
196.4795618224873
 20
103.5788481602887
 30
0.0
 11
196.4795618224873
 21
105.6926926042047
 31
0.0
  0
LINE
  5
138
330
70
100
AcDbEntity
  8
Bemaßung
 62
     7
370
     9
100
AcDbLine
 10
196.5307146002521
 20
103.5788481602887
 30
0.0
 11
196.5307146002521
 21
106.0786314929971
 31
0.0
  0
LINE
  5
139
330
70
100
AcDbEntity
  8
Bemaßung
 62
     7
370
     9
100
AcDbLine
 10
196.8355146001761
 20
103.5788481602887
 30
0.0
 11
196.8355146001761
 21
103.7637037157981
 31
0.0
  0
LINE
  5
13A
330
70
100
AcDbEntity
  8
Bemaßung
 62
     7
370
     9
100
AcDbLine
 10
196.8355146001761
 20
103.5788481602887
 30
0.0
 11
196.8355146001761
 21
103.7637037157981
 31
0.0
  0
LINE
  5
13B
330
70
100
AcDbEntity
  8
Bemaßung
 62
     7
370
     9
100
AcDbLine
 10
196.7847146001887
 20
103.5788481602887
 30
0.0
 11
196.7847146001887
 21
104.1492898268128
 31
0.0
  0
LINE
  5
13C
330
70
100
AcDbEntity
  8
Bemaßung
 62
     7
370
     9
100
AcDbLine
 10
196.7339146002013
 20
103.5788481602887
 30
0.0
 11
196.7339146002013
 21
104.5352287156052
 31
0.0
  0
LINE
  5
13D
330
70
100
AcDbEntity
  8
Bemaßung
 62
     7
370
     9
100
AcDbLine
 10
196.6831146002139
 20
103.5788481602887
 30
0.0
 11
196.6831146002139
 21
104.9211676043976
 31
0.0
  0
LINE
  5
13E
330
70
100
AcDbEntity
  8
Bemaßung
 62
     7
370
     9
100
AcDbLine
 10
196.6323146002269
 20
103.5788481602887
 30
0.0
 11
196.6323146002269
 21
105.3071064931901
 31
0.0
  0
LINE
  5
13F
330
70
100
AcDbEntity
  8
Bemaßung
 62
     7
370
     9
100
AcDbLine
 10
196.5815146002395
 20
103.5788481602887
 30
0.0
 11
196.5815146002395
 21
105.6926926042047
 31
0.0
  0
LINE
  5
140
330
70
100
AcDbEntity
  8
Bemaßung
 62
     7
370
     9
100
AcDbLine
 10
196.5307146002521
 20
103.5788481602887
 30
0.0
 11
196.5307146002521
 21
106.0786314929971
 31
0.0
  0
LWPOLYLINE
  5
141
330
70
100
AcDbEntity
  8
Bemaßung
 62
     7
370
     9
100
AcDbPolyline
 90
        4
 70
     0
 43
0.0
 10
196.5307146002521
 20
111.0785509361915
 10
196.8595034890587
 20
113.5786870466775
 10
196.2015729336677
 20
113.5786870466775
 10
196.5307146002521
 20
111.0785509361915
  0
LINE
  5
142
330
70
100
AcDbEntity
  8
Bemaßung
 62
     7
370
     9
100
AcDbLine
 10
196.8355146001761
 20
113.5786870466775
 30
0.0
 11
196.8355146001761
 21
113.3938314911683
 31
0.0
  0
LINE
  5
143
330
70
100
AcDbEntity
  8
Bemaßung
 62
     7
370
     9
100
AcDbLine
 10
196.8355146001761
 20
113.5786870466775
 30
0.0
 11
196.8355146001761
 21
113.3938314911683
 31
0.0
  0
LINE
  5
144
330
70
100
AcDbEntity
  8
Bemaßung
 62
     7
370
     9
100
AcDbLine
 10
196.7847146001887
 20
113.5786870466775
 30
0.0
 11
196.7847146001887
 21
113.0078926023759
 31
0.0
  0
LINE
  5
145
330
70
100
AcDbEntity
  8
Bemaßung
 62
     7
370
     9
100
AcDbLine
 10
196.7339146002013
 20
113.5786870466775
 30
0.0
 11
196.7339146002013
 21
112.6219537135835
 31
0.0
  0
LINE
  5
146
330
70
100
AcDbEntity
  8
Bemaßung
 62
     7
370
     9
100
AcDbLine
 10
196.6831146002139
 20
113.5786870466775
 30
0.0
 11
196.6831146002139
 21
112.236014824791
 31
0.0
  0
LINE
  5
147
330
70
100
AcDbEntity
  8
Bemaßung
 62
     7
370
     9
100
AcDbLine
 10
196.6323146002269
 20
113.5786870466775
 30
0.0
 11
196.6323146002269
 21
111.8504287137764
 31
0.0
  0
LINE
  5
148
330
70
100
AcDbEntity
  8
Bemaßung
 62
     7
370
     9
100
AcDbLine
 10
196.5815146002395
 20
113.5786870466775
 30
0.0
 11
196.5815146002395
 21
111.464489824984
 31
0.0
  0
LINE
  5
149
330
70
100
AcDbEntity
  8
Bemaßung
 62
     7
370
     9
100
AcDbLine
 10
196.5307146002521
 20
113.5786870466775
 30
0.0
 11
196.5307146002521
 21
111.0785509361915
 31
0.0
  0
LINE
  5
14A
330
70
100
AcDbEntity
  8
Bemaßung
 62
     7
370
     9
100
AcDbLine
 10
196.2255618225507
 20
113.5786870466775
 30
0.0
 11
196.2255618225507
 21
113.3938314911683
 31
0.0
  0
LINE
  5
14B
330
70
100
AcDbEntity
  8
Bemaßung
 62
     7
370
     9
100
AcDbLine
 10
196.2255618225507
 20
113.5786870466775
 30
0.0
 11
196.2255618225507
 21
113.3938314911683
 31
0.0
  0
LINE
  5
14C
330
70
100
AcDbEntity
  8
Bemaßung
 62
     7
370
     9
100
AcDbLine
 10
196.2763618225381
 20
113.5786870466775
 30
0.0
 11
196.2763618225381
 21
113.0078926023759
 31
0.0
  0
LINE
  5
14D
330
70
100
AcDbEntity
  8
Bemaßung
 62
     7
370
     9
100
AcDbLine
 10
196.3271618225251
 20
113.5786870466775
 30
0.0
 11
196.3271618225251
 21
112.6219537135835
 31
0.0
  0
LINE
  5
14E
330
70
100
AcDbEntity
  8
Bemaßung
 62
     7
370
     9
100
AcDbLine
 10
196.3779618225125
 20
113.5786870466775
 30
0.0
 11
196.3779618225125
 21
112.236014824791
 31
0.0
  0
LINE
  5
14F
330
70
100
AcDbEntity
  8
Bemaßung
 62
     7
370
     9
100
AcDbLine
 10
196.4287618224999
 20
113.5786870466775
 30
0.0
 11
196.4287618224999
 21
111.8504287137764
 31
0.0
  0
LINE
  5
150
330
70
100
AcDbEntity
  8
Bemaßung
 62
     7
370
     9
100
AcDbLine
 10
196.4795618224873
 20
113.5786870466775
 30
0.0
 11
196.4795618224873
 21
111.464489824984
 31
0.0
  0
LINE
  5
151
330
70
100
AcDbEntity
  8
Bemaßung
 62
     7
370
     9
100
AcDbLine
 10
196.5307146002521
 20
113.5786870466775
 30
0.0
 11
196.5307146002521
 21
111.0785509361915
 31
0.0
  0
LINE
  5
152
330
70
100
AcDbEntity
  8
Bemaßung
 62
     7
370
     9
100
AcDbLine
 10
41.53047019228181
 20
106.0786314929971
 30
0.0
 11
4.377325757131502
 21
106.0786314929971
 31
0.0
  0
LINE
  5
153
330
70
100
AcDbEntity
  8
Bemaßung
 62
     7
370
     9
100
AcDbLine
 10
22.53021186369874
 20
109.4289620477149
 30
0.0
 11
4.942122979212404
 21
112.5302314913841
 31
0.0
  0
SPLINE
  5
154
330
70
100
AcDbEntity
  8
Bemaßung
 62
     7
370
     9
100
AcDbSpline
210
0.0
220
0.0
230
1.0
 70
     8
 71
     3
 72
     8
 73
     4
 74
     0
 42
0.0000000001
 43
0.0000000001
 40
0.0
 40
0.0
 40
0.0
 40
0.0
 40
1.0
 40
1.0
 40
1.0
 40
1.0
 10
10.35655631119211
 20
122.323342600047
 30
0.0
 10
7.612297978545007
 20
117.0581342680299
 30
0.0
 10
6.332772978864745
 20
111.4172176027736
 30
0.0
 10
6.377575756631466
 20
106.0786314929971
 30
0.0
  0
LWPOLYLINE
  5
155
330
70
100
AcDbEntity
  8
Bemaßung
 62
     7
370
     9
100
AcDbPolyline
 90
        4
 70
     0
 43
0.0
 10
6.377575756631466
 20
106.0786314929971
 10
6.751167423204804
 20
108.5720648257069
 10
6.093236867813486
 20
108.5837064923708
 10
6.377575756631466
 20
106.0786314929971
  0
LINE
  5
156
330
70
100
AcDbEntity
  8
Bemaßung
 62
     7
370
     9
100
AcDbLine
 10
6.726472978766315
 20
108.5727703812624
 30
0.0
 11
6.723297978767103
 21
108.387914825753
 31
0.0
  0
LINE
  5
157
330
70
100
AcDbEntity
  8
Bemaßung
 62
     7
370
     9
100
AcDbLine
 10
6.726472978766315
 20
108.5727703812624
 30
0.0
 11
6.723297978767103
 21
108.387914825753
 31
0.0
  0
LINE
  5
158
330
70
100
AcDbEntity
  8
Bemaßung
 62
     7
370
     9
100
AcDbLine
 10
6.675672978779253
 20
108.5734759368179
 30
0.0
 11
6.666147978781619
 21
108.0030342702938
 31
0.0
  0
LINE
  5
159
330
70
100
AcDbEntity
  8
Bemaßung
 62
     7
370
     9
100
AcDbLine
 10
6.625578534347073
 20
108.5745342701509
 30
0.0
 11
6.608292423240291
 21
107.6185064926121
 31
0.0
  0
LINE
  5
15A
330
70
100
AcDbEntity
  8
Bemaßung
 62
     7
370
     9
100
AcDbLine
 10
6.574778534360012
 20
108.5752398257061
 30
0.0
 11
6.550789645477046
 21
107.2329203815974
 31
0.0
  0
LINE
  5
15B
330
70
100
AcDbEntity
  8
Bemaßung
 62
     7
370
     9
100
AcDbLine
 10
6.523625756594868
 20
108.5762981590394
 30
0.0
 11
6.49328686771348
 21
106.848039826138
 31
0.0
  0
LINE
  5
15C
330
70
100
AcDbEntity
  8
Bemaßung
 62
     7
370
     9
100
AcDbLine
 10
6.473178534385247
 20
108.5770037145946
 30
0.0
 11
6.435431312172473
 21
106.4635120484563
 31
0.0
  0
LINE
  5
15D
330
70
100
AcDbEntity
  8
Bemaßung
 62
     7
370
     9
100
AcDbLine
 10
6.422025756620425
 20
108.5784148257053
 30
0.0
 11
6.377575756631466
 21
106.0786314929971
 31
0.0
  0
LINE
  5
15E
330
70
100
AcDbEntity
  8
Bemaßung
 62
     7
370
     9
100
AcDbLine
 10
6.117225756696453
 20
108.5837064923708
 30
0.0
 11
6.114050756697241
 21
108.3988509368613
 31
0.0
  0
LINE
  5
15F
330
70
100
AcDbEntity
  8
Bemaßung
 62
     7
370
     9
100
AcDbLine
 10
6.117225756696453
 20
108.5837064923708
 30
0.0
 11
6.114050756697241
 21
108.3988509368613
 31
0.0
  0
LINE
  5
160
330
70
100
AcDbEntity
  8
Bemaßung
 62
     7
370
     9
100
AcDbLine
 10
6.168378534461596
 20
108.5830009368152
 30
0.0
 11
6.15814797890844
 21
108.0122064925137
 31
0.0
  0
LINE
  5
161
330
70
100
AcDbEntity
  8
Bemaßung
 62
     7
370
     9
100
AcDbLine
 10
6.219178534448658
 20
108.5819426034823
 30
0.0
 11
6.202245201119637
 21
107.6255620481657
 31
0.0
  0
LINE
  5
162
330
70
100
AcDbEntity
  8
Bemaßung
 62
     7
370
     9
100
AcDbLine
 10
6.269625756658278
 20
108.5805314923716
 30
0.0
 11
6.245636867775633
 21
107.2389176038181
 31
0.0
  0
LINE
  5
163
330
70
100
AcDbEntity
  8
Bemaßung
 62
     7
370
     9
100
AcDbLine
 10
6.320778534423422
 20
108.5801787145938
 30
0.0
 11
6.289734089986831
 21
106.8519203816927
 31
0.0
  0
LINE
  5
164
330
70
100
AcDbEntity
  8
Bemaßung
 62
     7
370
     9
100
AcDbLine
 10
6.371225756633043
 20
108.5787676034831
 30
0.0
 11
6.333478534420267
 21
106.4652759373448
 31
0.0
  0
LINE
  5
165
330
70
100
AcDbEntity
  8
Bemaßung
 62
     7
370
     9
100
AcDbLine
 10
6.422025756620425
 20
108.5784148257053
 30
0.0
 11
6.377575756631466
 21
106.0786314929971
 31
0.0
  0
LWPOLYLINE
  5
166
330
70
100
AcDbEntity
  8
Bemaßung
 62
     7
370
     9
100
AcDbPolyline
 90
        4
 70
     0
 43
0.0
 10
6.912034089830979
 20
112.18274538036
 10
6.196247978898976
 20
109.7651592698532
 10
6.846770200958586
 20
109.6617953809903
 10
6.912034089830979
 20
112.18274538036
  0
LINE
  5
167
330
70
100
AcDbEntity
  8
Bemaßung
 62
     7
370
     9
100
AcDbLine
 10
6.220236867781942
 20
109.7609259365211
 30
0.0
 11
6.249517423330047
 21
109.9433120475865
 31
0.0
  0
LINE
  5
168
330
70
100
AcDbEntity
  8
Bemaßung
 62
     7
370
     9
100
AcDbLine
 10
6.220236867781942
 20
109.7609259365211
 30
0.0
 11
6.249517423330047
 21
109.9433120475865
 31
0.0
  0
LINE
  5
169
330
70
100
AcDbEntity
  8
Bemaßung
 62
     7
370
     9
100
AcDbLine
 10
6.270684089991562
 20
109.7531648254119
 30
0.0
 11
6.359936867746922
 21
110.3169037141598
 31
0.0
  0
LINE
  5
16A
330
70
100
AcDbEntity
  8
Bemaßung
 62
     7
370
     9
100
AcDbLine
 10
6.320778534423422
 20
109.7454037143025
 30
0.0
 11
6.470003534386036
 21
110.6901426029554
 31
0.0
  0
LINE
  5
16B
330
70
100
AcDbEntity
  8
Bemaßung
 62
     7
370
     9
100
AcDbLine
 10
6.370520201077519
 20
109.7369370476381
 30
0.0
 11
6.580422978802912
 21
111.063381491751
 31
0.0
  0
LINE
  5
16C
330
70
100
AcDbEntity
  8
Bemaßung
 62
     7
370
     9
100
AcDbLine
 10
6.42096742328714
 20
109.7295287143064
 30
0.0
 11
6.690842423219788
 21
111.4366203805466
 31
0.0
  0
LINE
  5
16D
330
70
100
AcDbEntity
  8
Bemaßung
 62
     7
370
     9
100
AcDbLine
 10
6.471061867719
 20
109.721062047642
 30
0.0
 11
6.801614645414424
 21
111.8095064915644
 31
0.0
  0
LINE
  5
16E
330
70
100
AcDbEntity
  8
Bemaßung
 62
     7
370
     9
100
AcDbLine
 10
6.52150908992862
 20
109.7133009365329
 30
0.0
 11
6.912034089830979
 21
112.18274538036
 31
0.0
  0
LINE
  5
16F
330
70
100
AcDbEntity
  8
Bemaßung
 62
     7
370
     9
100
AcDbLine
 10
6.822781312075619
 20
109.6656759365447
 30
0.0
 11
6.851003534290761
 21
109.8487676031657
 31
0.0
  0
LINE
  5
170
330
70
100
AcDbEntity
  8
Bemaßung
 62
     7
370
     9
100
AcDbLine
 10
6.822781312075619
 20
109.6656759365447
 30
0.0
 11
6.851003534290761
 21
109.8487676031657
 31
0.0
  0
LINE
  5
171
330
70
100
AcDbEntity
  8
Bemaßung
 62
     7
370
     9
100
AcDbLine
 10
6.772334089865998
 20
109.6741426032094
 30
0.0
 11
6.861586867621358
 21
110.2375287141796
 31
0.0
  0
LINE
  5
172
330
70
100
AcDbEntity
  8
Bemaßung
 62
     7
370
     9
100
AcDbLine
 10
6.721886867656378
 20
109.6819037143185
 30
0.0
 11
6.871111867618992
 21
110.6266426029712
 31
0.0
  0
LINE
  5
173
330
70
100
AcDbEntity
  8
Bemaßung
 62
     7
370
     9
100
AcDbLine
 10
6.671792423224519
 20
109.6896648254277
 30
0.0
 11
6.881695200949911
 21
111.0157564917628
 31
0.0
  0
LINE
  5
174
330
70
100
AcDbEntity
  8
Bemaßung
 62
     7
370
     9
100
AcDbLine
 10
6.622050756570421
 20
109.6974259365368
 30
0.0
 11
6.891220200947545
 21
111.4048703805545
 31
0.0
  0
LINE
  5
175
330
70
100
AcDbEntity
  8
Bemaßung
 62
     7
370
     9
100
AcDbLine
 10
6.5716035343608
 20
109.7055398254237
 30
0.0
 11
6.901450756500381
 21
111.7936314915683
 31
0.0
  0
LINE
  5
176
330
70
100
AcDbEntity
  8
Bemaßung
 62
     7
370
     9
100
AcDbLine
 10
6.52150908992862
 20
109.7133009365329
 30
0.0
 11
6.912034089830979
 21
112.18274538036
 31
0.0
  0
MTEXT
  5
178
330
70
100
AcDbEntity
  8
Text
100
AcDbMText
 10
13.47665371028101
 20
164.7131157357314
 30
0.0
 40
0.2
 41
0.0
 46
0.0
 71
     7
 72
     1
  1
\C7;\FINDEX Univers 45 Light|b0|i0|c1;\H3.447529;\W1.000000;32
 11
0.0000000000000001
 21
1.0
 31
0.0
 73
     1
 44
1.0
  0
MTEXT
  5
179
330
70
100
AcDbEntity
  8
Text
100
AcDbMText
 10
4.85857509915428
 20
164.7131157357314
 30
0.0
 40
0.2
 41
0.0
 46
0.0
 71
     7
 72
     1
  1
\C7;\FINDEX Univers 45 Light|b0|i0|c1;\H3.447529;\W1.000000;52
 11
0.0000000000000001
 21
1.0
 31
0.0
 73
     1
 44
1.0
  0
MTEXT
  5
17A
330
70
100
AcDbEntity
  8
Text
100
AcDbMText
 10
194.0685375152307
 20
164.7131157357314
 30
0.0
 40
0.2
 41
0.0
 46
0.0
 71
     7
 72
     1
  1
\C7;\FINDEX Univers 45 Light|b0|i0|c1;\H3.447529;\W1.000000;30
 11
0.0000000000000001
 21
1.0
 31
0.0
 73
     1
 44
1.0
  0
MTEXT
  5
17B
330
70
100
AcDbEntity
  8
Text
100
AcDbMText
 10
99.0380116533004
 20
133.1286687306203
 30
0.0
 40
0.2
 41
0.0
 46
0.0
 71
     7
 72
     1
  1
\C7;\FINDEX Univers 45 Light|b0|i0|c1;\H3.447529;\W1.000000;160
 73
     1
 44
1.0
  0
MTEXT
  5
17C
330
70
100
AcDbEntity
  8
Text
100
AcDbMText
 10
194.0748894100316
 20
107.9597162188732
 30
0.0
 40
0.2
 41
0.0
 46
0.0
 71
     7
 72
     1
  1
\C7;\FINDEX Univers 45 Light|b0|i0|c1;\H3.447529;\W1.000000;5
 11
0.0000000000000001
 21
1.0
 31
0.0
 73
     1
 44
1.0
  0
MTEXT
  5
17D
330
70
100
AcDbEntity
  8
Text
100
AcDbMText
 10
6.539037643075978
 20
117.5001440858073
 30
0.0
 40
0.2
 41
0.0
 46
0.0
 71
     7
 72
     1
  1
\C7;\FINDEX Univers 45 Light|b0|i0|c1;\H3.447529;\W1.000000;10°
 11
0.3416415548155111
 21
0.9398303293803836
 31
0.0
 73
     1
 44
1.0
  0
ENDSEC
  0
SECTION
  2
OBJECTS
  0
DICTIONARY
  5
C
330
0
100
AcDbDictionary
281
     1
  3
ACAD_COLOR
350
63
  3
ACAD_DETAILVIEWSTYLE
350
6A
  3
ACAD_GROUP
350
D
  3
ACAD_LAYOUT
350
62
  3
ACAD_MATERIAL
350
10
  3
ACAD_MLEADERSTYLE
350
66
  3
ACAD_MLINESTYLE
350
5F
  3
ACAD_PLOTSETTINGS
350
61
  3
ACAD_PLOTSTYLENAME
350
E
  3
ACAD_SCALELIST
350
42
  3
ACAD_SECTIONVIEWSTYLE
350
68
  3
ACAD_TABLESTYLE
350
64
  3
ACAD_VISUALSTYLE
350
29
  3
ACDB_RECOMPOSE_DATA
350
186
  3
AcDbVariableDictionary
350
17E
  0
DICTIONARY
  5
63
102
{ACAD_REACTORS
330
C
102
}
330
C
100
AcDbDictionary
281
     1
  0
DICTIONARY
  5
6A
102
{ACAD_REACTORS
330
C
102
}
330
C
100
AcDbDictionary
281
     1
  3
Imperial24
350
6B
  0
DICTIONARY
  5
D
102
{ACAD_REACTORS
330
C
102
}
330
C
100
AcDbDictionary
281
     1
  0
DICTIONARY
  5
62
102
{ACAD_REACTORS
330
C
102
}
330
C
100
AcDbDictionary
281
     1
  3
Layout1
350
6F
  3
Layout2
350
77
  3
Model
350
73
  0
DICTIONARY
  5
10
102
{ACAD_REACTORS
330
C
102
}
330
C
100
AcDbDictionary
281
     1
  3
ByBlock
350
19
  3
ByLayer
350
11
  3
Global
350
21
  0
DICTIONARY
  5
66
102
{ACAD_REACTORS
330
C
102
}
330
C
100
AcDbDictionary
281
     1
  3
Standard
350
67
  0
DICTIONARY
  5
5F
102
{ACAD_REACTORS
330
C
102
}
330
C
100
AcDbDictionary
281
     1
  3
Standard
350
60
  0
DICTIONARY
  5
61
102
{ACAD_REACTORS
330
C
102
}
330
C
100
AcDbDictionary
281
     1
  0
ACDBDICTIONARYWDFLT
  5
E
102
{ACAD_REACTORS
330
C
102
}
330
C
100
AcDbDictionary
281
     1
  3
Normal
350
F
100
AcDbDictionaryWithDefault
340
F
  0
DICTIONARY
  5
42
102
{ACAD_REACTORS
330
C
102
}
330
C
100
AcDbDictionary
281
     1
  3
A0
350
43
  3
A1
350
44
  3
A2
350
45
  3
A3
350
46
  3
A4
350
47
  3
A5
350
48
  3
A6
350
49
  3
A7
350
4A
  3
A8
350
4B
  3
A9
350
4C
  3
B0
350
4D
  3
B1
350
4E
  3
B2
350
4F
  3
B3
350
50
  3
B4
350
51
  3
B5
350
52
  3
B6
350
53
  0
DICTIONARY
  5
68
102
{ACAD_REACTORS
330
C
102
}
330
C
100
AcDbDictionary
281
     1
  3
Imperial24
350
69
  0
DICTIONARY
  5
64
102
{ACAD_REACTORS
330
C
102
}
330
C
100
AcDbDictionary
281
     1
  3
Standard
350
65
  0
DICTIONARY
  5
29
102
{ACAD_REACTORS
330
C
102
}
330
C
100
AcDbDictionary
281
     1
  3
2dWireframe
350
2F
  3
Basic
350
2E
  3
Brighten
350
35
  3
ColorChange
350
39
  3
Conceptual
350
32
  3
Dim
350
34
  3
EdgeColorOff
350
41
  3
Facepattern
350
38
  3
Flat
350
2A
  3
FlatWithEdges
350
2B
  3
Gouraud
350
2C
  3
GouraudWithEdges
350
2D
  3
Hidden
350
31
  3
JitterOff
350
3F
  3
Linepattern
350
37
  3
OverhangOff
350
40
  3
Realistic
350
33
  3
Shaded
350
3E
  3
Shaded with edges
350
3D
  3
Shades of Gray
350
3A
  3
Sketchy
350
3B
  3
Thicken
350
36
  3
Wireframe
350
30
  3
X-Ray
350
3C
  0
XRECORD
  5
186
102
{ACAD_REACTORS
330
C
102
}
330
C
100
AcDbXrecord
280
     1
 90
        1
330
65
  0
DICTIONARY
  5
17E
102
{ACAD_REACTORS
330
C
102
}
330
C
100
AcDbDictionary
281
     1
  3
CANNOSCALE
350
183
  3
CMLEADERSTYLE
350
180
  3
CTABLESTYLE
350
17F
  3
CVIEWDETAILSTYLE
350
181
  3
CVIEWSECTIONSTYLE
350
182
  0
ACDBDETAILVIEWSTYLE
  5
6B
102
{ACAD_REACTORS
330
6A
102
}
330
6A
100
AcDbModelDocViewStyle
 70
     0
  3
Imperial24
290
     1
300
Imperial24
 90
        0
100
AcDbDetailViewStyle
 70
     0
 71
     0
 90
        3
 71
     1
340
55
 62
   256
 40
0.24
340
0
 62
   256
 40
0.24
300

 40
0.36
280
     3
 71
     2
340
5D
 90
       25
 62
   256
 71
     3
340
55
 62
   256
 40
0.24
 90
        1
 40
0.75
 90
        1
300
%<\AcVar ViewType \f "%tc1">% %<\AcVar ViewDetailId>%\PSCALE %<\AcVar ViewScale \f "%sn">%
 71
     4
340
5D
 90
       25
 62
   256
340
5D
 90
       25
 62
   256
280
     0
  0
LAYOUT
  5
6F
102
{ACAD_REACTORS
330
62
102
}
330
62
100
AcDbPlotSettings
  1

  2

  4

  6

 40
0.0
 41
0.0
 42
0.0
 43
0.0
 44
0.0
 45
0.0
 46
0.0
 47
0.0
 48
0.0
 49
0.0
140
0.0
141
0.0
142
1.0
143
1.0
 70
   688
 72
     0
 73
     0
 74
     5
  7

 75
    16
147
1.0
 76
     0
 77
     2
 78
   300
148
0.0
149
0.0
100
AcDbLayout
  1
Layout1
 70
     1
 71
     1
 10
0.0
 20
0.0
 11
12.0
 21
9.0
 12
0.0
 22
0.0
 32
0.0
 14
0.0
 24
0.0
 34
0.0
 15
0.0
 25
0.0
 35
0.0
146
0.0
 13
0.0
 23
0.0
 33
0.0
 16
1.0
 26
0.0
 36
0.0
 17
0.0
 27
1.0
 37
0.0
 76
     0
330
6C
  0
LAYOUT
  5
77
102
{ACAD_REACTORS
330
62
102
}
330
62
100
AcDbPlotSettings
  1

  2

  4

  6

 40
0.0
 41
0.0
 42
0.0
 43
0.0
 44
0.0
 45
0.0
 46
0.0
 47
0.0
 48
0.0
 49
0.0
140
0.0
141
0.0
142
1.0
143
1.0
 70
   688
 72
     0
 73
     0
 74
     5
  7

 75
    16
147
1.0
 76
     0
 77
     2
 78
   300
148
0.0
149
0.0
100
AcDbLayout
  1
Layout2
 70
     1
 71
     2
 10
0.0
 20
0.0
 11
12.0
 21
9.0
 12
0.0
 22
0.0
 32
0.0
 14
0.0
 24
0.0
 34
0.0
 15
0.0
 25
0.0
 35
0.0
146
0.0
 13
0.0
 23
0.0
 33
0.0
 16
1.0
 26
0.0
 36
0.0
 17
0.0
 27
1.0
 37
0.0
 76
     0
330
74
  0
LAYOUT
  5
73
102
{ACAD_REACTORS
330
62
102
}
330
62
100
AcDbPlotSettings
  1

  2

  4

  6

 40
0.0
 41
0.0
 42
0.0
 43
0.0
 44
0.0
 45
0.0
 46
0.0
 47
0.0
 48
0.0
 49
0.0
140
0.0
141
0.0
142
1.0
143
1.0
 70
  1712
 72
     0
 73
     0
 74
     0
  7

 75
     0
147
1.0
 76
     0
 77
     2
 78
   300
148
0.0
149
0.0
100
AcDbLayout
  1
Model
 70
     1
 71
     0
 10
0.0
 20
0.0
 11
12.0
 21
9.0
 12
0.0
 22
0.0
 32
0.0
 14
0.0
 24
0.0
 34
0.0
 15
0.0
 25
0.0
 35
0.0
146
0.0
 13
0.0
 23
0.0
 33
0.0
 16
1.0
 26
0.0
 36
0.0
 17
0.0
 27
1.0
 37
0.0
 76
     0
330
70
  0
MATERIAL
  5
19
102
{ACAD_XDICTIONARY
360
1A
102
}
102
{ACAD_REACTORS
330
10
102
}
330
10
100
AcDbMaterial
  1
ByBlock
 72
     0
 43
0.0208333333333333
 43
0.0
 43
0.0
 43
0.0
 43
0.0
 43
0.0208333333333333
 43
0.0
 43
0.0
 43
0.0
 43
0.0
 43
1.0
 43
0.0
 43
0.0
 43
0.0
 43
0.0
 43
1.0
 77
     0
 47
0.0208333333333333
 47
0.0
 47
0.0
 47
0.0
 47
0.0
 47
0.0208333333333333
 47
0.0
 47
0.0
 47
0.0
 47
0.0
 47
1.0
 47
0.0
 47
0.0
 47
0.0
 47
0.0
 47
1.0
171
     0
 49
0.0208333333333333
 49
0.0
 49
0.0
 49
0.0
 49
0.0
 49
0.0208333333333333
 49
0.0
 49
0.0
 49
0.0
 49
0.0
 49
1.0
 49
0.0
 49
0.0
 49
0.0
 49
0.0
 49
1.0
175
     0
142
0.0208333333333333
142
0.0
142
0.0
142
0.0
142
0.0
142
0.0208333333333333
142
0.0
142
0.0
142
0.0
142
0.0
142
1.0
142
0.0
142
0.0
142
0.0
142
0.0
142
1.0
179
     0
144
0.0208333333333333
144
0.0
144
0.0
144
0.0
144
0.0
144
0.0208333333333333
144
0.0
144
0.0
144
0.0
144
0.0
144
1.0
144
0.0
144
0.0
144
0.0
144
0.0
144
1.0
147
0.0208333333333333
147
0.0
147
0.0
147
0.0
147
0.0
147
0.0208333333333333
147
0.0
147
0.0
147
0.0
147
0.0
147
1.0
147
0.0
147
0.0
147
0.0
147
0.0
147
1.0
  0
MATERIAL
  5
11
102
{ACAD_XDICTIONARY
360
12
102
}
102
{ACAD_REACTORS
330
10
102
}
330
10
100
AcDbMaterial
  1
ByLayer
 72
     0
 43
0.0208333333333333
 43
0.0
 43
0.0
 43
0.0
 43
0.0
 43
0.0208333333333333
 43
0.0
 43
0.0
 43
0.0
 43
0.0
 43
1.0
 43
0.0
 43
0.0
 43
0.0
 43
0.0
 43
1.0
 77
     0
 47
0.0208333333333333
 47
0.0
 47
0.0
 47
0.0
 47
0.0
 47
0.0208333333333333
 47
0.0
 47
0.0
 47
0.0
 47
0.0
 47
1.0
 47
0.0
 47
0.0
 47
0.0
 47
0.0
 47
1.0
171
     0
 49
0.0208333333333333
 49
0.0
 49
0.0
 49
0.0
 49
0.0
 49
0.0208333333333333
 49
0.0
 49
0.0
 49
0.0
 49
0.0
 49
1.0
 49
0.0
 49
0.0
 49
0.0
 49
0.0
 49
1.0
175
     0
142
0.0208333333333333
142
0.0
142
0.0
142
0.0
142
0.0
142
0.0208333333333333
142
0.0
142
0.0
142
0.0
142
0.0
142
1.0
142
0.0
142
0.0
142
0.0
142
0.0
142
1.0
179
     0
144
0.0208333333333333
144
0.0
144
0.0
144
0.0
144
0.0
144
0.0208333333333333
144
0.0
144
0.0
144
0.0
144
0.0
144
1.0
144
0.0
144
0.0
144
0.0
144
0.0
144
1.0
147
0.0208333333333333
147
0.0
147
0.0
147
0.0
147
0.0
147
0.0208333333333333
147
0.0
147
0.0
147
0.0
147
0.0
147
1.0
147
0.0
147
0.0
147
0.0
147
0.0
147
1.0
  0
MATERIAL
  5
21
102
{ACAD_XDICTIONARY
360
22
102
}
102
{ACAD_REACTORS
330
10
102
}
330
10
100
AcDbMaterial
  1
Global
 72
     0
 43
0.0208333333333333
 43
0.0
 43
0.0
 43
0.0
 43
0.0
 43
0.0208333333333333
 43
0.0
 43
0.0
 43
0.0
 43
0.0
 43
1.0
 43
0.0
 43
0.0
 43
0.0
 43
0.0
 43
1.0
 77
     0
 47
0.0208333333333333
 47
0.0
 47
0.0
 47
0.0
 47
0.0
 47
0.0208333333333333
 47
0.0
 47
0.0
 47
0.0
 47
0.0
 47
1.0
 47
0.0
 47
0.0
 47
0.0
 47
0.0
 47
1.0
171
     0
 49
0.0208333333333333
 49
0.0
 49
0.0
 49
0.0
 49
0.0
 49
0.0208333333333333
 49
0.0
 49
0.0
 49
0.0
 49
0.0
 49
1.0
 49
0.0
 49
0.0
 49
0.0
 49
0.0
 49
1.0
175
     0
142
0.0208333333333333
142
0.0
142
0.0
142
0.0
142
0.0
142
0.0208333333333333
142
0.0
142
0.0
142
0.0
142
0.0
142
1.0
142
0.0
142
0.0
142
0.0
142
0.0
142
1.0
179
     0
144
0.0208333333333333
144
0.0
144
0.0
144
0.0
144
0.0
144
0.0208333333333333
144
0.0
144
0.0
144
0.0
144
0.0
144
1.0
144
0.0
144
0.0
144
0.0
144
0.0
144
1.0
147
0.0208333333333333
147
0.0
147
0.0
147
0.0
147
0.0
147
0.0208333333333333
147
0.0
147
0.0
147
0.0
147
0.0
147
1.0
147
0.0
147
0.0
147
0.0
147
0.0
147
1.0
  0
MLEADERSTYLE
  5
67
102
{ACAD_REACTORS
330
66
102
}
330
66
100
AcDbMLeaderStyle
179
     2
170
     2
171
     1
172
     0
 90
        2
 40
0.0
 41
0.0
173
     1
 91
-1056964608
340
5B
 92
       -2
290
     1
 42
0.09
291
     1
 43
0.36
  3
Standard
 44
0.18
300

342
55
174
     1
178
     6
175
     1
176
     0
 93
-1056964608
 45
0.18
292
     0
297
     0
 46
0.18
 94
-1056964608
 47
1.0
 49
1.0
140
1.0
293
     1
141
0.0
294
     1
177
     0
142
1.0
295
     1
296
     0
143
0.125
271
     0
272
     9
273
     9
298
     1
  0
MLINESTYLE
  5
60
102
{ACAD_REACTORS
330
5F
102
}
330
5F
100
AcDbMlineStyle
  2
STANDARD
 70
     0
  3

 62
   256
 51
90.0
 52
90.0
 71
     2
 49
0.5
 62
   256
  6
BYLAYER
 49
-0.5
 62
   256
  6
BYLAYER
  0
ACDBPLACEHOLDER
  5
F
102
{ACAD_REACTORS
330
E
102
}
330
E
  0
SCALE
  5
43
102
{ACAD_REACTORS
330
42
102
}
330
42
100
AcDbScale
 70
     0
300
1:1
140
1.0
141
1.0
290
     1
  0
SCALE
  5
44
102
{ACAD_REACTORS
330
42
102
}
330
42
100
AcDbScale
 70
     0
300
1/128" = 1'-0"
140
0.0078125
141
12.0
290
     0
  0
SCALE
  5
45
102
{ACAD_REACTORS
330
42
102
}
330
42
100
AcDbScale
 70
     0
300
1/64" = 1'-0"
140
0.015625
141
12.0
290
     0
  0
SCALE
  5
46
102
{ACAD_REACTORS
330
42
102
}
330
42
100
AcDbScale
 70
     0
300
1/32" = 1'-0"
140
0.03125
141
12.0
290
     0
  0
SCALE
  5
47
102
{ACAD_REACTORS
330
42
102
}
330
42
100
AcDbScale
 70
     0
300
1/16" = 1'-0"
140
0.0625
141
12.0
290
     0
  0
SCALE
  5
48
102
{ACAD_REACTORS
330
42
102
}
330
42
100
AcDbScale
 70
     0
300
3/32" = 1'-0"
140
0.09375
141
12.0
290
     0
  0
SCALE
  5
49
102
{ACAD_REACTORS
330
42
102
}
330
42
100
AcDbScale
 70
     0
300
1/8" = 1'-0"
140
0.125
141
12.0
290
     0
  0
SCALE
  5
4A
102
{ACAD_REACTORS
330
42
102
}
330
42
100
AcDbScale
 70
     0
300
3/16" = 1'-0"
140
0.1875
141
12.0
290
     0
  0
SCALE
  5
4B
102
{ACAD_REACTORS
330
42
102
}
330
42
100
AcDbScale
 70
     0
300
1/4" = 1'-0"
140
0.25
141
12.0
290
     0
  0
SCALE
  5
4C
102
{ACAD_REACTORS
330
42
102
}
330
42
100
AcDbScale
 70
     0
300
3/8" = 1'-0"
140
0.375
141
12.0
290
     0
  0
SCALE
  5
4D
102
{ACAD_REACTORS
330
42
102
}
330
42
100
AcDbScale
 70
     0
300
1/2" = 1'-0"
140
0.5
141
12.0
290
     0
  0
SCALE
  5
4E
102
{ACAD_REACTORS
330
42
102
}
330
42
100
AcDbScale
 70
     0
300
3/4" = 1'-0"
140
0.75
141
12.0
290
     0
  0
SCALE
  5
4F
102
{ACAD_REACTORS
330
42
102
}
330
42
100
AcDbScale
 70
     0
300
1" = 1'-0"
140
1.0
141
12.0
290
     0
  0
SCALE
  5
50
102
{ACAD_REACTORS
330
42
102
}
330
42
100
AcDbScale
 70
     0
300
1-1/2" = 1'-0"
140
1.5
141
12.0
290
     0
  0
SCALE
  5
51
102
{ACAD_REACTORS
330
42
102
}
330
42
100
AcDbScale
 70
     0
300
3" = 1'-0"
140
3.0
141
12.0
290
     0
  0
SCALE
  5
52
102
{ACAD_REACTORS
330
42
102
}
330
42
100
AcDbScale
 70
     0
300
6" = 1'-0"
140
6.0
141
12.0
290
     0
  0
SCALE
  5
53
102
{ACAD_REACTORS
330
42
102
}
330
42
100
AcDbScale
 70
     0
300
1'-0" = 1'-0"
140
12.0
141
12.0
290
     0
  0
ACDBSECTIONVIEWSTYLE
  5
69
102
{ACAD_REACTORS
330
68
102
}
330
68
100
AcDbModelDocViewStyle
 70
     0
  3
Imperial24
290
     1
300
Imperial24
 90
        0
100
AcDbSectionViewStyle
 70
     0
 71
     0
 90
       78
 71
     1
340
55
 62
   256
 40
0.24
340
0
340
0
 62
   256
 40
0.24
300
I, O, Q, S, X, Z
 40
0.48
 90
        3
 40
0.18
 90
        1
 71
     2
340
5D
 90
       25
 62
   256
340
5D
 90
       50
 62
   256
 40
0.24
 40
0.0
 40
0.24
 71
     3
340
55
 62
   256
 40
0.24
 90
        1
 40
0.75
 90
        1
300
%<\AcVar ViewType \f "%tc1">% %<\AcVar ViewSectionStartId>%-%<\AcVar ViewSectionEndId>%\PSCALE %<\AcVar ViewScale \f "%sn">%
 71
     4
 62
   256
 62
   257
300
ANSI31
 40
1.0
 90
        0
290
     0
290
     0
 90
        6
 40
0.0
 40
1.570796326794896
 40
0.2617993877991494
 40
1.308996938995747
 40
-0.2617993877991494
 40
1.832595714594046
  0
TABLESTYLE
  5
65
102
{ACAD_XDICTIONARY
360
184
102
}
102
{ACAD_REACTORS
330
64
102
}
330
64
100
AcDbTableStyle
280
     0
  3
Standard
 70
     0
 71
     0
 40
0.06
 41
0.06
280
     0
281
     0
  7
Standard
140
0.18
170
     2
 62
     0
 63
     7
283
     0
 90
      512
 91
        0
  1

274
    -2
284
     1
 64
     0
275
    -2
285
     1
 65
     0
276
    -2
286
     1
 66
     0
277
    -2
287
     1
 67
     0
278
    -2
288
     1
 68
     0
279
    -2
289
     1
 69
     0
  7
Standard
140
0.25
170
     5
 62
     0
 63
     7
283
     0
 90
      512
 91
        0
  1

274
    -2
284
     1
 64
     0
275
    -2
285
     1
 65
     0
276
    -2
286
     1
 66
     0
277
    -2
287
     1
 67
     0
278
    -2
288
     1
 68
     0
279
    -2
289
     1
 69
     0
  7
Standard
140
0.18
170
     5
 62
     0
 63
     7
283
     0
 90
      512
 91
        0
  1

274
    -2
284
     1
 64
     0
275
    -2
285
     1
 65
     0
276
    -2
286
     1
 66
     0
277
    -2
287
     1
 67
     0
278
    -2
288
     1
 68
     0
279
    -2
289
     1
 69
     0
  0
VISUALSTYLE
  5
2F
102
{ACAD_REACTORS
330
29
102
}
330
29
100
AcDbVisualStyle
  2
2dWireframe
 70
     4
177
     3
291
     0
 70
    58
 90
        0
176
     1
 90
        2
176
     1
 90
        0
176
     1
 90
        0
176
     1
 40
0.6
176
     1
 40
30.0
176
     1
 62
     7
420
 16777215
176
     1
 90
        1
176
     1
 90
        4
176
     1
 62
     7
176
     1
 62
   257
176
     1
 90
        1
176
     1
 90
        1
176
     1
 40
1.0
176
     1
 90
        0
176
     1
 62
   257
176
     1
 40
1.0
176
     1
 90
        1
176
     1
 90
        6
176
     1
 90
        2
176
     1
 62
     7
176
     1
 90
        5
176
     1
 90
        0
176
     1
 90
        0
176
     1
290
     0
176
     1
 90
        1
176
     1
 40
0.0
176
     1
 90
        0
176
     1
290
     1
176
     1
290
     1
176
     1
290
     0
176
     1
290
     0
176
     1
290
     0
176
     1
290
     0
176
     1
290
     0
176
     1
290
     0
176
     1
290
     0
176
     1
 90
       50
176
     1
 40
0.0
176
     1
 40
1.0
176
     1
 90
        0
176
     1
 62
    18
420
        0
176
     1
 90
       50
176
     1
 90
        3
176
     1
 62
     5
420
      255
176
     1
290
     0
176
     1
 90
       50
176
     1
 90
       50
176
     1
 90
       50
176
     1
290
     0
176
     1
 90
       50
176
     1
 62
   256
176
     0
 40
1.0
176
     0
 90
        2
176
     1
  1
strokes_ogs.tif
176
     1
290
     0
176
     1
 40
1.0
176
     1
 40
1.0
176
     1
  0
VISUALSTYLE
  5
2E
102
{ACAD_REACTORS
330
29
102
}
330
29
100
AcDbVisualStyle
  2
Basic
 70
     7
177
     3
291
     1
 70
    58
 90
        1
176
     1
 90
        0
176
     1
 90
        1
176
     1
 90
        0
176
     1
 40
0.6
176
     1
 40
30.0
176
     1
 62
     7
420
 16777215
176
     1
 90
        0
176
     1
 90
        4
176
     1
 62
     7
176
     1
 62
   257
176
     1
 90
        1
176
     1
 90
        1
176
     1
 40
1.0
176
     1
 90
        8
176
     1
 62
     7
176
     1
 40
1.0
176
     1
 90
        1
176
     1
 90
        6
176
     1
 90
        2
176
     1
 62
     7
176
     1
 90
        5
176
     1
 90
        0
176
     1
 90
        0
176
     1
290
     0
176
     1
 90
        1
176
     1
 40
0.0
176
     1
 90
        0
176
     1
290
     0
176
     1
290
     1
176
     1
290
     1
176
     1
290
     0
176
     1
290
     0
176
     1
290
     0
176
     1
290
     0
176
     1
290
     0
176
     1
290
     0
176
     1
 90
       50
176
     1
 40
0.0
176
     1
 40
1.0
176
     1
 90
        0
176
     1
 62
    18
420
        0
176
     1
 90
       50
176
     1
 90
        3
176
     1
 62
     5
420
      255
176
     1
290
     0
176
     1
 90
       50
176
     1
 90
       50
176
     1
 90
       50
176
     1
290
     0
176
     1
 90
       50
176
     1
 62
   256
176
     0
 40
1.0
176
     0
 90
        2
176
     1
  1
strokes_ogs.tif
176
     1
290
     0
176
     1
 40
1.0
176
     1
 40
1.0
176
     1
  0
VISUALSTYLE
  5
35
102
{ACAD_REACTORS
330
29
102
}
330
29
100
AcDbVisualStyle
  2
Brighten
 70
    12
177
     3
291
     1
 70
    58
 90
        2
176
     1
 90
        2
176
     1
 90
        0
176
     1
 90
        0
176
     1
 40
0.6
176
     1
 40
30.0
176
     1
 62
     7
420
 16777215
176
     1
 90
        1
176
     1
 90
        4
176
     1
 62
     7
176
     1
 62
   257
176
     1
 90
        1
176
     1
 90
        1
176
     1
 40
1.0
176
     1
 90
        8
176
     1
 62
     7
176
     1
 40
1.0
176
     1
 90
        1
176
     1
 90
        6
176
     1
 90
        2
176
     1
 62
     7
176
     1
 90
        5
176
     1
 90
        0
176
     1
 90
        0
176
     1
290
     0
176
     1
 90
        1
176
     1
 40
50.0
176
     1
 90
        0
176
     1
290
     0
176
     1
290
     1
176
     1
290
     1
176
     1
290
     0
176
     1
290
     0
176
     1
290
     0
176
     1
290
     0
176
     1
290
     0
176
     1
290
     0
176
     1
 90
       50
176
     1
 40
0.0
176
     1
 40
1.0
176
     1
 90
        0
176
     1
 62
    18
420
        0
176
     1
 90
       50
176
     1
 90
        3
176
     1
 62
     5
420
      255
176
     1
290
     0
176
     1
 90
       50
176
     1
 90
       50
176
     1
 90
       50
176
     1
290
     0
176
     1
 90
       50
176
     1
 62
   256
176
     0
 40
1.0
176
     0
 90
        2
176
     1
  1
strokes_ogs.tif
176
     1
290
     0
176
     1
 40
1.0
176
     1
 40
1.0
176
     1
  0
VISUALSTYLE
  5
39
102
{ACAD_REACTORS
330
29
102
}
330
29
100
AcDbVisualStyle
  2
ColorChange
 70
    16
177
     3
291
     1
 70
    58
 90
        2
176
     1
 90
        2
176
     1
 90
        3
176
     1
 90
        0
176
     1
 40
0.6
176
     1
 40
30.0
176
     1
 62
     8
420
  8421504
176
     1
 90
        1
176
     1
 90
        4
176
     1
 62
     7
176
     1
 62
   257
176
     1
 90
        1
176
     1
 90
        1
176
     1
 40
1.0
176
     1
 90
        8
176
     1
 62
     8
420
  8421504
176
     1
 40
1.0
176
     1
 90
        1
176
     1
 90
        6
176
     1
 90
        2
176
     1
 62
     7
176
     1
 90
        5
176
     1
 90
        0
176
     1
 90
        0
176
     1
290
     0
176
     1
 90
        1
176
     1
 40
0.0
176
     1
 90
        0
176
     1
290
     0
176
     1
290
     1
176
     1
290
     1
176
     1
290
     0
176
     1
290
     0
176
     1
290
     0
176
     1
290
     0
176
     1
290
     0
176
     1
290
     0
176
     1
 90
       50
176
     1
 40
0.0
176
     1
 40
1.0
176
     1
 90
        0
176
     1
 62
    18
420
        0
176
     1
 90
       50
176
     1
 90
        3
176
     1
 62
     5
420
      255
176
     1
290
     0
176
     1
 90
       50
176
     1
 90
       50
176
     1
 90
       50
176
     1
290
     0
176
     1
 90
       50
176
     1
 62
   256
176
     0
 40
1.0
176
     0
 90
        2
176
     1
  1
strokes_ogs.tif
176
     1
290
     0
176
     1
 40
1.0
176
     1
 40
1.0
176
     1
  0
VISUALSTYLE
  5
32
102
{ACAD_REACTORS
330
29
102
}
330
29
100
AcDbVisualStyle
  2
Conceptual
 70
     9
177
     3
291
     0
 70
    58
 90
        3
176
     1
 90
        2
176
     1
 90
        0
176
     1
 90
        0
176
     1
 40
0.6
176
     1
 40
30.0
176
     1
 62
     7
420
 16777215
176
     1
 90
        2
176
     1
 90
        2
176
     1
 62
     7
176
     1
 62
   257
176
     1
 90
        1
176
     1
 90
        1
176
     1
 40
179.0
176
     1
 90
        8
176
     1
 62
     7
176
     1
 40
1.0
176
     1
 90
        1
176
     1
 90
        6
176
     1
 90
        2
176
     1
 62
     7
176
     1
 90
        3
176
     1
 90
        0
176
     1
 90
        0
176
     1
290
     0
176
     1
 90
        1
176
     1
 40
0.0
176
     1
 90
        0
176
     1
290
     0
176
     1
290
     1
176
     1
290
     1
176
     1
290
     0
176
     1
290
     0
176
     1
290
     0
176
     1
290
     0
176
     1
290
     0
176
     1
290
     0
176
     1
 90
       50
176
     1
 40
0.0
176
     1
 40
1.0
176
     1
 90
        0
176
     1
 62
    18
420
        0
176
     1
 90
       50
176
     1
 90
        3
176
     1
 62
     5
420
      255
176
     1
290
     0
176
     1
 90
       50
176
     1
 90
       50
176
     1
 90
       50
176
     1
290
     0
176
     1
 90
       50
176
     1
 62
   256
176
     0
 40
1.0
176
     0
 90
        2
176
     1
  1
strokes_ogs.tif
176
     1
290
     0
176
     1
 40
1.0
176
     1
 40
1.0
176
     1
  0
VISUALSTYLE
  5
34
102
{ACAD_REACTORS
330
29
102
}
330
29
100
AcDbVisualStyle
  2
Dim
 70
    11
177
     3
291
     1
 70
    58
 90
        2
176
     1
 90
        2
176
     1
 90
        0
176
     1
 90
        0
176
     1
 40
0.6
176
     1
 40
30.0
176
     1
 62
     7
420
 16777215
176
     1
 90
        1
176
     1
 90
        4
176
     1
 62
     7
176
     1
 62
   257
176
     1
 90
        1
176
     1
 90
        1
176
     1
 40
1.0
176
     1
 90
        8
176
     1
 62
     7
176
     1
 40
1.0
176
     1
 90
        1
176
     1
 90
        6
176
     1
 90
        2
176
     1
 62
     7
176
     1
 90
        5
176
     1
 90
        0
176
     1
 90
        0
176
     1
290
     0
176
     1
 90
        1
176
     1
 40
-50.0
176
     1
 90
        0
176
     1
290
     0
176
     1
290
     1
176
     1
290
     1
176
     1
290
     0
176
     1
290
     0
176
     1
290
     0
176
     1
290
     0
176
     1
290
     0
176
     1
290
     0
176
     1
 90
       50
176
     1
 40
0.0
176
     1
 40
1.0
176
     1
 90
        0
176
     1
 62
    18
420
        0
176
     1
 90
       50
176
     1
 90
        3
176
     1
 62
     5
420
      255
176
     1
290
     0
176
     1
 90
       50
176
     1
 90
       50
176
     1
 90
       50
176
     1
290
     0
176
     1
 90
       50
176
     1
 62
   256
176
     0
 40
1.0
176
     0
 90
        2
176
     1
  1
strokes_ogs.tif
176
     1
290
     0
176
     1
 40
1.0
176
     1
 40
1.0
176
     1
  0
VISUALSTYLE
  5
41
102
{ACAD_REACTORS
330
29
102
}
330
29
100
AcDbVisualStyle
  2
EdgeColorOff
 70
    22
177
     3
291
     1
 70
    58
 90
        2
176
     0
 90
        2
176
     0
 90
        0
176
     0
 90
        0
176
     0
 40
0.6
176
     0
 40
30.0
176
     0
 62
     7
420
 16777215
176
     0
 90
        1
176
     0
 90
        4
176
     0
 62
     7
176
     0
 62
   257
176
     0
 90
        1
176
     0
 90
        1
176
     0
 40
1.0
176
     0
 90
        8
176
     2
 62
     7
176
     0
 40
1.0
176
     0
 90
        1
176
     0
 90
        6
176
     0
 90
        2
176
     0
 62
     7
176
     0
 90
        5
176
     0
 90
        0
176
     0
 90
        0
176
     0
290
     0
176
     0
 90
        1
176
     0
 40
0.0
176
     0
 90
        0
176
     0
290
     0
176
     0
290
     1
176
     0
290
     1
176
     0
290
     0
176
     0
290
     0
176
     0
290
     0
176
     0
290
     0
176
     0
290
     0
176
     0
290
     0
176
     0
 90
       50
176
     0
 40
0.0
176
     0
 40
1.0
176
     0
 90
        0
176
     0
 62
    18
420
        0
176
     0
 90
       50
176
     0
 90
        3
176
     0
 62
     5
420
      255
176
     0
290
     0
176
     0
 90
       50
176
     0
 90
       50
176
     0
 90
       50
176
     0
290
     0
176
     0
 90
       50
176
     0
 62
   256
176
     0
 40
1.0
176
     0
 90
        2
176
     0
  1
strokes_ogs.tif
176
     0
290
     0
176
     0
 40
1.0
176
     0
 40
1.0
176
     0
  0
VISUALSTYLE
  5
38
102
{ACAD_REACTORS
330
29
102
}
330
29
100
AcDbVisualStyle
  2
Facepattern
 70
    15
177
     3
291
     1
 70
    58
 90
        2
176
     1
 90
        2
176
     1
 90
        0
176
     1
 90
        0
176
     1
 40
0.6
176
     1
 40
30.0
176
     1
 62
     7
420
 16777215
176
     1
 90
        1
176
     1
 90
        4
176
     1
 62
     7
176
     1
 62
   257
176
     1
 90
        1
176
     1
 90
        1
176
     1
 40
1.0
176
     1
 90
        8
176
     1
 62
     7
176
     1
 40
1.0
176
     1
 90
        1
176
     1
 90
        6
176
     1
 90
        2
176
     1
 62
     7
176
     1
 90
        5
176
     1
 90
        0
176
     1
 90
        0
176
     1
290
     0
176
     1
 90
        1
176
     1
 40
0.0
176
     1
 90
        0
176
     1
290
     0
176
     1
290
     1
176
     1
290
     1
176
     1
290
     0
176
     1
290
     0
176
     1
290
     0
176
     1
290
     0
176
     1
290
     0
176
     1
290
     0
176
     1
 90
       50
176
     1
 40
0.0
176
     1
 40
1.0
176
     1
 90
        0
176
     1
 62
    18
420
        0
176
     1
 90
       50
176
     1
 90
        3
176
     1
 62
     5
420
      255
176
     1
290
     0
176
     1
 90
       50
176
     1
 90
       50
176
     1
 90
       50
176
     1
290
     0
176
     1
 90
       50
176
     1
 62
   256
176
     0
 40
1.0
176
     0
 90
        2
176
     1
  1
strokes_ogs.tif
176
     1
290
     0
176
     1
 40
1.0
176
     1
 40
1.0
176
     1
  0
VISUALSTYLE
  5
2A
102
{ACAD_REACTORS
330
29
102
}
330
29
100
AcDbVisualStyle
  2
Flat
 70
     0
177
     3
291
     1
 70
    58
 90
        2
176
     1
 90
        1
176
     1
 90
        1
176
     1
 90
        2
176
     1
 40
0.6
176
     1
 40
30.0
176
     1
 62
     7
420
 16777215
176
     1
 90
        0
176
     1
 90
        0
176
     1
 62
     7
176
     1
 62
   257
176
     1
 90
        1
176
     1
 90
        1
176
     1
 40
1.0
176
     1
 90
        8
176
     1
 62
     7
176
     1
 40
1.0
176
     1
 90
        1
176
     1
 90
        6
176
     1
 90
        2
176
     1
 62
     7
176
     1
 90
        5
176
     1
 90
        0
176
     1
 90
        0
176
     1
290
     0
176
     1
 90
       13
176
     1
 40
0.0
176
     1
 90
        0
176
     1
290
     0
176
     1
290
     1
176
     1
290
     1
176
     1
290
     0
176
     1
290
     0
176
     1
290
     0
176
     1
290
     0
176
     1
290
     0
176
     1
290
     0
176
     1
 90
       50
176
     1
 40
0.0
176
     1
 40
1.0
176
     1
 90
        0
176
     1
 62
    18
420
        0
176
     1
 90
       50
176
     1
 90
        3
176
     1
 62
     5
420
      255
176
     1
290
     0
176
     1
 90
       50
176
     1
 90
       50
176
     1
 90
       50
176
     1
290
     0
176
     1
 90
       50
176
     1
 62
   256
176
     0
 40
1.0
176
     0
 90
        2
176
     1
  1
strokes_ogs.tif
176
     1
290
     0
176
     1
 40
1.0
176
     1
 40
1.0
176
     1
  0
VISUALSTYLE
  5
2B
102
{ACAD_REACTORS
330
29
102
}
330
29
100
AcDbVisualStyle
  2
FlatWithEdges
 70
     1
177
     3
291
     1
 70
    58
 90
        2
176
     1
 90
        1
176
     1
 90
        1
176
     1
 90
        2
176
     1
 40
0.6
176
     1
 40
30.0
176
     1
 62
     7
420
 16777215
176
     1
 90
        1
176
     1
 90
        0
176
     1
 62
     7
176
     1
 62
   257
176
     1
 90
        1
176
     1
 90
        1
176
     1
 40
1.0
176
     1
 90
        0
176
     1
 62
   257
176
     1
 40
1.0
176
     1
 90
        1
176
     1
 90
        6
176
     1
 90
        2
176
     1
 62
     7
176
     1
 90
        5
176
     1
 90
        0
176
     1
 90
        0
176
     1
290
     0
176
     1
 90
       13
176
     1
 40
0.0
176
     1
 90
        0
176
     1
290
     0
176
     1
290
     1
176
     1
290
     1
176
     1
290
     0
176
     1
290
     0
176
     1
290
     0
176
     1
290
     0
176
     1
290
     0
176
     1
290
     0
176
     1
 90
       50
176
     1
 40
0.0
176
     1
 40
1.0
176
     1
 90
        0
176
     1
 62
    18
420
        0
176
     1
 90
       50
176
     1
 90
        3
176
     1
 62
     5
420
      255
176
     1
290
     0
176
     1
 90
       50
176
     1
 90
       50
176
     1
 90
       50
176
     1
290
     0
176
     1
 90
       50
176
     1
 62
   256
176
     0
 40
1.0
176
     0
 90
        2
176
     1
  1
strokes_ogs.tif
176
     1
290
     0
176
     1
 40
1.0
176
     1
 40
1.0
176
     1
  0
VISUALSTYLE
  5
2C
102
{ACAD_REACTORS
330
29
102
}
330
29
100
AcDbVisualStyle
  2
Gouraud
 70
     2
177
     3
291
     1
 70
    58
 90
        2
176
     1
 90
        2
176
     1
 90
        1
176
     1
 90
        2
176
     1
 40
0.6
176
     1
 40
30.0
176
     1
 62
     7
420
 16777215
176
     1
 90
        0
176
     1
 90
        0
176
     1
 62
     7
176
     1
 62
   257
176
     1
 90
        1
176
     1
 90
        1
176
     1
 40
1.0
176
     1
 90
        0
176
     1
 62
     7
176
     1
 40
1.0
176
     1
 90
        1
176
     1
 90
        6
176
     1
 90
        2
176
     1
 62
     7
176
     1
 90
        5
176
     1
 90
        0
176
     1
 90
        0
176
     1
290
     0
176
     1
 90
       13
176
     1
 40
0.0
176
     1
 90
        0
176
     1
290
     0
176
     1
290
     1
176
     1
290
     1
176
     1
290
     0
176
     1
290
     0
176
     1
290
     0
176
     1
290
     0
176
     1
290
     0
176
     1
290
     0
176
     1
 90
       50
176
     1
 40
0.0
176
     1
 40
1.0
176
     1
 90
        0
176
     1
 62
    18
420
        0
176
     1
 90
       50
176
     1
 90
        3
176
     1
 62
     5
420
      255
176
     1
290
     0
176
     1
 90
       50
176
     1
 90
       50
176
     1
 90
       50
176
     1
290
     0
176
     1
 90
       50
176
     1
 62
   256
176
     0
 40
1.0
176
     0
 90
        2
176
     1
  1
strokes_ogs.tif
176
     1
290
     0
176
     1
 40
1.0
176
     1
 40
1.0
176
     1
  0
VISUALSTYLE
  5
2D
102
{ACAD_REACTORS
330
29
102
}
330
29
100
AcDbVisualStyle
  2
GouraudWithEdges
 70
     3
177
     3
291
     1
 70
    58
 90
        2
176
     1
 90
        2
176
     1
 90
        1
176
     1
 90
        2
176
     1
 40
0.6
176
     1
 40
30.0
176
     1
 62
     7
420
 16777215
176
     1
 90
        1
176
     1
 90
        0
176
     1
 62
     7
176
     1
 62
   257
176
     1
 90
        1
176
     1
 90
        1
176
     1
 40
1.0
176
     1
 90
        0
176
     1
 62
   257
176
     1
 40
1.0
176
     1
 90
        1
176
     1
 90
        6
176
     1
 90
        2
176
     1
 62
     7
176
     1
 90
        5
176
     1
 90
        0
176
     1
 90
        0
176
     1
290
     0
176
     1
 90
       13
176
     1
 40
0.0
176
     1
 90
        0
176
     1
290
     0
176
     1
290
     1
176
     1
290
     1
176
     1
290
     0
176
     1
290
     0
176
     1
290
     0
176
     1
290
     0
176
     1
290
     0
176
     1
290
     0
176
     1
 90
       50
176
     1
 40
0.0
176
     1
 40
1.0
176
     1
 90
        0
176
     1
 62
    18
420
        0
176
     1
 90
       50
176
     1
 90
        3
176
     1
 62
     5
420
      255
176
     1
290
     0
176
     1
 90
       50
176
     1
 90
       50
176
     1
 90
       50
176
     1
290
     0
176
     1
 90
       50
176
     1
 62
   256
176
     0
 40
1.0
176
     0
 90
        2
176
     1
  1
strokes_ogs.tif
176
     1
290
     0
176
     1
 40
1.0
176
     1
 40
1.0
176
     1
  0
VISUALSTYLE
  5
31
102
{ACAD_REACTORS
330
29
102
}
330
29
100
AcDbVisualStyle
  2
Hidden
 70
     6
177
     3
291
     0
 70
    58
 90
        1
176
     1
 90
        2
176
     1
 90
        2
176
     1
 90
        0
176
     1
 40
0.6
176
     1
 40
30.0
176
     1
 62
     7
420
 16777215
176
     1
 90
        2
176
     1
 90
        2
176
     1
 62
     7
176
     1
 62
   257
176
     1
 90
        2
176
     1
 90
        1
176
     1
 40
40.0
176
     1
 90
        0
176
     1
 62
   257
176
     1
 40
1.0
176
     1
 90
        1
176
     1
 90
        6
176
     1
 90
        2
176
     1
 62
     7
176
     1
 90
        3
176
     1
 90
        0
176
     1
 90
        0
176
     1
290
     0
176
     1
 90
        1
176
     1
 40
0.0
176
     1
 90
        0
176
     1
290
     0
176
     1
290
     1
176
     1
290
     1
176
     1
290
     0
176
     1
290
     0
176
     1
290
     0
176
     1
290
     0
176
     1
290
     0
176
     1
290
     0
176
     1
 90
       50
176
     1
 40
0.0
176
     1
 40
1.0
176
     1
 90
        0
176
     1
 62
    18
420
        0
176
     1
 90
       50
176
     1
 90
        3
176
     1
 62
     5
420
      255
176
     1
290
     0
176
     1
 90
       50
176
     1
 90
       50
176
     1
 90
       50
176
     1
290
     0
176
     1
 90
       50
176
     1
 62
   256
176
     0
 40
1.0
176
     0
 90
        2
176
     1
  1
strokes_ogs.tif
176
     1
290
     0
176
     1
 40
1.0
176
     1
 40
1.0
176
     1
  0
VISUALSTYLE
  5
3F
102
{ACAD_REACTORS
330
29
102
}
330
29
100
AcDbVisualStyle
  2
JitterOff
 70
    20
177
     3
291
     1
 70
    58
 90
        2
176
     0
 90
        2
176
     0
 90
        0
176
     0
 90
        0
176
     0
 40
0.6
176
     0
 40
30.0
176
     0
 62
     7
420
 16777215
176
     0
 90
        1
176
     0
 90
        4
176
     0
 62
     7
176
     0
 62
   257
176
     0
 90
        1
176
     0
 90
        1
176
     0
 40
1.0
176
     0
 90
       10
176
     2
 62
     7
176
     0
 40
1.0
176
     0
 90
        1
176
     0
 90
        6
176
     0
 90
        2
176
     0
 62
     7
176
     0
 90
        5
176
     0
 90
        0
176
     0
 90
        0
176
     0
290
     0
176
     0
 90
        1
176
     0
 40
0.0
176
     0
 90
        0
176
     0
290
     0
176
     0
290
     1
176
     0
290
     1
176
     0
290
     0
176
     0
290
     0
176
     0
290
     0
176
     0
290
     0
176
     0
290
     0
176
     0
290
     0
176
     0
 90
       50
176
     0
 40
0.0
176
     0
 40
1.0
176
     0
 90
        0
176
     0
 62
    18
420
        0
176
     0
 90
       50
176
     0
 90
        3
176
     0
 62
     5
420
      255
176
     0
290
     0
176
     0
 90
       50
176
     0
 90
       50
176
     0
 90
       50
176
     0
290
     0
176
     0
 90
       50
176
     0
 62
   256
176
     0
 40
1.0
176
     0
 90
        2
176
     0
  1
strokes_ogs.tif
176
     0
290
     0
176
     0
 40
1.0
176
     0
 40
1.0
176
     0
  0
VISUALSTYLE
  5
37
102
{ACAD_REACTORS
330
29
102
}
330
29
100
AcDbVisualStyle
  2
Linepattern
 70
    14
177
     3
291
     1
 70
    58
 90
        2
176
     1
 90
        2
176
     1
 90
        0
176
     1
 90
        0
176
     1
 40
0.6
176
     1
 40
30.0
176
     1
 62
     7
420
 16777215
176
     1
 90
        1
176
     1
 90
        4
176
     1
 62
     7
176
     1
 62
   257
176
     1
 90
        7
176
     1
 90
        7
176
     1
 40
1.0
176
     1
 90
        8
176
     1
 62
     7
176
     1
 40
1.0
176
     1
 90
        1
176
     1
 90
        6
176
     1
 90
        2
176
     1
 62
     7
176
     1
 90
        5
176
     1
 90
        0
176
     1
 90
        0
176
     1
290
     0
176
     1
 90
        1
176
     1
 40
0.0
176
     1
 90
        0
176
     1
290
     0
176
     1
290
     1
176
     1
290
     1
176
     1
290
     0
176
     1
290
     0
176
     1
290
     0
176
     1
290
     0
176
     1
290
     0
176
     1
290
     0
176
     1
 90
       50
176
     1
 40
0.0
176
     1
 40
1.0
176
     1
 90
        0
176
     1
 62
    18
420
        0
176
     1
 90
       50
176
     1
 90
        3
176
     1
 62
     5
420
      255
176
     1
290
     0
176
     1
 90
       50
176
     1
 90
       50
176
     1
 90
       50
176
     1
290
     0
176
     1
 90
       50
176
     1
 62
   256
176
     0
 40
1.0
176
     0
 90
        2
176
     1
  1
strokes_ogs.tif
176
     1
290
     0
176
     1
 40
1.0
176
     1
 40
1.0
176
     1
  0
VISUALSTYLE
  5
40
102
{ACAD_REACTORS
330
29
102
}
330
29
100
AcDbVisualStyle
  2
OverhangOff
 70
    21
177
     3
291
     1
 70
    58
 90
        2
176
     0
 90
        2
176
     0
 90
        0
176
     0
 90
        0
176
     0
 40
0.6
176
     0
 40
30.0
176
     0
 62
     7
420
 16777215
176
     0
 90
        1
176
     0
 90
        4
176
     0
 62
     7
176
     0
 62
   257
176
     0
 90
        1
176
     0
 90
        1
176
     0
 40
1.0
176
     0
 90
        9
176
     2
 62
     7
176
     0
 40
1.0
176
     0
 90
        1
176
     0
 90
        6
176
     0
 90
        2
176
     0
 62
     7
176
     0
 90
        5
176
     0
 90
        0
176
     0
 90
        0
176
     0
290
     0
176
     0
 90
        1
176
     0
 40
0.0
176
     0
 90
        0
176
     0
290
     0
176
     0
290
     1
176
     0
290
     1
176
     0
290
     0
176
     0
290
     0
176
     0
290
     0
176
     0
290
     0
176
     0
290
     0
176
     0
290
     0
176
     0
 90
       50
176
     0
 40
0.0
176
     0
 40
1.0
176
     0
 90
        0
176
     0
 62
    18
420
        0
176
     0
 90
       50
176
     0
 90
        3
176
     0
 62
     5
420
      255
176
     0
290
     0
176
     0
 90
       50
176
     0
 90
       50
176
     0
 90
       50
176
     0
290
     0
176
     0
 90
       50
176
     0
 62
   256
176
     0
 40
1.0
176
     0
 90
        2
176
     0
  1
strokes_ogs.tif
176
     0
290
     0
176
     0
 40
1.0
176
     0
 40
1.0
176
     0
  0
VISUALSTYLE
  5
33
102
{ACAD_REACTORS
330
29
102
}
330
29
100
AcDbVisualStyle
  2
Realistic
 70
     8
177
     3
291
     0
 70
    58
 90
        2
176
     1
 90
        3
176
     1
 90
        0
176
     1
 90
        2
176
     1
 40
0.6
176
     1
 40
30.0
176
     1
 62
     7
420
 16777215
176
     1
 90
        0
176
     1
 90
        0
176
     1
 62
     7
176
     1
 62
   257
176
     1
 90
        1
176
     1
 90
        1
176
     1
 40
1.0
176
     1
 90
        8
176
     1
 62
   257
176
     1
 40
1.0
176
     1
 90
        1
176
     1
 90
        6
176
     1
 90
        2
176
     1
 62
     7
176
     1
 90
        3
176
     1
 90
        0
176
     1
 90
        0
176
     1
290
     0
176
     1
 90
       13
176
     1
 40
0.0
176
     1
 90
        0
176
     1
290
     0
176
     1
290
     1
176
     1
290
     1
176
     1
290
     0
176
     1
290
     0
176
     1
290
     0
176
     1
290
     0
176
     1
290
     0
176
     1
290
     0
176
     1
 90
       50
176
     1
 40
0.0
176
     1
 40
1.0
176
     1
 90
        0
176
     1
 62
    18
420
        0
176
     1
 90
       50
176
     1
 90
        3
176
     1
 62
     5
420
      255
176
     1
290
     0
176
     1
 90
       50
176
     1
 90
       50
176
     1
 90
       50
176
     1
290
     0
176
     1
 90
       50
176
     1
 62
   256
176
     0
 40
1.0
176
     0
 90
        2
176
     1
  1
strokes_ogs.tif
176
     1
290
     0
176
     1
 40
1.0
176
     1
 40
1.0
176
     1
  0
VISUALSTYLE
  5
3E
102
{ACAD_REACTORS
330
29
102
}
330
29
100
AcDbVisualStyle
  2
Shaded
 70
    27
177
     3
291
     0
 70
    58
 90
        2
176
     1
 90
        2
176
     1
 90
        1
176
     1
 90
        2
176
     1
 40
0.6
176
     1
 40
30.0
176
     1
 62
     7
420
 16777215
176
     1
 90
        0
176
     1
 90
        4
176
     1
 62
     7
176
     1
 62
   257
176
     1
 90
        1
176
     1
 90
        1
176
     1
 40
1.0
176
     1
 90
        8
176
     1
 62
   257
176
     1
 40
1.0
176
     1
 90
        1
176
     1
 90
        6
176
     1
 90
        2
176
     1
 62
     8
420
  7895160
176
     1
 90
        3
176
     1
 90
        0
176
     1
 90
        0
176
     1
290
     0
176
     1
 90
        5
176
     1
 40
0.0
176
     1
 90
        0
176
     1
290
     0
176
     1
290
     1
176
     1
290
     1
176
     1
290
     0
176
     1
290
     0
176
     1
290
     0
176
     1
290
     0
176
     1
290
     0
176
     1
290
     0
176
     1
 90
       50
176
     1
 40
0.0
176
     1
 40
1.0
176
     1
 90
        0
176
     1
 62
    18
420
        0
176
     1
 90
       50
176
     1
 90
        3
176
     1
 62
     5
420
      255
176
     1
290
     0
176
     1
 90
       50
176
     1
 90
       50
176
     1
 90
       50
176
     1
290
     0
176
     1
 90
       50
176
     1
 62
   256
176
     0
 40
1.0
176
     0
 90
        2
176
     1
  1
strokes_ogs.tif
176
     1
290
     0
176
     1
 40
1.0
176
     1
 40
1.0
176
     1
  0
VISUALSTYLE
  5
3D
102
{ACAD_REACTORS
330
29
102
}
330
29
100
AcDbVisualStyle
  2
Shaded with edges
 70
    26
177
     3
291
     0
 70
    58
 90
        2
176
     1
 90
        2
176
     1
 90
        1
176
     1
 90
        2
176
     1
 40
0.6
176
     1
 40
30.0
176
     1
 62
     7
420
 16777215
176
     1
 90
        1
176
     1
 90
        2
176
     1
 62
     7
176
     1
 62
   257
176
     1
 90
        2
176
     1
 90
        1
176
     1
 40
1.0
176
     1
 90
        8
176
     1
 62
   257
176
     1
 40
1.0
176
     1
 90
        1
176
     1
 90
        6
176
     1
 90
        2
176
     1
 62
     7
176
     1
 90
        3
176
     1
 90
        0
176
     1
 90
        0
176
     1
290
     0
176
     1
 90
        5
176
     1
 40
0.0
176
     1
 90
        0
176
     1
290
     0
176
     1
290
     1
176
     1
290
     1
176
     1
290
     0
176
     1
290
     0
176
     1
290
     0
176
     1
290
     0
176
     1
290
     0
176
     1
290
     0
176
     1
 90
       50
176
     1
 40
0.0
176
     1
 40
1.0
176
     1
 90
        0
176
     1
 62
    18
420
        0
176
     1
 90
       50
176
     1
 90
        3
176
     1
 62
     5
420
      255
176
     1
290
     0
176
     1
 90
       50
176
     1
 90
       50
176
     1
 90
       50
176
     1
290
     0
176
     1
 90
       50
176
     1
 62
   256
176
     0
 40
1.0
176
     0
 90
        2
176
     1
  1
strokes_ogs.tif
176
     1
290
     0
176
     1
 40
1.0
176
     1
 40
1.0
176
     1
  0
VISUALSTYLE
  5
3A
102
{ACAD_REACTORS
330
29
102
}
330
29
100
AcDbVisualStyle
  2
Shades of Gray
 70
    23
177
     3
291
     0
 70
    58
 90
        2
176
     1
 90
        2
176
     1
 90
        3
176
     1
 90
        0
176
     1
 40
0.6
176
     1
 40
30.0
176
     1
 62
     7
420
 16777215
176
     1
 90
        2
176
     1
 90
        2
176
     1
 62
     7
176
     1
 62
     7
176
     1
 90
        1
176
     1
 90
        1
176
     1
 40
40.0
176
     1
 90
        8
176
     1
 62
     7
176
     1
 40
1.0
176
     1
 90
        1
176
     1
 90
        6
176
     1
 90
        2
176
     1
 62
     7
176
     1
 90
        3
176
     1
 90
        0
176
     1
 90
        0
176
     1
290
     0
176
     1
 90
        1
176
     1
 40
0.0
176
     1
 90
        0
176
     1
290
     0
176
     1
290
     1
176
     1
290
     1
176
     1
290
     0
176
     1
290
     0
176
     1
290
     0
176
     1
290
     0
176
     1
290
     0
176
     1
290
     0
176
     1
 90
       50
176
     1
 40
0.0
176
     1
 40
1.0
176
     1
 90
        0
176
     1
 62
    18
420
        0
176
     1
 90
       50
176
     1
 90
        3
176
     1
 62
     5
420
      255
176
     1
290
     0
176
     1
 90
       50
176
     1
 90
       50
176
     1
 90
       50
176
     1
290
     0
176
     1
 90
       50
176
     1
 62
   256
176
     0
 40
1.0
176
     0
 90
        2
176
     1
  1
strokes_ogs.tif
176
     1
290
     0
176
     1
 40
1.0
176
     1
 40
1.0
176
     1
  0
VISUALSTYLE
  5
3B
102
{ACAD_REACTORS
330
29
102
}
330
29
100
AcDbVisualStyle
  2
Sketchy
 70
    24
177
     3
291
     0
 70
    58
 90
        1
176
     1
 90
        2
176
     1
 90
        2
176
     1
 90
        0
176
     1
 40
0.6
176
     1
 40
30.0
176
     1
 62
     7
420
 16777215
176
     1
 90
        2
176
     1
 90
        2
176
     1
 62
     7
176
     1
 62
     7
176
     1
 90
        1
176
     1
 90
        1
176
     1
 40
40.0
176
     1
 90
       11
176
     1
 62
     7
176
     1
 40
1.0
176
     1
 90
        1
176
     1
 90
        6
176
     1
 90
        2
176
     1
 62
     7
176
     1
 90
        6
176
     1
 90
        0
176
     1
 90
        0
176
     1
290
     0
176
     1
 90
        1
176
     1
 40
0.0
176
     1
 90
        0
176
     1
290
     0
176
     1
290
     1
176
     1
290
     1
176
     1
290
     0
176
     1
290
     0
176
     1
290
     0
176
     1
290
     0
176
     1
290
     0
176
     1
290
     0
176
     1
 90
       50
176
     1
 40
0.0
176
     1
 40
1.0
176
     1
 90
        0
176
     1
 62
    18
420
        0
176
     1
 90
       50
176
     1
 90
        3
176
     1
 62
     5
420
      255
176
     1
290
     0
176
     1
 90
       50
176
     1
 90
       50
176
     1
 90
       50
176
     1
290
     0
176
     1
 90
       50
176
     1
 62
   256
176
     0
 40
1.0
176
     0
 90
        2
176
     1
  1
strokes_ogs.tif
176
     1
290
     0
176
     1
 40
1.0
176
     1
 40
1.0
176
     1
  0
VISUALSTYLE
  5
36
102
{ACAD_REACTORS
330
29
102
}
330
29
100
AcDbVisualStyle
  2
Thicken
 70
    13
177
     3
291
     1
 70
    58
 90
        2
176
     1
 90
        2
176
     1
 90
        0
176
     1
 90
        0
176
     1
 40
0.6
176
     1
 40
30.0
176
     1
 62
     7
420
 16777215
176
     1
 90
        1
176
     1
 90
        4
176
     1
 62
     7
176
     1
 62
   257
176
     1
 90
        1
176
     1
 90
        1
176
     1
 40
1.0
176
     1
 90
       12
176
     1
 62
     7
176
     1
 40
1.0
176
     1
 90
        1
176
     1
 90
        6
176
     1
 90
        2
176
     1
 62
     7
176
     1
 90
        5
176
     1
 90
        0
176
     1
 90
        0
176
     1
290
     0
176
     1
 90
        1
176
     1
 40
0.0
176
     1
 90
        0
176
     1
290
     0
176
     1
290
     1
176
     1
290
     1
176
     1
290
     0
176
     1
290
     0
176
     1
290
     0
176
     1
290
     0
176
     1
290
     0
176
     1
290
     0
176
     1
 90
       50
176
     1
 40
0.0
176
     1
 40
1.0
176
     1
 90
        0
176
     1
 62
    18
420
        0
176
     1
 90
       50
176
     1
 90
        3
176
     1
 62
     5
420
      255
176
     1
290
     0
176
     1
 90
       50
176
     1
 90
       50
176
     1
 90
       50
176
     1
290
     0
176
     1
 90
       50
176
     1
 62
   256
176
     0
 40
1.0
176
     0
 90
        2
176
     1
  1
strokes_ogs.tif
176
     1
290
     0
176
     1
 40
1.0
176
     1
 40
1.0
176
     1
  0
VISUALSTYLE
  5
30
102
{ACAD_REACTORS
330
29
102
}
330
29
100
AcDbVisualStyle
  2
Wireframe
 70
     5
177
     3
291
     0
 70
    58
 90
        0
176
     1
 90
        2
176
     1
 90
        0
176
     1
 90
        0
176
     1
 40
0.6
176
     1
 40
30.0
176
     1
 62
     7
420
 16777215
176
     1
 90
        1
176
     1
 90
        4
176
     1
 62
     7
176
     1
 62
   257
176
     1
 90
        1
176
     1
 90
        1
176
     1
 40
1.0
176
     1
 90
        0
176
     1
 62
   257
176
     1
 40
1.0
176
     1
 90
        1
176
     1
 90
        6
176
     1
 90
        2
176
     1
 62
     7
176
     1
 90
        3
176
     1
 90
        0
176
     1
 90
        0
176
     1
290
     0
176
     1
 90
        1
176
     1
 40
0.0
176
     1
 90
        0
176
     1
290
     0
176
     1
290
     1
176
     1
290
     1
176
     1
290
     0
176
     1
290
     0
176
     1
290
     0
176
     1
290
     0
176
     1
290
     0
176
     1
290
     0
176
     1
 90
       50
176
     1
 40
0.0
176
     1
 40
1.0
176
     1
 90
        0
176
     1
 62
    18
420
        0
176
     1
 90
       50
176
     1
 90
        3
176
     1
 62
     5
420
      255
176
     1
290
     0
176
     1
 90
       50
176
     1
 90
       50
176
     1
 90
       50
176
     1
290
     0
176
     1
 90
       50
176
     1
 62
   256
176
     0
 40
1.0
176
     0
 90
        2
176
     1
  1
strokes_ogs.tif
176
     1
290
     0
176
     1
 40
1.0
176
     1
 40
1.0
176
     1
  0
VISUALSTYLE
  5
3C
102
{ACAD_REACTORS
330
29
102
}
330
29
100
AcDbVisualStyle
  2
X-Ray
 70
    25
177
     3
291
     0
 70
    58
 90
        2
176
     1
 90
        2
176
     1
 90
        1
176
     1
 90
        1
176
     1
 40
0.5
176
     1
 40
30.0
176
     1
 62
     7
420
 16777215
176
     1
 90
        1
176
     1
 90
        0
176
     1
 62
     7
176
     1
 62
   257
176
     1
 90
        1
176
     1
 90
        1
176
     1
 40
1.0
176
     1
 90
        8
176
     1
 62
     7
176
     1
 40
1.0
176
     1
 90
        1
176
     1
 90
        6
176
     1
 90
        2
176
     1
 62
     7
176
     1
 90
        3
176
     1
 90
        0
176
     1
 90
        0
176
     1
290
     0
176
     1
 90
       13
176
     1
 40
0.0
176
     1
 90
        0
176
     1
290
     0
176
     1
290
     1
176
     1
290
     1
176
     1
290
     0
176
     1
290
     0
176
     1
290
     0
176
     1
290
     0
176
     1
290
     0
176
     1
290
     0
176
     1
 90
       50
176
     1
 40
0.0
176
     1
 40
1.0
176
     1
 90
        0
176
     1
 62
    18
420
        0
176
     1
 90
       50
176
     1
 90
        3
176
     1
 62
     5
420
      255
176
     1
290
     0
176
     1
 90
       50
176
     1
 90
       50
176
     1
 90
       50
176
     1
290
     0
176
     1
 90
       50
176
     1
 62
   256
176
     0
 40
1.0
176
     0
 90
        2
176
     1
  1
strokes_ogs.tif
176
     1
290
     0
176
     1
 40
1.0
176
     1
 40
1.0
176
     1
  0
DICTIONARYVAR
  5
183
102
{ACAD_REACTORS
330
17E
102
}
330
17E
100
DictionaryVariables
280
     0
  1
1:1
  0
DICTIONARYVAR
  5
180
102
{ACAD_REACTORS
330
17E
102
}
330
17E
100
DictionaryVariables
280
     0
  1
STANDARD
  0
DICTIONARYVAR
  5
17F
102
{ACAD_REACTORS
330
17E
102
}
330
17E
100
DictionaryVariables
280
     0
  1
STANDARD
  0
DICTIONARYVAR
  5
181
102
{ACAD_REACTORS
330
17E
102
}
330
17E
100
DictionaryVariables
280
     0
  1
Imperial24
  0
DICTIONARYVAR
  5
182
102
{ACAD_REACTORS
330
17E
102
}
330
17E
100
DictionaryVariables
280
     0
  1
Imperial24
  0
DICTIONARY
  5
1A
330
19
100
AcDbDictionary
280
     1
281
     1
  3
BUMPTILE
360
1C
  3
DIFFUSETILE
360
1B
  3
OPACITYTILE
360
1F
  3
REFLECTIONTILE
360
1E
  3
REFRACTIONTILE
360
20
  3
SPECULARTILE
360
1D
  0
DICTIONARY
  5
12
330
11
100
AcDbDictionary
280
     1
281
     1
  3
BUMPTILE
360
14
  3
DIFFUSETILE
360
13
  3
OPACITYTILE
360
17
  3
REFLECTIONTILE
360
16
  3
REFRACTIONTILE
360
18
  3
SPECULARTILE
360
15
  0
DICTIONARY
  5
22
330
21
100
AcDbDictionary
280
     1
281
     1
  3
BUMPTILE
360
24
  3
DIFFUSETILE
360
23
  3
OPACITYTILE
360
27
  3
REFLECTIONTILE
360
26
  3
REFRACTIONTILE
360
28
  3
SPECULARTILE
360
25
  0
DICTIONARY
  5
184
330
65
100
AcDbDictionary
280
     1
281
     1
  3
ACAD_ROUNDTRIP_2008_TABLESTYLE_CELLSTYLEMAP
360
185
  0
XRECORD
  5
1C
102
{ACAD_REACTORS
330
1A
102
}
330
1A
100
AcDbXrecord
280
     1
270
     1
271
     1
  0
XRECORD
  5
1B
102
{ACAD_REACTORS
330
1A
102
}
330
1A
100
AcDbXrecord
280
     1
270
     1
271
     1
  0
XRECORD
  5
1F
102
{ACAD_REACTORS
330
1A
102
}
330
1A
100
AcDbXrecord
280
     1
270
     1
271
     1
  0
XRECORD
  5
1E
102
{ACAD_REACTORS
330
1A
102
}
330
1A
100
AcDbXrecord
280
     1
270
     1
271
     1
  0
XRECORD
  5
20
102
{ACAD_REACTORS
330
1A
102
}
330
1A
100
AcDbXrecord
280
     1
270
     1
271
     1
  0
XRECORD
  5
1D
102
{ACAD_REACTORS
330
1A
102
}
330
1A
100
AcDbXrecord
280
     1
270
     1
271
     1
  0
XRECORD
  5
14
102
{ACAD_REACTORS
330
12
102
}
330
12
100
AcDbXrecord
280
     1
270
     1
271
     1
  0
XRECORD
  5
13
102
{ACAD_REACTORS
330
12
102
}
330
12
100
AcDbXrecord
280
     1
270
     1
271
     1
  0
XRECORD
  5
17
102
{ACAD_REACTORS
330
12
102
}
330
12
100
AcDbXrecord
280
     1
270
     1
271
     1
  0
XRECORD
  5
16
102
{ACAD_REACTORS
330
12
102
}
330
12
100
AcDbXrecord
280
     1
270
     1
271
     1
  0
XRECORD
  5
18
102
{ACAD_REACTORS
330
12
102
}
330
12
100
AcDbXrecord
280
     1
270
     1
271
     1
  0
XRECORD
  5
15
102
{ACAD_REACTORS
330
12
102
}
330
12
100
AcDbXrecord
280
     1
270
     1
271
     1
  0
XRECORD
  5
24
102
{ACAD_REACTORS
330
22
102
}
330
22
100
AcDbXrecord
280
     1
270
     1
271
     1
  0
XRECORD
  5
23
102
{ACAD_REACTORS
330
22
102
}
330
22
100
AcDbXrecord
280
     1
270
     1
271
     1
  0
XRECORD
  5
27
102
{ACAD_REACTORS
330
22
102
}
330
22
100
AcDbXrecord
280
     1
270
     1
271
     1
  0
XRECORD
  5
26
102
{ACAD_REACTORS
330
22
102
}
330
22
100
AcDbXrecord
280
     1
270
     1
271
     1
  0
XRECORD
  5
28
102
{ACAD_REACTORS
330
22
102
}
330
22
100
AcDbXrecord
280
     1
270
     1
271
     1
  0
XRECORD
  5
25
102
{ACAD_REACTORS
330
22
102
}
330
22
100
AcDbXrecord
280
     1
270
     1
271
     1
  0
CELLSTYLEMAP
  5
185
102
{ACAD_REACTORS
330
184
102
}
330
184
100
AcDbCellStyleMap
 90
        3
300
CELLSTYLE
  1
TABLEFORMAT_BEGIN
 90
        5
170
     1
 91
        0
 92
    32768
 62
   257
 93
        1
300
CONTENTFORMAT
  1
CONTENTFORMAT_BEGIN
 90
        0
 91
        0
 92
      512
 93
        0
300

 40
0.0
140
1.0
 94
        5
 62
     0
340
55
144
0.25
309
CONTENTFORMAT_END
171
     0
 94
        0
309
TABLEFORMAT_END
  1
CELLSTYLE_BEGIN
 90
        1
 91
        1
300
_TITLE
309
CELLSTYLE_END
300
CELLSTYLE
  1
TABLEFORMAT_BEGIN
 90
        5
170
     1
 91
        0
 92
        0
 62
   257
 93
        1
300
CONTENTFORMAT
  1
CONTENTFORMAT_BEGIN
 90
        0
 91
        0
 92
      512
 93
        0
300

 40
0.0
140
1.0
 94
        5
 62
     0
340
55
144
0.18
309
CONTENTFORMAT_END
171
     0
 94
        0
309
TABLEFORMAT_END
  1
CELLSTYLE_BEGIN
 90
        2
 91
        1
300
_HEADER
309
CELLSTYLE_END
300
CELLSTYLE
  1
TABLEFORMAT_BEGIN
 90
        5
170
     1
 91
        0
 92
        0
 62
   257
 93
        1
300
CONTENTFORMAT
  1
CONTENTFORMAT_BEGIN
 90
        0
 91
        0
 92
      512
 93
        0
300

 40
0.0
140
1.0
 94
        2
 62
     0
340
55
144
0.18
309
CONTENTFORMAT_END
171
     0
 94
        0
309
TABLEFORMAT_END
  1
CELLSTYLE_BEGIN
 90
        3
 91
        2
300
_DATA
309
CELLSTYLE_END
  0
ENDSEC
  0
EOF
