  0
SECTION
  2
HEADER
  9
$ACADVER
  1
AC1014
  9
$ACADMAINTVER
 70
     9
  9
$DWGCODEPAGE
  3
ANSI_1252
  9
$INSBASE
 10
0.0
 20
0.0
 30
0.0
  9
$EXTMIN
 10
1.000000000000000E+20
 20
1.000000000000000E+20
 30
1.000000000000000E+20
  9
$EXTMAX
 10
-1.000000000000000E+20
 20
-1.000000000000000E+20
 30
-1.000000000000000E+20
  9
$LIMMIN
 10
0.0
 20
0.0
  9
$LIMMAX
 10
12.0
 20
9.0
  9
$ORTHOMODE
 70
     0
  9
$REGENMODE
 70
     1
  9
$FILLMODE
 70
     1
  9
$QTEXTMODE
 70
     0
  9
$MIRRTEXT
 70
     1
  9
$DRAGMODE
 70
     2
  9
$LTSCALE
 40
1.0
  9
$OSMODE
 70
    37
  9
$ATTMODE
 70
     1
  9
$TEXTSIZE
 40
0.2
  9
$TRACEWID
 40
0.05
  9
$TEXTSTYLE
  7
STANDARD
  9
$CLAYER
  8
0
  9
$CELTYPE
  6
BYLAYER
  9
$CECOLOR
 62
   256
  9
$CELTSCALE
 40
1.0
  9
$DELOBJ
 70
     1
  9
$DISPSILH
 70
     0
  9
$DIMSCALE
 40
1.0
  9
$DIMASZ
 40
0.18
  9
$DIMEXO
 40
0.0625
  9
$DIMDLI
 40
0.38
  9
$DIMRND
 40
0.0
  9
$DIMDLE
 40
0.0
  9
$DIMEXE
 40
0.18
  9
$DIMTP
 40
0.0
  9
$DIMTM
 40
0.0
  9
$DIMTXT
 40
0.18
  9
$DIMCEN
 40
0.09
  9
$DIMTSZ
 40
0.0
  9
$DIMTOL
 70
     0
  9
$DIMLIM
 70
     0
  9
$DIMTIH
 70
     1
  9
$DIMTOH
 70
     1
  9
$DIMSE1
 70
     0
  9
$DIMSE2
 70
     0
  9
$DIMTAD
 70
     0
  9
$DIMZIN
 70
     0
  9
$DIMBLK
  1

  9
$DIMASO
 70
     1
  9
$DIMSHO
 70
     1
  9
$DIMPOST
  1

  9
$DIMAPOST
  1

  9
$DIMALT
 70
     0
  9
$DIMALTD
 70
     2
  9
$DIMALTF
 40
25.4
  9
$DIMLFAC
 40
1.0
  9
$DIMTOFL
 70
     0
  9
$DIMTVP
 40
0.0
  9
$DIMTIX
 70
     0
  9
$DIMSOXD
 70
     0
  9
$DIMSAH
 70
     0
  9
$DIMBLK1
  1

  9
$DIMBLK2
  1

  9
$DIMSTYLE
  2
STANDARD
  9
$DIMCLRD
 70
     0
  9
$DIMCLRE
 70
     0
  9
$DIMCLRT
 70
     0
  9
$DIMTFAC
 40
1.0
  9
$DIMGAP
 40
0.09
  9
$DIMJUST
 70
     0
  9
$DIMSD1
 70
     0
  9
$DIMSD2
 70
     0
  9
$DIMTOLJ
 70
     1
  9
$DIMTZIN
 70
     0
  9
$DIMALTZ
 70
     0
  9
$DIMALTTZ
 70
     0
  9
$DIMFIT
 70
     3
  9
$DIMUPT
 70
     0
  9
$DIMUNIT
 70
     2
  9
$DIMDEC
 70
     4
  9
$DIMTDEC
 70
     4
  9
$DIMALTU
 70
     2
  9
$DIMALTTD
 70
     2
  9
$DIMTXSTY
  7
STANDARD
  9
$DIMAUNIT
 70
     0
  9
$LUNITS
 70
     2
  9
$LUPREC
 70
     4
  9
$SKETCHINC
 40
0.1
  9
$FILLETRAD
 40
0.5
  9
$AUNITS
 70
     0
  9
$AUPREC
 70
     0
  9
$MENU
  1
.
  9
$ELEVATION
 40
0.0
  9
$PELEVATION
 40
0.0
  9
$THICKNESS
 40
0.0
  9
$LIMCHECK
 70
     0
  9
$CHAMFERA
 40
0.5
  9
$CHAMFERB
 40
0.5
  9
$CHAMFERC
 40
1.0
  9
$CHAMFERD
 40
0.0
  9
$SKPOLY
 70
     0
  9
$TDCREATE
 40
2458383.340615937
  9
$TDUPDATE
 40
2458383.340615949
  9
$TDINDWG
 40
0.0000000116
  9
$TDUSRTIMER
 40
0.0000000116
  9
$USRTIMER
 70
     1
  9
$ANGBASE
 50
0.0
  9
$ANGDIR
 70
     0
  9
$PDMODE
 70
     0
  9
$PDSIZE
 40
0.0
  9
$PLINEWID
 40
0.0
  9
$COORDS
 70
     1
  9
$SPLFRAME
 70
     0
  9
$SPLINETYPE
 70
     6
  9
$SPLINESEGS
 70
     8
  9
$ATTDIA
 70
     0
  9
$ATTREQ
 70
     1
  9
$HANDLING
 70
     1
  9
$HANDSEED
  5
83E
  9
$SURFTAB1
 70
     6
  9
$SURFTAB2
 70
     6
  9
$SURFTYPE
 70
     6
  9
$SURFU
 70
     6
  9
$SURFV
 70
     6
  9
$UCSNAME
  2

  9
$UCSORG
 10
0.0
 20
0.0
 30
0.0
  9
$UCSXDIR
 10
1.0
 20
0.0
 30
0.0
  9
$UCSYDIR
 10
0.0
 20
1.0
 30
0.0
  9
$PUCSNAME
  2

  9
$PUCSORG
 10
0.0
 20
0.0
 30
0.0
  9
$PUCSXDIR
 10
1.0
 20
0.0
 30
0.0
  9
$PUCSYDIR
 10
0.0
 20
1.0
 30
0.0
  9
$USERI1
 70
     0
  9
$USERI2
 70
     0
  9
$USERI3
 70
     0
  9
$USERI4
 70
     0
  9
$USERI5
 70
     0
  9
$USERR1
 40
0.0
  9
$USERR2
 40
0.0
  9
$USERR3
 40
0.0
  9
$USERR4
 40
0.0
  9
$USERR5
 40
0.0
  9
$WORLDVIEW
 70
     1
  9
$SHADEDGE
 70
     3
  9
$SHADEDIF
 70
    70
  9
$TILEMODE
 70
     1
  9
$MAXACTVP
 70
    64
  9
$PINSBASE
 10
0.0
 20
0.0
 30
0.0
  9
$PLIMCHECK
 70
     0
  9
$PEXTMIN
 10
1.000000000000000E+20
 20
1.000000000000000E+20
 30
1.000000000000000E+20
  9
$PEXTMAX
 10
-1.000000000000000E+20
 20
-1.000000000000000E+20
 30
-1.000000000000000E+20
  9
$PLIMMIN
 10
0.0
 20
0.0
  9
$PLIMMAX
 10
12.0
 20
9.0
  9
$UNITMODE
 70
     0
  9
$VISRETAIN
 70
     1
  9
$PLINEGEN
 70
     0
  9
$PSLTSCALE
 70
     1
  9
$TREEDEPTH
 70
  3020
  9
$PICKSTYLE
 70
     1
  9
$CMLSTYLE
  2
STANDARD
  9
$CMLJUST
 70
     0
  9
$CMLSCALE
 40
1.0
  9
$PROXYGRAPHICS
 70
     1
  9
$MEASUREMENT
 70
     0
  0
ENDSEC
  0
SECTION
  2
CLASSES
  0
CLASS
  1
ACDBDICTIONARYWDFLT
  2
AcDbDictionaryWithDefault
  3
ObjectDBX Classes
 90
        0
280
     0
281
     0
  0
CLASS
  1
VISUALSTYLE
  2
AcDbVisualStyle
  3
ObjectDBX Classes
 90
     4095
280
     0
281
     0
  0
CLASS
  1
XRECORD
  2
AcDbXrecord
  3
AutoCAD 2000
 90
        0
280
     0
281
     0
  0
CLASS
  1
LWPOLYLINE
  2
AcDbPolyline
  3
AutoCAD 2000
 90
        0
280
     0
281
     1
  0
CLASS
  1
HATCH
  2
AcDbHatch
  3
AutoCAD 2000
 90
        0
280
     0
281
     1
  0
CLASS
  1
ACDBPLACEHOLDER
  2
AcDbPlaceHolder
  3
ObjectDBX Classes
 90
        0
280
     0
281
     0
  0
CLASS
  1
LAYOUT
  2
AcDbLayout
  3
ObjectDBX Classes
 90
        0
280
     0
281
     0
  0
ENDSEC
  0
SECTION
  2
TABLES
  0
TABLE
  2
VPORT
  5
8
330
0
100
AcDbSymbolTable
 70
     1
  0
VPORT
  5
29
330
8
100
AcDbSymbolTableRecord
100
AcDbViewportTableRecord
  2
*ACTIVE
 70
     0
 10
0.0
 20
0.0
 11
1.0
 21
1.0
 12
0.0
 22
0.0
 13
0.0
 23
0.0
 14
0.5
 24
0.5
 15
0.5
 25
0.5
 16
0.0
 26
0.0
 36
1.0
 17
100.0619370952102
 27
127.0193786303545
 37
0.0
 40
297.0001314904201
 41
0.7070759562020681
 42
50.0
 43
0.0
 44
0.0
 50
0.0
 51
0.0
 71
     0
 72
   100
 73
     1
 74
     3
 75
     0
 76
     0
 77
     0
 78
     0
  0
ENDTAB
  0
TABLE
  2
LTYPE
  5
5
330
0
100
AcDbSymbolTable
 70
     3
  0
LTYPE
  5
14
330
5
100
AcDbSymbolTableRecord
100
AcDbLinetypeTableRecord
  2
BYBLOCK
 70
     0
  3

 72
    65
 73
     0
 40
0.0
  0
LTYPE
  5
15
330
5
100
AcDbSymbolTableRecord
100
AcDbLinetypeTableRecord
  2
BYLAYER
 70
     0
  3

 72
    65
 73
     0
 40
0.0
  0
LTYPE
  5
16
330
5
100
AcDbSymbolTableRecord
100
AcDbLinetypeTableRecord
  2
CONTINUOUS
 70
     0
  3
Solid line
 72
    65
 73
     0
 40
0.0
  0
LTYPE
  5
40
330
5
100
AcDbSymbolTableRecord
100
AcDbLinetypeTableRecord
  2
AI-LINETYPE-1
 70
     0
  3
Adobe Illustrator Linetype No. 1
 72
    65
 73
     4
 40
8.819444442239584
 49
7.055555553791667
 74
     0
 49
-0.7055555553791667
 74
     0
 49
0.3527777776895833
 74
     0
 49
-0.7055555553791667
 74
     0
  0
LTYPE
  5
3CC
330
5
100
AcDbSymbolTableRecord
100
AcDbLinetypeTableRecord
  2
AI-LINETYPE-2
 70
     0
  3
Adobe Illustrator Linetype No. 2
 72
    65
 73
     4
 40
8.819444442239584
 49
7.055555553791667
 74
     0
 49
-0.7055555553791667
 74
     0
 49
0.3527777776895833
 74
     0
 49
-0.7055555553791667
 74
     0
  0
ENDTAB
  0
TABLE
  2
LAYER
  5
2
330
0
100
AcDbSymbolTable
 70
     5
  0
LAYER
  5
10
330
2
100
AcDbSymbolTableRecord
100
AcDbLayerTableRecord
  2
0
 70
     0
 62
     7
  6
CONTINUOUS
  0
LAYER
  5
3B
330
2
100
AcDbSymbolTableRecord
100
AcDbLayerTableRecord
  2
GRAU_10_
 70
     0
 62
     7
  6
CONTINUOUS
  0
LAYER
  5
3BF
330
2
100
AcDbSymbolTableRecord
100
AcDbLayerTableRecord
  2
STANDARDEBENE
 70
     0
 62
     7
  6
CONTINUOUS
  0
LAYER
  5
438
330
2
100
AcDbSymbolTableRecord
100
AcDbLayerTableRecord
  2
BEMAßUNG
 70
     1
 62
     7
  6
CONTINUOUS
  0
LAYER
  5
817
330
2
100
AcDbSymbolTableRecord
100
AcDbLayerTableRecord
  2
TEXT
 70
     1
 62
     7
  6
CONTINUOUS
  0
ENDTAB
  0
TABLE
  2
STYLE
  5
3
330
0
100
AcDbSymbolTable
 70
     1
  0
STYLE
  5
11
330
3
100
AcDbSymbolTableRecord
100
AcDbTextStyleTableRecord
  2
STANDARD
 70
     0
 40
0.0
 41
1.0
 50
0.0
 71
     0
 42
0.2
  3
txt
  4

  0
ENDTAB
  0
TABLE
  2
VIEW
  5
6
330
0
100
AcDbSymbolTable
 70
     0
  0
ENDTAB
  0
TABLE
  2
UCS
  5
7
330
0
100
AcDbSymbolTable
 70
     0
  0
ENDTAB
  0
TABLE
  2
APPID
  5
9
330
0
100
AcDbSymbolTable
 70
     1
  0
APPID
  5
12
330
9
100
AcDbSymbolTableRecord
100
AcDbRegAppTableRecord
  2
ACAD
 70
     0
  0
ENDTAB
  0
TABLE
  2
DIMSTYLE
  5
A
330
0
100
AcDbSymbolTable
 70
     1
  0
DIMSTYLE
105
27
330
A
100
AcDbSymbolTableRecord
100
AcDbDimStyleTableRecord
  2
STANDARD
 70
     0
  3

  4

  5

  6

  7

 40
1.0
 41
0.18
 42
0.0625
 43
0.38
 44
0.18
 45
0.0
 46
0.0
 47
0.0
 48
0.0
140
0.18
141
0.09
142
0.0
143
25.4
144
1.0
145
0.0
146
1.0
147
0.09
 71
     0
 72
     0
 73
     1
 74
     1
 75
     0
 76
     0
 77
     0
 78
     0
170
     0
171
     2
172
     0
173
     0
174
     0
175
     0
176
     0
177
     0
178
     0
270
     2
271
     4
272
     4
273
     2
274
     2
340
11
275
     0
280
     0
281
     0
282
     0
283
     1
284
     0
285
     0
286
     0
287
     3
288
     0
  0
ENDTAB
  0
TABLE
  2
BLOCK_RECORD
  5
1
330
0
100
AcDbSymbolTable
 70
     1
  0
BLOCK_RECORD
  5
1F
330
1
100
AcDbSymbolTableRecord
100
AcDbBlockTableRecord
  2
*MODEL_SPACE
  0
BLOCK_RECORD
  5
1B
330
1
100
AcDbSymbolTableRecord
100
AcDbBlockTableRecord
  2
*PAPER_SPACE
  0
ENDTAB
  0
ENDSEC
  0
SECTION
  2
BLOCKS
  0
BLOCK
  5
20
330
1F
100
AcDbEntity
  8
0
100
AcDbBlockBegin
  2
*MODEL_SPACE
 70
     0
 71
     0
 10
0.0
 20
0.0
 30
0.0
  3
*MODEL_SPACE
  1

  0
ENDBLK
  5
21
330
1F
100
AcDbEntity
  8
0
100
AcDbBlockEnd
  0
BLOCK
  5
1C
330
1B
100
AcDbEntity
 67
     1
  8
0
100
AcDbBlockBegin
  2
*PAPER_SPACE
 70
     0
 71
     0
 10
0.0
 20
0.0
 30
0.0
  3
*PAPER_SPACE
  1

  0
ENDBLK
  5
1D
330
1B
100
AcDbEntity
 67
     1
  8
0
100
AcDbBlockEnd
  0
ENDSEC
  0
SECTION
  2
ENTITIES
  0
POLYLINE
  5
3C
330
1F
100
AcDbEntity
  8
GRAU_10_
  6
AI-LINETYPE-1
 62
   250
100
AcDb2dPolyline
 66
     1
 10
0.0
 20
0.0
 30
0.0
  0
VERTEX
  5
3D
330
3C
100
AcDbEntity
  8
GRAU_10_
  6
AI-LINETYPE-1
 62
   250
100
AcDbVertex
100
AcDb2dVertex
 10
147.4762694943809
 20
208.5233614930081
 30
0.0
  0
VERTEX
  5
3E
330
3C
100
AcDbEntity
  8
GRAU_10_
  6
AI-LINETYPE-1
 62
   250
100
AcDbVertex
100
AcDb2dVertex
 10
147.4762694943809
 20
199.2736246246608
 30
0.0
  0
SEQEND
  5
3F
330
3C
100
AcDbEntity
  8
GRAU_10_
  6
AI-LINETYPE-1
  0
POLYLINE
  5
41
330
1F
100
AcDbEntity
  8
GRAU_10_
 62
     7
100
AcDb2dPolyline
 66
     1
 10
0.0
 20
0.0
 30
0.0
  0
VERTEX
  5
42
330
41
100
AcDbEntity
  8
GRAU_10_
 62
     7
100
AcDbVertex
100
AcDb2dVertex
 10
31.10266655038406
 20
199.7233818402601
 30
0.0
  0
VERTEX
  5
43
330
41
100
AcDbEntity
  8
GRAU_10_
 62
     7
100
AcDbVertex
100
AcDb2dVertex
 10
30.64050699103779
 20
200.5235052667094
 30
0.0
  0
SEQEND
  5
44
330
41
100
AcDbEntity
  8
GRAU_10_
  0
POLYLINE
  5
45
330
1F
100
AcDbEntity
  8
GRAU_10_
 62
     7
100
AcDb2dPolyline
 66
     1
 10
0.0
 20
0.0
 30
0.0
  0
VERTEX
  5
46
330
45
100
AcDbEntity
  8
GRAU_10_
 62
     7
100
AcDbVertex
100
AcDb2dVertex
 10
32.17891437997611
 20
200.5235052667094
 30
0.0
  0
VERTEX
  5
47
330
45
100
AcDbEntity
  8
GRAU_10_
 62
     7
100
AcDbVertex
100
AcDb2dVertex
 10
30.64050699103779
 20
200.5235052667094
 30
0.0
  0
SEQEND
  5
48
330
45
100
AcDbEntity
  8
GRAU_10_
  0
POLYLINE
  5
49
330
1F
100
AcDbEntity
  8
GRAU_10_
 62
     7
100
AcDb2dPolyline
 66
     1
 10
0.0
 20
0.0
 30
0.0
  0
VERTEX
  5
4A
330
49
100
AcDbEntity
  8
GRAU_10_
 62
     7
100
AcDbVertex
100
AcDb2dVertex
 10
31.71761609450115
 20
199.7233818402601
 30
0.0
  0
VERTEX
  5
4B
330
49
100
AcDbEntity
  8
GRAU_10_
 62
     7
100
AcDbVertex
100
AcDb2dVertex
 10
31.10266655038406
 20
199.7233818402601
 30
0.0
  0
SEQEND
  5
4C
330
49
100
AcDbEntity
  8
GRAU_10_
  0
POLYLINE
  5
4D
330
1F
100
AcDbEntity
  8
GRAU_10_
 62
     7
100
AcDb2dPolyline
 66
     1
 10
0.0
 20
0.0
 30
0.0
  0
VERTEX
  5
4E
330
4D
100
AcDbEntity
  8
GRAU_10_
 62
     7
100
AcDbVertex
100
AcDb2dVertex
 10
31.71761609450115
 20
199.7233818402601
 30
0.0
  0
VERTEX
  5
4F
330
4D
100
AcDbEntity
  8
GRAU_10_
 62
     7
100
AcDbVertex
100
AcDb2dVertex
 10
32.17891437997611
 20
200.5235052667094
 30
0.0
  0
SEQEND
  5
50
330
4D
100
AcDbEntity
  8
GRAU_10_
  0
POLYLINE
  5
51
330
1F
100
AcDbEntity
  8
GRAU_10_
 62
     7
100
AcDb2dPolyline
 66
     1
 10
0.0
 20
0.0
 30
0.0
  0
VERTEX
  5
52
330
51
100
AcDbEntity
  8
GRAU_10_
 62
     7
100
AcDbVertex
100
AcDb2dVertex
 10
44.67892658388235
 20
200.5235052667094
 30
0.0
  0
VERTEX
  5
53
330
51
100
AcDbEntity
  8
GRAU_10_
 62
     7
100
AcDbVertex
100
AcDb2dVertex
 10
44.21745604363313
 20
199.7233818402601
 30
0.0
  0
VERTEX
  5
54
330
51
100
AcDbEntity
  8
GRAU_10_
 62
     7
100
AcDbVertex
100
AcDb2dVertex
 10
43.82833250857417
 20
199.7233818402601
 30
0.0
  0
VERTEX
  5
55
330
51
100
AcDbEntity
  8
GRAU_10_
 62
     7
100
AcDbVertex
100
AcDb2dVertex
 10
44.15957843948094
 20
200.5235052667094
 30
0.0
  0
SEQEND
  5
56
330
51
100
AcDbEntity
  8
GRAU_10_
  0
POLYLINE
  5
57
330
1F
100
AcDbEntity
  8
GRAU_10_
 62
     7
100
AcDb2dPolyline
 66
     1
 10
0.0
 20
0.0
 30
0.0
  0
VERTEX
  5
58
330
57
100
AcDbEntity
  8
GRAU_10_
 62
     7
100
AcDbVertex
100
AcDb2dVertex
 10
44.67892658388235
 20
200.5235052667094
 30
0.0
  0
VERTEX
  5
59
330
57
100
AcDbEntity
  8
GRAU_10_
 62
     7
100
AcDbVertex
100
AcDb2dVertex
 10
44.15957843948094
 20
200.5235052667094
 30
0.0
  0
SEQEND
  5
5A
330
57
100
AcDbEntity
  8
GRAU_10_
  0
POLYLINE
  5
5B
330
1F
100
AcDbEntity
  8
GRAU_10_
 62
     7
100
AcDb2dPolyline
 66
     1
 10
0.0
 20
0.0
 30
0.0
  0
VERTEX
  5
5C
330
5B
100
AcDbEntity
  8
GRAU_10_
 62
     7
100
AcDbVertex
100
AcDb2dVertex
 10
44.15957843948094
 20
208.2732475607789
 30
0.0
  0
VERTEX
  5
5D
330
5B
100
AcDbEntity
  8
GRAU_10_
 62
     7
100
AcDbVertex
100
AcDb2dVertex
 10
54.3072794460586
 20
218.4202595482595
 30
0.0
  0
SEQEND
  5
5E
330
5B
100
AcDbEntity
  8
GRAU_10_
  0
POLYLINE
  5
5F
330
1F
100
AcDbEntity
  8
GRAU_10_
 62
     7
100
AcDb2dPolyline
 66
     1
 10
0.0
 20
0.0
 30
0.0
  0
VERTEX
  5
60
330
5F
100
AcDbEntity
  8
GRAU_10_
 62
     7
100
AcDbVertex
100
AcDb2dVertex
 10
44.15957843948094
 20
208.2732475607789
 30
0.0
  0
VERTEX
  5
61
330
5F
100
AcDbEntity
  8
GRAU_10_
 62
     7
100
AcDbVertex
100
AcDb2dVertex
 10
30.36007621853846
 20
208.2732475607789
 30
0.0
  0
VERTEX
  5
62
330
5F
100
AcDbEntity
  8
GRAU_10_
 62
     7
100
AcDbVertex
100
AcDb2dVertex
 10
30.36007621853846
 20
221.2731431195949
 30
0.0
  0
SEQEND
  5
63
330
5F
100
AcDbEntity
  8
GRAU_10_
  0
POLYLINE
  5
64
330
1F
100
AcDbEntity
  8
GRAU_10_
 62
     7
100
AcDb2dPolyline
 66
     1
 10
0.0
 20
0.0
 30
0.0
  0
VERTEX
  5
65
330
64
100
AcDbEntity
  8
GRAU_10_
 62
     7
100
AcDbVertex
100
AcDb2dVertex
 10
52.66017929456065
 20
221.2731431195949
 30
0.0
  0
VERTEX
  5
66
330
64
100
AcDbEntity
  8
GRAU_10_
 62
     7
100
AcDbVertex
100
AcDb2dVertex
 10
30.36007621853846
 20
221.2731431195949
 30
0.0
  0
SEQEND
  5
67
330
64
100
AcDbEntity
  8
GRAU_10_
  0
POLYLINE
  5
68
330
1F
100
AcDbEntity
  8
GRAU_10_
 62
     7
100
AcDb2dPolyline
 66
     1
 10
0.0
 20
0.0
 30
0.0
  0
VERTEX
  5
69
330
68
100
AcDbEntity
  8
GRAU_10_
 62
     7
100
AcDbVertex
100
AcDb2dVertex
 10
52.66017929456065
 20
221.2731431195949
 30
0.0
  0
VERTEX
  5
6A
330
68
100
AcDbEntity
  8
GRAU_10_
 62
     7
100
AcDbVertex
100
AcDb2dVertex
 10
54.3072794460586
 20
218.4202595482595
 30
0.0
  0
SEQEND
  5
6B
330
68
100
AcDbEntity
  8
GRAU_10_
  0
POLYLINE
  5
6C
330
1F
100
AcDbEntity
  8
GRAU_10_
 62
     7
100
AcDb2dPolyline
 66
     1
 10
0.0
 20
0.0
 30
0.0
  0
VERTEX
  5
6D
330
6C
100
AcDbEntity
  8
GRAU_10_
 62
     7
100
AcDbVertex
100
AcDb2dVertex
 10
30.36007621853846
 20
201.0096082396782
 30
0.0
  0
VERTEX
  5
6E
330
6C
100
AcDbEntity
  8
GRAU_10_
 62
     7
100
AcDbVertex
100
AcDb2dVertex
 10
30.64050699103779
 20
200.5235052667094
 30
0.0
  0
SEQEND
  5
6F
330
6C
100
AcDbEntity
  8
GRAU_10_
  0
POLYLINE
  5
70
330
1F
100
AcDbEntity
  8
GRAU_10_
 62
     7
100
AcDb2dPolyline
 66
     1
 10
0.0
 20
0.0
 30
0.0
  0
VERTEX
  5
71
330
70
100
AcDbEntity
  8
GRAU_10_
 62
     7
100
AcDbVertex
100
AcDb2dVertex
 10
30.36007621853846
 20
201.0096082396782
 30
0.0
  0
VERTEX
  5
72
330
70
100
AcDbEntity
  8
GRAU_10_
 62
     7
100
AcDbVertex
100
AcDb2dVertex
 10
30.36007621853846
 20
208.2732475607789
 30
0.0
  0
SEQEND
  5
73
330
70
100
AcDbEntity
  8
GRAU_10_
  0
POLYLINE
  5
74
330
1F
100
AcDbEntity
  8
GRAU_10_
 62
     7
100
AcDb2dPolyline
 66
     1
 10
0.0
 20
0.0
 30
0.0
  0
VERTEX
  5
75
330
74
100
AcDbEntity
  8
GRAU_10_
 62
     7
100
AcDbVertex
100
AcDb2dVertex
 10
44.15957843948094
 20
200.5235052667094
 30
0.0
  0
VERTEX
  5
76
330
74
100
AcDbEntity
  8
GRAU_10_
 62
     7
100
AcDbVertex
100
AcDb2dVertex
 10
44.15957843948094
 20
208.2732475607789
 30
0.0
  0
SEQEND
  5
77
330
74
100
AcDbEntity
  8
GRAU_10_
  0
POLYLINE
  5
78
330
1F
100
AcDbEntity
  8
GRAU_10_
 62
     7
100
AcDb2dPolyline
 66
     1
 10
0.0
 20
0.0
 30
0.0
  0
VERTEX
  5
79
330
78
100
AcDbEntity
  8
GRAU_10_
 62
     7
100
AcDbVertex
100
AcDb2dVertex
 10
44.15957843948094
 20
200.5235052667094
 30
0.0
  0
VERTEX
  5
7A
330
78
100
AcDbEntity
  8
GRAU_10_
 62
     7
100
AcDbVertex
100
AcDb2dVertex
 10
43.14051919494404
 20
200.5235052667094
 30
0.0
  0
SEQEND
  5
7B
330
78
100
AcDbEntity
  8
GRAU_10_
  0
POLYLINE
  5
7C
330
1F
100
AcDbEntity
  8
GRAU_10_
 62
     7
100
AcDb2dPolyline
 66
     1
 10
0.0
 20
0.0
 30
0.0
  0
VERTEX
  5
7D
330
7C
100
AcDbEntity
  8
GRAU_10_
 62
     7
100
AcDbVertex
100
AcDb2dVertex
 10
42.1795098093336
 20
200.5235052667094
 30
0.0
  0
VERTEX
  5
7E
330
7C
100
AcDbEntity
  8
GRAU_10_
 62
     7
100
AcDbVertex
100
AcDb2dVertex
 10
42.48681232661788
 20
201.056117028729
 30
0.0
  0
SEQEND
  5
7F
330
7C
100
AcDbEntity
  8
GRAU_10_
  0
POLYLINE
  5
80
330
1F
100
AcDbEntity
  8
GRAU_10_
 62
     7
100
AcDb2dPolyline
 66
     1
 10
0.0
 20
0.0
 30
0.0
  0
VERTEX
  5
81
330
80
100
AcDbEntity
  8
GRAU_10_
 62
     7
100
AcDbVertex
100
AcDb2dVertex
 10
42.1795098093336
 20
200.5235052667094
 30
0.0
  0
VERTEX
  5
82
330
80
100
AcDbEntity
  8
GRAU_10_
 62
     7
100
AcDbVertex
100
AcDb2dVertex
 10
40.64041340129823
 20
200.5235052667094
 30
0.0
  0
SEQEND
  5
83
330
80
100
AcDbEntity
  8
GRAU_10_
  0
POLYLINE
  5
84
330
1F
100
AcDbEntity
  8
GRAU_10_
 62
     7
100
AcDb2dPolyline
 66
     1
 10
0.0
 20
0.0
 30
0.0
  0
VERTEX
  5
85
330
84
100
AcDbEntity
  8
GRAU_10_
 62
     7
100
AcDbVertex
100
AcDb2dVertex
 10
40.33276637446542
 20
201.056117028729
 30
0.0
  0
VERTEX
  5
86
330
84
100
AcDbEntity
  8
GRAU_10_
 62
     7
100
AcDbVertex
100
AcDb2dVertex
 10
40.64041340129823
 20
200.5235052667094
 30
0.0
  0
SEQEND
  5
87
330
84
100
AcDbEntity
  8
GRAU_10_
  0
POLYLINE
  5
88
330
1F
100
AcDbEntity
  8
GRAU_10_
 62
     7
100
AcDb2dPolyline
 66
     1
 10
0.0
 20
0.0
 30
0.0
  0
VERTEX
  5
89
330
88
100
AcDbEntity
  8
GRAU_10_
 62
     7
100
AcDbVertex
100
AcDb2dVertex
 10
39.67905950613927
 20
200.5235052667094
 30
0.0
  0
VERTEX
  5
8A
330
88
100
AcDbEntity
  8
GRAU_10_
 62
     7
100
AcDbVertex
100
AcDb2dVertex
 10
39.98670653297207
 20
201.056117028729
 30
0.0
  0
SEQEND
  5
8B
330
88
100
AcDbEntity
  8
GRAU_10_
  0
POLYLINE
  5
8C
330
1F
100
AcDbEntity
  8
GRAU_10_
 62
     7
100
AcDb2dPolyline
 66
     1
 10
0.0
 20
0.0
 30
0.0
  0
VERTEX
  5
8D
330
8C
100
AcDbEntity
  8
GRAU_10_
 62
     7
100
AcDbVertex
100
AcDb2dVertex
 10
39.67905950613927
 20
200.5235052667094
 30
0.0
  0
VERTEX
  5
8E
330
8C
100
AcDbEntity
  8
GRAU_10_
 62
     7
100
AcDbVertex
100
AcDb2dVertex
 10
38.14065211720095
 20
200.5235052667094
 30
0.0
  0
SEQEND
  5
8F
330
8C
100
AcDbEntity
  8
GRAU_10_
  0
POLYLINE
  5
90
330
1F
100
AcDbEntity
  8
GRAU_10_
 62
     7
100
AcDb2dPolyline
 66
     1
 10
0.0
 20
0.0
 30
0.0
  0
VERTEX
  5
91
330
90
100
AcDbEntity
  8
GRAU_10_
 62
     7
100
AcDbVertex
100
AcDb2dVertex
 10
37.83334959991667
 20
201.056117028729
 30
0.0
  0
VERTEX
  5
92
330
90
100
AcDbEntity
  8
GRAU_10_
 62
     7
100
AcDbVertex
100
AcDb2dVertex
 10
38.14065211720095
 20
200.5235052667094
 30
0.0
  0
SEQEND
  5
93
330
90
100
AcDbEntity
  8
GRAU_10_
  0
POLYLINE
  5
94
330
1F
100
AcDbEntity
  8
GRAU_10_
 62
     7
100
AcDb2dPolyline
 66
     1
 10
0.0
 20
0.0
 30
0.0
  0
VERTEX
  5
95
330
94
100
AcDbEntity
  8
GRAU_10_
 62
     7
100
AcDbVertex
100
AcDb2dVertex
 10
37.17895371249346
 20
200.5235052667094
 30
0.0
  0
VERTEX
  5
96
330
94
100
AcDbEntity
  8
GRAU_10_
 62
     7
100
AcDbVertex
100
AcDb2dVertex
 10
35.64037406878088
 20
200.5235052667094
 30
0.0
  0
SEQEND
  5
97
330
94
100
AcDbEntity
  8
GRAU_10_
  0
POLYLINE
  5
98
330
1F
100
AcDbEntity
  8
GRAU_10_
 62
     7
100
AcDb2dPolyline
 66
     1
 10
0.0
 20
0.0
 30
0.0
  0
VERTEX
  5
99
330
98
100
AcDbEntity
  8
GRAU_10_
 62
     7
100
AcDbVertex
100
AcDb2dVertex
 10
35.33289929672233
 20
201.056117028729
 30
0.0
  0
VERTEX
  5
9A
330
98
100
AcDbEntity
  8
GRAU_10_
 62
     7
100
AcDbVertex
100
AcDb2dVertex
 10
35.64037406878088
 20
200.5235052667094
 30
0.0
  0
SEQEND
  5
9B
330
98
100
AcDbEntity
  8
GRAU_10_
  0
POLYLINE
  5
9C
330
1F
100
AcDbEntity
  8
GRAU_10_
 62
     7
100
AcDb2dPolyline
 66
     1
 10
0.0
 20
0.0
 30
0.0
  0
VERTEX
  5
9D
330
9C
100
AcDbEntity
  8
GRAU_10_
 62
     7
100
AcDbVertex
100
AcDb2dVertex
 10
34.67919242839618
 20
200.5235052667094
 30
0.0
  0
VERTEX
  5
9E
330
9C
100
AcDbEntity
  8
GRAU_10_
 62
     7
100
AcDbVertex
100
AcDb2dVertex
 10
33.1406127846836
 20
200.5235052667094
 30
0.0
  0
SEQEND
  5
9F
330
9C
100
AcDbEntity
  8
GRAU_10_
  0
POLYLINE
  5
A0
330
1F
100
AcDbEntity
  8
GRAU_10_
 62
     7
100
AcDb2dPolyline
 66
     1
 10
0.0
 20
0.0
 30
0.0
  0
VERTEX
  5
A1
330
A0
100
AcDbEntity
  8
GRAU_10_
 62
     7
100
AcDbVertex
100
AcDb2dVertex
 10
32.83331026739931
 20
201.056117028729
 30
0.0
  0
VERTEX
  5
A2
330
A0
100
AcDbEntity
  8
GRAU_10_
 62
     7
100
AcDbVertex
100
AcDb2dVertex
 10
33.1406127846836
 20
200.5235052667094
 30
0.0
  0
SEQEND
  5
A3
330
A0
100
AcDbEntity
  8
GRAU_10_
  0
POLYLINE
  5
A4
330
1F
100
AcDbEntity
  8
GRAU_10_
 62
     7
100
AcDb2dPolyline
 66
     1
 10
0.0
 20
0.0
 30
0.0
  0
VERTEX
  5
A5
330
A4
100
AcDbEntity
  8
GRAU_10_
 62
     7
100
AcDbVertex
100
AcDb2dVertex
 10
37.17895371249346
 20
200.5235052667094
 30
0.0
  0
VERTEX
  5
A6
330
A4
100
AcDbEntity
  8
GRAU_10_
 62
     7
100
AcDbVertex
100
AcDb2dVertex
 10
37.48694524887479
 20
201.056117028729
 30
0.0
  0
SEQEND
  5
A7
330
A4
100
AcDbEntity
  8
GRAU_10_
  0
POLYLINE
  5
A8
330
1F
100
AcDbEntity
  8
GRAU_10_
 62
     7
100
AcDb2dPolyline
 66
     1
 10
0.0
 20
0.0
 30
0.0
  0
VERTEX
  5
A9
330
A8
100
AcDbEntity
  8
GRAU_10_
 62
     7
100
AcDbVertex
100
AcDb2dVertex
 10
42.83287216811123
 20
201.056117028729
 30
0.0
  0
VERTEX
  5
AA
330
A8
100
AcDbEntity
  8
GRAU_10_
 62
     7
100
AcDbVertex
100
AcDb2dVertex
 10
43.14051919494404
 20
200.5235052667094
 30
0.0
  0
SEQEND
  5
AB
330
A8
100
AcDbEntity
  8
GRAU_10_
  0
POLYLINE
  5
AC
330
1F
100
AcDbEntity
  8
GRAU_10_
 62
     7
100
AcDb2dPolyline
 66
     1
 10
0.0
 20
0.0
 30
0.0
  0
VERTEX
  5
AD
330
AC
100
AcDbEntity
  8
GRAU_10_
 62
     7
100
AcDbVertex
100
AcDb2dVertex
 10
32.17891437997611
 20
200.5235052667094
 30
0.0
  0
VERTEX
  5
AE
330
AC
100
AcDbEntity
  8
GRAU_10_
 62
     7
100
AcDbVertex
100
AcDb2dVertex
 10
32.48656140680892
 20
201.056117028729
 30
0.0
  0
SEQEND
  5
AF
330
AC
100
AcDbEntity
  8
GRAU_10_
  0
POLYLINE
  5
B0
330
1F
100
AcDbEntity
  8
GRAU_10_
 62
     7
100
AcDb2dPolyline
 66
     1
 10
0.0
 20
0.0
 30
0.0
  0
VERTEX
  5
B1
330
B0
100
AcDbEntity
  8
GRAU_10_
 62
     7
100
AcDbVertex
100
AcDb2dVertex
 10
34.67919242839618
 20
200.5235052667094
 30
0.0
  0
VERTEX
  5
B2
330
B0
100
AcDbEntity
  8
GRAU_10_
 62
     7
100
AcDbVertex
100
AcDb2dVertex
 10
34.98666720045473
 20
201.056117028729
 30
0.0
  0
SEQEND
  5
B3
330
B0
100
AcDbEntity
  8
GRAU_10_
  0
POLYLINE
  5
B4
330
1F
100
AcDbEntity
  8
GRAU_10_
 62
     7
100
AcDb2dPolyline
 66
     1
 10
0.0
 20
0.0
 30
0.0
  0
VERTEX
  5
B5
330
B4
100
AcDbEntity
  8
GRAU_10_
 62
     7
100
AcDbVertex
100
AcDb2dVertex
 10
43.82833250857417
 20
199.7233818402601
 30
0.0
  0
VERTEX
  5
B6
330
B4
100
AcDbEntity
  8
GRAU_10_
 62
     7
100
AcDbVertex
100
AcDb2dVertex
 10
43.6026787542903
 20
199.7233818402601
 30
0.0
  0
SEQEND
  5
B7
330
B4
100
AcDbEntity
  8
GRAU_10_
  0
POLYLINE
  5
B8
330
1F
100
AcDbEntity
  8
GRAU_10_
 62
     7
100
AcDb2dPolyline
 66
     1
 10
0.0
 20
0.0
 30
0.0
  0
VERTEX
  5
B9
330
B8
100
AcDbEntity
  8
GRAU_10_
 62
     7
100
AcDbVertex
100
AcDb2dVertex
 10
43.14051919494404
 20
200.5235052667094
 30
0.0
  0
VERTEX
  5
BA
330
B8
100
AcDbEntity
  8
GRAU_10_
 62
     7
100
AcDbVertex
100
AcDb2dVertex
 10
43.6026787542903
 20
199.7233818402601
 30
0.0
  0
SEQEND
  5
BB
330
B8
100
AcDbEntity
  8
GRAU_10_
  0
POLYLINE
  5
BC
330
1F
100
AcDbEntity
  8
GRAU_10_
 62
     7
100
AcDb2dPolyline
 66
     1
 10
0.0
 20
0.0
 30
0.0
  0
VERTEX
  5
BD
330
BC
100
AcDbEntity
  8
GRAU_10_
 62
     7
100
AcDbVertex
100
AcDb2dVertex
 10
39.67905950613927
 20
200.5235052667094
 30
0.0
  0
VERTEX
  5
BE
330
BC
100
AcDbEntity
  8
GRAU_10_
 62
     7
100
AcDbVertex
100
AcDb2dVertex
 10
39.21758896589005
 20
199.7233818402601
 30
0.0
  0
VERTEX
  5
BF
330
BC
100
AcDbEntity
  8
GRAU_10_
 62
     7
100
AcDbVertex
100
AcDb2dVertex
 10
38.60263942177296
 20
199.7233818402601
 30
0.0
  0
SEQEND
  5
C0
330
BC
100
AcDbEntity
  8
GRAU_10_
  0
POLYLINE
  5
C1
330
1F
100
AcDbEntity
  8
GRAU_10_
 62
     7
100
AcDb2dPolyline
 66
     1
 10
0.0
 20
0.0
 30
0.0
  0
VERTEX
  5
C2
330
C1
100
AcDbEntity
  8
GRAU_10_
 62
     7
100
AcDbVertex
100
AcDb2dVertex
 10
38.14065211720095
 20
200.5235052667094
 30
0.0
  0
VERTEX
  5
C3
330
C1
100
AcDbEntity
  8
GRAU_10_
 62
     7
100
AcDbVertex
100
AcDb2dVertex
 10
38.60263942177296
 20
199.7233818402601
 30
0.0
  0
SEQEND
  5
C4
330
C1
100
AcDbEntity
  8
GRAU_10_
  0
POLYLINE
  5
C5
330
1F
100
AcDbEntity
  8
GRAU_10_
 62
     7
100
AcDb2dPolyline
 66
     1
 10
0.0
 20
0.0
 30
0.0
  0
VERTEX
  5
C6
330
C5
100
AcDbEntity
  8
GRAU_10_
 62
     7
100
AcDbVertex
100
AcDb2dVertex
 10
35.64037406878088
 20
200.5235052667094
 30
0.0
  0
VERTEX
  5
C7
330
C5
100
AcDbEntity
  8
GRAU_10_
 62
     7
100
AcDbVertex
100
AcDb2dVertex
 10
36.10253362812715
 20
199.7233818402601
 30
0.0
  0
SEQEND
  5
C8
330
C5
100
AcDbEntity
  8
GRAU_10_
  0
POLYLINE
  5
C9
330
1F
100
AcDbEntity
  8
GRAU_10_
 62
     7
100
AcDb2dPolyline
 66
     1
 10
0.0
 20
0.0
 30
0.0
  0
VERTEX
  5
CA
330
C9
100
AcDbEntity
  8
GRAU_10_
 62
     7
100
AcDbVertex
100
AcDb2dVertex
 10
36.71748317224424
 20
199.7233818402601
 30
0.0
  0
VERTEX
  5
CB
330
C9
100
AcDbEntity
  8
GRAU_10_
 62
     7
100
AcDbVertex
100
AcDb2dVertex
 10
36.10253362812715
 20
199.7233818402601
 30
0.0
  0
SEQEND
  5
CC
330
C9
100
AcDbEntity
  8
GRAU_10_
  0
POLYLINE
  5
CD
330
1F
100
AcDbEntity
  8
GRAU_10_
 62
     7
100
AcDb2dPolyline
 66
     1
 10
0.0
 20
0.0
 30
0.0
  0
VERTEX
  5
CE
330
CD
100
AcDbEntity
  8
GRAU_10_
 62
     7
100
AcDbVertex
100
AcDb2dVertex
 10
37.17895371249346
 20
200.5235052667094
 30
0.0
  0
VERTEX
  5
CF
330
CD
100
AcDbEntity
  8
GRAU_10_
 62
     7
100
AcDbVertex
100
AcDb2dVertex
 10
36.71748317224424
 20
199.7233818402601
 30
0.0
  0
SEQEND
  5
D0
330
CD
100
AcDbEntity
  8
GRAU_10_
  0
POLYLINE
  5
D1
330
1F
100
AcDbEntity
  8
GRAU_10_
 62
     7
100
AcDb2dPolyline
 66
     1
 10
0.0
 20
0.0
 30
0.0
  0
VERTEX
  5
D2
330
D1
100
AcDbEntity
  8
GRAU_10_
 62
     7
100
AcDbVertex
100
AcDb2dVertex
 10
34.21737737859844
 20
199.7233818402601
 30
0.0
  0
VERTEX
  5
D3
330
D1
100
AcDbEntity
  8
GRAU_10_
 62
     7
100
AcDbVertex
100
AcDb2dVertex
 10
33.60208332493281
 20
199.7233818402601
 30
0.0
  0
VERTEX
  5
D4
330
D1
100
AcDbEntity
  8
GRAU_10_
 62
     7
100
AcDbVertex
100
AcDb2dVertex
 10
33.1406127846836
 20
200.5235052667094
 30
0.0
  0
SEQEND
  5
D5
330
D1
100
AcDbEntity
  8
GRAU_10_
  0
POLYLINE
  5
D6
330
1F
100
AcDbEntity
  8
GRAU_10_
 62
     7
100
AcDb2dPolyline
 66
     1
 10
0.0
 20
0.0
 30
0.0
  0
VERTEX
  5
D7
330
D6
100
AcDbEntity
  8
GRAU_10_
 62
     7
100
AcDbVertex
100
AcDb2dVertex
 10
34.67919242839618
 20
200.5235052667094
 30
0.0
  0
VERTEX
  5
D8
330
D6
100
AcDbEntity
  8
GRAU_10_
 62
     7
100
AcDbVertex
100
AcDb2dVertex
 10
34.21737737859844
 20
199.7233818402601
 30
0.0
  0
SEQEND
  5
D9
330
D6
100
AcDbEntity
  8
GRAU_10_
  0
POLYLINE
  5
DA
330
1F
100
AcDbEntity
  8
GRAU_10_
 62
     7
100
AcDb2dPolyline
 66
     1
 10
0.0
 20
0.0
 30
0.0
  0
VERTEX
  5
DB
330
DA
100
AcDbEntity
  8
GRAU_10_
 62
     7
100
AcDbVertex
100
AcDb2dVertex
 10
57.15981850784546
 20
213.4793036033142
 30
0.0
  0
VERTEX
  5
DC
330
DA
100
AcDbEntity
  8
GRAU_10_
 62
     7
100
AcDbVertex
100
AcDb2dVertex
 10
54.3072794460586
 20
218.4202595482595
 30
0.0
  0
SEQEND
  5
DD
330
DA
100
AcDbEntity
  8
GRAU_10_
  0
POLYLINE
  5
DE
330
1F
100
AcDbEntity
  8
GRAU_10_
 62
     7
100
AcDb2dPolyline
 66
     1
 10
0.0
 20
0.0
 30
0.0
  0
VERTEX
  5
DF
330
DE
100
AcDbEntity
  8
GRAU_10_
 62
     7
100
AcDbVertex
100
AcDb2dVertex
 10
57.15981850784546
 20
200.5235052667094
 30
0.0
  0
VERTEX
  5
E0
330
DE
100
AcDbEntity
  8
GRAU_10_
 62
     7
100
AcDbVertex
100
AcDb2dVertex
 10
57.15981850784546
 20
213.4793036033142
 30
0.0
  0
SEQEND
  5
E1
330
DE
100
AcDbEntity
  8
GRAU_10_
  0
POLYLINE
  5
E2
330
1F
100
AcDbEntity
  8
GRAU_10_
 62
     7
100
AcDb2dPolyline
 66
     1
 10
0.0
 20
0.0
 30
0.0
  0
VERTEX
  5
E3
330
E2
100
AcDbEntity
  8
GRAU_10_
 62
     7
100
AcDbVertex
100
AcDb2dVertex
 10
57.15981850784546
 20
200.5235052667094
 30
0.0
  0
VERTEX
  5
E4
330
E2
100
AcDbEntity
  8
GRAU_10_
 62
     7
100
AcDbVertex
100
AcDb2dVertex
 10
55.64053139885029
 20
200.5235052667094
 30
0.0
  0
VERTEX
  5
E5
330
E2
100
AcDbEntity
  8
GRAU_10_
 62
     7
100
AcDbVertex
100
AcDb2dVertex
 10
55.333228881566
 20
201.056117028729
 30
0.0
  0
SEQEND
  5
E6
330
E2
100
AcDbEntity
  8
GRAU_10_
  0
POLYLINE
  5
E7
330
1F
100
AcDbEntity
  8
GRAU_10_
 62
     7
100
AcDb2dPolyline
 66
     1
 10
0.0
 20
0.0
 30
0.0
  0
VERTEX
  5
E8
330
E7
100
AcDbEntity
  8
GRAU_10_
 62
     7
100
AcDbVertex
100
AcDb2dVertex
 10
54.98648002097561
 20
201.056117028729
 30
0.0
  0
VERTEX
  5
E9
330
E7
100
AcDbEntity
  8
GRAU_10_
 62
     7
100
AcDbVertex
100
AcDb2dVertex
 10
54.67952201323985
 20
200.5235052667094
 30
0.0
  0
VERTEX
  5
EA
330
E7
100
AcDbEntity
  8
GRAU_10_
 62
     7
100
AcDbVertex
100
AcDb2dVertex
 10
53.14025335043021
 20
200.5235052667094
 30
0.0
  0
VERTEX
  5
EB
330
E7
100
AcDbEntity
  8
GRAU_10_
 62
     7
100
AcDbVertex
100
AcDb2dVertex
 10
52.83346759746872
 20
201.056117028729
 30
0.0
  0
SEQEND
  5
EC
330
E7
100
AcDbEntity
  8
GRAU_10_
  0
POLYLINE
  5
ED
330
1F
100
AcDbEntity
  8
GRAU_10_
 62
     7
100
AcDb2dPolyline
 66
     1
 10
0.0
 20
0.0
 30
0.0
  0
VERTEX
  5
EE
330
ED
100
AcDbEntity
  8
GRAU_10_
 62
     7
100
AcDbVertex
100
AcDb2dVertex
 10
52.48671873687832
 20
201.056117028729
 30
0.0
  0
VERTEX
  5
EF
330
ED
100
AcDbEntity
  8
GRAU_10_
 62
     7
100
AcDbVertex
100
AcDb2dVertex
 10
52.17941621959404
 20
200.5235052667094
 30
0.0
  0
VERTEX
  5
F0
330
ED
100
AcDbEntity
  8
GRAU_10_
 62
     7
100
AcDbVertex
100
AcDb2dVertex
 10
50.64049206633293
 20
200.5235052667094
 30
0.0
  0
VERTEX
  5
F1
330
ED
100
AcDbEntity
  8
GRAU_10_
 62
     7
100
AcDbVertex
100
AcDb2dVertex
 10
50.33318954904865
 20
201.056117028729
 30
0.0
  0
SEQEND
  5
F2
330
ED
100
AcDbEntity
  8
GRAU_10_
  0
POLYLINE
  5
F3
330
1F
100
AcDbEntity
  8
GRAU_10_
 62
     7
100
AcDb2dPolyline
 66
     1
 10
0.0
 20
0.0
 30
0.0
  0
VERTEX
  5
F4
330
F3
100
AcDbEntity
  8
GRAU_10_
 62
     7
100
AcDbVertex
100
AcDb2dVertex
 10
49.98644068845825
 20
201.056117028729
 30
0.0
  0
VERTEX
  5
F5
330
F3
100
AcDbEntity
  8
GRAU_10_
 62
     7
100
AcDbVertex
100
AcDb2dVertex
 10
49.6789659163997
 20
200.5235052667094
 30
0.0
  0
VERTEX
  5
F6
330
F3
100
AcDbEntity
  8
GRAU_10_
 62
     7
100
AcDbVertex
100
AcDb2dVertex
 10
48.14038627268713
 20
200.5235052667094
 30
0.0
  0
VERTEX
  5
F7
330
F3
100
AcDbEntity
  8
GRAU_10_
 62
     7
100
AcDbVertex
100
AcDb2dVertex
 10
47.83273924585432
 20
201.056117028729
 30
0.0
  0
SEQEND
  5
F8
330
F3
100
AcDbEntity
  8
GRAU_10_
  0
POLYLINE
  5
F9
330
1F
100
AcDbEntity
  8
GRAU_10_
 62
     7
100
AcDb2dPolyline
 66
     1
 10
0.0
 20
0.0
 30
0.0
  0
VERTEX
  5
FA
330
F9
100
AcDbEntity
  8
GRAU_10_
 62
     7
100
AcDbVertex
100
AcDb2dVertex
 10
47.48667940436097
 20
201.056117028729
 30
0.0
  0
VERTEX
  5
FB
330
F9
100
AcDbEntity
  8
GRAU_10_
 62
     7
100
AcDbVertex
100
AcDb2dVertex
 10
47.17937688707669
 20
200.5235052667094
 30
0.0
  0
VERTEX
  5
FC
330
F9
100
AcDbEntity
  8
GRAU_10_
 62
     7
100
AcDbVertex
100
AcDb2dVertex
 10
45.64062498858985
 20
200.5235052667094
 30
0.0
  0
VERTEX
  5
FD
330
F9
100
AcDbEntity
  8
GRAU_10_
 62
     7
100
AcDbVertex
100
AcDb2dVertex
 10
45.33332247130556
 20
201.056117028729
 30
0.0
  0
SEQEND
  5
FE
330
F9
100
AcDbEntity
  8
GRAU_10_
  0
POLYLINE
  5
FF
330
1F
100
AcDbEntity
  8
GRAU_10_
 62
     7
100
AcDb2dPolyline
 66
     1
 10
0.0
 20
0.0
 30
0.0
  0
VERTEX
  5
100
330
FF
100
AcDbEntity
  8
GRAU_10_
 62
     7
100
AcDbVertex
100
AcDb2dVertex
 10
44.98657361071516
 20
201.056117028729
 30
0.0
  0
VERTEX
  5
101
330
FF
100
AcDbEntity
  8
GRAU_10_
 62
     7
100
AcDbVertex
100
AcDb2dVertex
 10
44.67892658388235
 20
200.5235052667094
 30
0.0
  0
SEQEND
  5
102
330
FF
100
AcDbEntity
  8
GRAU_10_
  0
POLYLINE
  5
103
330
1F
100
AcDbEntity
  8
GRAU_10_
 62
     7
100
AcDb2dPolyline
 66
     1
 10
0.0
 20
0.0
 30
0.0
  0
VERTEX
  5
104
330
103
100
AcDbEntity
  8
GRAU_10_
 62
     7
100
AcDbVertex
100
AcDb2dVertex
 10
41.71735024998733
 20
199.7233818402601
 30
0.0
  0
VERTEX
  5
105
330
103
100
AcDbEntity
  8
GRAU_10_
 62
     7
100
AcDbVertex
100
AcDb2dVertex
 10
41.10257296064449
 20
199.7233818402601
 30
0.0
  0
SEQEND
  5
106
330
103
100
AcDbEntity
  8
GRAU_10_
  0
POLYLINE
  5
107
330
1F
100
AcDbEntity
  8
GRAU_10_
 62
     7
100
AcDb2dPolyline
 66
     1
 10
0.0
 20
0.0
 30
0.0
  0
VERTEX
  5
108
330
107
100
AcDbEntity
  8
GRAU_10_
 62
     7
100
AcDbVertex
100
AcDb2dVertex
 10
42.1795098093336
 20
200.5235052667094
 30
0.0
  0
VERTEX
  5
109
330
107
100
AcDbEntity
  8
GRAU_10_
 62
     7
100
AcDbVertex
100
AcDb2dVertex
 10
41.71735024998733
 20
199.7233818402601
 30
0.0
  0
SEQEND
  5
10A
330
107
100
AcDbEntity
  8
GRAU_10_
  0
POLYLINE
  5
10B
330
1F
100
AcDbEntity
  8
GRAU_10_
 62
     7
100
AcDb2dPolyline
 66
     1
 10
0.0
 20
0.0
 30
0.0
  0
VERTEX
  5
10C
330
10B
100
AcDbEntity
  8
GRAU_10_
 62
     7
100
AcDbVertex
100
AcDb2dVertex
 10
40.64041340129823
 20
200.5235052667094
 30
0.0
  0
VERTEX
  5
10D
330
10B
100
AcDbEntity
  8
GRAU_10_
 62
     7
100
AcDbVertex
100
AcDb2dVertex
 10
41.10257296064449
 20
199.7233818402601
 30
0.0
  0
SEQEND
  5
10E
330
10B
100
AcDbEntity
  8
GRAU_10_
  0
POLYLINE
  5
10F
330
1F
100
AcDbEntity
  8
GRAU_10_
 62
     7
100
AcDb2dPolyline
 66
     1
 10
0.0
 20
0.0
 30
0.0
  0
VERTEX
  5
110
330
10F
100
AcDbEntity
  8
GRAU_10_
 62
     7
100
AcDbVertex
100
AcDb2dVertex
 10
47.17937688707669
 20
200.5235052667094
 30
0.0
  0
VERTEX
  5
111
330
10F
100
AcDbEntity
  8
GRAU_10_
 62
     7
100
AcDbVertex
100
AcDb2dVertex
 10
46.71721732773042
 20
199.7233818402601
 30
0.0
  0
VERTEX
  5
112
330
10F
100
AcDbEntity
  8
GRAU_10_
 62
     7
100
AcDbVertex
100
AcDb2dVertex
 10
46.10244003838758
 20
199.7233818402601
 30
0.0
  0
SEQEND
  5
113
330
10F
100
AcDbEntity
  8
GRAU_10_
  0
POLYLINE
  5
114
330
1F
100
AcDbEntity
  8
GRAU_10_
 62
     7
100
AcDb2dPolyline
 66
     1
 10
0.0
 20
0.0
 30
0.0
  0
VERTEX
  5
115
330
114
100
AcDbEntity
  8
GRAU_10_
 62
     7
100
AcDbVertex
100
AcDb2dVertex
 10
45.64062498858985
 20
200.5235052667094
 30
0.0
  0
VERTEX
  5
116
330
114
100
AcDbEntity
  8
GRAU_10_
 62
     7
100
AcDbVertex
100
AcDb2dVertex
 10
46.10244003838758
 20
199.7233818402601
 30
0.0
  0
SEQEND
  5
117
330
114
100
AcDbEntity
  8
GRAU_10_
  0
POLYLINE
  5
118
330
1F
100
AcDbEntity
  8
GRAU_10_
 62
     7
100
AcDb2dPolyline
 66
     1
 10
0.0
 20
0.0
 30
0.0
  0
VERTEX
  5
119
330
118
100
AcDbEntity
  8
GRAU_10_
 62
     7
100
AcDbVertex
100
AcDb2dVertex
 10
49.6789659163997
 20
200.5235052667094
 30
0.0
  0
VERTEX
  5
11A
330
118
100
AcDbEntity
  8
GRAU_10_
 62
     7
100
AcDbVertex
100
AcDb2dVertex
 10
49.21749537615049
 20
199.7233818402601
 30
0.0
  0
VERTEX
  5
11B
330
118
100
AcDbEntity
  8
GRAU_10_
 62
     7
100
AcDbVertex
100
AcDb2dVertex
 10
48.60254583203339
 20
199.7233818402601
 30
0.0
  0
SEQEND
  5
11C
330
118
100
AcDbEntity
  8
GRAU_10_
  0
POLYLINE
  5
11D
330
1F
100
AcDbEntity
  8
GRAU_10_
 62
     7
100
AcDb2dPolyline
 66
     1
 10
0.0
 20
0.0
 30
0.0
  0
VERTEX
  5
11E
330
11D
100
AcDbEntity
  8
GRAU_10_
 62
     7
100
AcDbVertex
100
AcDb2dVertex
 10
48.14038627268713
 20
200.5235052667094
 30
0.0
  0
VERTEX
  5
11F
330
11D
100
AcDbEntity
  8
GRAU_10_
 62
     7
100
AcDbVertex
100
AcDb2dVertex
 10
48.60254583203339
 20
199.7233818402601
 30
0.0
  0
SEQEND
  5
120
330
11D
100
AcDbEntity
  8
GRAU_10_
  0
POLYLINE
  5
121
330
1F
100
AcDbEntity
  8
GRAU_10_
 62
     7
100
AcDb2dPolyline
 66
     1
 10
0.0
 20
0.0
 30
0.0
  0
VERTEX
  5
122
330
121
100
AcDbEntity
  8
GRAU_10_
 62
     7
100
AcDbVertex
100
AcDb2dVertex
 10
52.17941621959404
 20
200.5235052667094
 30
0.0
  0
VERTEX
  5
123
330
121
100
AcDbEntity
  8
GRAU_10_
 62
     7
100
AcDbVertex
100
AcDb2dVertex
 10
51.71725666024777
 20
199.7233818402601
 30
0.0
  0
VERTEX
  5
124
330
121
100
AcDbEntity
  8
GRAU_10_
 62
     7
100
AcDbVertex
100
AcDb2dVertex
 10
51.1026516256792
 20
199.7233818402601
 30
0.0
  0
SEQEND
  5
125
330
121
100
AcDbEntity
  8
GRAU_10_
  0
POLYLINE
  5
126
330
1F
100
AcDbEntity
  8
GRAU_10_
 62
     7
100
AcDb2dPolyline
 66
     1
 10
0.0
 20
0.0
 30
0.0
  0
VERTEX
  5
127
330
126
100
AcDbEntity
  8
GRAU_10_
 62
     7
100
AcDbVertex
100
AcDb2dVertex
 10
50.64049206633293
 20
200.5235052667094
 30
0.0
  0
VERTEX
  5
128
330
126
100
AcDbEntity
  8
GRAU_10_
 62
     7
100
AcDbVertex
100
AcDb2dVertex
 10
51.1026516256792
 20
199.7233818402601
 30
0.0
  0
SEQEND
  5
129
330
126
100
AcDbEntity
  8
GRAU_10_
  0
POLYLINE
  5
12A
330
1F
100
AcDbEntity
  8
GRAU_10_
 62
     7
100
AcDb2dPolyline
 66
     1
 10
0.0
 20
0.0
 30
0.0
  0
VERTEX
  5
12B
330
12A
100
AcDbEntity
  8
GRAU_10_
 62
     7
100
AcDbVertex
100
AcDb2dVertex
 10
54.67952201323985
 20
200.5235052667094
 30
0.0
  0
VERTEX
  5
12C
330
12A
100
AcDbEntity
  8
GRAU_10_
 62
     7
100
AcDbVertex
100
AcDb2dVertex
 10
54.21736245389358
 20
199.7233818402601
 30
0.0
  0
VERTEX
  5
12D
330
12A
100
AcDbEntity
  8
GRAU_10_
 62
     7
100
AcDbVertex
100
AcDb2dVertex
 10
53.60241290977648
 20
199.7233818402601
 30
0.0
  0
SEQEND
  5
12E
330
12A
100
AcDbEntity
  8
GRAU_10_
  0
POLYLINE
  5
12F
330
1F
100
AcDbEntity
  8
GRAU_10_
 62
     7
100
AcDb2dPolyline
 66
     1
 10
0.0
 20
0.0
 30
0.0
  0
VERTEX
  5
130
330
12F
100
AcDbEntity
  8
GRAU_10_
 62
     7
100
AcDbVertex
100
AcDb2dVertex
 10
53.14025335043021
 20
200.5235052667094
 30
0.0
  0
VERTEX
  5
131
330
12F
100
AcDbEntity
  8
GRAU_10_
 62
     7
100
AcDbVertex
100
AcDb2dVertex
 10
53.60241290977648
 20
199.7233818402601
 30
0.0
  0
SEQEND
  5
132
330
12F
100
AcDbEntity
  8
GRAU_10_
  0
POLYLINE
  5
133
330
1F
100
AcDbEntity
  8
GRAU_10_
 62
     7
100
AcDb2dPolyline
 66
     1
 10
0.0
 20
0.0
 30
0.0
  0
VERTEX
  5
134
330
133
100
AcDbEntity
  8
GRAU_10_
 62
     7
100
AcDbVertex
100
AcDb2dVertex
 10
57.15981850784546
 20
200.4895710761797
 30
0.0
  0
VERTEX
  5
135
330
133
100
AcDbEntity
  8
GRAU_10_
 62
     7
100
AcDbVertex
100
AcDb2dVertex
 10
57.15981850784546
 20
200.5235052667094
 30
0.0
  0
SEQEND
  5
136
330
133
100
AcDbEntity
  8
GRAU_10_
  0
POLYLINE
  5
137
330
1F
100
AcDbEntity
  8
GRAU_10_
 62
     7
100
AcDb2dPolyline
 66
     1
 10
0.0
 20
0.0
 30
0.0
  0
VERTEX
  5
138
330
137
100
AcDbEntity
  8
GRAU_10_
 62
     7
100
AcDbVertex
100
AcDb2dVertex
 10
57.15981850784546
 20
200.4895710761797
 30
0.0
  0
VERTEX
  5
139
330
137
100
AcDbEntity
  8
GRAU_10_
 62
     7
100
AcDbVertex
100
AcDb2dVertex
 10
56.71746824753939
 20
199.7233818402601
 30
0.0
  0
VERTEX
  5
13A
330
137
100
AcDbEntity
  8
GRAU_10_
 62
     7
100
AcDbVertex
100
AcDb2dVertex
 10
56.10269095819655
 20
199.7233818402601
 30
0.0
  0
SEQEND
  5
13B
330
137
100
AcDbEntity
  8
GRAU_10_
  0
POLYLINE
  5
13C
330
1F
100
AcDbEntity
  8
GRAU_10_
 62
     7
100
AcDb2dPolyline
 66
     1
 10
0.0
 20
0.0
 30
0.0
  0
VERTEX
  5
13D
330
13C
100
AcDbEntity
  8
GRAU_10_
 62
     7
100
AcDbVertex
100
AcDb2dVertex
 10
55.64053139885029
 20
200.5235052667094
 30
0.0
  0
VERTEX
  5
13E
330
13C
100
AcDbEntity
  8
GRAU_10_
 62
     7
100
AcDbVertex
100
AcDb2dVertex
 10
56.10269095819655
 20
199.7233818402601
 30
0.0
  0
SEQEND
  5
13F
330
13C
100
AcDbEntity
  8
GRAU_10_
  0
POLYLINE
  5
140
330
1F
100
AcDbEntity
  8
GRAU_10_
 62
     7
100
AcDb2dPolyline
 66
     1
 10
0.0
 20
0.0
 30
0.0
  0
VERTEX
  5
141
330
140
100
AcDbEntity
  8
GRAU_10_
 62
     7
100
AcDbVertex
100
AcDb2dVertex
 10
36.34627413370857
 20
227.8548257893905
 30
0.0
  0
VERTEX
  5
142
330
140
100
AcDbEntity
  8
GRAU_10_
 62
     7
100
AcDbVertex
100
AcDb2dVertex
 10
34.22685139118287
 20
225.3078666971453
 30
0.0
  0
SEQEND
  5
143
330
140
100
AcDbEntity
  8
GRAU_10_
  0
POLYLINE
  5
144
330
1F
100
AcDbEntity
  8
GRAU_10_
 62
     7
100
AcDb2dPolyline
 66
     1
 10
0.0
 20
0.0
 30
0.0
  0
VERTEX
  5
145
330
144
100
AcDbEntity
  8
GRAU_10_
 62
     7
100
AcDbVertex
100
AcDb2dVertex
 10
30.36007621853846
 20
227.2161050864252
 30
0.0
  0
VERTEX
  5
146
330
144
100
AcDbEntity
  8
GRAU_10_
 62
     7
100
AcDbVertex
100
AcDb2dVertex
 10
30.36007621853846
 20
223.2001572792694
 30
0.0
  0
SEQEND
  5
147
330
144
100
AcDbEntity
  8
GRAU_10_
  0
POLYLINE
  5
148
330
1F
100
AcDbEntity
  8
GRAU_10_
 62
     7
100
AcDb2dPolyline
 66
     1
 10
0.0
 20
0.0
 30
0.0
  0
VERTEX
  5
149
330
148
100
AcDbEntity
  8
GRAU_10_
 62
     7
100
AcDbVertex
100
AcDb2dVertex
 10
41.4493218212349
 20
226.303154782834
 30
0.0
  0
VERTEX
  5
14A
330
148
100
AcDbEntity
  8
GRAU_10_
 62
     7
100
AcDbVertex
100
AcDb2dVertex
 10
41.30118271536915
 20
226.2201279816394
 30
0.0
  0
SEQEND
  5
14B
330
148
100
AcDbEntity
  8
GRAU_10_
  0
POLYLINE
  5
14C
330
1F
100
AcDbEntity
  8
GRAU_10_
 62
     7
100
AcDb2dPolyline
 66
     1
 10
0.0
 20
0.0
 30
0.0
  0
VERTEX
  5
14D
330
14C
100
AcDbEntity
  8
GRAU_10_
 62
     7
100
AcDbVertex
100
AcDb2dVertex
 10
36.17074651873509
 20
235.5162013842633
 30
0.0
  0
VERTEX
  5
14E
330
14C
100
AcDbEntity
  8
GRAU_10_
 62
     7
100
AcDbVertex
100
AcDb2dVertex
 10
34.91966009326661
 20
235.5162013842633
 30
0.0
  0
SEQEND
  5
14F
330
14C
100
AcDbEntity
  8
GRAU_10_
  0
SPLINE
  5
150
330
1F
100
AcDbEntity
  8
GRAU_10_
 62
     7
100
AcDbSpline
210
0.0
220
0.0
230
1.0
 70
     8
 71
     3
 72
    11
 73
     7
 74
     0
 42
0.0000000001
 43
0.0000000001
 40
0.0
 40
0.0
 40
0.0
 40
0.0
 40
1.0
 40
1.0
 40
1.0
 40
2.0
 40
2.0
 40
2.0
 40
2.0
 10
40.33276637446542
 20
201.056117028729
 30
0.0
 10
40.29607610754751
 20
201.1200235499804
 30
0.0
 10
40.22941350990793
 20
201.1556802882528
 30
0.0
 10
40.15947807155735
 20
201.1560247978013
 30
0.0
 10
40.08609753772154
 20
201.1560247978013
 30
0.0
 10
40.02167425214736
 20
201.1157171806238
 30
0.0
 10
39.98670653297207
 20
201.056117028729
 30
0.0
  0
SPLINE
  5
151
330
1F
100
AcDbEntity
  8
GRAU_10_
 62
     7
100
AcDbSpline
210
0.0
220
0.0
230
1.0
 70
     8
 71
     3
 72
    11
 73
     7
 74
     0
 42
0.0000000001
 43
0.0000000001
 40
0.0
 40
0.0
 40
0.0
 40
0.0
 40
1.0
 40
1.0
 40
1.0
 40
2.0
 40
2.0
 40
2.0
 40
2.0
 10
32.83331026739931
 20
201.056117028729
 30
0.0
 10
32.79627549093288
 20
201.1200235499804
 30
0.0
 10
32.72926838374477
 20
201.1556802882528
 30
0.0
 10
32.65984970971699
 20
201.1560247978013
 30
0.0
 10
32.58612466633264
 20
201.1560247978013
 30
0.0
 10
32.52221814508125
 20
201.1157171806238
 30
0.0
 10
32.48656140680892
 20
201.056117028729
 30
0.0
  0
SPLINE
  5
152
330
1F
100
AcDbEntity
  8
GRAU_10_
 62
     7
100
AcDbSpline
210
0.0
220
0.0
230
1.0
 70
     8
 71
     3
 72
    11
 73
     7
 74
     0
 42
0.0000000001
 43
0.0000000001
 40
0.0
 40
0.0
 40
0.0
 40
0.0
 40
1.0
 40
1.0
 40
1.0
 40
2.0
 40
2.0
 40
2.0
 40
2.0
 10
35.33289929672233
 20
201.056117028729
 30
0.0
 10
35.29603677503016
 20
201.1200235499804
 30
0.0
 10
35.22937417739058
 20
201.1556802882528
 30
0.0
 10
35.15961099381427
 20
201.1560247978013
 30
0.0
 10
35.08657496952697
 20
201.1560247978013
 30
0.0
 10
35.02163491963001
 20
201.1157171806238
 30
0.0
 10
34.98666720045473
 20
201.056117028729
 30
0.0
  0
SPLINE
  5
153
330
1F
100
AcDbEntity
  8
GRAU_10_
 62
     7
100
AcDbSpline
210
0.0
220
0.0
230
1.0
 70
     8
 71
     3
 72
    11
 73
     7
 74
     0
 42
0.0000000001
 43
0.0000000001
 40
0.0
 40
0.0
 40
0.0
 40
0.0
 40
1.0
 40
1.0
 40
1.0
 40
2.0
 40
2.0
 40
2.0
 40
2.0
 10
42.83287216811123
 20
201.056117028729
 30
0.0
 10
42.79618190119331
 20
201.1200235499804
 30
0.0
 10
42.72986381310226
 20
201.1556802882528
 30
0.0
 10
42.65958386520316
 20
201.1560247978013
 30
0.0
 10
42.58585882181882
 20
201.1560247978013
 30
0.0
 10
42.52212455534169
 20
201.1157171806238
 30
0.0
 10
42.48681232661788
 20
201.056117028729
 30
0.0
  0
SPLINE
  5
154
330
1F
100
AcDbEntity
  8
GRAU_10_
 62
     7
100
AcDbSpline
210
0.0
220
0.0
230
1.0
 70
     8
 71
     3
 72
    11
 73
     7
 74
     0
 42
0.0000000001
 43
0.0000000001
 40
0.0
 40
0.0
 40
0.0
 40
0.0
 40
1.0
 40
1.0
 40
1.0
 40
2.0
 40
2.0
 40
2.0
 40
2.0
 10
37.83334959991667
 20
201.056117028729
 30
0.0
 10
37.79631482345023
 20
201.1200235499804
 30
0.0
 10
37.72999673535917
 20
201.1556802882528
 30
0.0
 10
37.65971678746007
 20
201.1560247978013
 30
0.0
 10
37.58599174407573
 20
201.1560247978013
 30
0.0
 10
37.52208522282434
 20
201.1157171806238
 30
0.0
 10
37.48694524887479
 20
201.056117028729
 30
0.0
  0
POLYLINE
  5
155
330
1F
100
AcDbEntity
  8
GRAU_10_
 62
     7
100
AcDb2dPolyline
 66
     1
 10
0.0
 20
0.0
 30
0.0
  0
VERTEX
  5
156
330
155
100
AcDbEntity
  8
GRAU_10_
 62
     7
100
AcDbVertex
100
AcDb2dVertex
 10
55.333228881566
 20
201.056117028729
 30
0.0
  0
VERTEX
  5
157
330
155
100
AcDbEntity
  8
GRAU_10_
 62
     7
100
AcDbVertex
100
AcDb2dVertex
 10
55.15959606910941
 20
201.1560247978013
 30
0.0
  0
VERTEX
  5
158
330
155
100
AcDbEntity
  8
GRAU_10_
 62
     7
100
AcDbVertex
100
AcDb2dVertex
 10
54.98648002097561
 20
201.056117028729
 30
0.0
  0
SEQEND
  5
159
330
155
100
AcDbEntity
  8
GRAU_10_
  0
POLYLINE
  5
15A
330
1F
100
AcDbEntity
  8
GRAU_10_
 62
     7
100
AcDb2dPolyline
 66
     1
 10
0.0
 20
0.0
 30
0.0
  0
VERTEX
  5
15B
330
15A
100
AcDbEntity
  8
GRAU_10_
 62
     7
100
AcDbVertex
100
AcDb2dVertex
 10
52.83346759746872
 20
201.056117028729
 30
0.0
  0
VERTEX
  5
15C
330
15A
100
AcDbEntity
  8
GRAU_10_
 62
     7
100
AcDbVertex
100
AcDb2dVertex
 10
52.66017929456065
 20
201.1560247978013
 30
0.0
  0
VERTEX
  5
15D
330
15A
100
AcDbEntity
  8
GRAU_10_
 62
     7
100
AcDbVertex
100
AcDb2dVertex
 10
52.48671873687832
 20
201.056117028729
 30
0.0
  0
SEQEND
  5
15E
330
15A
100
AcDbEntity
  8
GRAU_10_
  0
POLYLINE
  5
15F
330
1F
100
AcDbEntity
  8
GRAU_10_
 62
     7
100
AcDb2dPolyline
 66
     1
 10
0.0
 20
0.0
 30
0.0
  0
VERTEX
  5
160
330
15F
100
AcDbEntity
  8
GRAU_10_
 62
     7
100
AcDbVertex
100
AcDb2dVertex
 10
50.33318954904865
 20
201.056117028729
 30
0.0
  0
VERTEX
  5
161
330
15F
100
AcDbEntity
  8
GRAU_10_
 62
     7
100
AcDbVertex
100
AcDb2dVertex
 10
50.15972899136632
 20
201.1560247978013
 30
0.0
  0
VERTEX
  5
162
330
15F
100
AcDbEntity
  8
GRAU_10_
 62
     7
100
AcDbVertex
100
AcDb2dVertex
 10
49.98644068845825
 20
201.056117028729
 30
0.0
  0
SEQEND
  5
163
330
15F
100
AcDbEntity
  8
GRAU_10_
  0
POLYLINE
  5
164
330
1F
100
AcDbEntity
  8
GRAU_10_
 62
     7
100
AcDb2dPolyline
 66
     1
 10
0.0
 20
0.0
 30
0.0
  0
VERTEX
  5
165
330
164
100
AcDbEntity
  8
GRAU_10_
 62
     7
100
AcDbVertex
100
AcDb2dVertex
 10
47.83273924585432
 20
201.056117028729
 30
0.0
  0
VERTEX
  5
166
330
164
100
AcDbEntity
  8
GRAU_10_
 62
     7
100
AcDbVertex
100
AcDb2dVertex
 10
47.65962319772051
 20
201.1560247978013
 30
0.0
  0
VERTEX
  5
167
330
164
100
AcDbEntity
  8
GRAU_10_
 62
     7
100
AcDbVertex
100
AcDb2dVertex
 10
47.48667940436097
 20
201.056117028729
 30
0.0
  0
SEQEND
  5
168
330
164
100
AcDbEntity
  8
GRAU_10_
  0
POLYLINE
  5
169
330
1F
100
AcDbEntity
  8
GRAU_10_
 62
     7
100
AcDb2dPolyline
 66
     1
 10
0.0
 20
0.0
 30
0.0
  0
VERTEX
  5
16A
330
169
100
AcDbEntity
  8
GRAU_10_
 62
     7
100
AcDbVertex
100
AcDb2dVertex
 10
45.33332247130556
 20
201.056117028729
 30
0.0
  0
VERTEX
  5
16B
330
169
100
AcDbEntity
  8
GRAU_10_
 62
     7
100
AcDbVertex
100
AcDb2dVertex
 10
45.15986191362323
 20
201.1560247978013
 30
0.0
  0
VERTEX
  5
16C
330
169
100
AcDbEntity
  8
GRAU_10_
 62
     7
100
AcDbVertex
100
AcDb2dVertex
 10
44.98657361071516
 20
201.056117028729
 30
0.0
  0
SEQEND
  5
16D
330
169
100
AcDbEntity
  8
GRAU_10_
  0
POLYLINE
  5
16E
330
1F
100
AcDbEntity
  8
GRAU_10_
 62
     7
100
AcDb2dPolyline
 66
     1
 10
0.0
 20
0.0
 30
0.0
  0
VERTEX
  5
16F
330
16E
100
AcDbEntity
  8
GRAU_10_
 62
     7
100
AcDbVertex
100
AcDb2dVertex
 10
30.36007621853846
 20
223.2001572792694
 30
0.0
  0
VERTEX
  5
170
330
16E
100
AcDbEntity
  8
GRAU_10_
 62
     7
100
AcDbVertex
100
AcDb2dVertex
 10
30.36007621853846
 20
222.339572427054
 30
0.0
  0
VERTEX
  5
171
330
16E
100
AcDbEntity
  8
GRAU_10_
 62
     7
100
AcDbVertex
100
AcDb2dVertex
 10
30.36007621853846
 20
221.691894475827
 30
0.0
  0
VERTEX
  5
172
330
16E
100
AcDbEntity
  8
GRAU_10_
 62
     7
100
AcDbVertex
100
AcDb2dVertex
 10
30.36007621853846
 20
221.2731431195949
 30
0.0
  0
SEQEND
  5
173
330
16E
100
AcDbEntity
  8
GRAU_10_
  0
POLYLINE
  5
174
330
1F
100
AcDbEntity
  8
GRAU_10_
 62
     7
100
AcDb2dPolyline
 66
     1
 10
0.0
 20
0.0
 30
0.0
  0
VERTEX
  5
175
330
174
100
AcDbEntity
  8
GRAU_10_
 62
     7
100
AcDbVertex
100
AcDb2dVertex
 10
34.22685139118287
 20
225.3078666971453
 30
0.0
  0
VERTEX
  5
176
330
174
100
AcDbEntity
  8
GRAU_10_
 62
     7
100
AcDbVertex
100
AcDb2dVertex
 10
34.09955511300289
 20
225.0059040778631
 30
0.0
  0
VERTEX
  5
177
330
174
100
AcDbEntity
  8
GRAU_10_
 62
     7
100
AcDbVertex
100
AcDb2dVertex
 10
34.19360621975021
 20
224.6736246183108
 30
0.0
  0
VERTEX
  5
178
330
174
100
AcDbEntity
  8
GRAU_10_
 62
     7
100
AcDbVertex
100
AcDb2dVertex
 10
34.51021049484467
 20
224.3127508662309
 30
0.0
  0
VERTEX
  5
179
330
174
100
AcDbEntity
  8
GRAU_10_
 62
     7
100
AcDbVertex
100
AcDb2dVertex
 10
35.04781764531791
 20
223.9243163502689
 30
0.0
  0
VERTEX
  5
17A
330
174
100
AcDbEntity
  8
GRAU_10_
 62
     7
100
AcDbVertex
100
AcDb2dVertex
 10
35.80522188775009
 20
223.5088378347478
 30
0.0
  0
VERTEX
  5
17B
330
174
100
AcDbEntity
  8
GRAU_10_
 62
     7
100
AcDbVertex
100
AcDb2dVertex
 10
36.7810451839471
 20
223.067348848313
 30
0.0
  0
VERTEX
  5
17C
330
174
100
AcDbEntity
  8
GRAU_10_
 62
     7
100
AcDbVertex
100
AcDb2dVertex
 10
37.97167018364944
 20
222.6010551743845
 30
0.0
  0
SEQEND
  5
17D
330
174
100
AcDbEntity
  8
GRAU_10_
  0
POLYLINE
  5
17E
330
1F
100
AcDbEntity
  8
GRAU_10_
 62
     7
100
AcDb2dPolyline
 66
     1
 10
0.0
 20
0.0
 30
0.0
  0
VERTEX
  5
17F
330
17E
100
AcDbEntity
  8
GRAU_10_
 62
     7
100
AcDbVertex
100
AcDb2dVertex
 10
41.30118271536915
 20
226.2201279816394
 30
0.0
  0
VERTEX
  5
180
330
17E
100
AcDbEntity
  8
GRAU_10_
 62
     7
100
AcDbVertex
100
AcDb2dVertex
 10
40.98750677143715
 20
225.9696695398618
 30
0.0
  0
VERTEX
  5
181
330
17E
100
AcDbEntity
  8
GRAU_10_
 62
     7
100
AcDbVertex
100
AcDb2dVertex
 10
40.84384628970223
 20
225.6652953537399
 30
0.0
  0
VERTEX
  5
182
330
17E
100
AcDbEntity
  8
GRAU_10_
 62
     7
100
AcDbVertex
100
AcDb2dVertex
 10
40.87106254403571
 20
225.3064886589512
 30
0.0
  0
VERTEX
  5
183
330
17E
100
AcDbEntity
  8
GRAU_10_
 62
     7
100
AcDbVertex
100
AcDb2dVertex
 10
41.06794975101774
 20
224.8958332771094
 30
0.0
  0
VERTEX
  5
184
330
17E
100
AcDbEntity
  8
GRAU_10_
 62
     7
100
AcDbVertex
100
AcDb2dVertex
 10
41.43450791064832
 20
224.4329846986661
 30
0.0
  0
VERTEX
  5
185
330
17E
100
AcDbEntity
  8
GRAU_10_
 62
     7
100
AcDbVertex
100
AcDb2dVertex
 10
41.97039251337893
 20
223.9200099809124
 30
0.0
  0
VERTEX
  5
186
330
17E
100
AcDbEntity
  8
GRAU_10_
 62
     7
100
AcDbVertex
100
AcDb2dVertex
 10
42.67301973759564
 20
223.3577703977196
 30
0.0
  0
SEQEND
  5
187
330
17E
100
AcDbEntity
  8
GRAU_10_
  0
POLYLINE
  5
188
330
1F
100
AcDbEntity
  8
GRAU_10_
 62
     7
100
AcDb2dPolyline
 66
     1
 10
0.0
 20
0.0
 30
0.0
  0
VERTEX
  5
189
330
188
100
AcDbEntity
  8
GRAU_10_
 62
     7
100
AcDbVertex
100
AcDb2dVertex
 10
34.91966009326661
 20
235.4688313213411
 30
0.0
  0
VERTEX
  5
18A
330
188
100
AcDbEntity
  8
GRAU_10_
 62
     7
100
AcDbVertex
100
AcDb2dVertex
 10
35.33875595904725
 20
235.4993204163856
 30
0.0
  0
VERTEX
  5
18B
330
188
100
AcDbEntity
  8
GRAU_10_
 62
     7
100
AcDbVertex
100
AcDb2dVertex
 10
35.98229979569193
 20
235.5144788365207
 30
0.0
  0
SEQEND
  5
18C
330
188
100
AcDbEntity
  8
GRAU_10_
  0
POLYLINE
  5
18D
330
1F
100
AcDbEntity
  8
GRAU_10_
 62
     7
100
AcDb2dPolyline
 66
     1
 10
0.0
 20
0.0
 30
0.0
  0
VERTEX
  5
18E
330
18D
100
AcDbEntity
  8
GRAU_10_
 62
     7
100
AcDbVertex
100
AcDb2dVertex
 10
41.4493218212349
 20
226.303154782834
 30
0.0
  0
VERTEX
  5
18F
330
18D
100
AcDbEntity
  8
GRAU_10_
 62
     7
100
AcDbVertex
100
AcDb2dVertex
 10
40.72602402410669
 20
226.8717677926744
 30
0.0
  0
VERTEX
  5
190
330
18D
100
AcDbEntity
  8
GRAU_10_
 62
     7
100
AcDbVertex
100
AcDb2dVertex
 10
40.00117593401013
 20
227.3256591228561
 30
0.0
  0
VERTEX
  5
191
330
18D
100
AcDbEntity
  8
GRAU_10_
 62
     7
100
AcDbVertex
100
AcDb2dVertex
 10
39.2733995127511
 20
227.6632784804106
 30
0.0
  0
VERTEX
  5
192
330
18D
100
AcDbEntity
  8
GRAU_10_
 62
     7
100
AcDbVertex
100
AcDb2dVertex
 10
38.54407279852371
 20
227.8853148844349
 30
0.0
  0
VERTEX
  5
193
330
18D
100
AcDbEntity
  8
GRAU_10_
 62
     7
100
AcDbVertex
100
AcDb2dVertex
 10
37.81319579132795
 20
227.9910793158321
 30
0.0
  0
VERTEX
  5
194
330
18D
100
AcDbEntity
  8
GRAU_10_
 62
     7
100
AcDbVertex
100
AcDb2dVertex
 10
37.08111300071236
 20
227.9809162841506
 30
0.0
  0
VERTEX
  5
195
330
18D
100
AcDbEntity
  8
GRAU_10_
 62
     7
100
AcDbVertex
100
AcDb2dVertex
 10
36.34627413370857
 20
227.8548257893905
 30
0.0
  0
SEQEND
  5
196
330
18D
100
AcDbEntity
  8
GRAU_10_
  0
POLYLINE
  5
197
330
1F
100
AcDbEntity
  8
GRAU_10_
 62
     7
100
AcDb2dPolyline
 66
     1
 10
0.0
 20
0.0
 30
0.0
  0
VERTEX
  5
198
330
197
100
AcDbEntity
  8
GRAU_10_
 62
     7
100
AcDbVertex
100
AcDb2dVertex
 10
41.4493218212349
 20
226.303154782834
 30
0.0
  0
VERTEX
  5
199
330
197
100
AcDbEntity
  8
GRAU_10_
 62
     7
100
AcDbVertex
100
AcDb2dVertex
 10
42.70299206831731
 20
226.2811061717283
 30
0.0
  0
VERTEX
  5
19A
330
197
100
AcDbEntity
  8
GRAU_10_
 62
     7
100
AcDbVertex
100
AcDb2dVertex
 10
43.94873859578365
 20
226.1274549130862
 30
0.0
  0
VERTEX
  5
19B
330
197
100
AcDbEntity
  8
GRAU_10_
 62
     7
100
AcDbVertex
100
AcDb2dVertex
 10
45.18587238453686
 20
225.8427177712303
 30
0.0
  0
VERTEX
  5
19C
330
197
100
AcDbEntity
  8
GRAU_10_
 62
     7
100
AcDbVertex
100
AcDb2dVertex
 10
46.41456568935122
 20
225.4267224913864
 30
0.0
  0
VERTEX
  5
19D
330
197
100
AcDbEntity
  8
GRAU_10_
 62
     7
100
AcDbVertex
100
AcDb2dVertex
 10
47.63309596248409
 20
224.8803303474258
 30
0.0
  0
VERTEX
  5
19E
330
197
100
AcDbEntity
  8
GRAU_10_
 62
     7
100
AcDbVertex
100
AcDb2dVertex
 10
48.84111869438694
 20
224.2026800654771
 30
0.0
  0
VERTEX
  5
19F
330
197
100
AcDbEntity
  8
GRAU_10_
 62
     7
100
AcDbVertex
100
AcDb2dVertex
 10
50.03828937551126
 20
223.3951496837346
 30
0.0
  0
VERTEX
  5
1A0
330
197
100
AcDbEntity
  8
GRAU_10_
 62
     7
100
AcDbVertex
100
AcDb2dVertex
 10
51.22305771288868
 20
222.4577392021981
 30
0.0
  0
SEQEND
  5
1A1
330
197
100
AcDbEntity
  8
GRAU_10_
  0
POLYLINE
  5
1A2
330
1F
100
AcDbEntity
  8
GRAU_10_
 62
     7
100
AcDb2dPolyline
 66
     1
 10
0.0
 20
0.0
 30
0.0
  0
VERTEX
  5
1A3
330
1A2
100
AcDbEntity
  8
GRAU_10_
 62
     7
100
AcDbVertex
100
AcDb2dVertex
 10
41.85498181462306
 20
221.2548841135231
 30
0.0
  0
VERTEX
  5
1A4
330
1A2
100
AcDbEntity
  8
GRAU_10_
 62
     7
100
AcDbVertex
100
AcDb2dVertex
 10
40.65660535007891
 20
221.6477972536158
 30
0.0
  0
VERTEX
  5
1A5
330
1A2
100
AcDbEntity
  8
GRAU_10_
 62
     7
100
AcDbVertex
100
AcDb2dVertex
 10
39.32094183044754
 20
222.1113348511562
 30
0.0
  0
VERTEX
  5
1A6
330
1A2
100
AcDbEntity
  8
GRAU_10_
 62
     7
100
AcDbVertex
100
AcDb2dVertex
 10
37.97167018364944
 20
222.6010551743845
 30
0.0
  0
SEQEND
  5
1A7
330
1A2
100
AcDbEntity
  8
GRAU_10_
  0
POLYLINE
  5
1A8
330
1F
100
AcDbEntity
  8
GRAU_10_
 62
     7
100
AcDb2dPolyline
 66
     1
 10
0.0
 20
0.0
 30
0.0
  0
VERTEX
  5
1A9
330
1A8
100
AcDbEntity
  8
GRAU_10_
 62
     7
100
AcDbVertex
100
AcDb2dVertex
 10
45.65044351072281
 20
221.2593627376539
 30
0.0
  0
VERTEX
  5
1AA
330
1A8
100
AcDbEntity
  8
GRAU_10_
 62
     7
100
AcDbVertex
100
AcDb2dVertex
 10
44.78227944843985
 20
221.8345214289164
 30
0.0
  0
VERTEX
  5
1AB
330
1A8
100
AcDbEntity
  8
GRAU_10_
 62
     7
100
AcDbVertex
100
AcDb2dVertex
 10
43.73738198776357
 20
222.5734944105025
 30
0.0
  0
VERTEX
  5
1AC
330
1A8
100
AcDbEntity
  8
GRAU_10_
 62
     7
100
AcDbVertex
100
AcDb2dVertex
 10
42.67301973759564
 20
223.3577703977196
 30
0.0
  0
SEQEND
  5
1AD
330
1A8
100
AcDbEntity
  8
GRAU_10_
  0
POLYLINE
  5
1AE
330
1F
100
AcDbEntity
  8
GRAU_10_
 62
     7
100
AcDb2dPolyline
 66
     1
 10
0.0
 20
0.0
 30
0.0
  0
VERTEX
  5
1AF
330
1AE
100
AcDbEntity
  8
GRAU_10_
 62
     7
100
AcDbVertex
100
AcDb2dVertex
 10
51.87779810986041
 20
221.2727986100464
 30
0.0
  0
VERTEX
  5
1B0
330
1AE
100
AcDbEntity
  8
GRAU_10_
 62
     7
100
AcDbVertex
100
AcDb2dVertex
 10
51.70916068585743
 20
221.5864745539784
 30
0.0
  0
SEQEND
  5
1B1
330
1AE
100
AcDbEntity
  8
GRAU_10_
  0
POLYLINE
  5
1B2
330
1F
100
AcDbEntity
  8
GRAU_10_
 62
     7
100
AcDb2dPolyline
 66
     1
 10
0.0
 20
0.0
 30
0.0
  0
VERTEX
  5
1B3
330
1B2
100
AcDbEntity
  8
GRAU_10_
 62
     7
100
AcDbVertex
100
AcDb2dVertex
 10
35.98229979569193
 20
235.5144788365207
 30
0.0
  0
VERTEX
  5
1B4
330
1B2
100
AcDbEntity
  8
GRAU_10_
 62
     7
100
AcDbVertex
100
AcDb2dVertex
 10
36.16885171621821
 20
231.6847384403427
 30
0.0
  0
VERTEX
  5
1B5
330
1B2
100
AcDbEntity
  8
GRAU_10_
 62
     7
100
AcDbVertex
100
AcDb2dVertex
 10
36.34627413370857
 20
227.8548257893905
 30
0.0
  0
SEQEND
  5
1B6
330
1B2
100
AcDbEntity
  8
GRAU_10_
  0
POLYLINE
  5
1B7
330
1F
100
AcDbEntity
  8
GRAU_10_
 62
     7
100
AcDb2dPolyline
 66
     1
 10
0.0
 20
0.0
 30
0.0
  0
VERTEX
  5
1B8
330
1B7
100
AcDbEntity
  8
GRAU_10_
 62
     7
100
AcDbVertex
100
AcDb2dVertex
 10
51.22305771288868
 20
222.4577392021981
 30
0.0
  0
VERTEX
  5
1B9
330
1B7
100
AcDbEntity
  8
GRAU_10_
 62
     7
100
AcDbVertex
100
AcDb2dVertex
 10
51.46989880440683
 20
222.0224513876367
 30
0.0
  0
VERTEX
  5
1BA
330
1B7
100
AcDbEntity
  8
GRAU_10_
 62
     7
100
AcDbVertex
100
AcDb2dVertex
 10
51.70916068585743
 20
221.5864745539784
 30
0.0
  0
SEQEND
  5
1BB
330
1B7
100
AcDbEntity
  8
GRAU_10_
  0
POLYLINE
  5
1BC
330
1F
100
AcDbEntity
  8
GRAU_10_
 62
     7
100
AcDb2dPolyline
 66
     1
 10
0.0
 20
0.0
 30
0.0
  0
VERTEX
  5
1BD
330
1BC
100
AcDbEntity
  8
GRAU_10_
 62
     7
100
AcDbVertex
100
AcDb2dVertex
 10
35.98229979569193
 20
235.5144788365207
 30
0.0
  0
VERTEX
  5
1BE
330
1BC
100
AcDbEntity
  8
GRAU_10_
 62
     7
100
AcDbVertex
100
AcDb2dVertex
 10
36.02209064854656
 20
235.5148233460692
 30
0.0
  0
VERTEX
  5
1BF
330
1BC
100
AcDbEntity
  8
GRAU_10_
 62
     7
100
AcDbVertex
100
AcDb2dVertex
 10
36.06274277527251
 20
235.5158568747148
 30
0.0
  0
VERTEX
  5
1C0
330
1BC
100
AcDbEntity
  8
GRAU_10_
 62
     7
100
AcDbVertex
100
AcDb2dVertex
 10
36.10546195928961
 20
235.5162013842633
 30
0.0
  0
VERTEX
  5
1C1
330
1BC
100
AcDbEntity
  8
GRAU_10_
 62
     7
100
AcDbVertex
100
AcDb2dVertex
 10
36.14955918150081
 20
235.5162013842633
 30
0.0
  0
VERTEX
  5
1C2
330
1BC
100
AcDbEntity
  8
GRAU_10_
 62
     7
100
AcDbVertex
100
AcDb2dVertex
 10
36.19537895145463
 20
235.5162013842633
 30
0.0
  0
VERTEX
  5
1C3
330
1BC
100
AcDbEntity
  8
GRAU_10_
 62
     7
100
AcDbVertex
100
AcDb2dVertex
 10
36.24257675960255
 20
235.5162013842633
 30
0.0
  0
VERTEX
  5
1C4
330
1BC
100
AcDbEntity
  8
GRAU_10_
 62
     7
100
AcDbVertex
100
AcDb2dVertex
 10
36.29201387981589
 20
235.5158568747148
 30
0.0
  0
VERTEX
  5
1C5
330
1BC
100
AcDbEntity
  8
GRAU_10_
 62
     7
100
AcDbVertex
100
AcDb2dVertex
 10
36.34282903822332
 20
235.5148233460692
 30
0.0
  0
VERTEX
  5
1C6
330
1BC
100
AcDbEntity
  8
GRAU_10_
 62
     7
100
AcDbVertex
100
AcDb2dVertex
 10
36.39536674437338
 20
235.5141343269722
 30
0.0
  0
VERTEX
  5
1C7
330
1BC
100
AcDbEntity
  8
GRAU_10_
 62
     7
100
AcDbVertex
100
AcDb2dVertex
 10
36.44979925304033
 20
235.5129285435523
 30
0.0
  0
VERTEX
  5
1C8
330
1BC
100
AcDbEntity
  8
GRAU_10_
 62
     7
100
AcDbVertex
100
AcDb2dVertex
 10
36.50612656422417
 20
235.5112059958097
 30
0.0
  0
VERTEX
  5
1C9
330
1BC
100
AcDbEntity
  8
GRAU_10_
 62
     7
100
AcDbVertex
100
AcDb2dVertex
 10
36.56469318747341
 20
235.5094834480671
 30
0.0
  0
VERTEX
  5
1CA
330
1BC
100
AcDbEntity
  8
GRAU_10_
 62
     7
100
AcDbVertex
100
AcDb2dVertex
 10
36.62567137756233
 20
235.5074163907759
 30
0.0
  0
VERTEX
  5
1CB
330
1BC
100
AcDbEntity
  8
GRAU_10_
 62
     7
100
AcDbVertex
100
AcDb2dVertex
 10
36.68957789881372
 20
235.5046603143877
 30
0.0
  0
VERTEX
  5
1CC
330
1BC
100
AcDbEntity
  8
GRAU_10_
 62
     7
100
AcDbVertex
100
AcDb2dVertex
 10
36.75555147735625
 20
235.5020764927738
 30
0.0
  0
VERTEX
  5
1CD
330
1BC
100
AcDbEntity
  8
GRAU_10_
 62
     7
100
AcDbVertex
100
AcDb2dVertex
 10
36.82428113228698
 20
235.4989759068371
 30
0.0
  0
SEQEND
  5
1CE
330
1BC
100
AcDbEntity
  8
GRAU_10_
  0
POLYLINE
  5
1CF
330
1F
100
AcDbEntity
  8
GRAU_10_
 62
     7
100
AcDb2dPolyline
 66
     1
 10
0.0
 20
0.0
 30
0.0
  0
VERTEX
  5
1D0
330
1CF
100
AcDbEntity
  8
GRAU_10_
 62
     7
100
AcDbVertex
100
AcDb2dVertex
 10
42.65958386520316
 20
232.0304537722875
 30
0.0
  0
VERTEX
  5
1D1
330
1CF
100
AcDbEntity
  8
GRAU_10_
 62
     7
100
AcDbVertex
100
AcDb2dVertex
 10
42.00243190139175
 20
232.536710553845
 30
0.0
  0
VERTEX
  5
1D2
330
1CF
100
AcDbEntity
  8
GRAU_10_
 62
     7
100
AcDbVertex
100
AcDb2dVertex
 10
41.32409260034606
 20
233.0231580363623
 30
0.0
  0
VERTEX
  5
1D3
330
1CF
100
AcDbEntity
  8
GRAU_10_
 62
     7
100
AcDbVertex
100
AcDb2dVertex
 10
40.62525498116313
 20
233.4894517102908
 30
0.0
  0
VERTEX
  5
1D4
330
1CF
100
AcDbEntity
  8
GRAU_10_
 62
     7
100
AcDbVertex
100
AcDb2dVertex
 10
39.90626355339149
 20
233.9350748113079
 30
0.0
  0
VERTEX
  5
1D5
330
1CF
100
AcDbEntity
  8
GRAU_10_
 62
     7
100
AcDbVertex
100
AcDb2dVertex
 10
39.16642929793409
 20
234.3591660655422
 30
0.0
  0
VERTEX
  5
1D6
330
1CF
100
AcDbEntity
  8
GRAU_10_
 62
     7
100
AcDbVertex
100
AcDb2dVertex
 10
38.40661348866224
 20
234.7615532182193
 30
0.0
  0
VERTEX
  5
1D7
330
1CF
100
AcDbEntity
  8
GRAU_10_
 62
     7
100
AcDbVertex
100
AcDb2dVertex
 10
37.62595485170463
 20
235.1415472502424
 30
0.0
  0
VERTEX
  5
1D8
330
1CF
100
AcDbEntity
  8
GRAU_10_
 62
     7
100
AcDbVertex
100
AcDb2dVertex
 10
36.82428113228698
 20
235.4989759068371
 30
0.0
  0
SEQEND
  5
1D9
330
1CF
100
AcDbEntity
  8
GRAU_10_
  0
POLYLINE
  5
1DA
330
1F
100
AcDbEntity
  8
GRAU_10_
 62
     7
100
AcDb2dPolyline
 66
     1
 10
0.0
 20
0.0
 30
0.0
  0
VERTEX
  5
1DB
330
1DA
100
AcDbEntity
  8
GRAU_10_
 62
     7
100
AcDbVertex
100
AcDb2dVertex
 10
51.22305771288868
 20
222.4577392021981
 30
0.0
  0
VERTEX
  5
1DC
330
1DA
100
AcDbEntity
  8
GRAU_10_
 62
     7
100
AcDbVertex
100
AcDb2dVertex
 10
50.08565943843345
 20
224.1754638111437
 30
0.0
  0
VERTEX
  5
1DD
330
1DA
100
AcDbEntity
  8
GRAU_10_
 62
     7
100
AcDbVertex
100
AcDb2dVertex
 10
48.83078340793119
 20
225.8521917838147
 30
0.0
  0
VERTEX
  5
1DE
330
1DA
100
AcDbEntity
  8
GRAU_10_
 62
     7
100
AcDbVertex
100
AcDb2dVertex
 10
47.46101344299586
 20
227.4820664578864
 30
0.0
  0
VERTEX
  5
1DF
330
1DA
100
AcDbEntity
  8
GRAU_10_
 62
     7
100
AcDbVertex
100
AcDb2dVertex
 10
45.97617728885318
 20
229.0592311710338
 30
0.0
  0
VERTEX
  5
1E0
330
1DA
100
AcDbEntity
  8
GRAU_10_
 62
     7
100
AcDbVertex
100
AcDb2dVertex
 10
44.37627494550316
 20
230.5773124966092
 30
0.0
  0
VERTEX
  5
1E1
330
1DA
100
AcDbEntity
  8
GRAU_10_
 62
     7
100
AcDbVertex
100
AcDb2dVertex
 10
42.65958386520316
 20
232.0304537722875
 30
0.0
  0
SEQEND
  5
1E2
330
1DA
100
AcDbEntity
  8
GRAU_10_
  0
POLYLINE
  5
1E3
330
1F
100
AcDbEntity
  8
GRAU_10_
 62
     7
100
AcDb2dPolyline
 66
     1
 10
0.0
 20
0.0
 30
0.0
  0
VERTEX
  5
1E4
330
1E3
100
AcDbEntity
  8
GRAU_10_
 62
     7
100
AcDbVertex
100
AcDb2dVertex
 10
172.4759493926449
 20
201.0096082396782
 30
0.0
  0
VERTEX
  5
1E5
330
1E3
100
AcDbEntity
  8
GRAU_10_
 62
     7
100
AcDbVertex
100
AcDb2dVertex
 10
172.4759493926449
 20
208.2729030512304
 30
0.0
  0
SEQEND
  5
1E6
330
1E3
100
AcDbEntity
  8
GRAU_10_
  0
POLYLINE
  5
1E7
330
1F
100
AcDbEntity
  8
GRAU_10_
 62
     7
100
AcDb2dPolyline
 66
     1
 10
0.0
 20
0.0
 30
0.0
  0
VERTEX
  5
1E8
330
1E7
100
AcDbEntity
  8
GRAU_10_
 62
     7
100
AcDbVertex
100
AcDb2dVertex
 10
121.1896741776019
 20
201.0096082396782
 30
0.0
  0
VERTEX
  5
1E9
330
1E7
100
AcDbEntity
  8
GRAU_10_
 62
     7
100
AcDbVertex
100
AcDb2dVertex
 10
172.4759493926449
 20
201.0096082396782
 30
0.0
  0
SEQEND
  5
1EA
330
1E7
100
AcDbEntity
  8
GRAU_10_
  0
POLYLINE
  5
1EB
330
1F
100
AcDbEntity
  8
GRAU_10_
 62
     7
100
AcDb2dPolyline
 66
     1
 10
0.0
 20
0.0
 30
0.0
  0
VERTEX
  5
1EC
330
1EB
100
AcDbEntity
  8
GRAU_10_
 62
     7
100
AcDbVertex
100
AcDb2dVertex
 10
109.9819172902129
 20
212.2173651270672
 30
0.0
  0
VERTEX
  5
1ED
330
1EB
100
AcDbEntity
  8
GRAU_10_
 62
     7
100
AcDbVertex
100
AcDb2dVertex
 10
121.1896741776019
 20
201.0096082396782
 30
0.0
  0
SEQEND
  5
1EE
330
1EB
100
AcDbEntity
  8
GRAU_10_
  0
POLYLINE
  5
1EF
330
1F
100
AcDbEntity
  8
GRAU_10_
 62
     7
100
AcDb2dPolyline
 66
     1
 10
0.0
 20
0.0
 30
0.0
  0
VERTEX
  5
1F0
330
1EF
100
AcDbEntity
  8
GRAU_10_
 62
     7
100
AcDbVertex
100
AcDb2dVertex
 10
109.9819172902129
 20
212.2173651270672
 30
0.0
  0
VERTEX
  5
1F1
330
1EF
100
AcDbEntity
  8
GRAU_10_
 62
     7
100
AcDbVertex
100
AcDb2dVertex
 10
107.0141397844444
 20
221.6068006173414
 30
0.0
  0
SEQEND
  5
1F2
330
1EF
100
AcDbEntity
  8
GRAU_10_
  0
POLYLINE
  5
1F3
330
1F
100
AcDbEntity
  8
GRAU_10_
 62
     7
100
AcDb2dPolyline
 66
     1
 10
0.0
 20
0.0
 30
0.0
  0
VERTEX
  5
1F4
330
1F3
100
AcDbEntity
  8
GRAU_10_
 62
     7
100
AcDbVertex
100
AcDb2dVertex
 10
115.0341498193317
 20
227.1973293160305
 30
0.0
  0
VERTEX
  5
1F5
330
1F3
100
AcDbEntity
  8
GRAU_10_
 62
     7
100
AcDbVertex
100
AcDb2dVertex
 10
120.2272867537973
 20
223.2001572792694
 30
0.0
  0
SEQEND
  5
1F6
330
1F3
100
AcDbEntity
  8
GRAU_10_
  0
POLYLINE
  5
1F7
330
1F
100
AcDbEntity
  8
GRAU_10_
 62
     7
100
AcDb2dPolyline
 66
     1
 10
0.0
 20
0.0
 30
0.0
  0
VERTEX
  5
1F8
330
1F7
100
AcDbEntity
  8
GRAU_10_
 62
     7
100
AcDbVertex
100
AcDb2dVertex
 10
159.4760538338289
 20
221.2731431195949
 30
0.0
  0
VERTEX
  5
1F9
330
1F7
100
AcDbEntity
  8
GRAU_10_
 62
     7
100
AcDbVertex
100
AcDb2dVertex
 10
128.3804497291896
 20
221.2731431195949
 30
0.0
  0
SEQEND
  5
1FA
330
1F7
100
AcDbEntity
  8
GRAU_10_
  0
POLYLINE
  5
1FB
330
1F
100
AcDbEntity
  8
GRAU_10_
 62
     7
100
AcDb2dPolyline
 66
     1
 10
0.0
 20
0.0
 30
0.0
  0
VERTEX
  5
1FC
330
1FB
100
AcDbEntity
  8
GRAU_10_
 62
     7
100
AcDbVertex
100
AcDb2dVertex
 10
172.4759493926449
 20
208.2729030512304
 30
0.0
  0
VERTEX
  5
1FD
330
1FB
100
AcDbEntity
  8
GRAU_10_
 62
     7
100
AcDbVertex
100
AcDb2dVertex
 10
159.4760538338289
 20
221.2731431195949
 30
0.0
  0
SEQEND
  5
1FE
330
1FB
100
AcDbEntity
  8
GRAU_10_
  0
POLYLINE
  5
1FF
330
1F
100
AcDbEntity
  8
GRAU_10_
 62
     7
100
AcDb2dPolyline
 66
     1
 10
0.0
 20
0.0
 30
0.0
  0
VERTEX
  5
200
330
1FF
100
AcDbEntity
  8
GRAU_10_
 62
     7
100
AcDbVertex
100
AcDb2dVertex
 10
122.4762450865684
 20
199.7230373307116
 30
0.0
  0
VERTEX
  5
201
330
1FF
100
AcDbEntity
  8
GRAU_10_
 62
     7
100
AcDbVertex
100
AcDb2dVertex
 10
121.1896741776019
 20
201.0096082396782
 30
0.0
  0
SEQEND
  5
202
330
1FF
100
AcDbEntity
  8
GRAU_10_
  0
POLYLINE
  5
203
330
1F
100
AcDbEntity
  8
GRAU_10_
 62
     7
100
AcDb2dPolyline
 66
     1
 10
0.0
 20
0.0
 30
0.0
  0
VERTEX
  5
204
330
203
100
AcDbEntity
  8
GRAU_10_
 62
     7
100
AcDbVertex
100
AcDb2dVertex
 10
172.4759493926449
 20
201.0096082396782
 30
0.0
  0
VERTEX
  5
205
330
203
100
AcDbEntity
  8
GRAU_10_
 62
     7
100
AcDbVertex
100
AcDb2dVertex
 10
172.4759493926449
 20
200.5235052667094
 30
0.0
  0
SEQEND
  5
206
330
203
100
AcDbEntity
  8
GRAU_10_
  0
POLYLINE
  5
207
330
1F
100
AcDbEntity
  8
GRAU_10_
 62
     7
100
AcDb2dPolyline
 66
     1
 10
0.0
 20
0.0
 30
0.0
  0
VERTEX
  5
208
330
207
100
AcDbEntity
  8
GRAU_10_
 62
     7
100
AcDbVertex
100
AcDb2dVertex
 10
171.6765149852927
 20
199.7230373307116
 30
0.0
  0
VERTEX
  5
209
330
207
100
AcDbEntity
  8
GRAU_10_
 62
     7
100
AcDbVertex
100
AcDb2dVertex
 10
172.4759493926449
 20
200.5235052667094
 30
0.0
  0
SEQEND
  5
20A
330
207
100
AcDbEntity
  8
GRAU_10_
  0
POLYLINE
  5
20B
330
1F
100
AcDbEntity
  8
GRAU_10_
 62
     7
100
AcDb2dPolyline
 66
     1
 10
0.0
 20
0.0
 30
0.0
  0
VERTEX
  5
20C
330
20B
100
AcDbEntity
  8
GRAU_10_
 62
     7
100
AcDbVertex
100
AcDb2dVertex
 10
122.4762450865684
 20
199.7230373307116
 30
0.0
  0
VERTEX
  5
20D
330
20B
100
AcDbEntity
  8
GRAU_10_
 62
     7
100
AcDbVertex
100
AcDb2dVertex
 10
171.6765149852927
 20
199.7230373307116
 30
0.0
  0
SEQEND
  5
20E
330
20B
100
AcDbEntity
  8
GRAU_10_
  0
POLYLINE
  5
20F
330
1F
100
AcDbEntity
  8
GRAU_10_
 62
     7
100
AcDb2dPolyline
 66
     1
 10
0.0
 20
0.0
 30
0.0
  0
VERTEX
  5
210
330
20F
100
AcDbEntity
  8
GRAU_10_
 62
     7
100
AcDbVertex
100
AcDb2dVertex
 10
120.2272867537973
 20
223.2001572792694
 30
0.0
  0
VERTEX
  5
211
330
20F
100
AcDbEntity
  8
GRAU_10_
 62
     7
100
AcDbVertex
100
AcDb2dVertex
 10
121.4265244922128
 20
222.405201496048
 30
0.0
  0
VERTEX
  5
212
330
20F
100
AcDbEntity
  8
GRAU_10_
 62
     7
100
AcDbVertex
100
AcDb2dVertex
 10
122.725325490152
 20
221.7868068564457
 30
0.0
  0
VERTEX
  5
213
330
20F
100
AcDbEntity
  8
GRAU_10_
 62
     7
100
AcDbVertex
100
AcDb2dVertex
 10
124.0976792767013
 20
221.3582369780806
 30
0.0
  0
VERTEX
  5
214
330
20F
100
AcDbEntity
  8
GRAU_10_
 62
     7
100
AcDbVertex
100
AcDb2dVertex
 10
125.5161973427529
 20
221.1274155805689
 30
0.0
  0
VERTEX
  5
215
330
20F
100
AcDbEntity
  8
GRAU_10_
 62
     7
100
AcDbVertex
100
AcDb2dVertex
 10
126.9538356887477
 20
221.0993380523641
 30
0.0
  0
VERTEX
  5
216
330
20F
100
AcDbEntity
  8
GRAU_10_
 62
     7
100
AcDbVertex
100
AcDb2dVertex
 10
128.3804497291896
 20
221.2731431195949
 30
0.0
  0
SEQEND
  5
217
330
20F
100
AcDbEntity
  8
GRAU_10_
  0
POLYLINE
  5
218
330
1F
100
AcDbEntity
  8
GRAU_10_
 62
     7
100
AcDb2dPolyline
 66
     1
 10
0.0
 20
0.0
 30
0.0
  0
VERTEX
  5
219
330
218
100
AcDbEntity
  8
GRAU_10_
 62
     7
100
AcDbVertex
100
AcDb2dVertex
 10
35.1208536696052
 20
168.5592203354644
 30
0.0
  0
VERTEX
  5
21A
330
218
100
AcDbEntity
  8
GRAU_10_
 62
     7
100
AcDbVertex
100
AcDb2dVertex
 10
34.92034911236367
 20
168.5592203354644
 30
0.0
  0
SEQEND
  5
21B
330
218
100
AcDbEntity
  8
GRAU_10_
  0
POLYLINE
  5
21C
330
1F
100
AcDbEntity
  8
GRAU_10_
 62
     7
100
AcDb2dPolyline
 66
     1
 10
0.0
 20
0.0
 30
0.0
  0
VERTEX
  5
21D
330
21C
100
AcDbEntity
  8
GRAU_10_
 62
     7
100
AcDbVertex
100
AcDb2dVertex
 10
36.34713540757988
 20
158.1004272065686
 30
0.0
  0
VERTEX
  5
21E
330
21C
100
AcDbEntity
  8
GRAU_10_
 62
     7
100
AcDbVertex
100
AcDb2dVertex
 10
34.22788491982845
 20
154.5745442321897
 30
0.0
  0
SEQEND
  5
21F
330
21C
100
AcDbEntity
  8
GRAU_10_
  0
POLYLINE
  5
220
330
1F
100
AcDbEntity
  8
GRAU_10_
 62
     7
100
AcDb2dPolyline
 66
     1
 10
0.0
 20
0.0
 30
0.0
  0
VERTEX
  5
221
330
220
100
AcDbEntity
  8
GRAU_10_
 62
     7
100
AcDbVertex
100
AcDb2dVertex
 10
30.3607652376355
 20
156.6583102364431
 30
0.0
  0
VERTEX
  5
222
330
220
100
AcDbEntity
  8
GRAU_10_
 62
     7
100
AcDbVertex
100
AcDb2dVertex
 10
30.3607652376355
 20
151.4410576335807
 30
0.0
  0
SEQEND
  5
223
330
220
100
AcDbEntity
  8
GRAU_10_
  0
POLYLINE
  5
224
330
1F
100
AcDbEntity
  8
GRAU_10_
 62
     7
100
AcDb2dPolyline
 66
     1
 10
0.0
 20
0.0
 30
0.0
  0
VERTEX
  5
225
330
224
100
AcDbEntity
  8
GRAU_10_
 62
     7
100
AcDbVertex
100
AcDb2dVertex
 10
41.44966633078342
 20
157.6658284111044
 30
0.0
  0
VERTEX
  5
226
330
224
100
AcDbEntity
  8
GRAU_10_
 62
     7
100
AcDbVertex
100
AcDb2dVertex
 10
41.3018717344662
 20
157.5307806680826
 30
0.0
  0
SEQEND
  5
227
330
224
100
AcDbEntity
  8
GRAU_10_
  0
POLYLINE
  5
228
330
1F
100
AcDbEntity
  8
GRAU_10_
 62
     7
100
AcDb2dPolyline
 66
     1
 10
0.0
 20
0.0
 30
0.0
  0
VERTEX
  5
229
330
228
100
AcDbEntity
  8
GRAU_10_
 62
     7
100
AcDbVertex
100
AcDb2dVertex
 10
52.66052380410918
 20
132.3691812820119
 30
0.0
  0
VERTEX
  5
22A
330
228
100
AcDbEntity
  8
GRAU_10_
 62
     7
100
AcDbVertex
100
AcDb2dVertex
 10
46.71308321314812
 20
139.9564873239518
 30
0.0
  0
SEQEND
  5
22B
330
228
100
AcDbEntity
  8
GRAU_10_
  0
POLYLINE
  5
22C
330
1F
100
AcDbEntity
  8
GRAU_10_
 62
     7
100
AcDb2dPolyline
 66
     1
 10
0.0
 20
0.0
 30
0.0
  0
VERTEX
  5
22D
330
22C
100
AcDbEntity
  8
GRAU_10_
 62
     7
100
AcDbVertex
100
AcDb2dVertex
 10
52.66052380410918
 20
112.1924628083234
 30
0.0
  0
VERTEX
  5
22E
330
22C
100
AcDbEntity
  8
GRAU_10_
 62
     7
100
AcDbVertex
100
AcDb2dVertex
 10
52.66052380410918
 20
132.3691812820119
 30
0.0
  0
SEQEND
  5
22F
330
22C
100
AcDbEntity
  8
GRAU_10_
  0
POLYLINE
  5
230
330
1F
100
AcDbEntity
  8
GRAU_10_
 62
     7
100
AcDb2dPolyline
 66
     1
 10
0.0
 20
0.0
 30
0.0
  0
VERTEX
  5
231
330
230
100
AcDbEntity
  8
GRAU_10_
 62
     7
100
AcDbVertex
100
AcDb2dVertex
 10
52.66052380410918
 20
112.1924628083234
 30
0.0
  0
VERTEX
  5
232
330
230
100
AcDbEntity
  8
GRAU_10_
 62
     7
100
AcDbVertex
100
AcDb2dVertex
 10
30.3607652376355
 20
112.1924628083234
 30
0.0
  0
VERTEX
  5
233
330
230
100
AcDbEntity
  8
GRAU_10_
 62
     7
100
AcDbVertex
100
AcDb2dVertex
 10
30.3607652376355
 20
143.2880669129627
 30
0.0
  0
SEQEND
  5
234
330
230
100
AcDbEntity
  8
GRAU_10_
  0
POLYLINE
  5
235
330
1F
100
AcDbEntity
  8
GRAU_10_
 62
     7
100
AcDb2dPolyline
 66
     1
 10
0.0
 20
0.0
 30
0.0
  0
VERTEX
  5
236
330
235
100
AcDbEntity
  8
GRAU_10_
 62
     7
100
AcDbVertex
100
AcDb2dVertex
 10
44.16078422290078
 20
99.19187823041037
 30
0.0
  0
VERTEX
  5
237
330
235
100
AcDbEntity
  8
GRAU_10_
 62
     7
100
AcDbVertex
100
AcDb2dVertex
 10
54.3072794460586
 20
109.3392347274395
 30
0.0
  0
SEQEND
  5
238
330
235
100
AcDbEntity
  8
GRAU_10_
  0
POLYLINE
  5
239
330
1F
100
AcDbEntity
  8
GRAU_10_
 62
     7
100
AcDb2dPolyline
 66
     1
 10
0.0
 20
0.0
 30
0.0
  0
VERTEX
  5
23A
330
239
100
AcDbEntity
  8
GRAU_10_
 62
     7
100
AcDbVertex
100
AcDb2dVertex
 10
44.16078422290078
 20
99.19187823041037
 30
0.0
  0
VERTEX
  5
23B
330
239
100
AcDbEntity
  8
GRAU_10_
 62
     7
100
AcDbVertex
100
AcDb2dVertex
 10
30.3607652376355
 20
99.19187823041037
 30
0.0
  0
SEQEND
  5
23C
330
239
100
AcDbEntity
  8
GRAU_10_
  0
POLYLINE
  5
23D
330
1F
100
AcDbEntity
  8
GRAU_10_
 62
     7
100
AcDb2dPolyline
 66
     1
 10
0.0
 20
0.0
 30
0.0
  0
VERTEX
  5
23E
330
23D
100
AcDbEntity
  8
GRAU_10_
 62
     7
100
AcDbVertex
100
AcDb2dVertex
 10
52.66052380410918
 20
112.1924628083234
 30
0.0
  0
VERTEX
  5
23F
330
23D
100
AcDbEntity
  8
GRAU_10_
 62
     7
100
AcDbVertex
100
AcDb2dVertex
 10
54.3072794460586
 20
109.3392347274395
 30
0.0
  0
SEQEND
  5
240
330
23D
100
AcDbEntity
  8
GRAU_10_
  0
POLYLINE
  5
241
330
1F
100
AcDbEntity
  8
GRAU_10_
 62
     7
100
AcDb2dPolyline
 66
     1
 10
0.0
 20
0.0
 30
0.0
  0
VERTEX
  5
242
330
241
100
AcDbEntity
  8
GRAU_10_
 62
     7
100
AcDbVertex
100
AcDb2dVertex
 10
30.3607652376355
 20
99.19187823041037
 30
0.0
  0
VERTEX
  5
243
330
241
100
AcDbEntity
  8
GRAU_10_
 62
     7
100
AcDbVertex
100
AcDb2dVertex
 10
30.3607652376355
 20
112.1924628083234
 30
0.0
  0
SEQEND
  5
244
330
241
100
AcDbEntity
  8
GRAU_10_
  0
POLYLINE
  5
245
330
1F
100
AcDbEntity
  8
GRAU_10_
 62
     7
100
AcDb2dPolyline
 66
     1
 10
0.0
 20
0.0
 30
0.0
  0
VERTEX
  5
246
330
245
100
AcDbEntity
  8
GRAU_10_
 62
     7
100
AcDbVertex
100
AcDb2dVertex
 10
53.96053058546821
 20
143.1518133865211
 30
0.0
  0
VERTEX
  5
247
330
245
100
AcDbEntity
  8
GRAU_10_
 62
     7
100
AcDbVertex
100
AcDb2dVertex
 10
52.33806286668979
 20
146.247231680018
 30
0.0
  0
SEQEND
  5
248
330
245
100
AcDbEntity
  8
GRAU_10_
  0
POLYLINE
  5
249
330
1F
100
AcDbEntity
  8
GRAU_10_
 62
     7
100
AcDb2dPolyline
 66
     1
 10
0.0
 20
0.0
 30
0.0
  0
VERTEX
  5
24A
330
249
100
AcDbEntity
  8
GRAU_10_
 62
     7
100
AcDbVertex
100
AcDb2dVertex
 10
53.96053058546821
 20
143.1518133865211
 30
0.0
  0
VERTEX
  5
24B
330
249
100
AcDbEntity
  8
GRAU_10_
 62
     7
100
AcDbVertex
100
AcDb2dVertex
 10
52.66052380410918
 20
132.3691812820119
 30
0.0
  0
SEQEND
  5
24C
330
249
100
AcDbEntity
  8
GRAU_10_
  0
POLYLINE
  5
24D
330
1F
100
AcDbEntity
  8
GRAU_10_
 62
     7
100
AcDb2dPolyline
 66
     1
 10
0.0
 20
0.0
 30
0.0
  0
VERTEX
  5
24E
330
24D
100
AcDbEntity
  8
GRAU_10_
 62
     7
100
AcDbVertex
100
AcDb2dVertex
 10
55.15115558517055
 20
147.5870293142317
 30
0.0
  0
VERTEX
  5
24F
330
24D
100
AcDbEntity
  8
GRAU_10_
 62
     7
100
AcDbVertex
100
AcDb2dVertex
 10
55.03643390551173
 20
147.8836520355117
 30
0.0
  0
SEQEND
  5
250
330
24D
100
AcDbEntity
  8
GRAU_10_
  0
POLYLINE
  5
251
330
1F
100
AcDbEntity
  8
GRAU_10_
 62
     7
100
AcDb2dPolyline
 66
     1
 10
0.0
 20
0.0
 30
0.0
  0
VERTEX
  5
252
330
251
100
AcDbEntity
  8
GRAU_10_
 62
     7
100
AcDbVertex
100
AcDb2dVertex
 10
55.15115558517055
 20
147.5870293142317
 30
0.0
  0
VERTEX
  5
253
330
251
100
AcDbEntity
  8
GRAU_10_
 62
     7
100
AcDbVertex
100
AcDb2dVertex
 10
57.16016301739399
 20
136.1918592324451
 30
0.0
  0
VERTEX
  5
254
330
251
100
AcDbEntity
  8
GRAU_10_
 62
     7
100
AcDbVertex
100
AcDb2dVertex
 10
57.16016301739399
 20
112.1924628083234
 30
0.0
  0
VERTEX
  5
255
330
251
100
AcDbEntity
  8
GRAU_10_
 62
     7
100
AcDbVertex
100
AcDb2dVertex
 10
54.3072794460586
 20
109.3392347274395
 30
0.0
  0
SEQEND
  5
256
330
251
100
AcDbEntity
  8
GRAU_10_
  0
POLYLINE
  5
257
330
1F
100
AcDbEntity
  8
GRAU_10_
 62
     7
100
AcDb2dPolyline
 66
     1
 10
0.0
 20
0.0
 30
0.0
  0
VERTEX
  5
258
330
257
100
AcDbEntity
  8
GRAU_10_
 62
     7
100
AcDbVertex
100
AcDb2dVertex
 10
53.96053058546821
 20
143.1518133865211
 30
0.0
  0
VERTEX
  5
259
330
257
100
AcDbEntity
  8
GRAU_10_
 62
     7
100
AcDbVertex
100
AcDb2dVertex
 10
54.99164766420348
 20
147.6783243445908
 30
0.0
  0
SEQEND
  5
25A
330
257
100
AcDbEntity
  8
GRAU_10_
  0
POLYLINE
  5
25B
330
1F
100
AcDbEntity
  8
GRAU_10_
 62
     7
100
AcDb2dPolyline
 66
     1
 10
0.0
 20
0.0
 30
0.0
  0
VERTEX
  5
25C
330
25B
100
AcDbEntity
  8
GRAU_10_
 62
     7
100
AcDbVertex
100
AcDb2dVertex
 10
53.76622720010011
 20
155.4423637849241
 30
0.0
  0
VERTEX
  5
25D
330
25B
100
AcDbEntity
  8
GRAU_10_
 62
     7
100
AcDbVertex
100
AcDb2dVertex
 10
55.15115558517055
 20
147.5870293142317
 30
0.0
  0
SEQEND
  5
25E
330
25B
100
AcDbEntity
  8
GRAU_10_
  0
SPLINE
  5
25F
330
1F
100
AcDbEntity
  8
GRAU_10_
 62
     7
100
AcDbSpline
210
0.0
220
0.0
230
1.0
 70
    11
 71
     3
 72
    17
 73
    13
 74
     0
 42
0.0000000001
 43
0.0000000001
 40
0.0
 40
0.0
 40
0.0
 40
0.0
 40
1.0
 40
1.0
 40
1.0
 40
2.0
 40
2.0
 40
2.0
 40
3.0
 40
3.0
 40
3.0
 40
4.0
 40
4.0
 40
4.0
 40
4.0
 10
52.16064044919943
 20
124.1922471477714
 30
0.0
 10
52.16064044919943
 20
129.1628309138898
 30
0.0
 10
48.13125676965122
 20
133.1918700838895
 30
0.0
 10
43.16067300353275
 20
133.1918700838895
 30
0.0
 10
38.18991698264002
 20
133.1918700838895
 30
0.0
 10
34.16087781264034
 20
129.1628309138898
 30
0.0
 10
34.16087781264034
 20
124.1922471477714
 30
0.0
 10
34.16087781264034
 20
119.2214911268787
 30
0.0
 10
38.18991698264002
 20
115.1917629377819
 30
0.0
 10
43.16067300353275
 20
115.1917629377819
 30
0.0
 10
48.13125676965122
 20
115.1917629377819
 30
0.0
 10
52.16064044919943
 20
119.2214911268787
 30
0.0
 10
52.16064044919943
 20
124.1922471477714
 30
0.0
  0
SPLINE
  5
260
330
1F
100
AcDbEntity
  8
GRAU_10_
 62
     7
100
AcDbSpline
210
0.0
220
0.0
230
1.0
 70
    11
 71
     3
 72
    17
 73
    13
 74
     0
 42
0.0000000001
 43
0.0000000001
 40
0.0
 40
0.0
 40
0.0
 40
0.0
 40
1.0
 40
1.0
 40
1.0
 40
2.0
 40
2.0
 40
2.0
 40
3.0
 40
3.0
 40
3.0
 40
4.0
 40
4.0
 40
4.0
 40
4.0
 10
48.66042343618559
 20
124.1922471477714
 30
0.0
 10
48.66042343618559
 20
127.2299600918904
 30
0.0
 10
46.19838594765179
 20
129.6919975804242
 30
0.0
 10
43.16067300353275
 20
129.6919975804242
 30
0.0
 10
40.12313231418797
 20
129.6919975804242
 30
0.0
 10
37.66040580655712
 20
127.2299600918904
 30
0.0
 10
37.66040580655712
 20
124.1922471477714
 30
0.0
 10
37.66040580655712
 20
121.1547064584266
 30
0.0
 10
40.12313231418797
 20
118.6919799507958
 30
0.0
 10
43.16067300353275
 20
118.6919799507958
 30
0.0
 10
46.19838594765179
 20
118.6919799507958
 30
0.0
 10
48.66042343618559
 20
121.1547064584266
 30
0.0
 10
48.66042343618559
 20
124.1922471477714
 30
0.0
  0
SPLINE
  5
261
330
1F
100
AcDbEntity
  8
GRAU_10_
 62
     7
100
AcDbSpline
210
0.0
220
0.0
230
1.0
 70
    11
 71
     3
 72
    17
 73
    13
 74
     0
 42
0.0000000001
 43
0.0000000001
 40
0.0
 40
0.0
 40
0.0
 40
0.0
 40
1.0
 40
1.0
 40
1.0
 40
2.0
 40
2.0
 40
2.0
 40
3.0
 40
3.0
 40
3.0
 40
4.0
 40
4.0
 40
4.0
 40
4.0
 10
48.06063231220359
 20
124.1922471477714
 30
0.0
 10
48.06063231220359
 20
126.8983696514351
 30
0.0
 10
45.8667955071965
 20
129.0922064564422
 30
0.0
 10
43.16067300353275
 20
129.0922064564422
 30
0.0
 10
40.45403373554622
 20
129.0922064564422
 30
0.0
 10
38.26088594963617
 20
126.8983696514351
 30
0.0
 10
38.26088594963617
 20
124.1922471477714
 30
0.0
 10
38.26088594963617
 20
121.4857801345591
 30
0.0
 10
40.45403373554622
 20
119.2917710747778
 30
0.0
 10
43.16067300353275
 20
119.2917710747778
 30
0.0
 10
45.8667955071965
 20
119.2917710747778
 30
0.0
 10
48.06063231220359
 20
121.4857801345591
 30
0.0
 10
48.06063231220359
 20
124.1922471477714
 30
0.0
  0
POLYLINE
  5
262
330
1F
100
AcDbEntity
  8
GRAU_10_
 62
     7
100
AcDb2dPolyline
 66
     1
 10
0.0
 20
0.0
 30
0.0
  0
VERTEX
  5
263
330
262
100
AcDbEntity
  8
GRAU_10_
 62
     7
100
AcDbVertex
100
AcDb2dVertex
 10
41.44966633078342
 20
157.6658284111044
 30
0.0
  0
VERTEX
  5
264
330
262
100
AcDbEntity
  8
GRAU_10_
 62
     7
100
AcDbVertex
100
AcDb2dVertex
 10
42.70299206831731
 20
158.1558932438812
 30
0.0
  0
VERTEX
  5
265
330
262
100
AcDbEntity
  8
GRAU_10_
 62
     7
100
AcDbVertex
100
AcDb2dVertex
 10
43.9494276148807
 20
158.5227959130603
 30
0.0
  0
VERTEX
  5
266
330
262
100
AcDbEntity
  8
GRAU_10_
 62
     7
100
AcDbVertex
100
AcDb2dVertex
 10
45.18656140363392
 20
158.7661919090932
 30
0.0
  0
VERTEX
  5
267
330
262
100
AcDbEntity
  8
GRAU_10_
 62
     7
100
AcDbVertex
100
AcDb2dVertex
 10
46.41525470844827
 20
158.8857367224313
 30
0.0
  0
VERTEX
  5
268
330
262
100
AcDbEntity
  8
GRAU_10_
 62
     7
100
AcDbVertex
100
AcDb2dVertex
 10
47.63344047203262
 20
158.8816026078491
 30
0.0
  0
VERTEX
  5
269
330
262
100
AcDbEntity
  8
GRAU_10_
 62
     7
100
AcDbVertex
100
AcDb2dVertex
 10
48.84180771348399
 20
158.7544785844433
 30
0.0
  0
VERTEX
  5
26A
330
262
100
AcDbEntity
  8
GRAU_10_
 62
     7
100
AcDbVertex
100
AcDb2dVertex
 10
50.03828937551126
 20
158.5033311235686
 30
0.0
  0
VERTEX
  5
26B
330
262
100
AcDbEntity
  8
GRAU_10_
 62
     7
100
AcDbVertex
100
AcDb2dVertex
 10
51.22374673198573
 20
158.1286769895477
 30
0.0
  0
SEQEND
  5
26C
330
262
100
AcDbEntity
  8
GRAU_10_
  0
POLYLINE
  5
26D
330
1F
100
AcDbEntity
  8
GRAU_10_
 62
     7
100
AcDb2dPolyline
 66
     1
 10
0.0
 20
0.0
 30
0.0
  0
VERTEX
  5
26E
330
26D
100
AcDbEntity
  8
GRAU_10_
 62
     7
100
AcDbVertex
100
AcDb2dVertex
 10
41.44966633078342
 20
157.6658284111044
 30
0.0
  0
VERTEX
  5
26F
330
26D
100
AcDbEntity
  8
GRAU_10_
 62
     7
100
AcDbVertex
100
AcDb2dVertex
 10
40.72671304320374
 20
158.1336723780013
 30
0.0
  0
VERTEX
  5
270
330
26D
100
AcDbEntity
  8
GRAU_10_
 62
     7
100
AcDbVertex
100
AcDb2dVertex
 10
40.00186495310717
 20
158.4652628184566
 30
0.0
  0
VERTEX
  5
271
330
26D
100
AcDbEntity
  8
GRAU_10_
 62
     7
100
AcDbVertex
100
AcDb2dVertex
 10
39.27443304139667
 20
158.6628390445357
 30
0.0
  0
VERTEX
  5
272
330
26D
100
AcDbEntity
  8
GRAU_10_
 62
     7
100
AcDbVertex
100
AcDb2dVertex
 10
38.54527858194354
 20
158.7248507632702
 30
0.0
  0
VERTEX
  5
273
330
26D
100
AcDbEntity
  8
GRAU_10_
 62
     7
100
AcDbVertex
100
AcDb2dVertex
 10
37.813884810425
 20
158.6518147389829
 30
0.0
  0
VERTEX
  5
274
330
26D
100
AcDbEntity
  8
GRAU_10_
 62
     7
100
AcDbVertex
100
AcDb2dVertex
 10
37.08111300071236
 20
158.4433864621253
 30
0.0
  0
VERTEX
  5
275
330
26D
100
AcDbEntity
  8
GRAU_10_
 62
     7
100
AcDbVertex
100
AcDb2dVertex
 10
36.34713540757988
 20
158.1004272065686
 30
0.0
  0
SEQEND
  5
276
330
26D
100
AcDbEntity
  8
GRAU_10_
  0
POLYLINE
  5
277
330
1F
100
AcDbEntity
  8
GRAU_10_
 62
     7
100
AcDb2dPolyline
 66
     1
 10
0.0
 20
0.0
 30
0.0
  0
VERTEX
  5
278
330
277
100
AcDbEntity
  8
GRAU_10_
 62
     7
100
AcDbVertex
100
AcDb2dVertex
 10
34.92034911236367
 20
167.8471190986632
 30
0.0
  0
VERTEX
  5
279
330
277
100
AcDbEntity
  8
GRAU_10_
 62
     7
100
AcDbVertex
100
AcDb2dVertex
 10
35.33944497814431
 20
167.9285956068894
 30
0.0
  0
VERTEX
  5
27A
330
277
100
AcDbEntity
  8
GRAU_10_
 62
     7
100
AcDbVertex
100
AcDb2dVertex
 10
35.9833333243375
 20
168.0142062296978
 30
0.0
  0
SEQEND
  5
27B
330
277
100
AcDbEntity
  8
GRAU_10_
  0
POLYLINE
  5
27C
330
1F
100
AcDbEntity
  8
GRAU_10_
 62
     7
100
AcDb2dPolyline
 66
     1
 10
0.0
 20
0.0
 30
0.0
  0
VERTEX
  5
27D
330
27C
100
AcDbEntity
  8
GRAU_10_
 62
     7
100
AcDbVertex
100
AcDb2dVertex
 10
36.23310274701812
 20
168.5328653550022
 30
0.0
  0
VERTEX
  5
27E
330
27C
100
AcDbEntity
  8
GRAU_10_
 62
     7
100
AcDbVertex
100
AcDb2dVertex
 10
35.58645832443672
 20
168.5526746540424
 30
0.0
  0
VERTEX
  5
27F
330
27C
100
AcDbEntity
  8
GRAU_10_
 62
     7
100
AcDbVertex
100
AcDb2dVertex
 10
35.1208536696052
 20
168.5592203354644
 30
0.0
  0
SEQEND
  5
280
330
27C
100
AcDbEntity
  8
GRAU_10_
  0
POLYLINE
  5
281
330
1F
100
AcDbEntity
  8
GRAU_10_
 62
     7
100
AcDb2dPolyline
 66
     1
 10
0.0
 20
0.0
 30
0.0
  0
VERTEX
  5
282
330
281
100
AcDbEntity
  8
GRAU_10_
 62
     7
100
AcDbVertex
100
AcDb2dVertex
 10
34.22788491982845
 20
154.5745442321897
 30
0.0
  0
VERTEX
  5
283
330
281
100
AcDbEntity
  8
GRAU_10_
 62
     7
100
AcDbVertex
100
AcDb2dVertex
 10
34.09989962255142
 20
154.1690564935758
 30
0.0
  0
VERTEX
  5
284
330
281
100
AcDbEntity
  8
GRAU_10_
 62
     7
100
AcDbVertex
100
AcDb2dVertex
 10
34.19481200317005
 20
153.7475490609555
 30
0.0
  0
VERTEX
  5
285
330
281
100
AcDbEntity
  8
GRAU_10_
 62
     7
100
AcDbVertex
100
AcDb2dVertex
 10
34.51089951394172
 20
153.3112277177486
 30
0.0
  0
VERTEX
  5
286
330
281
100
AcDbEntity
  8
GRAU_10_
 62
     7
100
AcDbVertex
100
AcDb2dVertex
 10
35.04850666441496
 20
152.8614705021492
 30
0.0
  0
VERTEX
  5
287
330
281
100
AcDbEntity
  8
GRAU_10_
 62
     7
100
AcDbVertex
100
AcDb2dVertex
 10
35.80591090684713
 20
152.3986219237059
 30
0.0
  0
VERTEX
  5
288
330
281
100
AcDbEntity
  8
GRAU_10_
 62
     7
100
AcDbVertex
100
AcDb2dVertex
 10
36.78138969349563
 20
151.9250935492583
 30
0.0
  0
VERTEX
  5
289
330
281
100
AcDbEntity
  8
GRAU_10_
 62
     7
100
AcDbVertex
100
AcDb2dVertex
 10
37.97201469319797
 20
151.4410576335807
 30
0.0
  0
SEQEND
  5
28A
330
281
100
AcDbEntity
  8
GRAU_10_
  0
POLYLINE
  5
28B
330
1F
100
AcDbEntity
  8
GRAU_10_
 62
     7
100
AcDb2dPolyline
 66
     1
 10
0.0
 20
0.0
 30
0.0
  0
VERTEX
  5
28C
330
28B
100
AcDbEntity
  8
GRAU_10_
 62
     7
100
AcDbVertex
100
AcDb2dVertex
 10
41.3018717344662
 20
157.5307806680826
 30
0.0
  0
VERTEX
  5
28D
330
28B
100
AcDbEntity
  8
GRAU_10_
 62
     7
100
AcDbVertex
100
AcDb2dVertex
 10
40.98819579053421
 20
157.1557820245131
 30
0.0
  0
VERTEX
  5
28E
330
28B
100
AcDbEntity
  8
GRAU_10_
 62
     7
100
AcDbVertex
100
AcDb2dVertex
 10
40.84505207312207
 20
156.7635579035174
 30
0.0
  0
VERTEX
  5
28F
330
28B
100
AcDbEntity
  8
GRAU_10_
 62
     7
100
AcDbVertex
100
AcDb2dVertex
 10
40.87175156313276
 20
156.3546250694183
 30
0.0
  0
VERTEX
  5
290
330
28B
100
AcDbEntity
  8
GRAU_10_
 62
     7
100
AcDbVertex
100
AcDb2dVertex
 10
41.06863877011479
 20
155.929844796087
 30
0.0
  0
VERTEX
  5
291
330
28B
100
AcDbEntity
  8
GRAU_10_
 62
     7
100
AcDbVertex
100
AcDb2dVertex
 10
41.43519692974537
 20
155.4912841408147
 30
0.0
  0
VERTEX
  5
292
330
28B
100
AcDbEntity
  8
GRAU_10_
 62
     7
100
AcDbVertex
100
AcDb2dVertex
 10
41.97108153247598
 20
155.0391153583757
 30
0.0
  0
VERTEX
  5
293
330
28B
100
AcDbEntity
  8
GRAU_10_
 62
     7
100
AcDbVertex
100
AcDb2dVertex
 10
42.67336424714416
 20
154.5745442321897
 30
0.0
  0
SEQEND
  5
294
330
28B
100
AcDbEntity
  8
GRAU_10_
  0
POLYLINE
  5
295
330
1F
100
AcDbEntity
  8
GRAU_10_
 62
     7
100
AcDb2dPolyline
 66
     1
 10
0.0
 20
0.0
 30
0.0
  0
VERTEX
  5
296
330
295
100
AcDbEntity
  8
GRAU_10_
 62
     7
100
AcDbVertex
100
AcDb2dVertex
 10
53.09701740209033
 20
155.085279637878
 30
0.0
  0
VERTEX
  5
297
330
295
100
AcDbEntity
  8
GRAU_10_
 62
     7
100
AcDbVertex
100
AcDb2dVertex
 10
53.53127168800607
 20
153.9599391976211
 30
0.0
  0
VERTEX
  5
298
330
295
100
AcDbEntity
  8
GRAU_10_
 62
     7
100
AcDbVertex
100
AcDb2dVertex
 10
53.92814668790685
 20
152.7810275225686
 30
0.0
  0
VERTEX
  5
299
330
295
100
AcDbEntity
  8
GRAU_10_
 62
     7
100
AcDbVertex
100
AcDb2dVertex
 10
54.28195799424201
 20
151.565942344921
 30
0.0
  0
VERTEX
  5
29A
330
295
100
AcDbEntity
  8
GRAU_10_
 62
     7
100
AcDbVertex
100
AcDb2dVertex
 10
54.58771021855794
 20
150.3325981612016
 30
0.0
  0
VERTEX
  5
29B
330
295
100
AcDbEntity
  8
GRAU_10_
 62
     7
100
AcDbVertex
100
AcDb2dVertex
 10
54.84075248194954
 20
149.0990817227079
 30
0.0
  0
VERTEX
  5
29C
330
295
100
AcDbEntity
  8
GRAU_10_
 62
     7
100
AcDbVertex
100
AcDb2dVertex
 10
55.03643390551173
 20
147.8836520355117
 30
0.0
  0
SEQEND
  5
29D
330
295
100
AcDbEntity
  8
GRAU_10_
  0
POLYLINE
  5
29E
330
1F
100
AcDbEntity
  8
GRAU_10_
 62
     7
100
AcDb2dPolyline
 66
     1
 10
0.0
 20
0.0
 30
0.0
  0
VERTEX
  5
29F
330
29E
100
AcDbEntity
  8
GRAU_10_
 62
     7
100
AcDbVertex
100
AcDb2dVertex
 10
52.33806286668979
 20
146.247231680018
 30
0.0
  0
VERTEX
  5
2A0
330
29E
100
AcDbEntity
  8
GRAU_10_
 62
     7
100
AcDbVertex
100
AcDb2dVertex
 10
51.84110784294251
 20
146.9601941906905
 30
0.0
  0
VERTEX
  5
2A1
330
29E
100
AcDbEntity
  8
GRAU_10_
 62
     7
100
AcDbVertex
100
AcDb2dVertex
 10
51.09490016083739
 20
147.6783243445908
 30
0.0
  0
SEQEND
  5
2A2
330
29E
100
AcDbEntity
  8
GRAU_10_
  0
POLYLINE
  5
2A3
330
1F
100
AcDbEntity
  8
GRAU_10_
 62
     7
100
AcDb2dPolyline
 66
     1
 10
0.0
 20
0.0
 30
0.0
  0
VERTEX
  5
2A4
330
2A3
100
AcDbEntity
  8
GRAU_10_
 62
     7
100
AcDbVertex
100
AcDb2dVertex
 10
48.5887654500924
 20
146.247231680018
 30
0.0
  0
VERTEX
  5
2A5
330
2A3
100
AcDbEntity
  8
GRAU_10_
 62
     7
100
AcDbVertex
100
AcDb2dVertex
 10
49.49964869639245
 20
145.7017008099288
 30
0.0
  0
VERTEX
  5
2A6
330
2A3
100
AcDbEntity
  8
GRAU_10_
 62
     7
100
AcDbVertex
100
AcDb2dVertex
 10
50.21898463371262
 20
145.1549641564196
 30
0.0
  0
VERTEX
  5
2A7
330
2A3
100
AcDbEntity
  8
GRAU_10_
 62
     7
100
AcDbVertex
100
AcDb2dVertex
 10
50.74539522385879
 20
144.608572012459
 30
0.0
  0
VERTEX
  5
2A8
330
2A3
100
AcDbEntity
  8
GRAU_10_
 62
     7
100
AcDbVertex
100
AcDb2dVertex
 10
51.07629664521704
 20
144.0642469257895
 30
0.0
  0
VERTEX
  5
2A9
330
2A3
100
AcDbEntity
  8
GRAU_10_
 62
     7
100
AcDbVertex
100
AcDb2dVertex
 10
51.21203340733588
 20
143.5230224250568
 30
0.0
  0
VERTEX
  5
2AA
330
2A3
100
AcDbEntity
  8
GRAU_10_
 62
     7
100
AcDbVertex
100
AcDb2dVertex
 10
51.15105521724696
 20
142.9864488032291
 30
0.0
  0
VERTEX
  5
2AB
330
2A3
100
AcDbEntity
  8
GRAU_10_
 62
     7
100
AcDbVertex
100
AcDb2dVertex
 10
50.89387883927306
 20
142.4565931175977
 30
0.0
  0
VERTEX
  5
2AC
330
2A3
100
AcDbEntity
  8
GRAU_10_
 62
     7
100
AcDbVertex
100
AcDb2dVertex
 10
50.44188231160828
 20
141.9348334063566
 30
0.0
  0
VERTEX
  5
2AD
330
2A3
100
AcDbEntity
  8
GRAU_10_
 62
     7
100
AcDbVertex
100
AcDb2dVertex
 10
49.79489337947836
 20
141.4225477076999
 30
0.0
  0
VERTEX
  5
2AE
330
2A3
100
AcDbEntity
  8
GRAU_10_
 62
     7
100
AcDbVertex
100
AcDb2dVertex
 10
48.95704615746561
 20
140.9212863145961
 30
0.0
  0
VERTEX
  5
2AF
330
2A3
100
AcDbEntity
  8
GRAU_10_
 62
     7
100
AcDbVertex
100
AcDb2dVertex
 10
47.92834064557
 20
140.4319105009163
 30
0.0
  0
VERTEX
  5
2B0
330
2A3
100
AcDbEntity
  8
GRAU_10_
 62
     7
100
AcDbVertex
100
AcDb2dVertex
 10
46.71308321314812
 20
139.9564873239518
 30
0.0
  0
SEQEND
  5
2B1
330
2A3
100
AcDbEntity
  8
GRAU_10_
  0
POLYLINE
  5
2B2
330
1F
100
AcDbEntity
  8
GRAU_10_
 62
     7
100
AcDb2dPolyline
 66
     1
 10
0.0
 20
0.0
 30
0.0
  0
VERTEX
  5
2B3
330
2B2
100
AcDbEntity
  8
GRAU_10_
 62
     7
100
AcDbVertex
100
AcDb2dVertex
 10
30.3607652376355
 20
143.2880669129627
 30
0.0
  0
VERTEX
  5
2B4
330
2B2
100
AcDbEntity
  8
GRAU_10_
 62
     7
100
AcDbVertex
100
AcDb2dVertex
 10
31.42581650690049
 20
142.8982543588067
 30
0.0
  0
VERTEX
  5
2B5
330
2B2
100
AcDbEntity
  8
GRAU_10_
 62
     7
100
AcDbVertex
100
AcDb2dVertex
 10
32.68517116153357
 20
142.5115423905874
 30
0.0
  0
VERTEX
  5
2B6
330
2B2
100
AcDbEntity
  8
GRAU_10_
 62
     7
100
AcDbVertex
100
AcDb2dVertex
 10
34.13555636082375
 20
142.1298258108217
 30
0.0
  0
VERTEX
  5
2B7
330
2B2
100
AcDbEntity
  8
GRAU_10_
 62
     7
100
AcDbVertex
100
AcDb2dVertex
 10
35.77524955702841
 20
141.7524156004126
 30
0.0
  0
VERTEX
  5
2B8
330
2B2
100
AcDbEntity
  8
GRAU_10_
 62
     7
100
AcDbVertex
100
AcDb2dVertex
 10
37.60115016421083
 20
141.3801730332314
 30
0.0
  0
VERTEX
  5
2B9
330
2B2
100
AcDbEntity
  8
GRAU_10_
 62
     7
100
AcDbVertex
100
AcDb2dVertex
 10
39.61170788940263
 20
141.0141316379236
 30
0.0
  0
VERTEX
  5
2BA
330
2B2
100
AcDbEntity
  8
GRAU_10_
 62
     7
100
AcDbVertex
100
AcDb2dVertex
 10
41.802444108473
 20
140.6542914144892
 30
0.0
  0
VERTEX
  5
2BB
330
2B2
100
AcDbEntity
  8
GRAU_10_
 62
     7
100
AcDbVertex
100
AcDb2dVertex
 10
44.17094725458227
 20
140.3022026558967
 30
0.0
  0
VERTEX
  5
2BC
330
2B2
100
AcDbEntity
  8
GRAU_10_
 62
     7
100
AcDbVertex
100
AcDb2dVertex
 10
46.71308321314812
 20
139.9564873239518
 30
0.0
  0
SEQEND
  5
2BD
330
2B2
100
AcDbEntity
  8
GRAU_10_
  0
POLYLINE
  5
2BE
330
1F
100
AcDbEntity
  8
GRAU_10_
 62
     7
100
AcDb2dPolyline
 66
     1
 10
0.0
 20
0.0
 30
0.0
  0
VERTEX
  5
2BF
330
2BE
100
AcDbEntity
  8
GRAU_10_
 62
     7
100
AcDbVertex
100
AcDb2dVertex
 10
30.3607652376355
 20
151.4410576335807
 30
0.0
  0
VERTEX
  5
2C0
330
2BE
100
AcDbEntity
  8
GRAU_10_
 62
     7
100
AcDbVertex
100
AcDb2dVertex
 10
30.3607652376355
 20
150.2419921499395
 30
0.0
  0
VERTEX
  5
2C1
330
2BE
100
AcDbEntity
  8
GRAU_10_
 62
     7
100
AcDbVertex
100
AcDb2dVertex
 10
30.3607652376355
 20
148.9430188972261
 30
0.0
  0
VERTEX
  5
2C2
330
2BE
100
AcDbEntity
  8
GRAU_10_
 62
     7
100
AcDbVertex
100
AcDb2dVertex
 10
30.3607652376355
 20
147.570837365451
 30
0.0
  0
VERTEX
  5
2C3
330
2BE
100
AcDbEntity
  8
GRAU_10_
 62
     7
100
AcDbVertex
100
AcDb2dVertex
 10
30.3607652376355
 20
146.1519747898509
 30
0.0
  0
VERTEX
  5
2C4
330
2BE
100
AcDbEntity
  8
GRAU_10_
 62
     7
100
AcDbVertex
100
AcDb2dVertex
 10
30.3607652376355
 20
144.7146809534047
 30
0.0
  0
VERTEX
  5
2C5
330
2BE
100
AcDbEntity
  8
GRAU_10_
 62
     7
100
AcDbVertex
100
AcDb2dVertex
 10
30.3607652376355
 20
143.2880669129627
 30
0.0
  0
SEQEND
  5
2C6
330
2BE
100
AcDbEntity
  8
GRAU_10_
  0
POLYLINE
  5
2C7
330
1F
100
AcDbEntity
  8
GRAU_10_
 62
     7
100
AcDb2dPolyline
 66
     1
 10
0.0
 20
0.0
 30
0.0
  0
VERTEX
  5
2C8
330
2C7
100
AcDbEntity
  8
GRAU_10_
 62
     7
100
AcDbVertex
100
AcDb2dVertex
 10
51.22374673198573
 20
158.1286769895477
 30
0.0
  0
VERTEX
  5
2C9
330
2C7
100
AcDbEntity
  8
GRAU_10_
 62
     7
100
AcDbVertex
100
AcDb2dVertex
 10
50.08669296707902
 20
159.5549465204411
 30
0.0
  0
VERTEX
  5
2CA
330
2C7
100
AcDbEntity
  8
GRAU_10_
 62
     7
100
AcDbVertex
100
AcDb2dVertex
 10
48.83147242702825
 20
160.9000840526569
 30
0.0
  0
VERTEX
  5
2CB
330
2C7
100
AcDbEntity
  8
GRAU_10_
 62
     7
100
AcDbVertex
100
AcDb2dVertex
 10
47.46135795254438
 20
162.1737358535538
 30
0.0
  0
VERTEX
  5
2CC
330
2C7
100
AcDbEntity
  8
GRAU_10_
 62
     7
100
AcDbVertex
100
AcDb2dVertex
 10
45.97721081749876
 20
163.3836533879735
 30
0.0
  0
VERTEX
  5
2CD
330
2C7
100
AcDbEntity
  8
GRAU_10_
 62
     7
100
AcDbVertex
100
AcDb2dVertex
 10
44.37696396460021
 20
164.5368991016609
 30
0.0
  0
VERTEX
  5
2CE
330
2C7
100
AcDbEntity
  8
GRAU_10_
 62
     7
100
AcDbVertex
100
AcDb2dVertex
 10
42.66027288430021
 20
165.6410522046835
 30
0.0
  0
SEQEND
  5
2CF
330
2C7
100
AcDbEntity
  8
GRAU_10_
  0
POLYLINE
  5
2D0
330
1F
100
AcDbEntity
  8
GRAU_10_
 62
     7
100
AcDb2dPolyline
 66
     1
 10
0.0
 20
0.0
 30
0.0
  0
VERTEX
  5
2D1
330
2D0
100
AcDbEntity
  8
GRAU_10_
 62
     7
100
AcDbVertex
100
AcDb2dVertex
 10
35.9833333243375
 20
168.0142062296978
 30
0.0
  0
VERTEX
  5
2D2
330
2D0
100
AcDbEntity
  8
GRAU_10_
 62
     7
100
AcDbVertex
100
AcDb2dVertex
 10
36.16954073531525
 20
163.0580918646174
 30
0.0
  0
VERTEX
  5
2D3
330
2D0
100
AcDbEntity
  8
GRAU_10_
 62
     7
100
AcDbVertex
100
AcDb2dVertex
 10
36.34713540757988
 20
158.1004272065686
 30
0.0
  0
SEQEND
  5
2D4
330
2D0
100
AcDbEntity
  8
GRAU_10_
  0
POLYLINE
  5
2D5
330
1F
100
AcDbEntity
  8
GRAU_10_
 62
     7
100
AcDb2dPolyline
 66
     1
 10
0.0
 20
0.0
 30
0.0
  0
VERTEX
  5
2D6
330
2D5
100
AcDbEntity
  8
GRAU_10_
 62
     7
100
AcDbVertex
100
AcDb2dVertex
 10
35.9833333243375
 20
168.0142062296978
 30
0.0
  0
VERTEX
  5
2D7
330
2D5
100
AcDbEntity
  8
GRAU_10_
 62
     7
100
AcDbVertex
100
AcDb2dVertex
 10
36.02277966764361
 20
168.0241970066051
 30
0.0
  0
VERTEX
  5
2D8
330
2D5
100
AcDbEntity
  8
GRAU_10_
 62
     7
100
AcDbVertex
100
AcDb2dVertex
 10
36.06377630391808
 20
168.0343600382866
 30
0.0
  0
VERTEX
  5
2D9
330
2D5
100
AcDbEntity
  8
GRAU_10_
 62
     7
100
AcDbVertex
100
AcDb2dVertex
 10
36.10615097838666
 20
168.0445230699681
 30
0.0
  0
VERTEX
  5
2DA
330
2D5
100
AcDbEntity
  8
GRAU_10_
 62
     7
100
AcDbVertex
100
AcDb2dVertex
 10
36.15024820059786
 20
168.0548583564238
 30
0.0
  0
VERTEX
  5
2DB
330
2D5
100
AcDbEntity
  8
GRAU_10_
 62
     7
100
AcDbVertex
100
AcDb2dVertex
 10
36.19606797055168
 20
168.0650213881053
 30
0.0
  0
VERTEX
  5
2DC
330
2D5
100
AcDbEntity
  8
GRAU_10_
 62
     7
100
AcDbVertex
100
AcDb2dVertex
 10
36.2432657786996
 20
168.075356674561
 30
0.0
  0
VERTEX
  5
2DD
330
2D5
100
AcDbEntity
  8
GRAU_10_
 62
     7
100
AcDbVertex
100
AcDb2dVertex
 10
36.29270289891294
 20
168.0862087253396
 30
0.0
  0
VERTEX
  5
2DE
330
2D5
100
AcDbEntity
  8
GRAU_10_
 62
     7
100
AcDbVertex
100
AcDb2dVertex
 10
36.34351805732037
 20
168.0972330308924
 30
0.0
  0
VERTEX
  5
2DF
330
2D5
100
AcDbEntity
  8
GRAU_10_
 62
     7
100
AcDbVertex
100
AcDb2dVertex
 10
36.39605576347043
 20
168.1080850816709
 30
0.0
  0
VERTEX
  5
2E0
330
2D5
100
AcDbEntity
  8
GRAU_10_
 62
     7
100
AcDbVertex
100
AcDb2dVertex
 10
36.45048827213738
 20
168.1191093872237
 30
0.0
  0
VERTEX
  5
2E1
330
2D5
100
AcDbEntity
  8
GRAU_10_
 62
     7
100
AcDbVertex
100
AcDb2dVertex
 10
36.50647107377269
 20
168.1303059475508
 30
0.0
  0
VERTEX
  5
2E2
330
2D5
100
AcDbEntity
  8
GRAU_10_
 62
     7
100
AcDbVertex
100
AcDb2dVertex
 10
36.56503769702194
 20
168.1420192722006
 30
0.0
  0
VERTEX
  5
2E3
330
2D5
100
AcDbEntity
  8
GRAU_10_
 62
     7
100
AcDbVertex
100
AcDb2dVertex
 10
36.62618814188512
 20
168.1539048516247
 30
0.0
  0
VERTEX
  5
2E4
330
2D5
100
AcDbEntity
  8
GRAU_10_
 62
     7
100
AcDbVertex
100
AcDb2dVertex
 10
36.68957789881372
 20
168.1659626858231
 30
0.0
  0
VERTEX
  5
2E5
330
2D5
100
AcDbEntity
  8
GRAU_10_
 62
     7
100
AcDbVertex
100
AcDb2dVertex
 10
36.75658500600183
 20
168.1787095391185
 30
0.0
  0
VERTEX
  5
2E6
330
2D5
100
AcDbEntity
  8
GRAU_10_
 62
     7
100
AcDbVertex
100
AcDb2dVertex
 10
36.82548691570683
 20
168.1912841376397
 30
0.0
  0
SEQEND
  5
2E7
330
2D5
100
AcDbEntity
  8
GRAU_10_
  0
POLYLINE
  5
2E8
330
1F
100
AcDbEntity
  8
GRAU_10_
 62
     7
100
AcDb2dPolyline
 66
     1
 10
0.0
 20
0.0
 30
0.0
  0
VERTEX
  5
2E9
330
2E8
100
AcDbEntity
  8
GRAU_10_
 62
     7
100
AcDbVertex
100
AcDb2dVertex
 10
42.66027288430021
 20
165.6410522046835
 30
0.0
  0
VERTEX
  5
2EA
330
2E8
100
AcDbEntity
  8
GRAU_10_
 62
     7
100
AcDbVertex
100
AcDb2dVertex
 10
41.32478161944312
 20
166.3882934154342
 30
0.0
  0
VERTEX
  5
2EB
330
2E8
100
AcDbEntity
  8
GRAU_10_
 62
     7
100
AcDbVertex
100
AcDb2dVertex
 10
39.90695257248854
 20
167.0585367420895
 30
0.0
  0
VERTEX
  5
2EC
330
2E8
100
AcDbEntity
  8
GRAU_10_
 62
     7
100
AcDbVertex
100
AcDb2dVertex
 10
38.40695799821076
 20
167.657983356523
 30
0.0
  0
VERTEX
  5
2ED
330
2E8
100
AcDbEntity
  8
GRAU_10_
 62
     7
100
AcDbVertex
100
AcDb2dVertex
 10
36.82548691570683
 20
168.1912841376397
 30
0.0
  0
VERTEX
  5
2EE
330
2E8
100
AcDbEntity
  8
GRAU_10_
 62
     7
100
AcDbVertex
100
AcDb2dVertex
 10
36.78449027943235
 20
168.2686265312836
 30
0.0
  0
VERTEX
  5
2EF
330
2E8
100
AcDbEntity
  8
GRAU_10_
 62
     7
100
AcDbVertex
100
AcDb2dVertex
 10
36.76933185929725
 20
168.3466579440245
 30
0.0
  0
VERTEX
  5
2F0
330
2E8
100
AcDbEntity
  8
GRAU_10_
 62
     7
100
AcDbVertex
100
AcDb2dVertex
 10
36.7851792985294
 20
168.4150430894067
 30
0.0
  0
VERTEX
  5
2F1
330
2E8
100
AcDbEntity
  8
GRAU_10_
 62
     7
100
AcDbVertex
100
AcDb2dVertex
 10
36.82617593480387
 20
168.4679253051052
 30
0.0
  0
VERTEX
  5
2F2
330
2E8
100
AcDbEntity
  8
GRAU_10_
 62
     7
100
AcDbVertex
100
AcDb2dVertex
 10
36.76571450903774
 20
168.4753322603985
 30
0.0
  0
VERTEX
  5
2F3
330
2E8
100
AcDbEntity
  8
GRAU_10_
 62
     7
100
AcDbVertex
100
AcDb2dVertex
 10
36.70714788578849
 20
168.4823947061433
 30
0.0
  0
VERTEX
  5
2F4
330
2E8
100
AcDbEntity
  8
GRAU_10_
 62
     7
100
AcDbVertex
100
AcDb2dVertex
 10
36.65219861279876
 20
168.4891126423395
 30
0.0
  0
VERTEX
  5
2F5
330
2E8
100
AcDbEntity
  8
GRAU_10_
 62
     7
100
AcDbVertex
100
AcDb2dVertex
 10
36.59897188755165
 20
168.4951415594387
 30
0.0
  0
VERTEX
  5
2F6
330
2E8
100
AcDbEntity
  8
GRAU_10_
 62
     7
100
AcDbVertex
100
AcDb2dVertex
 10
36.54712320049864
 20
168.5006537122151
 30
0.0
  0
VERTEX
  5
2F7
330
2E8
100
AcDbEntity
  8
GRAU_10_
 62
     7
100
AcDbVertex
100
AcDb2dVertex
 10
36.49803058983382
 20
168.5066826293143
 30
0.0
  0
VERTEX
  5
2F8
330
2E8
100
AcDbEntity
  8
GRAU_10_
 62
     7
100
AcDbVertex
100
AcDb2dVertex
 10
36.45048827213738
 20
168.5116780177679
 30
0.0
  0
VERTEX
  5
2F9
330
2E8
100
AcDbEntity
  8
GRAU_10_
 62
     7
100
AcDbVertex
100
AcDb2dVertex
 10
36.40380722831225
 20
168.516328896673
 30
0.0
  0
VERTEX
  5
2FA
330
2E8
100
AcDbEntity
  8
GRAU_10_
 62
     7
100
AcDbVertex
100
AcDb2dVertex
 10
36.35902098700399
 20
168.5204630112553
 30
0.0
  0
VERTEX
  5
2FB
330
2E8
100
AcDbEntity
  8
GRAU_10_
 62
     7
100
AcDbVertex
100
AcDb2dVertex
 10
36.31561278388985
 20
168.5247693806119
 30
0.0
  0
VERTEX
  5
2FC
330
2E8
100
AcDbEntity
  8
GRAU_10_
 62
     7
100
AcDbVertex
100
AcDb2dVertex
 10
36.27341036419554
 20
168.5289034951942
 30
0.0
  0
VERTEX
  5
2FD
330
2E8
100
AcDbEntity
  8
GRAU_10_
 62
     7
100
AcDbVertex
100
AcDb2dVertex
 10
36.23310274701812
 20
168.5328653550022
 30
0.0
  0
SEQEND
  5
2FE
330
2E8
100
AcDbEntity
  8
GRAU_10_
  0
POLYLINE
  5
2FF
330
1F
100
AcDbEntity
  8
GRAU_10_
 62
     7
100
AcDb2dPolyline
 66
     1
 10
0.0
 20
0.0
 30
0.0
  0
VERTEX
  5
300
330
2FF
100
AcDbEntity
  8
GRAU_10_
 62
     7
100
AcDbVertex
100
AcDb2dVertex
 10
36.82617593480387
 20
168.4679253051052
 30
0.0
  0
VERTEX
  5
301
330
2FF
100
AcDbEntity
  8
GRAU_10_
 62
     7
100
AcDbVertex
100
AcDb2dVertex
 10
37.62733288989872
 20
168.2016194240954
 30
0.0
  0
VERTEX
  5
302
330
2FF
100
AcDbEntity
  8
GRAU_10_
 62
     7
100
AcDbVertex
100
AcDb2dVertex
 10
38.40764701730781
 20
167.9172267917881
 30
0.0
  0
VERTEX
  5
303
330
2FF
100
AcDbEntity
  8
GRAU_10_
 62
     7
100
AcDbVertex
100
AcDb2dVertex
 10
39.16677380748261
 20
167.6162977011515
 30
0.0
  0
VERTEX
  5
304
330
2FF
100
AcDbEntity
  8
GRAU_10_
 62
     7
100
AcDbVertex
100
AcDb2dVertex
 10
39.90626355339149
 20
167.2984876426372
 30
0.0
  0
VERTEX
  5
305
330
2FF
100
AcDbEntity
  8
GRAU_10_
 62
     7
100
AcDbVertex
100
AcDb2dVertex
 10
40.62594400026018
 20
166.9658636735363
 30
0.0
  0
VERTEX
  5
306
330
2FF
100
AcDbEntity
  8
GRAU_10_
 62
     7
100
AcDbVertex
100
AcDb2dVertex
 10
41.32478161944312
 20
166.6175645199775
 30
0.0
  0
VERTEX
  5
307
330
2FF
100
AcDbEntity
  8
GRAU_10_
 62
     7
100
AcDbVertex
100
AcDb2dVertex
 10
42.0031209204888
 20
166.2560017488006
 30
0.0
  0
VERTEX
  5
308
330
2FF
100
AcDbEntity
  8
GRAU_10_
 62
     7
100
AcDbVertex
100
AcDb2dVertex
 10
42.66027288430021
 20
165.8806585956826
 30
0.0
  0
SEQEND
  5
309
330
2FF
100
AcDbEntity
  8
GRAU_10_
  0
POLYLINE
  5
30A
330
1F
100
AcDbEntity
  8
GRAU_10_
 62
     7
100
AcDb2dPolyline
 66
     1
 10
0.0
 20
0.0
 30
0.0
  0
VERTEX
  5
30B
330
30A
100
AcDbEntity
  8
GRAU_10_
 62
     7
100
AcDbVertex
100
AcDb2dVertex
 10
53.09701740209033
 20
155.085279637878
 30
0.0
  0
VERTEX
  5
30C
330
30A
100
AcDbEntity
  8
GRAU_10_
 62
     7
100
AcDbVertex
100
AcDb2dVertex
 10
52.78334145815833
 20
155.784806276158
 30
0.0
  0
VERTEX
  5
30D
330
30A
100
AcDbEntity
  8
GRAU_10_
 62
     7
100
AcDbVertex
100
AcDb2dVertex
 10
52.44847817699205
 20
156.4216321766064
 30
0.0
  0
VERTEX
  5
30E
330
30A
100
AcDbEntity
  8
GRAU_10_
 62
     7
100
AcDbVertex
100
AcDb2dVertex
 10
52.09053275607459
 20
157.0023030206453
 30
0.0
  0
VERTEX
  5
30F
330
30A
100
AcDbEntity
  8
GRAU_10_
 62
     7
100
AcDbVertex
100
AcDb2dVertex
 10
51.70984970495449
 20
157.5307806680826
 30
0.0
  0
SEQEND
  5
310
330
30A
100
AcDbEntity
  8
GRAU_10_
  0
POLYLINE
  5
311
330
1F
100
AcDbEntity
  8
GRAU_10_
 62
     7
100
AcDb2dPolyline
 66
     1
 10
0.0
 20
0.0
 30
0.0
  0
VERTEX
  5
312
330
311
100
AcDbEntity
  8
GRAU_10_
 62
     7
100
AcDbVertex
100
AcDb2dVertex
 10
51.22374673198573
 20
158.1286769895477
 30
0.0
  0
VERTEX
  5
313
330
311
100
AcDbEntity
  8
GRAU_10_
 62
     7
100
AcDbVertex
100
AcDb2dVertex
 10
51.47058782350388
 20
157.8317097587192
 30
0.0
  0
VERTEX
  5
314
330
311
100
AcDbEntity
  8
GRAU_10_
 62
     7
100
AcDbVertex
100
AcDb2dVertex
 10
51.70984970495449
 20
157.5307806680826
 30
0.0
  0
SEQEND
  5
315
330
311
100
AcDbEntity
  8
GRAU_10_
  0
POLYLINE
  5
316
330
1F
100
AcDbEntity
  8
GRAU_10_
 62
     7
100
AcDb2dPolyline
 66
     1
 10
0.0
 20
0.0
 30
0.0
  0
VERTEX
  5
317
330
316
100
AcDbEntity
  8
GRAU_10_
 62
     7
100
AcDbVertex
100
AcDb2dVertex
 10
42.66027288430021
 20
165.8806585956826
 30
0.0
  0
VERTEX
  5
318
330
316
100
AcDbEntity
  8
GRAU_10_
 62
     7
100
AcDbVertex
100
AcDb2dVertex
 10
45.96515298330038
 20
163.6849269881587
 30
0.0
  0
VERTEX
  5
319
330
316
100
AcDbEntity
  8
GRAU_10_
 62
     7
100
AcDbVertex
100
AcDb2dVertex
 10
48.8128689114079
 20
161.318146389792
 30
0.0
  0
VERTEX
  5
31A
330
316
100
AcDbEntity
  8
GRAU_10_
 62
     7
100
AcDbVertex
100
AcDb2dVertex
 10
49.45417343598715
 20
160.7081922341285
 30
0.0
  0
VERTEX
  5
31B
330
316
100
AcDbEntity
  8
GRAU_10_
 62
     7
100
AcDbVertex
100
AcDb2dVertex
 10
50.06722817758736
 20
160.0944484734312
 30
0.0
  0
VERTEX
  5
31C
330
316
100
AcDbEntity
  8
GRAU_10_
 62
     7
100
AcDbVertex
100
AcDb2dVertex
 10
50.65151637188573
 20
159.4770873624745
 30
0.0
  0
VERTEX
  5
31D
330
316
100
AcDbEntity
  8
GRAU_10_
 62
     7
100
AcDbVertex
100
AcDb2dVertex
 10
51.20600449023669
 20
158.8578314490008
 30
0.0
  0
VERTEX
  5
31E
330
316
100
AcDbEntity
  8
GRAU_10_
 62
     7
100
AcDbVertex
100
AcDb2dVertex
 10
52.21714001515753
 20
157.630171672832
 30
0.0
  0
VERTEX
  5
31F
330
316
100
AcDbEntity
  8
GRAU_10_
 62
     7
100
AcDbVertex
100
AcDb2dVertex
 10
53.09701740209033
 20
156.4273165841571
 30
0.0
  0
SEQEND
  5
320
330
316
100
AcDbEntity
  8
GRAU_10_
  0
POLYLINE
  5
321
330
1F
100
AcDbEntity
  8
GRAU_10_
 62
     7
100
AcDb2dPolyline
 66
     1
 10
0.0
 20
0.0
 30
0.0
  0
VERTEX
  5
322
330
321
100
AcDbEntity
  8
GRAU_10_
 62
     7
100
AcDbVertex
100
AcDb2dVertex
 10
55.03643390551173
 20
147.8836520355117
 30
0.0
  0
VERTEX
  5
323
330
321
100
AcDbEntity
  8
GRAU_10_
 62
     7
100
AcDbVertex
100
AcDb2dVertex
 10
55.01472980395465
 20
147.7802991709542
 30
0.0
  0
VERTEX
  5
324
330
321
100
AcDbEntity
  8
GRAU_10_
 62
     7
100
AcDbVertex
100
AcDb2dVertex
 10
54.99164766420348
 20
147.6783243445908
 30
0.0
  0
SEQEND
  5
325
330
321
100
AcDbEntity
  8
GRAU_10_
  0
POLYLINE
  5
326
330
1F
100
AcDbEntity
  8
GRAU_10_
 62
     7
100
AcDb2dPolyline
 66
     1
 10
0.0
 20
0.0
 30
0.0
  0
VERTEX
  5
327
330
326
100
AcDbEntity
  8
GRAU_10_
 62
     7
100
AcDbVertex
100
AcDb2dVertex
 10
51.09490016083739
 20
147.6783243445908
 30
0.0
  0
VERTEX
  5
328
330
326
100
AcDbEntity
  8
GRAU_10_
 62
     7
100
AcDbVertex
100
AcDb2dVertex
 10
49.98402912161858
 20
148.6241753100662
 30
0.0
  0
VERTEX
  5
329
330
326
100
AcDbEntity
  8
GRAU_10_
 62
     7
100
AcDbVertex
100
AcDb2dVertex
 10
48.91225991615735
 20
149.5757106830922
 30
0.0
  0
VERTEX
  5
32A
330
326
100
AcDbEntity
  8
GRAU_10_
 62
     7
100
AcDbVertex
100
AcDb2dVertex
 10
47.86977402232075
 20
150.5160494957911
 30
0.0
  0
VERTEX
  5
32B
330
326
100
AcDbEntity
  8
GRAU_10_
 62
     7
100
AcDbVertex
100
AcDb2dVertex
 10
46.84227429384499
 20
151.4319281305448
 30
0.0
  0
VERTEX
  5
32C
330
326
100
AcDbEntity
  8
GRAU_10_
 62
     7
100
AcDbVertex
100
AcDb2dVertex
 10
46.32998859518834
 20
151.8760009385935
 30
0.0
  0
VERTEX
  5
32D
330
326
100
AcDbEntity
  8
GRAU_10_
 62
     7
100
AcDbVertex
100
AcDb2dVertex
 10
45.81701387743464
 20
152.3097384601865
 30
0.0
  0
VERTEX
  5
32E
330
326
100
AcDbEntity
  8
GRAU_10_
 62
     7
100
AcDbVertex
100
AcDb2dVertex
 10
45.30128308329274
 20
152.7302123641612
 30
0.0
  0
VERTEX
  5
32F
330
326
100
AcDbEntity
  8
GRAU_10_
 62
     7
100
AcDbVertex
100
AcDb2dVertex
 10
44.7829684675369
 20
153.1355278480008
 30
0.0
  0
VERTEX
  5
330
330
326
100
AcDbEntity
  8
GRAU_10_
 62
     7
100
AcDbVertex
100
AcDb2dVertex
 10
43.73807100686062
 20
153.8918985617875
 30
0.0
  0
VERTEX
  5
331
330
326
100
AcDbEntity
  8
GRAU_10_
 62
     7
100
AcDbVertex
100
AcDb2dVertex
 10
42.67336424714416
 20
154.5745442321897
 30
0.0
  0
SEQEND
  5
332
330
326
100
AcDbEntity
  8
GRAU_10_
  0
POLYLINE
  5
333
330
1F
100
AcDbEntity
  8
GRAU_10_
 62
     7
100
AcDb2dPolyline
 66
     1
 10
0.0
 20
0.0
 30
0.0
  0
VERTEX
  5
334
330
333
100
AcDbEntity
  8
GRAU_10_
 62
     7
100
AcDbVertex
100
AcDb2dVertex
 10
48.5887654500924
 20
146.247231680018
 30
0.0
  0
VERTEX
  5
335
330
333
100
AcDbEntity
  8
GRAU_10_
 62
     7
100
AcDbVertex
100
AcDb2dVertex
 10
47.25499673297792
 20
146.9710462414691
 30
0.0
  0
VERTEX
  5
336
330
333
100
AcDbEntity
  8
GRAU_10_
 62
     7
100
AcDbVertex
100
AcDb2dVertex
 10
45.93242457619051
 20
147.6893486501436
 30
0.0
  0
VERTEX
  5
337
330
333
100
AcDbEntity
  8
GRAU_10_
 62
     7
100
AcDbVertex
100
AcDb2dVertex
 10
44.61622584605081
 20
148.3916313648118
 30
0.0
  0
VERTEX
  5
338
330
333
100
AcDbEntity
  8
GRAU_10_
 62
     7
100
AcDbVertex
100
AcDb2dVertex
 10
43.30071613500816
 20
149.0708319397288
 30
0.0
  0
VERTEX
  5
339
330
333
100
AcDbEntity
  8
GRAU_10_
 62
     7
100
AcDbVertex
100
AcDb2dVertex
 10
41.98227809280304
 20
149.7195434196014
 30
0.0
  0
VERTEX
  5
33A
330
333
100
AcDbEntity
  8
GRAU_10_
 62
     7
100
AcDbVertex
100
AcDb2dVertex
 10
40.65763887872448
 20
150.3338039446214
 30
0.0
  0
VERTEX
  5
33B
330
333
100
AcDbEntity
  8
GRAU_10_
 62
     7
100
AcDbVertex
100
AcDb2dVertex
 10
39.3216308495446
 20
150.9084458715611
 30
0.0
  0
VERTEX
  5
33C
330
333
100
AcDbEntity
  8
GRAU_10_
 62
     7
100
AcDbVertex
100
AcDb2dVertex
 10
37.97201469319797
 20
151.4410576335807
 30
0.0
  0
SEQEND
  5
33D
330
333
100
AcDbEntity
  8
GRAU_10_
  0
POLYLINE
  5
33E
330
1F
100
AcDbEntity
  8
GRAU_10_
 62
     7
100
AcDb2dPolyline
 66
     1
 10
0.0
 20
0.0
 30
0.0
  0
VERTEX
  5
33F
330
33E
100
AcDbEntity
  8
GRAU_10_
 62
     7
100
AcDbVertex
100
AcDb2dVertex
 10
53.76622720010011
 20
155.4423637849241
 30
0.0
  0
VERTEX
  5
340
330
33E
100
AcDbEntity
  8
GRAU_10_
 62
     7
100
AcDbVertex
100
AcDb2dVertex
 10
53.43136391893383
 20
155.9365627322832
 30
0.0
  0
VERTEX
  5
341
330
33E
100
AcDbEntity
  8
GRAU_10_
 62
     7
100
AcDbVertex
100
AcDb2dVertex
 10
53.09701740209033
 20
156.4273165841571
 30
0.0
  0
SEQEND
  5
342
330
33E
100
AcDbEntity
  8
GRAU_10_
  0
POLYLINE
  5
343
330
1F
100
AcDbEntity
  8
GRAU_10_
 62
     7
100
AcDb2dPolyline
 66
     1
 10
0.0
 20
0.0
 30
0.0
  0
VERTEX
  5
344
330
343
100
AcDbEntity
  8
GRAU_10_
 62
     7
100
AcDbVertex
100
AcDb2dVertex
 10
30.15974391607118
 20
213.0848401702531
 30
0.0
  0
VERTEX
  5
345
330
343
100
AcDbEntity
  8
GRAU_10_
 62
     7
100
AcDbVertex
100
AcDb2dVertex
 10
30.36007621853846
 20
213.1024101572279
 30
0.0
  0
SEQEND
  5
346
330
343
100
AcDbEntity
  8
GRAU_10_
  0
POLYLINE
  5
347
330
1F
100
AcDbEntity
  8
GRAU_10_
 62
     7
100
AcDb2dPolyline
 66
     1
 10
0.0
 20
0.0
 30
0.0
  0
VERTEX
  5
348
330
347
100
AcDbEntity
  8
GRAU_10_
 62
     7
100
AcDbVertex
100
AcDb2dVertex
 10
34.91966009326661
 20
227.1670124757603
 30
0.0
  0
VERTEX
  5
349
330
347
100
AcDbEntity
  8
GRAU_10_
 62
     7
100
AcDbVertex
100
AcDb2dVertex
 10
34.91966009326661
 20
227.1778645265389
 30
0.0
  0
SEQEND
  5
34A
330
347
100
AcDbEntity
  8
GRAU_10_
  0
POLYLINE
  5
34B
330
1F
100
AcDbEntity
  8
GRAU_10_
 62
     7
100
AcDb2dPolyline
 66
     1
 10
0.0
 20
0.0
 30
0.0
  0
VERTEX
  5
34C
330
34B
100
AcDbEntity
  8
GRAU_10_
 62
     7
100
AcDbVertex
100
AcDb2dVertex
 10
30.15974391607118
 20
214.1254312615728
 30
0.0
  0
VERTEX
  5
34D
330
34B
100
AcDbEntity
  8
GRAU_10_
 62
     7
100
AcDbVertex
100
AcDb2dVertex
 10
30.15974391607118
 20
227.3025769831049
 30
0.0
  0
SEQEND
  5
34E
330
34B
100
AcDbEntity
  8
GRAU_10_
  0
POLYLINE
  5
34F
330
1F
100
AcDbEntity
  8
GRAU_10_
 62
     7
100
AcDb2dPolyline
 66
     1
 10
0.0
 20
0.0
 30
0.0
  0
VERTEX
  5
350
330
34F
100
AcDbEntity
  8
GRAU_10_
 62
     7
100
AcDbVertex
100
AcDb2dVertex
 10
34.91966009326661
 20
227.3666557591306
 30
0.0
  0
VERTEX
  5
351
330
34F
100
AcDbEntity
  8
GRAU_10_
 62
     7
100
AcDbVertex
100
AcDb2dVertex
 10
34.91966009326661
 20
235.7775980042067
 30
0.0
  0
SEQEND
  5
352
330
34F
100
AcDbEntity
  8
GRAU_10_
  0
POLYLINE
  5
353
330
1F
100
AcDbEntity
  8
GRAU_10_
 62
     7
100
AcDb2dPolyline
 66
     1
 10
0.0
 20
0.0
 30
0.0
  0
VERTEX
  5
354
330
353
100
AcDbEntity
  8
GRAU_10_
 62
     7
100
AcDbVertex
100
AcDb2dVertex
 10
30.15974391607118
 20
227.6972126709403
 30
0.0
  0
VERTEX
  5
355
330
353
100
AcDbEntity
  8
GRAU_10_
 62
     7
100
AcDbVertex
100
AcDb2dVertex
 10
30.15974391607118
 20
236.1081549160164
 30
0.0
  0
SEQEND
  5
356
330
353
100
AcDbEntity
  8
GRAU_10_
  0
POLYLINE
  5
357
330
1F
100
AcDbEntity
  8
GRAU_10_
 62
     7
100
AcDb2dPolyline
 66
     1
 10
0.0
 20
0.0
 30
0.0
  0
VERTEX
  5
358
330
357
100
AcDbEntity
  8
GRAU_10_
 62
     7
100
AcDbVertex
100
AcDb2dVertex
 10
34.91966009326661
 20
235.8570074551417
 30
0.0
  0
VERTEX
  5
359
330
357
100
AcDbEntity
  8
GRAU_10_
 62
     7
100
AcDbVertex
100
AcDb2dVertex
 10
30.15974391607118
 20
236.273261117147
 30
0.0
  0
SEQEND
  5
35A
330
357
100
AcDbEntity
  8
GRAU_10_
  0
POLYLINE
  5
35B
330
1F
100
AcDbEntity
  8
GRAU_10_
 62
     7
100
AcDb2dPolyline
 66
     1
 10
0.0
 20
0.0
 30
0.0
  0
VERTEX
  5
35C
330
35B
100
AcDbEntity
  8
GRAU_10_
 62
     7
100
AcDbVertex
100
AcDb2dVertex
 10
30.15974391607118
 20
213.0848401702531
 30
0.0
  0
VERTEX
  5
35D
330
35B
100
AcDbEntity
  8
GRAU_10_
 62
     7
100
AcDbVertex
100
AcDb2dVertex
 10
30.15974391607118
 20
213.2365966263784
 30
0.0
  0
VERTEX
  5
35E
330
35B
100
AcDbEntity
  8
GRAU_10_
 62
     7
100
AcDbVertex
100
AcDb2dVertex
 10
30.15974391607118
 20
213.6334716262791
 30
0.0
  0
VERTEX
  5
35F
330
35B
100
AcDbEntity
  8
GRAU_10_
 62
     7
100
AcDbVertex
100
AcDb2dVertex
 10
30.15974391607118
 20
214.1254312615728
 30
0.0
  0
SEQEND
  5
360
330
35B
100
AcDbEntity
  8
GRAU_10_
  0
POLYLINE
  5
361
330
1F
100
AcDbEntity
  8
GRAU_10_
 62
     7
100
AcDb2dPolyline
 66
     1
 10
0.0
 20
0.0
 30
0.0
  0
VERTEX
  5
362
330
361
100
AcDbEntity
  8
GRAU_10_
 62
     7
100
AcDbVertex
100
AcDb2dVertex
 10
34.91966009326661
 20
227.1778645265389
 30
0.0
  0
VERTEX
  5
363
330
361
100
AcDbEntity
  8
GRAU_10_
 62
     7
100
AcDbVertex
100
AcDb2dVertex
 10
34.91966009326661
 20
227.2820786649677
 30
0.0
  0
VERTEX
  5
364
330
361
100
AcDbEntity
  8
GRAU_10_
 62
     7
100
AcDbVertex
100
AcDb2dVertex
 10
34.91966009326661
 20
227.3666557591306
 30
0.0
  0
SEQEND
  5
365
330
361
100
AcDbEntity
  8
GRAU_10_
  0
POLYLINE
  5
366
330
1F
100
AcDbEntity
  8
GRAU_10_
 62
     7
100
AcDb2dPolyline
 66
     1
 10
0.0
 20
0.0
 30
0.0
  0
VERTEX
  5
367
330
366
100
AcDbEntity
  8
GRAU_10_
 62
     7
100
AcDbVertex
100
AcDb2dVertex
 10
30.15974391607118
 20
227.3025769831049
 30
0.0
  0
VERTEX
  5
368
330
366
100
AcDbEntity
  8
GRAU_10_
 62
     7
100
AcDbVertex
100
AcDb2dVertex
 10
30.15974391607118
 20
227.521168291644
 30
0.0
  0
VERTEX
  5
369
330
366
100
AcDbEntity
  8
GRAU_10_
 62
     7
100
AcDbVertex
100
AcDb2dVertex
 10
30.15974391607118
 20
227.6972126709403
 30
0.0
  0
SEQEND
  5
36A
330
366
100
AcDbEntity
  8
GRAU_10_
  0
POLYLINE
  5
36B
330
1F
100
AcDbEntity
  8
GRAU_10_
 62
     7
100
AcDb2dPolyline
 66
     1
 10
0.0
 20
0.0
 30
0.0
  0
VERTEX
  5
36C
330
36B
100
AcDbEntity
  8
GRAU_10_
 62
     7
100
AcDbVertex
100
AcDb2dVertex
 10
34.91966009326661
 20
235.7775980042067
 30
0.0
  0
VERTEX
  5
36D
330
36B
100
AcDbEntity
  8
GRAU_10_
 62
     7
100
AcDbVertex
100
AcDb2dVertex
 10
34.91966009326661
 20
235.8369397739401
 30
0.0
  0
VERTEX
  5
36E
330
36B
100
AcDbEntity
  8
GRAU_10_
 62
     7
100
AcDbVertex
100
AcDb2dVertex
 10
34.91966009326661
 20
235.8570074551417
 30
0.0
  0
SEQEND
  5
36F
330
36B
100
AcDbEntity
  8
GRAU_10_
  0
POLYLINE
  5
370
330
1F
100
AcDbEntity
  8
GRAU_10_
 62
     7
100
AcDb2dPolyline
 66
     1
 10
0.0
 20
0.0
 30
0.0
  0
VERTEX
  5
371
330
370
100
AcDbEntity
  8
GRAU_10_
 62
     7
100
AcDbVertex
100
AcDb2dVertex
 10
30.15974391607118
 20
236.1081549160164
 30
0.0
  0
VERTEX
  5
372
330
370
100
AcDbEntity
  8
GRAU_10_
 62
     7
100
AcDbVertex
100
AcDb2dVertex
 10
30.15974391607118
 20
236.2309725700655
 30
0.0
  0
VERTEX
  5
373
330
370
100
AcDbEntity
  8
GRAU_10_
 62
     7
100
AcDbVertex
100
AcDb2dVertex
 10
30.15974391607118
 20
236.273261117147
 30
0.0
  0
SEQEND
  5
374
330
370
100
AcDbEntity
  8
GRAU_10_
  0
POLYLINE
  5
375
330
1F
100
AcDbEntity
  8
GRAU_10_
 62
     7
100
AcDb2dPolyline
 66
     1
 10
0.0
 20
0.0
 30
0.0
  0
VERTEX
  5
376
330
375
100
AcDbEntity
  8
GRAU_10_
 62
     7
100
AcDbVertex
100
AcDb2dVertex
 10
119.1556898031104
 20
214.1254312615728
 30
0.0
  0
VERTEX
  5
377
330
375
100
AcDbEntity
  8
GRAU_10_
 62
     7
100
AcDbVertex
100
AcDb2dVertex
 10
115.0005601383506
 20
227.3025769831049
 30
0.0
  0
SEQEND
  5
378
330
375
100
AcDbEntity
  8
GRAU_10_
  0
POLYLINE
  5
379
330
1F
100
AcDbEntity
  8
GRAU_10_
 62
     7
100
AcDb2dPolyline
 66
     1
 10
0.0
 20
0.0
 30
0.0
  0
VERTEX
  5
37A
330
379
100
AcDbEntity
  8
GRAU_10_
 62
     7
100
AcDbVertex
100
AcDb2dVertex
 10
102.5132947877397
 20
235.2328422806015
 30
0.0
  0
VERTEX
  5
37B
330
379
100
AcDbEntity
  8
GRAU_10_
 62
     7
100
AcDbVertex
100
AcDb2dVertex
 10
106.7438720436265
 20
221.8150566394247
 30
0.0
  0
SEQEND
  5
37C
330
379
100
AcDbEntity
  8
GRAU_10_
  0
POLYLINE
  5
37D
330
1F
100
AcDbEntity
  8
GRAU_10_
 62
     7
100
AcDb2dPolyline
 66
     1
 10
0.0
 20
0.0
 30
0.0
  0
VERTEX
  5
37E
330
37D
100
AcDbEntity
  8
GRAU_10_
 62
     7
100
AcDbVertex
100
AcDb2dVertex
 10
114.7251247543048
 20
227.6968681613918
 30
0.0
  0
VERTEX
  5
37F
330
37D
100
AcDbEntity
  8
GRAU_10_
 62
     7
100
AcDbVertex
100
AcDb2dVertex
 10
103.7628309202398
 20
236.1081549160164
 30
0.0
  0
SEQEND
  5
380
330
37D
100
AcDbEntity
  8
GRAU_10_
  0
POLYLINE
  5
381
330
1F
100
AcDbEntity
  8
GRAU_10_
 62
     7
100
AcDb2dPolyline
 66
     1
 10
0.0
 20
0.0
 30
0.0
  0
VERTEX
  5
382
330
381
100
AcDbEntity
  8
GRAU_10_
 62
     7
100
AcDbVertex
100
AcDb2dVertex
 10
106.7438720436265
 20
221.8150566394247
 30
0.0
  0
VERTEX
  5
383
330
381
100
AcDbEntity
  8
GRAU_10_
 62
     7
100
AcDbVertex
100
AcDb2dVertex
 10
117.9058091610618
 20
213.2503770083194
 30
0.0
  0
SEQEND
  5
384
330
381
100
AcDbEntity
  8
GRAU_10_
  0
SPLINE
  5
385
330
1F
100
AcDbEntity
  8
GRAU_10_
 62
     7
100
AcDbSpline
210
0.0
220
0.0
230
1.0
 70
    11
 71
     3
 72
    17
 73
    13
 74
     0
 42
0.0000000001
 43
0.0000000001
 40
0.0
 40
0.0
 40
0.0
 40
0.0
 40
1.0
 40
1.0
 40
1.0
 40
2.0
 40
2.0
 40
2.0
 40
3.0
 40
3.0
 40
3.0
 40
4.0
 40
4.0
 40
4.0
 40
4.0
 10
113.8845214559039
 20
224.6787922615386
 30
0.0
 10
113.8845214559039
 20
226.3634439538258
 30
0.0
 10
112.5188856055508
 20
227.7287352946303
 30
0.0
 10
110.8345784228122
 20
227.7287352946303
 30
0.0
 10
109.1500989852993
 20
227.7287352946303
 30
0.0
 10
107.7841186253977
 20
226.3634439538258
 30
0.0
 10
107.7841186253977
 20
224.6787922615386
 30
0.0
 10
107.7841186253977
 20
222.9943128240257
 30
0.0
 10
109.1500989852993
 20
221.6291937379955
 30
0.0
 10
110.8345784228122
 20
221.6291937379955
 30
0.0
 10
112.5188856055508
 20
221.6291937379955
 30
0.0
 10
113.8845214559039
 20
222.9943128240257
 30
0.0
 10
113.8845214559039
 20
224.6787922615386
 30
0.0
  0
SPLINE
  5
386
330
1F
100
AcDbEntity
  8
GRAU_10_
 62
     7
100
AcDbSpline
210
0.0
220
0.0
230
1.0
 70
     8
 71
     3
 72
     8
 73
     4
 74
     0
 42
0.0000000001
 43
0.0000000001
 40
0.0
 40
0.0
 40
0.0
 40
0.0
 40
1.0
 40
1.0
 40
1.0
 40
1.0
 10
115.0005601383506
 20
227.3025769831049
 30
0.0
 10
114.9494004703946
 20
227.4665635282028
 30
0.0
 10
114.8493204465481
 20
227.6023002903217
 30
0.0
 10
114.7251247543048
 20
227.6968681613918
 30
0.0
  0
SPLINE
  5
387
330
1F
100
AcDbEntity
  8
GRAU_10_
 62
     7
100
AcDbSpline
210
0.0
220
0.0
230
1.0
 70
     8
 71
     3
 72
     8
 73
     4
 74
     0
 42
0.0000000001
 43
0.0000000001
 40
0.0
 40
0.0
 40
0.0
 40
0.0
 40
1.0
 40
1.0
 40
1.0
 40
1.0
 10
119.1927245795768
 20
213.8849635967024
 30
0.0
 10
119.1927245795768
 20
213.9710909838336
 30
0.0
 10
119.1792887071844
 20
214.0532565111568
 30
0.0
 10
119.1556898031104
 20
214.1254312615728
 30
0.0
  0
SPLINE
  5
388
330
1F
100
AcDbEntity
  8
GRAU_10_
 62
     7
100
AcDbSpline
210
0.0
220
0.0
230
1.0
 70
     8
 71
     3
 72
    11
 73
     7
 74
     0
 42
0.0000000001
 43
0.0000000001
 40
0.0
 40
0.0
 40
0.0
 40
0.0
 40
1.0
 40
1.0
 40
1.0
 40
2.0
 40
2.0
 40
2.0
 40
2.0
 10
117.9058091610618
 20
213.2503770083194
 30
0.0
 10
118.0513644453136
 20
213.1380668955002
 30
0.0
 10
118.2243082386731
 20
213.084151151156
 30
0.0
 10
118.3926011531275
 20
213.0844956607046
 30
0.0
 10
118.8346069038851
 20
213.0844956607046
 30
0.0
 10
119.1927245795768
 20
213.4429578459448
 30
0.0
 10
119.1927245795768
 20
213.8849635967024
 30
0.0
  0
SPLINE
  5
389
330
1F
100
AcDbEntity
  8
GRAU_10_
 62
     7
100
AcDbSpline
210
0.0
220
0.0
230
1.0
 70
     8
 71
     3
 72
    14
 73
    10
 74
     0
 42
0.0000000001
 43
0.0000000001
 40
0.0
 40
0.0
 40
0.0
 40
0.0
 40
1.0
 40
1.0
 40
1.0
 40
2.0
 40
2.0
 40
2.0
 40
3.0
 40
3.0
 40
3.0
 40
3.0
 10
103.7628309202398
 20
236.1081549160164
 30
0.0
 10
103.6167588716653
 20
236.2200343918999
 30
0.0
 10
103.4450208617256
 20
236.273950136244
 30
0.0
 10
103.276038928174
 20
236.2729166075985
 30
0.0
 10
102.8347221965136
 20
236.2729166075985
 30
0.0
 10
102.4762600112733
 20
235.9148850592939
 30
0.0
 10
102.4762600112733
 20
235.4734822002462
 30
0.0
 10
102.4762600112733
 20
235.3875270678892
 30
0.0
 10
102.4900403932143
 20
235.3045002666947
 30
0.0
 10
102.5132947877397
 20
235.2328422806015
 30
0.0
  0
SPLINE
  5
38A
330
1F
100
AcDbEntity
  8
GRAU_10_
 62
     7
100
AcDbSpline
210
0.0
220
0.0
230
1.0
 70
    11
 71
     3
 72
    17
 73
    13
 74
     0
 42
0.0000000001
 43
0.0000000001
 40
0.0
 40
0.0
 40
0.0
 40
0.0
 40
1.0
 40
1.0
 40
1.0
 40
2.0
 40
2.0
 40
2.0
 40
3.0
 40
3.0
 40
3.0
 40
4.0
 40
4.0
 40
4.0
 40
4.0
 10
113.7842691772831
 20
224.6787922615386
 30
0.0
 10
113.7842691772831
 20
226.3083224260618
 30
0.0
 10
112.4634195682383
 20
227.6291720351066
 30
0.0
 10
110.8345784228122
 20
227.6291720351066
 30
0.0
 10
109.2048760035148
 20
227.6291720351066
 30
0.0
 10
107.884715413567
 20
226.3083224260618
 30
0.0
 10
107.884715413567
 20
224.6787922615386
 30
0.0
 10
107.884715413567
 20
223.0501233708868
 30
0.0
 10
109.2048760035148
 20
221.729273761842
 30
0.0
 10
110.8345784228122
 20
221.729273761842
 30
0.0
 10
112.4634195682383
 20
221.729273761842
 30
0.0
 10
113.7842691772831
 20
223.0501233708868
 30
0.0
 10
113.7842691772831
 20
224.6787922615386
 30
0.0
  0
POLYLINE
  5
38B
330
1F
100
AcDbEntity
  8
GRAU_10_
 62
     7
100
AcDb2dPolyline
 66
     1
 10
0.0
 20
0.0
 30
0.0
  0
VERTEX
  5
38C
330
38B
100
AcDbEntity
  8
GRAU_10_
 62
     7
100
AcDbVertex
100
AcDb2dVertex
 10
34.92034911236367
 20
168.7755723319381
 30
0.0
  0
VERTEX
  5
38D
330
38B
100
AcDbEntity
  8
GRAU_10_
 62
     7
100
AcDbVertex
100
AcDb2dVertex
 10
30.16077744471675
 20
169.1919121213305
 30
0.0
  0
SEQEND
  5
38E
330
38B
100
AcDbEntity
  8
GRAU_10_
  0
POLYLINE
  5
38F
330
1F
100
AcDbEntity
  8
GRAU_10_
 62
     7
100
AcDb2dPolyline
 66
     1
 10
0.0
 20
0.0
 30
0.0
  0
VERTEX
  5
390
330
38F
100
AcDbEntity
  8
GRAU_10_
 62
     7
100
AcDbVertex
100
AcDb2dVertex
 10
34.92034911236367
 20
157.1966064060134
 30
0.0
  0
VERTEX
  5
391
330
38F
100
AcDbEntity
  8
GRAU_10_
 62
     7
100
AcDbVertex
100
AcDb2dVertex
 10
34.92034911236367
 20
168.1589002400783
 30
0.0
  0
SEQEND
  5
392
330
38F
100
AcDbEntity
  8
GRAU_10_
  0
POLYLINE
  5
393
330
1F
100
AcDbEntity
  8
GRAU_10_
 62
     7
100
AcDb2dPolyline
 66
     1
 10
0.0
 20
0.0
 30
0.0
  0
VERTEX
  5
394
330
393
100
AcDbEntity
  8
GRAU_10_
 62
     7
100
AcDbVertex
100
AcDb2dVertex
 10
30.16077744471675
 20
156.943736397396
 30
0.0
  0
VERTEX
  5
395
330
393
100
AcDbEntity
  8
GRAU_10_
 62
     7
100
AcDbVertex
100
AcDb2dVertex
 10
30.16077744471675
 20
167.9048244480412
 30
0.0
  0
SEQEND
  5
396
330
393
100
AcDbEntity
  8
GRAU_10_
  0
POLYLINE
  5
397
330
1F
100
AcDbEntity
  8
GRAU_10_
 62
     7
100
AcDb2dPolyline
 66
     1
 10
0.0
 20
0.0
 30
0.0
  0
VERTEX
  5
398
330
397
100
AcDbEntity
  8
GRAU_10_
 62
     7
100
AcDbVertex
100
AcDb2dVertex
 10
34.92034911236367
 20
157.061214153443
 30
0.0
  0
VERTEX
  5
399
330
397
100
AcDbEntity
  8
GRAU_10_
 62
     7
100
AcDbVertex
100
AcDb2dVertex
 10
34.92034911236367
 20
157.0643147393798
 30
0.0
  0
SEQEND
  5
39A
330
397
100
AcDbEntity
  8
GRAU_10_
  0
POLYLINE
  5
39B
330
1F
100
AcDbEntity
  8
GRAU_10_
 62
     7
100
AcDb2dPolyline
 66
     1
 10
0.0
 20
0.0
 30
0.0
  0
VERTEX
  5
39C
330
39B
100
AcDbEntity
  8
GRAU_10_
 62
     7
100
AcDbVertex
100
AcDb2dVertex
 10
30.16077744471675
 20
152.5128268390419
 30
0.0
  0
VERTEX
  5
39D
330
39B
100
AcDbEntity
  8
GRAU_10_
 62
     7
100
AcDbVertex
100
AcDb2dVertex
 10
30.16077744471675
 20
156.667439739479
 30
0.0
  0
SEQEND
  5
39E
330
39B
100
AcDbEntity
  8
GRAU_10_
  0
POLYLINE
  5
39F
330
1F
100
AcDbEntity
  8
GRAU_10_
 62
     7
100
AcDb2dPolyline
 66
     1
 10
0.0
 20
0.0
 30
0.0
  0
VERTEX
  5
3A0
330
39F
100
AcDbEntity
  8
GRAU_10_
 62
     7
100
AcDbVertex
100
AcDb2dVertex
 10
30.16077744471675
 20
152.4757920625755
 30
0.0
  0
VERTEX
  5
3A1
330
39F
100
AcDbEntity
  8
GRAU_10_
 62
     7
100
AcDbVertex
100
AcDb2dVertex
 10
30.3607652376355
 20
152.4933620495503
 30
0.0
  0
SEQEND
  5
3A2
330
39F
100
AcDbEntity
  8
GRAU_10_
  0
POLYLINE
  5
3A3
330
1F
100
AcDbEntity
  8
GRAU_10_
 62
     7
100
AcDb2dPolyline
 66
     1
 10
0.0
 20
0.0
 30
0.0
  0
VERTEX
  5
3A4
330
3A3
100
AcDbEntity
  8
GRAU_10_
 62
     7
100
AcDbVertex
100
AcDb2dVertex
 10
34.92034911236367
 20
168.1589002400783
 30
0.0
  0
VERTEX
  5
3A5
330
3A3
100
AcDbEntity
  8
GRAU_10_
 62
     7
100
AcDbVertex
100
AcDb2dVertex
 10
34.92034911236367
 20
168.4252061210881
 30
0.0
  0
VERTEX
  5
3A6
330
3A3
100
AcDbEntity
  8
GRAU_10_
 62
     7
100
AcDbVertex
100
AcDb2dVertex
 10
34.92034911236367
 20
168.6746310342202
 30
0.0
  0
VERTEX
  5
3A7
330
3A3
100
AcDbEntity
  8
GRAU_10_
 62
     7
100
AcDbVertex
100
AcDb2dVertex
 10
34.92034911236367
 20
168.7755723319381
 30
0.0
  0
SEQEND
  5
3A8
330
3A3
100
AcDbEntity
  8
GRAU_10_
  0
POLYLINE
  5
3A9
330
1F
100
AcDbEntity
  8
GRAU_10_
 62
     7
100
AcDb2dPolyline
 66
     1
 10
0.0
 20
0.0
 30
0.0
  0
VERTEX
  5
3AA
330
3A9
100
AcDbEntity
  8
GRAU_10_
 62
     7
100
AcDbVertex
100
AcDb2dVertex
 10
30.16077744471675
 20
167.9048244480412
 30
0.0
  0
VERTEX
  5
3AB
330
3A9
100
AcDbEntity
  8
GRAU_10_
 62
     7
100
AcDbVertex
100
AcDb2dVertex
 10
30.16077744471675
 20
168.3134127725918
 30
0.0
  0
VERTEX
  5
3AC
330
3A9
100
AcDbEntity
  8
GRAU_10_
 62
     7
100
AcDbVertex
100
AcDb2dVertex
 10
30.16077744471675
 20
168.7459445107649
 30
0.0
  0
VERTEX
  5
3AD
330
3A9
100
AcDbEntity
  8
GRAU_10_
 62
     7
100
AcDbVertex
100
AcDb2dVertex
 10
30.16077744471675
 20
169.071506034121
 30
0.0
  0
VERTEX
  5
3AE
330
3A9
100
AcDbEntity
  8
GRAU_10_
 62
     7
100
AcDbVertex
100
AcDb2dVertex
 10
30.16077744471675
 20
169.1919121213305
 30
0.0
  0
SEQEND
  5
3AF
330
3A9
100
AcDbEntity
  8
GRAU_10_
  0
POLYLINE
  5
3B0
330
1F
100
AcDbEntity
  8
GRAU_10_
 62
     7
100
AcDb2dPolyline
 66
     1
 10
0.0
 20
0.0
 30
0.0
  0
VERTEX
  5
3B1
330
3B0
100
AcDbEntity
  8
GRAU_10_
 62
     7
100
AcDbVertex
100
AcDb2dVertex
 10
34.92034911236367
 20
157.0643147393798
 30
0.0
  0
VERTEX
  5
3B2
330
3B0
100
AcDbEntity
  8
GRAU_10_
 62
     7
100
AcDbVertex
100
AcDb2dVertex
 10
34.92034911236367
 20
157.116335681207
 30
0.0
  0
VERTEX
  5
3B3
330
3B0
100
AcDbEntity
  8
GRAU_10_
 62
     7
100
AcDbVertex
100
AcDb2dVertex
 10
34.92034911236367
 20
157.1966064060134
 30
0.0
  0
SEQEND
  5
3B4
330
3B0
100
AcDbEntity
  8
GRAU_10_
  0
POLYLINE
  5
3B5
330
1F
100
AcDbEntity
  8
GRAU_10_
 62
     7
100
AcDb2dPolyline
 66
     1
 10
0.0
 20
0.0
 30
0.0
  0
VERTEX
  5
3B6
330
3B5
100
AcDbEntity
  8
GRAU_10_
 62
     7
100
AcDbVertex
100
AcDb2dVertex
 10
30.16077744471675
 20
156.667439739479
 30
0.0
  0
VERTEX
  5
3B7
330
3B5
100
AcDbEntity
  8
GRAU_10_
 62
     7
100
AcDbVertex
100
AcDb2dVertex
 10
30.16077744471675
 20
156.775098973393
 30
0.0
  0
VERTEX
  5
3B8
330
3B5
100
AcDbEntity
  8
GRAU_10_
 62
     7
100
AcDbVertex
100
AcDb2dVertex
 10
30.16077744471675
 20
156.943736397396
 30
0.0
  0
SEQEND
  5
3B9
330
3B5
100
AcDbEntity
  8
GRAU_10_
  0
POLYLINE
  5
3BA
330
1F
100
AcDbEntity
  8
GRAU_10_
 62
     7
100
AcDb2dPolyline
 66
     1
 10
0.0
 20
0.0
 30
0.0
  0
VERTEX
  5
3BB
330
3BA
100
AcDbEntity
  8
GRAU_10_
 62
     7
100
AcDbVertex
100
AcDb2dVertex
 10
30.16077744471675
 20
152.4757920625755
 30
0.0
  0
VERTEX
  5
3BC
330
3BA
100
AcDbEntity
  8
GRAU_10_
 62
     7
100
AcDbVertex
100
AcDb2dVertex
 10
30.16077744471675
 20
152.4849215656114
 30
0.0
  0
VERTEX
  5
3BD
330
3BA
100
AcDbEntity
  8
GRAU_10_
 62
     7
100
AcDbVertex
100
AcDb2dVertex
 10
30.16077744471675
 20
152.5128268390419
 30
0.0
  0
SEQEND
  5
3BE
330
3BA
100
AcDbEntity
  8
GRAU_10_
  0
POLYLINE
  5
3C0
330
1F
100
AcDbEntity
  8
STANDARDEBENE
 62
     7
100
AcDb2dPolyline
 66
     1
 10
0.0
 20
0.0
 30
0.0
  0
VERTEX
  5
3C1
330
3C0
100
AcDbEntity
  8
STANDARDEBENE
 62
     7
100
AcDbVertex
100
AcDb2dVertex
 10
147.4762694943809
 20
221.2731431195949
 30
0.0
  0
VERTEX
  5
3C2
330
3C0
100
AcDbEntity
  8
STANDARDEBENE
 62
     7
100
AcDbVertex
100
AcDb2dVertex
 10
147.4762694943809
 20
212.0228894869248
 30
0.0
  0
SEQEND
  5
3C3
330
3C0
100
AcDbEntity
  8
STANDARDEBENE
  0
POLYLINE
  5
3C4
330
1F
100
AcDbEntity
  8
STANDARDEBENE
 62
     7
100
AcDb2dPolyline
 66
     1
 10
0.0
 20
0.0
 30
0.0
  0
VERTEX
  5
3C5
330
3C4
100
AcDbEntity
  8
STANDARDEBENE
 62
     7
100
AcDbVertex
100
AcDb2dVertex
 10
147.4762694943809
 20
211.0234672866539
 30
0.0
  0
VERTEX
  5
3C6
330
3C4
100
AcDbEntity
  8
STANDARDEBENE
 62
     7
100
AcDbVertex
100
AcDb2dVertex
 10
147.4762694943809
 20
209.5231282028276
 30
0.0
  0
SEQEND
  5
3C7
330
3C4
100
AcDbEntity
  8
STANDARDEBENE
  0
POLYLINE
  5
3C8
330
1F
100
AcDbEntity
  8
STANDARDEBENE
  6
AI-LINETYPE-2
 62
   250
100
AcDb2dPolyline
 66
     1
 10
0.0
 20
0.0
 30
0.0
  0
VERTEX
  5
3C9
330
3C8
100
AcDbEntity
  8
STANDARDEBENE
  6
AI-LINETYPE-2
 62
   250
100
AcDbVertex
100
AcDb2dVertex
 10
122.4762450865684
 20
200.2730468249318
 30
0.0
  0
VERTEX
  5
3CA
330
3C8
100
AcDbEntity
  8
STANDARDEBENE
  6
AI-LINETYPE-2
 62
   250
100
AcDbVertex
100
AcDb2dVertex
 10
171.6765149852927
 20
200.2730468249318
 30
0.0
  0
SEQEND
  5
3CB
330
3C8
100
AcDbEntity
  8
STANDARDEBENE
  6
AI-LINETYPE-2
  0
POLYLINE
  5
3CD
330
1F
100
AcDbEntity
  8
STANDARDEBENE
 62
     7
100
AcDb2dPolyline
 66
     1
 10
0.0
 20
0.0
 30
0.0
  0
VERTEX
  5
3CE
330
3CD
100
AcDbEntity
  8
STANDARDEBENE
 62
     7
100
AcDbVertex
100
AcDb2dVertex
 10
30.15974391607118
 20
227.5430446479754
 30
0.0
  0
VERTEX
  5
3CF
330
3CD
100
AcDbEntity
  8
STANDARDEBENE
 62
     7
100
AcDbVertex
100
AcDb2dVertex
 10
34.91966009326661
 20
227.2925862061977
 30
0.0
  0
SEQEND
  5
3D0
330
3CD
100
AcDbEntity
  8
STANDARDEBENE
  0
POLYLINE
  5
3D1
330
1F
100
AcDbEntity
  8
STANDARDEBENE
 62
     7
100
AcDb2dPolyline
 66
     1
 10
0.0
 20
0.0
 30
0.0
  0
VERTEX
  5
3D2
330
3D1
100
AcDbEntity
  8
STANDARDEBENE
 62
     7
100
AcDbVertex
100
AcDb2dVertex
 10
156.4760646852733
 20
211.272892199786
 30
0.0
  0
VERTEX
  5
3D3
330
3D1
100
AcDbEntity
  8
STANDARDEBENE
 62
     7
100
AcDbVertex
100
AcDb2dVertex
 10
156.4760646852733
 20
215.0230508902547
 30
0.0
  0
SEQEND
  5
3D4
330
3D1
100
AcDbEntity
  8
STANDARDEBENE
  0
POLYLINE
  5
3D5
330
1F
100
AcDbEntity
  8
STANDARDEBENE
 62
     7
100
AcDb2dPolyline
 66
     1
 10
0.0
 20
0.0
 30
0.0
  0
VERTEX
  5
3D6
330
3D5
100
AcDbEntity
  8
STANDARDEBENE
 62
     7
100
AcDbVertex
100
AcDb2dVertex
 10
156.4760646852733
 20
217.5231566839005
 30
0.0
  0
VERTEX
  5
3D7
330
3D5
100
AcDbEntity
  8
STANDARDEBENE
 62
     7
100
AcDbVertex
100
AcDb2dVertex
 10
156.4760646852733
 20
221.2731431195949
 30
0.0
  0
SEQEND
  5
3D8
330
3D5
100
AcDbEntity
  8
STANDARDEBENE
  0
POLYLINE
  5
3D9
330
1F
100
AcDbEntity
  8
STANDARDEBENE
 62
     7
100
AcDb2dPolyline
 66
     1
 10
0.0
 20
0.0
 30
0.0
  0
VERTEX
  5
3DA
330
3D9
100
AcDbEntity
  8
STANDARDEBENE
 62
     7
100
AcDbVertex
100
AcDb2dVertex
 10
138.4757852843915
 20
221.2731431195949
 30
0.0
  0
VERTEX
  5
3DB
330
3D9
100
AcDbEntity
  8
STANDARDEBENE
 62
     7
100
AcDbVertex
100
AcDb2dVertex
 10
138.4757852843915
 20
217.5231566839005
 30
0.0
  0
SEQEND
  5
3DC
330
3D9
100
AcDbEntity
  8
STANDARDEBENE
  0
POLYLINE
  5
3DD
330
1F
100
AcDbEntity
  8
STANDARDEBENE
 62
     7
100
AcDb2dPolyline
 66
     1
 10
0.0
 20
0.0
 30
0.0
  0
VERTEX
  5
3DE
330
3DD
100
AcDbEntity
  8
STANDARDEBENE
 62
     7
100
AcDbVertex
100
AcDb2dVertex
 10
138.4757852843915
 20
215.0230508902547
 30
0.0
  0
VERTEX
  5
3DF
330
3DD
100
AcDbEntity
  8
STANDARDEBENE
 62
     7
100
AcDbVertex
100
AcDb2dVertex
 10
138.4757852843915
 20
211.272892199786
 30
0.0
  0
SEQEND
  5
3E0
330
3DD
100
AcDbEntity
  8
STANDARDEBENE
  0
POLYLINE
  5
3E1
330
1F
100
AcDbEntity
  8
STANDARDEBENE
 62
     7
100
AcDb2dPolyline
 66
     1
 10
0.0
 20
0.0
 30
0.0
  0
VERTEX
  5
3E2
330
3E1
100
AcDbEntity
  8
STANDARDEBENE
 62
     7
100
AcDbVertex
100
AcDb2dVertex
 10
142.5761379309358
 20
201.3236286931587
 30
0.0
  0
VERTEX
  5
3E3
330
3E1
100
AcDbEntity
  8
STANDARDEBENE
 62
     7
100
AcDbVertex
100
AcDb2dVertex
 10
142.2636677704237
 20
201.0106417683238
 30
0.0
  0
SEQEND
  5
3E4
330
3E1
100
AcDbEntity
  8
STANDARDEBENE
  0
POLYLINE
  5
3E5
330
1F
100
AcDbEntity
  8
STANDARDEBENE
 62
     7
100
AcDb2dPolyline
 66
     1
 10
0.0
 20
0.0
 30
0.0
  0
VERTEX
  5
3E6
330
3E5
100
AcDbEntity
  8
STANDARDEBENE
 62
     7
100
AcDbVertex
100
AcDb2dVertex
 10
142.0554117483403
 20
200.8022134914661
 30
0.0
  0
VERTEX
  5
3E7
330
3E5
100
AcDbEntity
  8
STANDARDEBENE
 62
     7
100
AcDbVertex
100
AcDb2dVertex
 10
141.7429415878282
 20
200.4895710761797
 30
0.0
  0
SEQEND
  5
3E8
330
3E5
100
AcDbEntity
  8
STANDARDEBENE
  0
POLYLINE
  5
3E9
330
1F
100
AcDbEntity
  8
STANDARDEBENE
 62
     7
100
AcDb2dPolyline
 66
     1
 10
0.0
 20
0.0
 30
0.0
  0
VERTEX
  5
3EA
330
3E9
100
AcDbEntity
  8
STANDARDEBENE
 62
     7
100
AcDbVertex
100
AcDb2dVertex
 10
153.2099419104823
 20
200.4895710761797
 30
0.0
  0
VERTEX
  5
3EB
330
3E9
100
AcDbEntity
  8
STANDARDEBENE
 62
     7
100
AcDbVertex
100
AcDb2dVertex
 10
152.8971272404216
 20
200.8022134914661
 30
0.0
  0
SEQEND
  5
3EC
330
3E9
100
AcDbEntity
  8
STANDARDEBENE
  0
POLYLINE
  5
3ED
330
1F
100
AcDbEntity
  8
STANDARDEBENE
 62
     7
100
AcDb2dPolyline
 66
     1
 10
0.0
 20
0.0
 30
0.0
  0
VERTEX
  5
3EE
330
3ED
100
AcDbEntity
  8
STANDARDEBENE
 62
     7
100
AcDbVertex
100
AcDb2dVertex
 10
152.6885267087897
 20
201.0106417683238
 30
0.0
  0
VERTEX
  5
3EF
330
3ED
100
AcDbEntity
  8
STANDARDEBENE
 62
     7
100
AcDbVertex
100
AcDb2dVertex
 10
152.3760565482775
 20
201.3236286931587
 30
0.0
  0
SEQEND
  5
3F0
330
3ED
100
AcDbEntity
  8
STANDARDEBENE
  0
POLYLINE
  5
3F1
330
1F
100
AcDbEntity
  8
STANDARDEBENE
 62
     7
100
AcDb2dPolyline
 66
     1
 10
0.0
 20
0.0
 30
0.0
  0
VERTEX
  5
3F2
330
3F1
100
AcDbEntity
  8
STANDARDEBENE
 62
     7
100
AcDbVertex
100
AcDb2dVertex
 10
152.3760565482775
 20
210.6732733305782
 30
0.0
  0
VERTEX
  5
3F3
330
3F1
100
AcDbEntity
  8
STANDARDEBENE
 62
     7
100
AcDbVertex
100
AcDb2dVertex
 10
152.6015380477871
 20
210.8984103205393
 30
0.0
  0
SEQEND
  5
3F4
330
3F1
100
AcDbEntity
  8
STANDARDEBENE
  0
POLYLINE
  5
3F5
330
1F
100
AcDbEntity
  8
STANDARDEBENE
 62
     7
100
AcDb2dPolyline
 66
     1
 10
0.0
 20
0.0
 30
0.0
  0
VERTEX
  5
3F6
330
3F5
100
AcDbEntity
  8
STANDARDEBENE
 62
     7
100
AcDbVertex
100
AcDb2dVertex
 10
152.751055191847
 20
211.0479274645991
 30
0.0
  0
VERTEX
  5
3F7
330
3F5
100
AcDbEntity
  8
STANDARDEBENE
 62
     7
100
AcDbVertex
100
AcDb2dVertex
 10
152.9763644365823
 20
211.272892199786
 30
0.0
  0
SEQEND
  5
3F8
330
3F5
100
AcDbEntity
  8
STANDARDEBENE
  0
POLYLINE
  5
3F9
330
1F
100
AcDbEntity
  8
STANDARDEBENE
 62
     7
100
AcDb2dPolyline
 66
     1
 10
0.0
 20
0.0
 30
0.0
  0
VERTEX
  5
3FA
330
3F9
100
AcDbEntity
  8
STANDARDEBENE
 62
     7
100
AcDbVertex
100
AcDb2dVertex
 10
141.9761745521796
 20
211.272892199786
 30
0.0
  0
VERTEX
  5
3FB
330
3F9
100
AcDbEntity
  8
STANDARDEBENE
 62
     7
100
AcDbVertex
100
AcDb2dVertex
 10
142.2014837969149
 20
211.0479274645991
 30
0.0
  0
SEQEND
  5
3FC
330
3F9
100
AcDbEntity
  8
STANDARDEBENE
  0
POLYLINE
  5
3FD
330
1F
100
AcDbEntity
  8
STANDARDEBENE
 62
     7
100
AcDb2dPolyline
 66
     1
 10
0.0
 20
0.0
 30
0.0
  0
VERTEX
  5
3FE
330
3FD
100
AcDbEntity
  8
STANDARDEBENE
 62
     7
100
AcDbVertex
100
AcDb2dVertex
 10
142.351173195749
 20
210.8984103205393
 30
0.0
  0
VERTEX
  5
3FF
330
3FD
100
AcDbEntity
  8
STANDARDEBENE
 62
     7
100
AcDbVertex
100
AcDb2dVertex
 10
142.5761379309358
 20
210.6732733305782
 30
0.0
  0
SEQEND
  5
400
330
3FD
100
AcDbEntity
  8
STANDARDEBENE
  0
POLYLINE
  5
401
330
1F
100
AcDbEntity
  8
STANDARDEBENE
 62
     7
100
AcDb2dPolyline
 66
     1
 10
0.0
 20
0.0
 30
0.0
  0
VERTEX
  5
402
330
401
100
AcDbEntity
  8
STANDARDEBENE
 62
     7
100
AcDbVertex
100
AcDb2dVertex
 10
152.3760565482775
 20
201.3236286931587
 30
0.0
  0
VERTEX
  5
403
330
401
100
AcDbEntity
  8
STANDARDEBENE
 62
     7
100
AcDbVertex
100
AcDb2dVertex
 10
152.3760565482775
 20
204.8298746232717
 30
0.0
  0
SEQEND
  5
404
330
401
100
AcDbEntity
  8
STANDARDEBENE
  0
POLYLINE
  5
405
330
1F
100
AcDbEntity
  8
STANDARDEBENE
 62
     7
100
AcDb2dPolyline
 66
     1
 10
0.0
 20
0.0
 30
0.0
  0
VERTEX
  5
406
330
405
100
AcDbEntity
  8
STANDARDEBENE
 62
     7
100
AcDbVertex
100
AcDb2dVertex
 10
152.3760565482775
 20
207.1670274004652
 30
0.0
  0
VERTEX
  5
407
330
405
100
AcDbEntity
  8
STANDARDEBENE
 62
     7
100
AcDbVertex
100
AcDb2dVertex
 10
152.3760565482775
 20
210.6732733305782
 30
0.0
  0
SEQEND
  5
408
330
405
100
AcDbEntity
  8
STANDARDEBENE
  0
POLYLINE
  5
409
330
1F
100
AcDbEntity
  8
STANDARDEBENE
 62
     7
100
AcDb2dPolyline
 66
     1
 10
0.0
 20
0.0
 30
0.0
  0
VERTEX
  5
40A
330
409
100
AcDbEntity
  8
STANDARDEBENE
 62
     7
100
AcDbVertex
100
AcDb2dVertex
 10
142.5761379309358
 20
210.6732733305782
 30
0.0
  0
VERTEX
  5
40B
330
409
100
AcDbEntity
  8
STANDARDEBENE
 62
     7
100
AcDbVertex
100
AcDb2dVertex
 10
142.5761379309358
 20
207.1670274004652
 30
0.0
  0
SEQEND
  5
40C
330
409
100
AcDbEntity
  8
STANDARDEBENE
  0
POLYLINE
  5
40D
330
1F
100
AcDbEntity
  8
STANDARDEBENE
 62
     7
100
AcDb2dPolyline
 66
     1
 10
0.0
 20
0.0
 30
0.0
  0
VERTEX
  5
40E
330
40D
100
AcDbEntity
  8
STANDARDEBENE
 62
     7
100
AcDbVertex
100
AcDb2dVertex
 10
142.5761379309358
 20
204.8298746232717
 30
0.0
  0
VERTEX
  5
40F
330
40D
100
AcDbEntity
  8
STANDARDEBENE
 62
     7
100
AcDbVertex
100
AcDb2dVertex
 10
142.5761379309358
 20
201.3236286931587
 30
0.0
  0
SEQEND
  5
410
330
40D
100
AcDbEntity
  8
STANDARDEBENE
  0
POLYLINE
  5
411
330
1F
100
AcDbEntity
  8
STANDARDEBENE
 62
     7
100
AcDb2dPolyline
 66
     1
 10
0.0
 20
0.0
 30
0.0
  0
VERTEX
  5
412
330
411
100
AcDbEntity
  8
STANDARDEBENE
 62
     7
100
AcDbVertex
100
AcDb2dVertex
 10
147.4762694943809
 20
211.272892199786
 30
0.0
  0
VERTEX
  5
413
330
411
100
AcDbEntity
  8
STANDARDEBENE
 62
     7
100
AcDbVertex
100
AcDb2dVertex
 10
148.883935509654
 20
211.272892199786
 30
0.0
  0
VERTEX
  5
414
330
411
100
AcDbEntity
  8
STANDARDEBENE
 62
     7
100
AcDbVertex
100
AcDb2dVertex
 10
150.2574950796231
 20
211.272892199786
 30
0.0
  0
VERTEX
  5
415
330
411
100
AcDbEntity
  8
STANDARDEBENE
 62
     7
100
AcDbVertex
100
AcDb2dVertex
 10
150.851257286506
 20
211.272892199786
 30
0.0
  0
SEQEND
  5
416
330
411
100
AcDbEntity
  8
STANDARDEBENE
  0
SPLINE
  5
417
330
1F
100
AcDbEntity
  8
STANDARDEBENE
 62
     7
100
AcDbSpline
210
0.0
220
0.0
230
1.0
 70
    27
 71
     3
 72
    41
 73
    37
 74
     0
 42
0.0000000001
 43
0.0000000001
 40
0.0
 40
0.0
 40
0.0
 40
0.0
 40
1.0
 40
1.0
 40
1.0
 40
2.0
 40
2.0
 40
2.0
 40
3.0
 40
3.0
 40
3.0
 40
4.0
 40
4.0
 40
4.0
 40
5.0
 40
5.0
 40
5.0
 40
6.0
 40
6.0
 40
6.0
 40
7.0
 40
7.0
 40
7.0
 40
8.0
 40
8.0
 40
8.0
 40
9.0
 40
9.0
 40
9.0
 40
10.0
 40
10.0
 40
10.0
 40
11.0
 40
11.0
 40
11.0
 40
12.0
 40
12.0
 40
12.0
 40
12.0
 10
153.1014214026969
 20
211.272892199786
 30
0.0
 10
153.1014214026969
 20
211.272892199786
 30
0.0
 10
153.8400498747344
 20
211.272892199786
 30
0.0
 10
153.8400498747344
 20
211.272892199786
 30
0.0
 10
153.8400498747344
 20
211.272892199786
 30
0.0
 10
154.7573065476822
 20
211.272892199786
 30
0.0
 10
154.7573065476822
 20
211.272892199786
 30
0.0
 10
154.7573065476822
 20
211.272892199786
 30
0.0
 10
155.4952460006227
 20
211.272892199786
 30
0.0
 10
155.4952460006227
 20
211.272892199786
 30
0.0
 10
155.4952460006227
 20
211.272892199786
 30
0.0
 10
156.0357814822584
 20
211.272892199786
 30
0.0
 10
156.0357814822584
 20
211.272892199786
 30
0.0
 10
156.0357814822584
 20
211.272892199786
 30
0.0
 10
156.3653048654226
 20
211.272892199786
 30
0.0
 10
156.3653048654226
 20
211.272892199786
 30
0.0
 10
156.3653048654226
 20
211.272892199786
 30
0.0
 10
156.4760646852733
 20
211.272892199786
 30
0.0
 10
156.4760646852733
 20
211.272892199786
 30
0.0
 10
156.4760646852733
 20
211.272892199786
 30
0.0
 10
156.3653048654226
 20
211.272892199786
 30
0.0
 10
156.3653048654226
 20
211.272892199786
 30
0.0
 10
156.3653048654226
 20
211.272892199786
 30
0.0
 10
156.0357814822584
 20
211.272892199786
 30
0.0
 10
156.0357814822584
 20
211.272892199786
 30
0.0
 10
156.0357814822584
 20
211.272892199786
 30
0.0
 10
155.4952460006227
 20
211.272892199786
 30
0.0
 10
155.4952460006227
 20
211.272892199786
 30
0.0
 10
155.4952460006227
 20
211.272892199786
 30
0.0
 10
154.7573065476822
 20
211.272892199786
 30
0.0
 10
154.7573065476822
 20
211.272892199786
 30
0.0
 10
154.7573065476822
 20
211.272892199786
 30
0.0
 10
153.8400498747344
 20
211.272892199786
 30
0.0
 10
153.8400498747344
 20
211.272892199786
 30
0.0
 10
153.8400498747344
 20
211.272892199786
 30
0.0
 10
153.1014214026969
 20
211.272892199786
 30
0.0
 10
153.1014214026969
 20
211.272892199786
 30
0.0
  0
POLYLINE
  5
418
330
1F
100
AcDbEntity
  8
STANDARDEBENE
 62
     7
100
AcDb2dPolyline
 66
     1
 10
0.0
 20
0.0
 30
0.0
  0
VERTEX
  5
419
330
418
100
AcDbEntity
  8
STANDARDEBENE
 62
     7
100
AcDbVertex
100
AcDb2dVertex
 10
150.851257286506
 20
211.272892199786
 30
0.0
  0
VERTEX
  5
41A
330
418
100
AcDbEntity
  8
STANDARDEBENE
 62
     7
100
AcDbVertex
100
AcDb2dVertex
 10
150.2574950796231
 20
211.272892199786
 30
0.0
  0
VERTEX
  5
41B
330
418
100
AcDbEntity
  8
STANDARDEBENE
 62
     7
100
AcDbVertex
100
AcDb2dVertex
 10
148.883935509654
 20
211.272892199786
 30
0.0
  0
VERTEX
  5
41C
330
418
100
AcDbEntity
  8
STANDARDEBENE
 62
     7
100
AcDbVertex
100
AcDb2dVertex
 10
147.4762694943809
 20
211.272892199786
 30
0.0
  0
VERTEX
  5
41D
330
418
100
AcDbEntity
  8
STANDARDEBENE
 62
     7
100
AcDbVertex
100
AcDb2dVertex
 10
146.0682589695593
 20
211.272892199786
 30
0.0
  0
VERTEX
  5
41E
330
418
100
AcDbEntity
  8
STANDARDEBENE
 62
     7
100
AcDbVertex
100
AcDb2dVertex
 10
144.6950439091387
 20
211.272892199786
 30
0.0
  0
VERTEX
  5
41F
330
418
100
AcDbEntity
  8
STANDARDEBENE
 62
     7
100
AcDbVertex
100
AcDb2dVertex
 10
144.1009371927074
 20
211.272892199786
 30
0.0
  0
SEQEND
  5
420
330
418
100
AcDbEntity
  8
STANDARDEBENE
  0
SPLINE
  5
421
330
1F
100
AcDbEntity
  8
STANDARDEBENE
 62
     7
100
AcDbSpline
210
0.0
220
0.0
230
1.0
 70
    27
 71
     3
 72
    41
 73
    37
 74
     0
 42
0.0000000001
 43
0.0000000001
 40
0.0
 40
0.0
 40
0.0
 40
0.0
 40
1.0
 40
1.0
 40
1.0
 40
2.0
 40
2.0
 40
2.0
 40
3.0
 40
3.0
 40
3.0
 40
4.0
 40
4.0
 40
4.0
 40
5.0
 40
5.0
 40
5.0
 40
6.0
 40
6.0
 40
6.0
 40
7.0
 40
7.0
 40
7.0
 40
8.0
 40
8.0
 40
8.0
 40
9.0
 40
9.0
 40
9.0
 40
10.0
 40
10.0
 40
10.0
 40
11.0
 40
11.0
 40
11.0
 40
12.0
 40
12.0
 40
12.0
 40
12.0
 10
141.8509453312907
 20
211.272892199786
 30
0.0
 10
141.8509453312907
 20
211.272892199786
 30
0.0
 10
141.1124891140274
 20
211.272892199786
 30
0.0
 10
141.1124891140274
 20
211.272892199786
 30
0.0
 10
141.1124891140274
 20
211.272892199786
 30
0.0
 10
140.1948879315312
 20
211.272892199786
 30
0.0
 10
140.1948879315312
 20
211.272892199786
 30
0.0
 10
140.1948879315312
 20
211.272892199786
 30
0.0
 10
139.4572929881392
 20
211.272892199786
 30
0.0
 10
139.4572929881392
 20
211.272892199786
 30
0.0
 10
139.4572929881392
 20
211.272892199786
 30
0.0
 10
138.9165852517292
 20
211.272892199786
 30
0.0
 10
138.9165852517292
 20
211.272892199786
 30
0.0
 10
138.9165852517292
 20
211.272892199786
 30
0.0
 10
138.5874063781136
 20
211.272892199786
 30
0.0
 10
138.5874063781136
 20
211.272892199786
 30
0.0
 10
138.5874063781136
 20
211.272892199786
 30
0.0
 10
138.4757852843915
 20
211.272892199786
 30
0.0
 10
138.4757852843915
 20
211.272892199786
 30
0.0
 10
138.4757852843915
 20
211.272892199786
 30
0.0
 10
138.5874063781136
 20
211.272892199786
 30
0.0
 10
138.5874063781136
 20
211.272892199786
 30
0.0
 10
138.5874063781136
 20
211.272892199786
 30
0.0
 10
138.9165852517292
 20
211.272892199786
 30
0.0
 10
138.9165852517292
 20
211.272892199786
 30
0.0
 10
138.9165852517292
 20
211.272892199786
 30
0.0
 10
139.4572929881392
 20
211.272892199786
 30
0.0
 10
139.4572929881392
 20
211.272892199786
 30
0.0
 10
139.4572929881392
 20
211.272892199786
 30
0.0
 10
140.1948879315312
 20
211.272892199786
 30
0.0
 10
140.1948879315312
 20
211.272892199786
 30
0.0
 10
140.1948879315312
 20
211.272892199786
 30
0.0
 10
141.1124891140274
 20
211.272892199786
 30
0.0
 10
141.1124891140274
 20
211.272892199786
 30
0.0
 10
141.1124891140274
 20
211.272892199786
 30
0.0
 10
141.8509453312907
 20
211.272892199786
 30
0.0
 10
141.8509453312907
 20
211.272892199786
 30
0.0
  0
POLYLINE
  5
422
330
1F
100
AcDbEntity
  8
STANDARDEBENE
 62
     7
100
AcDb2dPolyline
 66
     1
 10
0.0
 20
0.0
 30
0.0
  0
VERTEX
  5
423
330
422
100
AcDbEntity
  8
STANDARDEBENE
 62
     7
100
AcDbVertex
100
AcDb2dVertex
 10
144.1009371927074
 20
211.272892199786
 30
0.0
  0
VERTEX
  5
424
330
422
100
AcDbEntity
  8
STANDARDEBENE
 62
     7
100
AcDbVertex
100
AcDb2dVertex
 10
144.6950439091387
 20
211.272892199786
 30
0.0
  0
VERTEX
  5
425
330
422
100
AcDbEntity
  8
STANDARDEBENE
 62
     7
100
AcDbVertex
100
AcDb2dVertex
 10
146.0682589695593
 20
211.272892199786
 30
0.0
  0
VERTEX
  5
426
330
422
100
AcDbEntity
  8
STANDARDEBENE
 62
     7
100
AcDbVertex
100
AcDb2dVertex
 10
147.4762694943809
 20
211.272892199786
 30
0.0
  0
SEQEND
  5
427
330
422
100
AcDbEntity
  8
STANDARDEBENE
  0
SPLINE
  5
428
330
1F
100
AcDbEntity
  8
STANDARDEBENE
 62
     7
100
AcDbSpline
210
0.0
220
0.0
230
1.0
 70
    27
 71
     3
 72
    35
 73
    31
 74
     0
 42
0.0000000001
 43
0.0000000001
 40
0.0
 40
0.0
 40
0.0
 40
0.0
 40
1.0
 40
1.0
 40
1.0
 40
2.0
 40
2.0
 40
2.0
 40
3.0
 40
3.0
 40
3.0
 40
4.0
 40
4.0
 40
4.0
 40
5.0
 40
5.0
 40
5.0
 40
6.0
 40
6.0
 40
6.0
 40
7.0
 40
7.0
 40
7.0
 40
8.0
 40
8.0
 40
8.0
 40
9.0
 40
9.0
 40
9.0
 40
10.0
 40
10.0
 40
10.0
 40
10.0
 10
147.4762694943809
 20
201.3236286931587
 30
0.0
 10
147.4762694943809
 20
201.3236286931587
 30
0.0
 10
146.457210249844
 20
201.3236286931587
 30
0.0
 10
146.457210249844
 20
201.3236286931587
 30
0.0
 10
146.457210249844
 20
201.3236286931587
 30
0.0
 10
145.4834540109382
 20
201.3236286931587
 30
0.0
 10
145.4834540109382
 20
201.3236286931587
 30
0.0
 10
145.4834540109382
 20
201.3236286931587
 30
0.0
 10
144.5961696687121
 20
201.3236286931587
 30
0.0
 10
144.5961696687121
 20
201.3236286931587
 30
0.0
 10
144.5961696687121
 20
201.3236286931587
 30
0.0
 10
143.8349758212461
 20
201.3236286931587
 30
0.0
 10
143.8349758212461
 20
201.3236286931587
 30
0.0
 10
143.8349758212461
 20
201.3236286931587
 30
0.0
 10
143.8211954393051
 20
201.3236286931587
 30
0.0
 10
143.8211954393051
 20
201.3236286931587
 30
0.0
 10
143.8211954393051
 20
201.3236286931587
 30
0.0
 10
143.8349758212461
 20
201.3236286931587
 30
0.0
 10
143.8349758212461
 20
201.3236286931587
 30
0.0
 10
143.8349758212461
 20
201.3236286931587
 30
0.0
 10
144.5961696687121
 20
201.3236286931587
 30
0.0
 10
144.5961696687121
 20
201.3236286931587
 30
0.0
 10
144.5961696687121
 20
201.3236286931587
 30
0.0
 10
145.4834540109382
 20
201.3236286931587
 30
0.0
 10
145.4834540109382
 20
201.3236286931587
 30
0.0
 10
145.4834540109382
 20
201.3236286931587
 30
0.0
 10
146.457210249844
 20
201.3236286931587
 30
0.0
 10
146.457210249844
 20
201.3236286931587
 30
0.0
 10
146.457210249844
 20
201.3236286931587
 30
0.0
 10
147.4762694943809
 20
201.3236286931587
 30
0.0
 10
147.4762694943809
 20
201.3236286931587
 30
0.0
  0
SPLINE
  5
429
330
1F
100
AcDbEntity
  8
STANDARDEBENE
 62
     7
100
AcDbSpline
210
0.0
220
0.0
230
1.0
 70
    27
 71
     3
 72
    35
 73
    31
 74
     0
 42
0.0000000001
 43
0.0000000001
 40
0.0
 40
0.0
 40
0.0
 40
0.0
 40
1.0
 40
1.0
 40
1.0
 40
2.0
 40
2.0
 40
2.0
 40
3.0
 40
3.0
 40
3.0
 40
4.0
 40
4.0
 40
4.0
 40
5.0
 40
5.0
 40
5.0
 40
6.0
 40
6.0
 40
6.0
 40
7.0
 40
7.0
 40
7.0
 40
8.0
 40
8.0
 40
8.0
 40
9.0
 40
9.0
 40
9.0
 40
10.0
 40
10.0
 40
10.0
 40
10.0
 10
147.4762694943809
 20
201.3236286931587
 30
0.0
 10
147.4762694943809
 20
201.3236286931587
 30
0.0
 10
148.4951564841436
 20
201.3236286931587
 30
0.0
 10
148.4951564841436
 20
201.3236286931587
 30
0.0
 10
148.4951564841436
 20
201.3236286931587
 30
0.0
 10
149.4690849778237
 20
201.3236286931587
 30
0.0
 10
149.4690849778237
 20
201.3236286931587
 30
0.0
 10
149.4690849778237
 20
201.3236286931587
 30
0.0
 10
150.3560248105013
 20
201.3236286931587
 30
0.0
 10
150.3560248105013
 20
201.3236286931587
 30
0.0
 10
150.3560248105013
 20
201.3236286931587
 30
0.0
 10
151.11773542229
 20
201.3236286931587
 30
0.0
 10
151.11773542229
 20
201.3236286931587
 30
0.0
 10
151.11773542229
 20
201.3236286931587
 30
0.0
 10
151.1309990399082
 20
201.3236286931587
 30
0.0
 10
151.1309990399082
 20
201.3236286931587
 30
0.0
 10
151.1309990399082
 20
201.3236286931587
 30
0.0
 10
151.11773542229
 20
201.3236286931587
 30
0.0
 10
151.11773542229
 20
201.3236286931587
 30
0.0
 10
151.11773542229
 20
201.3236286931587
 30
0.0
 10
150.3560248105013
 20
201.3236286931587
 30
0.0
 10
150.3560248105013
 20
201.3236286931587
 30
0.0
 10
150.3560248105013
 20
201.3236286931587
 30
0.0
 10
149.4690849778237
 20
201.3236286931587
 30
0.0
 10
149.4690849778237
 20
201.3236286931587
 30
0.0
 10
149.4690849778237
 20
201.3236286931587
 30
0.0
 10
148.4951564841436
 20
201.3236286931587
 30
0.0
 10
148.4951564841436
 20
201.3236286931587
 30
0.0
 10
148.4951564841436
 20
201.3236286931587
 30
0.0
 10
147.4762694943809
 20
201.3236286931587
 30
0.0
 10
147.4762694943809
 20
201.3236286931587
 30
0.0
  0
SPLINE
  5
42A
330
1F
100
AcDbEntity
  8
STANDARDEBENE
 62
     7
100
AcDbSpline
210
0.0
220
0.0
230
1.0
 70
    27
 71
     3
 72
    35
 73
    31
 74
     0
 42
0.0000000001
 43
0.0000000001
 40
0.0
 40
0.0
 40
0.0
 40
0.0
 40
1.0
 40
1.0
 40
1.0
 40
2.0
 40
2.0
 40
2.0
 40
3.0
 40
3.0
 40
3.0
 40
4.0
 40
4.0
 40
4.0
 40
5.0
 40
5.0
 40
5.0
 40
6.0
 40
6.0
 40
6.0
 40
7.0
 40
7.0
 40
7.0
 40
8.0
 40
8.0
 40
8.0
 40
9.0
 40
9.0
 40
9.0
 40
10.0
 40
10.0
 40
10.0
 40
10.0
 10
147.4762694943809
 20
210.6732733305782
 30
0.0
 10
147.4762694943809
 20
210.6732733305782
 30
0.0
 10
148.4951564841436
 20
210.6732733305782
 30
0.0
 10
148.4951564841436
 20
210.6732733305782
 30
0.0
 10
148.4951564841436
 20
210.6732733305782
 30
0.0
 10
149.4690849778237
 20
210.6732733305782
 30
0.0
 10
149.4690849778237
 20
210.6732733305782
 30
0.0
 10
149.4690849778237
 20
210.6732733305782
 30
0.0
 10
150.3560248105013
 20
210.6732733305782
 30
0.0
 10
150.3560248105013
 20
210.6732733305782
 30
0.0
 10
150.3560248105013
 20
210.6732733305782
 30
0.0
 10
151.11773542229
 20
210.6732733305782
 30
0.0
 10
151.11773542229
 20
210.6732733305782
 30
0.0
 10
151.11773542229
 20
210.6732733305782
 30
0.0
 10
151.1309990399082
 20
210.6732733305782
 30
0.0
 10
151.1309990399082
 20
210.6732733305782
 30
0.0
 10
151.1309990399082
 20
210.6732733305782
 30
0.0
 10
151.11773542229
 20
210.6732733305782
 30
0.0
 10
151.11773542229
 20
210.6732733305782
 30
0.0
 10
151.11773542229
 20
210.6732733305782
 30
0.0
 10
150.3560248105013
 20
210.6732733305782
 30
0.0
 10
150.3560248105013
 20
210.6732733305782
 30
0.0
 10
150.3560248105013
 20
210.6732733305782
 30
0.0
 10
149.4690849778237
 20
210.6732733305782
 30
0.0
 10
149.4690849778237
 20
210.6732733305782
 30
0.0
 10
149.4690849778237
 20
210.6732733305782
 30
0.0
 10
148.4951564841436
 20
210.6732733305782
 30
0.0
 10
148.4951564841436
 20
210.6732733305782
 30
0.0
 10
148.4951564841436
 20
210.6732733305782
 30
0.0
 10
147.4762694943809
 20
210.6732733305782
 30
0.0
 10
147.4762694943809
 20
210.6732733305782
 30
0.0
  0
SPLINE
  5
42B
330
1F
100
AcDbEntity
  8
STANDARDEBENE
 62
     7
100
AcDbSpline
210
0.0
220
0.0
230
1.0
 70
    27
 71
     3
 72
    35
 73
    31
 74
     0
 42
0.0000000001
 43
0.0000000001
 40
0.0
 40
0.0
 40
0.0
 40
0.0
 40
1.0
 40
1.0
 40
1.0
 40
2.0
 40
2.0
 40
2.0
 40
3.0
 40
3.0
 40
3.0
 40
4.0
 40
4.0
 40
4.0
 40
5.0
 40
5.0
 40
5.0
 40
6.0
 40
6.0
 40
6.0
 40
7.0
 40
7.0
 40
7.0
 40
8.0
 40
8.0
 40
8.0
 40
9.0
 40
9.0
 40
9.0
 40
10.0
 40
10.0
 40
10.0
 40
10.0
 10
147.4762694943809
 20
210.6732733305782
 30
0.0
 10
147.4762694943809
 20
210.6732733305782
 30
0.0
 10
146.457210249844
 20
210.6732733305782
 30
0.0
 10
146.457210249844
 20
210.6732733305782
 30
0.0
 10
146.457210249844
 20
210.6732733305782
 30
0.0
 10
145.4834540109382
 20
210.6732733305782
 30
0.0
 10
145.4834540109382
 20
210.6732733305782
 30
0.0
 10
145.4834540109382
 20
210.6732733305782
 30
0.0
 10
144.5961696687121
 20
210.6732733305782
 30
0.0
 10
144.5961696687121
 20
210.6732733305782
 30
0.0
 10
144.5961696687121
 20
210.6732733305782
 30
0.0
 10
143.8349758212461
 20
210.6732733305782
 30
0.0
 10
143.8349758212461
 20
210.6732733305782
 30
0.0
 10
143.8349758212461
 20
210.6732733305782
 30
0.0
 10
143.8211954393051
 20
210.6732733305782
 30
0.0
 10
143.8211954393051
 20
210.6732733305782
 30
0.0
 10
143.8211954393051
 20
210.6732733305782
 30
0.0
 10
143.8349758212461
 20
210.6732733305782
 30
0.0
 10
143.8349758212461
 20
210.6732733305782
 30
0.0
 10
143.8349758212461
 20
210.6732733305782
 30
0.0
 10
144.5961696687121
 20
210.6732733305782
 30
0.0
 10
144.5961696687121
 20
210.6732733305782
 30
0.0
 10
144.5961696687121
 20
210.6732733305782
 30
0.0
 10
145.4834540109382
 20
210.6732733305782
 30
0.0
 10
145.4834540109382
 20
210.6732733305782
 30
0.0
 10
145.4834540109382
 20
210.6732733305782
 30
0.0
 10
146.457210249844
 20
210.6732733305782
 30
0.0
 10
146.457210249844
 20
210.6732733305782
 30
0.0
 10
146.457210249844
 20
210.6732733305782
 30
0.0
 10
147.4762694943809
 20
210.6732733305782
 30
0.0
 10
147.4762694943809
 20
210.6732733305782
 30
0.0
  0
POLYLINE
  5
42C
330
1F
100
AcDbEntity
  8
STANDARDEBENE
 62
     7
100
AcDb2dPolyline
 66
     1
 10
0.0
 20
0.0
 30
0.0
  0
VERTEX
  5
42D
330
42C
100
AcDbEntity
  8
STANDARDEBENE
 62
     7
100
AcDbVertex
100
AcDb2dVertex
 10
44.47549369547835
 20
153.3661769907383
 30
0.0
  0
VERTEX
  5
42E
330
42C
100
AcDbEntity
  8
STANDARDEBENE
 62
     7
100
AcDbVertex
100
AcDb2dVertex
 10
53.73832192666959
 20
153.3661769907383
 30
0.0
  0
SEQEND
  5
42F
330
42C
100
AcDbEntity
  8
STANDARDEBENE
  0
POLYLINE
  5
430
330
1F
100
AcDbEntity
  8
STANDARDEBENE
 62
     7
100
AcDb2dPolyline
 66
     1
 10
0.0
 20
0.0
 30
0.0
  0
VERTEX
  5
431
330
430
100
AcDbEntity
  8
STANDARDEBENE
 62
     7
100
AcDbVertex
100
AcDb2dVertex
 10
34.92034911236367
 20
157.1006604967492
 30
0.0
  0
VERTEX
  5
432
330
430
100
AcDbEntity
  8
STANDARDEBENE
 62
     7
100
AcDbVertex
100
AcDb2dVertex
 10
30.16077744471675
 20
156.7437486044773
 30
0.0
  0
SEQEND
  5
433
330
430
100
AcDbEntity
  8
STANDARDEBENE
  0
POLYLINE
  5
434
330
1F
100
AcDbEntity
  8
STANDARDEBENE
 62
     7
100
AcDb2dPolyline
 66
     1
 10
0.0
 20
0.0
 30
0.0
  0
VERTEX
  5
435
330
434
100
AcDbEntity
  8
STANDARDEBENE
 62
     7
100
AcDbVertex
100
AcDb2dVertex
 10
39.26668157655486
 20
150.930666737441
 30
0.0
  0
VERTEX
  5
436
330
434
100
AcDbEntity
  8
STANDARDEBENE
 62
     7
100
AcDbVertex
100
AcDb2dVertex
 10
47.40761446297449
 20
150.930666737441
 30
0.0
  0
SEQEND
  5
437
330
434
100
AcDbEntity
  8
STANDARDEBENE
  0
POLYLINE
  5
439
330
1F
100
AcDbEntity
  8
BEMAßUNG
 62
     7
100
AcDb2dPolyline
 66
     1
 10
0.0
 20
0.0
 30
0.0
  0
VERTEX
  5
43A
330
439
100
AcDbEntity
  8
BEMAßUNG
 62
     7
100
AcDbVertex
100
AcDb2dVertex
 10
30.36007621853846
 20
201.0096082396782
 30
0.0
  0
VERTEX
  5
43B
330
439
100
AcDbEntity
  8
BEMAßUNG
 62
     7
100
AcDbVertex
100
AcDb2dVertex
 10
30.36007621853846
 20
186.8879895908648
 30
0.0
  0
SEQEND
  5
43C
330
439
100
AcDbEntity
  8
BEMAßUNG
  0
POLYLINE
  5
43D
330
1F
100
AcDbEntity
  8
BEMAßUNG
 62
     7
100
AcDb2dPolyline
 66
     1
 10
0.0
 20
0.0
 30
0.0
  0
VERTEX
  5
43E
330
43D
100
AcDbEntity
  8
BEMAßUNG
 62
     7
100
AcDbVertex
100
AcDb2dVertex
 10
57.15981850784546
 20
200.5235052667094
 30
0.0
  0
VERTEX
  5
43F
330
43D
100
AcDbEntity
  8
BEMAßUNG
 62
     7
100
AcDbVertex
100
AcDb2dVertex
 10
57.15981850784546
 20
186.8879895908648
 30
0.0
  0
SEQEND
  5
440
330
43D
100
AcDbEntity
  8
BEMAßUNG
  0
POLYLINE
  5
441
330
1F
100
AcDbEntity
  8
BEMAßUNG
 62
     7
100
AcDb2dPolyline
 66
     1
 10
0.0
 20
0.0
 30
0.0
  0
VERTEX
  5
442
330
441
100
AcDbEntity
  8
BEMAßUNG
 62
     7
100
AcDbVertex
100
AcDb2dVertex
 10
30.36007621853846
 20
188.8878675200523
 30
0.0
  0
VERTEX
  5
443
330
441
100
AcDbEntity
  8
BEMAßUNG
 62
     7
100
AcDbVertex
100
AcDb2dVertex
 10
57.15981850784546
 20
188.8878675200523
 30
0.0
  0
SEQEND
  5
444
330
441
100
AcDbEntity
  8
BEMAßUNG
  0
POLYLINE
  5
445
330
1F
100
AcDbEntity
  8
BEMAßUNG
 62
     7
100
AcDb2dPolyline
 66
     1
 10
0.0
 20
0.0
 30
0.0
  0
VERTEX
  5
446
330
445
100
AcDbEntity
  8
BEMAßUNG
 62
     7
100
AcDbVertex
100
AcDb2dVertex
 10
30.36007621853846
 20
188.8878675200523
 30
0.0
  0
VERTEX
  5
447
330
445
100
AcDbEntity
  8
BEMAßUNG
 62
     7
100
AcDbVertex
100
AcDb2dVertex
 10
33.85960421245524
 20
188.4274305084487
 30
0.0
  0
VERTEX
  5
448
330
445
100
AcDbEntity
  8
BEMAßUNG
 62
     7
100
AcDbVertex
100
AcDb2dVertex
 10
33.85960421245524
 20
189.3488212959788
 30
0.0
  0
VERTEX
  5
449
330
445
100
AcDbEntity
  8
BEMAßUNG
 62
     7
100
AcDbVertex
100
AcDb2dVertex
 10
30.36007621853846
 20
188.8878675200523
 30
0.0
  0
SEQEND
  5
44A
330
445
100
AcDbEntity
  8
BEMAßUNG
  0
POLYLINE
  5
44B
330
1F
100
AcDbEntity
  8
BEMAßUNG
 62
     7
100
AcDb2dPolyline
 66
     1
 10
0.0
 20
0.0
 30
0.0
  0
VERTEX
  5
44C
330
44B
100
AcDbEntity
  8
BEMAßUNG
 62
     7
100
AcDbVertex
100
AcDb2dVertex
 10
33.85960421245524
 20
188.4305310943854
 30
0.0
  0
VERTEX
  5
44D
330
44B
100
AcDbEntity
  8
BEMAßUNG
 62
     7
100
AcDbVertex
100
AcDb2dVertex
 10
33.83238795812176
 20
188.4305310943854
 30
0.0
  0
SEQEND
  5
44E
330
44B
100
AcDbEntity
  8
BEMAßUNG
  0
POLYLINE
  5
44F
330
1F
100
AcDbEntity
  8
BEMAßUNG
 62
     7
100
AcDb2dPolyline
 66
     1
 10
0.0
 20
0.0
 30
0.0
  0
VERTEX
  5
450
330
44F
100
AcDbEntity
  8
BEMAßUNG
 62
     7
100
AcDbVertex
100
AcDb2dVertex
 10
33.85960421245524
 20
188.4305310943854
 30
0.0
  0
VERTEX
  5
451
330
44F
100
AcDbEntity
  8
BEMAßUNG
 62
     7
100
AcDbVertex
100
AcDb2dVertex
 10
33.83238795812176
 20
188.4305310943854
 30
0.0
  0
SEQEND
  5
452
330
44F
100
AcDbEntity
  8
BEMAßUNG
  0
POLYLINE
  5
453
330
1F
100
AcDbEntity
  8
BEMAßUNG
 62
     7
100
AcDb2dPolyline
 66
     1
 10
0.0
 20
0.0
 30
0.0
  0
VERTEX
  5
454
330
453
100
AcDbEntity
  8
BEMAßUNG
 62
     7
100
AcDbVertex
100
AcDb2dVertex
 10
33.85960421245524
 20
188.4813462527929
 30
0.0
  0
VERTEX
  5
455
330
453
100
AcDbEntity
  8
BEMAßUNG
 62
     7
100
AcDbVertex
100
AcDb2dVertex
 10
33.44688177332231
 20
188.4813462527929
 30
0.0
  0
SEQEND
  5
456
330
453
100
AcDbEntity
  8
BEMAßUNG
  0
POLYLINE
  5
457
330
1F
100
AcDbEntity
  8
BEMAßUNG
 62
     7
100
AcDb2dPolyline
 66
     1
 10
0.0
 20
0.0
 30
0.0
  0
VERTEX
  5
458
330
457
100
AcDbEntity
  8
BEMAßUNG
 62
     7
100
AcDbVertex
100
AcDb2dVertex
 10
33.85960421245524
 20
188.5325059207488
 30
0.0
  0
VERTEX
  5
459
330
457
100
AcDbEntity
  8
BEMAßUNG
 62
     7
100
AcDbVertex
100
AcDb2dVertex
 10
33.06085882420007
 20
188.5325059207488
 30
0.0
  0
SEQEND
  5
45A
330
457
100
AcDbEntity
  8
BEMAßUNG
  0
POLYLINE
  5
45B
330
1F
100
AcDbEntity
  8
BEMAßUNG
 62
     7
100
AcDb2dPolyline
 66
     1
 10
0.0
 20
0.0
 30
0.0
  0
VERTEX
  5
45C
330
45B
100
AcDbEntity
  8
BEMAßUNG
 62
     7
100
AcDbVertex
100
AcDb2dVertex
 10
33.85960421245524
 20
188.5833210791563
 30
0.0
  0
VERTEX
  5
45D
330
45B
100
AcDbEntity
  8
BEMAßUNG
 62
     7
100
AcDbVertex
100
AcDb2dVertex
 10
32.67500812985208
 20
188.5833210791563
 30
0.0
  0
SEQEND
  5
45E
330
45B
100
AcDbEntity
  8
BEMAßUNG
  0
POLYLINE
  5
45F
330
1F
100
AcDbEntity
  8
BEMAßUNG
 62
     7
100
AcDb2dPolyline
 66
     1
 10
0.0
 20
0.0
 30
0.0
  0
VERTEX
  5
460
330
45F
100
AcDbEntity
  8
BEMAßUNG
 62
     7
100
AcDbVertex
100
AcDb2dVertex
 10
33.85960421245524
 20
188.6341362375637
 30
0.0
  0
VERTEX
  5
461
330
45F
100
AcDbEntity
  8
BEMAßUNG
 62
     7
100
AcDbVertex
100
AcDb2dVertex
 10
32.28898518072984
 20
188.6341362375637
 30
0.0
  0
SEQEND
  5
462
330
45F
100
AcDbEntity
  8
BEMAßUNG
  0
POLYLINE
  5
463
330
1F
100
AcDbEntity
  8
BEMAßUNG
 62
     7
100
AcDb2dPolyline
 66
     1
 10
0.0
 20
0.0
 30
0.0
  0
VERTEX
  5
464
330
463
100
AcDbEntity
  8
BEMAßUNG
 62
     7
100
AcDbVertex
100
AcDb2dVertex
 10
33.85960421245524
 20
188.6849513959711
 30
0.0
  0
VERTEX
  5
465
330
463
100
AcDbEntity
  8
BEMAßUNG
 62
     7
100
AcDbVertex
100
AcDb2dVertex
 10
31.90347899593038
 20
188.6849513959711
 30
0.0
  0
SEQEND
  5
466
330
463
100
AcDbEntity
  8
BEMAßUNG
  0
POLYLINE
  5
467
330
1F
100
AcDbEntity
  8
BEMAßUNG
 62
     7
100
AcDb2dPolyline
 66
     1
 10
0.0
 20
0.0
 30
0.0
  0
VERTEX
  5
468
330
467
100
AcDbEntity
  8
BEMAßUNG
 62
     7
100
AcDbVertex
100
AcDb2dVertex
 10
33.85960421245524
 20
188.7357665543786
 30
0.0
  0
VERTEX
  5
469
330
467
100
AcDbEntity
  8
BEMAßUNG
 62
     7
100
AcDbVertex
100
AcDb2dVertex
 10
31.51745604680814
 20
188.7357665543786
 30
0.0
  0
SEQEND
  5
46A
330
467
100
AcDbEntity
  8
BEMAßUNG
  0
POLYLINE
  5
46B
330
1F
100
AcDbEntity
  8
BEMAßUNG
 62
     7
100
AcDb2dPolyline
 66
     1
 10
0.0
 20
0.0
 30
0.0
  0
VERTEX
  5
46C
330
46B
100
AcDbEntity
  8
BEMAßUNG
 62
     7
100
AcDbVertex
100
AcDb2dVertex
 10
33.85960421245524
 20
188.7862372032375
 30
0.0
  0
VERTEX
  5
46D
330
46B
100
AcDbEntity
  8
BEMAßUNG
 62
     7
100
AcDbVertex
100
AcDb2dVertex
 10
31.13160535246016
 20
188.7862372032375
 30
0.0
  0
SEQEND
  5
46E
330
46B
100
AcDbEntity
  8
BEMAßUNG
  0
POLYLINE
  5
46F
330
1F
100
AcDbEntity
  8
BEMAßUNG
 62
     7
100
AcDb2dPolyline
 66
     1
 10
0.0
 20
0.0
 30
0.0
  0
VERTEX
  5
470
330
46F
100
AcDbEntity
  8
BEMAßUNG
 62
     7
100
AcDbVertex
100
AcDb2dVertex
 10
33.85960421245524
 20
188.8370523616449
 30
0.0
  0
VERTEX
  5
471
330
46F
100
AcDbEntity
  8
BEMAßUNG
 62
     7
100
AcDbVertex
100
AcDb2dVertex
 10
30.74558240333791
 20
188.8370523616449
 30
0.0
  0
SEQEND
  5
472
330
46F
100
AcDbEntity
  8
BEMAßUNG
  0
POLYLINE
  5
473
330
1F
100
AcDbEntity
  8
BEMAßUNG
 62
     7
100
AcDb2dPolyline
 66
     1
 10
0.0
 20
0.0
 30
0.0
  0
VERTEX
  5
474
330
473
100
AcDbEntity
  8
BEMAßUNG
 62
     7
100
AcDbVertex
100
AcDb2dVertex
 10
33.85960421245524
 20
188.8878675200523
 30
0.0
  0
VERTEX
  5
475
330
473
100
AcDbEntity
  8
BEMAßUNG
 62
     7
100
AcDbVertex
100
AcDb2dVertex
 10
30.36007621853846
 20
188.8878675200523
 30
0.0
  0
SEQEND
  5
476
330
473
100
AcDbEntity
  8
BEMAßUNG
  0
POLYLINE
  5
477
330
1F
100
AcDbEntity
  8
BEMAßUNG
 62
     7
100
AcDb2dPolyline
 66
     1
 10
0.0
 20
0.0
 30
0.0
  0
VERTEX
  5
478
330
477
100
AcDbEntity
  8
BEMAßUNG
 62
     7
100
AcDbVertex
100
AcDb2dVertex
 10
33.85960421245524
 20
189.345031690945
 30
0.0
  0
VERTEX
  5
479
330
477
100
AcDbEntity
  8
BEMAßUNG
 62
     7
100
AcDbVertex
100
AcDb2dVertex
 10
33.83238795812176
 20
189.345031690945
 30
0.0
  0
SEQEND
  5
47A
330
477
100
AcDbEntity
  8
BEMAßUNG
  0
POLYLINE
  5
47B
330
1F
100
AcDbEntity
  8
BEMAßUNG
 62
     7
100
AcDb2dPolyline
 66
     1
 10
0.0
 20
0.0
 30
0.0
  0
VERTEX
  5
47C
330
47B
100
AcDbEntity
  8
BEMAßUNG
 62
     7
100
AcDbVertex
100
AcDb2dVertex
 10
33.85960421245524
 20
189.345031690945
 30
0.0
  0
VERTEX
  5
47D
330
47B
100
AcDbEntity
  8
BEMAßUNG
 62
     7
100
AcDbVertex
100
AcDb2dVertex
 10
33.83238795812176
 20
189.345031690945
 30
0.0
  0
SEQEND
  5
47E
330
47B
100
AcDbEntity
  8
BEMAßUNG
  0
POLYLINE
  5
47F
330
1F
100
AcDbEntity
  8
BEMAßUNG
 62
     7
100
AcDb2dPolyline
 66
     1
 10
0.0
 20
0.0
 30
0.0
  0
VERTEX
  5
480
330
47F
100
AcDbEntity
  8
BEMAßUNG
 62
     7
100
AcDbVertex
100
AcDb2dVertex
 10
33.85960421245524
 20
189.2945610420861
 30
0.0
  0
VERTEX
  5
481
330
47F
100
AcDbEntity
  8
BEMAßUNG
 62
     7
100
AcDbVertex
100
AcDb2dVertex
 10
33.44688177332231
 20
189.2945610420861
 30
0.0
  0
SEQEND
  5
482
330
47F
100
AcDbEntity
  8
BEMAßUNG
  0
POLYLINE
  5
483
330
1F
100
AcDbEntity
  8
BEMAßUNG
 62
     7
100
AcDb2dPolyline
 66
     1
 10
0.0
 20
0.0
 30
0.0
  0
VERTEX
  5
484
330
483
100
AcDbEntity
  8
BEMAßUNG
 62
     7
100
AcDbVertex
100
AcDb2dVertex
 10
33.85960421245524
 20
189.2437458836787
 30
0.0
  0
VERTEX
  5
485
330
483
100
AcDbEntity
  8
BEMAßUNG
 62
     7
100
AcDbVertex
100
AcDb2dVertex
 10
33.06085882420007
 20
189.2437458836787
 30
0.0
  0
SEQEND
  5
486
330
483
100
AcDbEntity
  8
BEMAßUNG
  0
POLYLINE
  5
487
330
1F
100
AcDbEntity
  8
BEMAßUNG
 62
     7
100
AcDb2dPolyline
 66
     1
 10
0.0
 20
0.0
 30
0.0
  0
VERTEX
  5
488
330
487
100
AcDbEntity
  8
BEMAßUNG
 62
     7
100
AcDbVertex
100
AcDb2dVertex
 10
33.85960421245524
 20
189.1929307252712
 30
0.0
  0
VERTEX
  5
489
330
487
100
AcDbEntity
  8
BEMAßUNG
 62
     7
100
AcDbVertex
100
AcDb2dVertex
 10
32.67500812985208
 20
189.1929307252712
 30
0.0
  0
SEQEND
  5
48A
330
487
100
AcDbEntity
  8
BEMAßUNG
  0
POLYLINE
  5
48B
330
1F
100
AcDbEntity
  8
BEMAßUNG
 62
     7
100
AcDb2dPolyline
 66
     1
 10
0.0
 20
0.0
 30
0.0
  0
VERTEX
  5
48C
330
48B
100
AcDbEntity
  8
BEMAßUNG
 62
     7
100
AcDbVertex
100
AcDb2dVertex
 10
33.85960421245524
 20
189.1421155668638
 30
0.0
  0
VERTEX
  5
48D
330
48B
100
AcDbEntity
  8
BEMAßUNG
 62
     7
100
AcDbVertex
100
AcDb2dVertex
 10
32.28898518072984
 20
189.1421155668638
 30
0.0
  0
SEQEND
  5
48E
330
48B
100
AcDbEntity
  8
BEMAßUNG
  0
POLYLINE
  5
48F
330
1F
100
AcDbEntity
  8
BEMAßUNG
 62
     7
100
AcDb2dPolyline
 66
     1
 10
0.0
 20
0.0
 30
0.0
  0
VERTEX
  5
490
330
48F
100
AcDbEntity
  8
BEMAßUNG
 62
     7
100
AcDbVertex
100
AcDb2dVertex
 10
33.85960421245524
 20
189.0913004084564
 30
0.0
  0
VERTEX
  5
491
330
48F
100
AcDbEntity
  8
BEMAßUNG
 62
     7
100
AcDbVertex
100
AcDb2dVertex
 10
31.90347899593038
 20
189.0913004084564
 30
0.0
  0
SEQEND
  5
492
330
48F
100
AcDbEntity
  8
BEMAßUNG
  0
POLYLINE
  5
493
330
1F
100
AcDbEntity
  8
BEMAßUNG
 62
     7
100
AcDb2dPolyline
 66
     1
 10
0.0
 20
0.0
 30
0.0
  0
VERTEX
  5
494
330
493
100
AcDbEntity
  8
BEMAßUNG
 62
     7
100
AcDbVertex
100
AcDb2dVertex
 10
33.85960421245524
 20
189.0401407405004
 30
0.0
  0
VERTEX
  5
495
330
493
100
AcDbEntity
  8
BEMAßUNG
 62
     7
100
AcDbVertex
100
AcDb2dVertex
 10
31.51745604680814
 20
189.0401407405004
 30
0.0
  0
SEQEND
  5
496
330
493
100
AcDbEntity
  8
BEMAßUNG
  0
POLYLINE
  5
497
330
1F
100
AcDbEntity
  8
BEMAßUNG
 62
     7
100
AcDb2dPolyline
 66
     1
 10
0.0
 20
0.0
 30
0.0
  0
VERTEX
  5
498
330
497
100
AcDbEntity
  8
BEMAßUNG
 62
     7
100
AcDbVertex
100
AcDb2dVertex
 10
33.85960421245524
 20
188.989325582093
 30
0.0
  0
VERTEX
  5
499
330
497
100
AcDbEntity
  8
BEMAßUNG
 62
     7
100
AcDbVertex
100
AcDb2dVertex
 10
31.13160535246016
 20
188.989325582093
 30
0.0
  0
SEQEND
  5
49A
330
497
100
AcDbEntity
  8
BEMAßUNG
  0
POLYLINE
  5
49B
330
1F
100
AcDbEntity
  8
BEMAßUNG
 62
     7
100
AcDb2dPolyline
 66
     1
 10
0.0
 20
0.0
 30
0.0
  0
VERTEX
  5
49C
330
49B
100
AcDbEntity
  8
BEMAßUNG
 62
     7
100
AcDbVertex
100
AcDb2dVertex
 10
33.85960421245524
 20
188.9386826784598
 30
0.0
  0
VERTEX
  5
49D
330
49B
100
AcDbEntity
  8
BEMAßUNG
 62
     7
100
AcDbVertex
100
AcDb2dVertex
 10
30.74558240333791
 20
188.9386826784598
 30
0.0
  0
SEQEND
  5
49E
330
49B
100
AcDbEntity
  8
BEMAßUNG
  0
POLYLINE
  5
49F
330
1F
100
AcDbEntity
  8
BEMAßUNG
 62
     7
100
AcDb2dPolyline
 66
     1
 10
0.0
 20
0.0
 30
0.0
  0
VERTEX
  5
4A0
330
49F
100
AcDbEntity
  8
BEMAßUNG
 62
     7
100
AcDbVertex
100
AcDb2dVertex
 10
33.85960421245524
 20
188.8878675200523
 30
0.0
  0
VERTEX
  5
4A1
330
49F
100
AcDbEntity
  8
BEMAßUNG
 62
     7
100
AcDbVertex
100
AcDb2dVertex
 10
30.36007621853846
 20
188.8878675200523
 30
0.0
  0
SEQEND
  5
4A2
330
49F
100
AcDbEntity
  8
BEMAßUNG
  0
POLYLINE
  5
4A3
330
1F
100
AcDbEntity
  8
BEMAßUNG
 62
     7
100
AcDb2dPolyline
 66
     1
 10
0.0
 20
0.0
 30
0.0
  0
VERTEX
  5
4A4
330
4A3
100
AcDbEntity
  8
BEMAßUNG
 62
     7
100
AcDbVertex
100
AcDb2dVertex
 10
57.15981850784546
 20
188.8878675200523
 30
0.0
  0
VERTEX
  5
4A5
330
4A3
100
AcDbEntity
  8
BEMAßUNG
 62
     7
100
AcDbVertex
100
AcDb2dVertex
 10
53.65994600438015
 20
189.3488212959788
 30
0.0
  0
VERTEX
  5
4A6
330
4A3
100
AcDbEntity
  8
BEMAßUNG
 62
     7
100
AcDbVertex
100
AcDb2dVertex
 10
53.65994600438015
 20
188.4274305084487
 30
0.0
  0
VERTEX
  5
4A7
330
4A3
100
AcDbEntity
  8
BEMAßUNG
 62
     7
100
AcDbVertex
100
AcDb2dVertex
 10
57.15981850784546
 20
188.8878675200523
 30
0.0
  0
SEQEND
  5
4A8
330
4A3
100
AcDbEntity
  8
BEMAßUNG
  0
POLYLINE
  5
4A9
330
1F
100
AcDbEntity
  8
BEMAßUNG
 62
     7
100
AcDb2dPolyline
 66
     1
 10
0.0
 20
0.0
 30
0.0
  0
VERTEX
  5
4AA
330
4A9
100
AcDbEntity
  8
BEMAßUNG
 62
     7
100
AcDbVertex
100
AcDb2dVertex
 10
53.65994600438015
 20
189.345031690945
 30
0.0
  0
VERTEX
  5
4AB
330
4A9
100
AcDbEntity
  8
BEMAßUNG
 62
     7
100
AcDbVertex
100
AcDb2dVertex
 10
53.68716225871363
 20
189.345031690945
 30
0.0
  0
SEQEND
  5
4AC
330
4A9
100
AcDbEntity
  8
BEMAßUNG
  0
POLYLINE
  5
4AD
330
1F
100
AcDbEntity
  8
BEMAßUNG
 62
     7
100
AcDb2dPolyline
 66
     1
 10
0.0
 20
0.0
 30
0.0
  0
VERTEX
  5
4AE
330
4AD
100
AcDbEntity
  8
BEMAßUNG
 62
     7
100
AcDbVertex
100
AcDb2dVertex
 10
53.65994600438015
 20
189.345031690945
 30
0.0
  0
VERTEX
  5
4AF
330
4AD
100
AcDbEntity
  8
BEMAßUNG
 62
     7
100
AcDbVertex
100
AcDb2dVertex
 10
53.68716225871363
 20
189.345031690945
 30
0.0
  0
SEQEND
  5
4B0
330
4AD
100
AcDbEntity
  8
BEMAßUNG
  0
POLYLINE
  5
4B1
330
1F
100
AcDbEntity
  8
BEMAßUNG
 62
     7
100
AcDb2dPolyline
 66
     1
 10
0.0
 20
0.0
 30
0.0
  0
VERTEX
  5
4B2
330
4B1
100
AcDbEntity
  8
BEMAßUNG
 62
     7
100
AcDbVertex
100
AcDb2dVertex
 10
53.65994600438015
 20
189.2945610420861
 30
0.0
  0
VERTEX
  5
4B3
330
4B1
100
AcDbEntity
  8
BEMAßUNG
 62
     7
100
AcDbVertex
100
AcDb2dVertex
 10
54.07301295306161
 20
189.2945610420861
 30
0.0
  0
SEQEND
  5
4B4
330
4B1
100
AcDbEntity
  8
BEMAßUNG
  0
POLYLINE
  5
4B5
330
1F
100
AcDbEntity
  8
BEMAßUNG
 62
     7
100
AcDb2dPolyline
 66
     1
 10
0.0
 20
0.0
 30
0.0
  0
VERTEX
  5
4B6
330
4B5
100
AcDbEntity
  8
BEMAßUNG
 62
     7
100
AcDbVertex
100
AcDb2dVertex
 10
53.65994600438015
 20
189.2437458836787
 30
0.0
  0
VERTEX
  5
4B7
330
4B5
100
AcDbEntity
  8
BEMAßUNG
 62
     7
100
AcDbVertex
100
AcDb2dVertex
 10
54.45903590218386
 20
189.2437458836787
 30
0.0
  0
SEQEND
  5
4B8
330
4B5
100
AcDbEntity
  8
BEMAßUNG
  0
POLYLINE
  5
4B9
330
1F
100
AcDbEntity
  8
BEMAßUNG
 62
     7
100
AcDb2dPolyline
 66
     1
 10
0.0
 20
0.0
 30
0.0
  0
VERTEX
  5
4BA
330
4B9
100
AcDbEntity
  8
BEMAßUNG
 62
     7
100
AcDbVertex
100
AcDb2dVertex
 10
53.65994600438015
 20
189.1929307252712
 30
0.0
  0
VERTEX
  5
4BB
330
4B9
100
AcDbEntity
  8
BEMAßUNG
 62
     7
100
AcDbVertex
100
AcDb2dVertex
 10
54.84488659653184
 20
189.1929307252712
 30
0.0
  0
SEQEND
  5
4BC
330
4B9
100
AcDbEntity
  8
BEMAßUNG
  0
POLYLINE
  5
4BD
330
1F
100
AcDbEntity
  8
BEMAßUNG
 62
     7
100
AcDb2dPolyline
 66
     1
 10
0.0
 20
0.0
 30
0.0
  0
VERTEX
  5
4BE
330
4BD
100
AcDbEntity
  8
BEMAßUNG
 62
     7
100
AcDbVertex
100
AcDb2dVertex
 10
53.65994600438015
 20
189.1421155668638
 30
0.0
  0
VERTEX
  5
4BF
330
4BD
100
AcDbEntity
  8
BEMAßUNG
 62
     7
100
AcDbVertex
100
AcDb2dVertex
 10
55.23090954565408
 20
189.1421155668638
 30
0.0
  0
SEQEND
  5
4C0
330
4BD
100
AcDbEntity
  8
BEMAßUNG
  0
POLYLINE
  5
4C1
330
1F
100
AcDbEntity
  8
BEMAßUNG
 62
     7
100
AcDb2dPolyline
 66
     1
 10
0.0
 20
0.0
 30
0.0
  0
VERTEX
  5
4C2
330
4C1
100
AcDbEntity
  8
BEMAßUNG
 62
     7
100
AcDbVertex
100
AcDb2dVertex
 10
53.65994600438015
 20
189.0913004084564
 30
0.0
  0
VERTEX
  5
4C3
330
4C1
100
AcDbEntity
  8
BEMAßUNG
 62
     7
100
AcDbVertex
100
AcDb2dVertex
 10
55.61641573045354
 20
189.0913004084564
 30
0.0
  0
SEQEND
  5
4C4
330
4C1
100
AcDbEntity
  8
BEMAßUNG
  0
POLYLINE
  5
4C5
330
1F
100
AcDbEntity
  8
BEMAßUNG
 62
     7
100
AcDb2dPolyline
 66
     1
 10
0.0
 20
0.0
 30
0.0
  0
VERTEX
  5
4C6
330
4C5
100
AcDbEntity
  8
BEMAßUNG
 62
     7
100
AcDbVertex
100
AcDb2dVertex
 10
53.65994600438015
 20
189.0401407405004
 30
0.0
  0
VERTEX
  5
4C7
330
4C5
100
AcDbEntity
  8
BEMAßUNG
 62
     7
100
AcDbVertex
100
AcDb2dVertex
 10
56.00243867957578
 20
189.0401407405004
 30
0.0
  0
SEQEND
  5
4C8
330
4C5
100
AcDbEntity
  8
BEMAßUNG
  0
POLYLINE
  5
4C9
330
1F
100
AcDbEntity
  8
BEMAßUNG
 62
     7
100
AcDb2dPolyline
 66
     1
 10
0.0
 20
0.0
 30
0.0
  0
VERTEX
  5
4CA
330
4C9
100
AcDbEntity
  8
BEMAßUNG
 62
     7
100
AcDbVertex
100
AcDb2dVertex
 10
53.65994600438015
 20
188.989325582093
 30
0.0
  0
VERTEX
  5
4CB
330
4C9
100
AcDbEntity
  8
BEMAßUNG
 62
     7
100
AcDbVertex
100
AcDb2dVertex
 10
56.38828937392376
 20
188.989325582093
 30
0.0
  0
SEQEND
  5
4CC
330
4C9
100
AcDbEntity
  8
BEMAßUNG
  0
POLYLINE
  5
4CD
330
1F
100
AcDbEntity
  8
BEMAßUNG
 62
     7
100
AcDb2dPolyline
 66
     1
 10
0.0
 20
0.0
 30
0.0
  0
VERTEX
  5
4CE
330
4CD
100
AcDbEntity
  8
BEMAßUNG
 62
     7
100
AcDbVertex
100
AcDb2dVertex
 10
53.65994600438015
 20
188.9386826784598
 30
0.0
  0
VERTEX
  5
4CF
330
4CD
100
AcDbEntity
  8
BEMAßUNG
 62
     7
100
AcDbVertex
100
AcDb2dVertex
 10
56.77431232304601
 20
188.9386826784598
 30
0.0
  0
SEQEND
  5
4D0
330
4CD
100
AcDbEntity
  8
BEMAßUNG
  0
POLYLINE
  5
4D1
330
1F
100
AcDbEntity
  8
BEMAßUNG
 62
     7
100
AcDb2dPolyline
 66
     1
 10
0.0
 20
0.0
 30
0.0
  0
VERTEX
  5
4D2
330
4D1
100
AcDbEntity
  8
BEMAßUNG
 62
     7
100
AcDbVertex
100
AcDb2dVertex
 10
53.65994600438015
 20
188.8878675200523
 30
0.0
  0
VERTEX
  5
4D3
330
4D1
100
AcDbEntity
  8
BEMAßUNG
 62
     7
100
AcDbVertex
100
AcDb2dVertex
 10
57.15981850784546
 20
188.8878675200523
 30
0.0
  0
SEQEND
  5
4D4
330
4D1
100
AcDbEntity
  8
BEMAßUNG
  0
POLYLINE
  5
4D5
330
1F
100
AcDbEntity
  8
BEMAßUNG
 62
     7
100
AcDb2dPolyline
 66
     1
 10
0.0
 20
0.0
 30
0.0
  0
VERTEX
  5
4D6
330
4D5
100
AcDbEntity
  8
BEMAßUNG
 62
     7
100
AcDbVertex
100
AcDb2dVertex
 10
53.65994600438015
 20
188.4305310943854
 30
0.0
  0
VERTEX
  5
4D7
330
4D5
100
AcDbEntity
  8
BEMAßUNG
 62
     7
100
AcDbVertex
100
AcDb2dVertex
 10
53.68716225871363
 20
188.4305310943854
 30
0.0
  0
SEQEND
  5
4D8
330
4D5
100
AcDbEntity
  8
BEMAßUNG
  0
POLYLINE
  5
4D9
330
1F
100
AcDbEntity
  8
BEMAßUNG
 62
     7
100
AcDb2dPolyline
 66
     1
 10
0.0
 20
0.0
 30
0.0
  0
VERTEX
  5
4DA
330
4D9
100
AcDbEntity
  8
BEMAßUNG
 62
     7
100
AcDbVertex
100
AcDb2dVertex
 10
53.65994600438015
 20
188.4305310943854
 30
0.0
  0
VERTEX
  5
4DB
330
4D9
100
AcDbEntity
  8
BEMAßUNG
 62
     7
100
AcDbVertex
100
AcDb2dVertex
 10
53.68716225871363
 20
188.4305310943854
 30
0.0
  0
SEQEND
  5
4DC
330
4D9
100
AcDbEntity
  8
BEMAßUNG
  0
POLYLINE
  5
4DD
330
1F
100
AcDbEntity
  8
BEMAßUNG
 62
     7
100
AcDb2dPolyline
 66
     1
 10
0.0
 20
0.0
 30
0.0
  0
VERTEX
  5
4DE
330
4DD
100
AcDbEntity
  8
BEMAßUNG
 62
     7
100
AcDbVertex
100
AcDb2dVertex
 10
53.65994600438015
 20
188.4813462527929
 30
0.0
  0
VERTEX
  5
4DF
330
4DD
100
AcDbEntity
  8
BEMAßUNG
 62
     7
100
AcDbVertex
100
AcDb2dVertex
 10
54.07301295306161
 20
188.4813462527929
 30
0.0
  0
SEQEND
  5
4E0
330
4DD
100
AcDbEntity
  8
BEMAßUNG
  0
POLYLINE
  5
4E1
330
1F
100
AcDbEntity
  8
BEMAßUNG
 62
     7
100
AcDb2dPolyline
 66
     1
 10
0.0
 20
0.0
 30
0.0
  0
VERTEX
  5
4E2
330
4E1
100
AcDbEntity
  8
BEMAßUNG
 62
     7
100
AcDbVertex
100
AcDb2dVertex
 10
53.65994600438015
 20
188.5325059207488
 30
0.0
  0
VERTEX
  5
4E3
330
4E1
100
AcDbEntity
  8
BEMAßUNG
 62
     7
100
AcDbVertex
100
AcDb2dVertex
 10
54.45903590218386
 20
188.5325059207488
 30
0.0
  0
SEQEND
  5
4E4
330
4E1
100
AcDbEntity
  8
BEMAßUNG
  0
POLYLINE
  5
4E5
330
1F
100
AcDbEntity
  8
BEMAßUNG
 62
     7
100
AcDb2dPolyline
 66
     1
 10
0.0
 20
0.0
 30
0.0
  0
VERTEX
  5
4E6
330
4E5
100
AcDbEntity
  8
BEMAßUNG
 62
     7
100
AcDbVertex
100
AcDb2dVertex
 10
53.65994600438015
 20
188.5833210791563
 30
0.0
  0
VERTEX
  5
4E7
330
4E5
100
AcDbEntity
  8
BEMAßUNG
 62
     7
100
AcDbVertex
100
AcDb2dVertex
 10
54.84488659653184
 20
188.5833210791563
 30
0.0
  0
SEQEND
  5
4E8
330
4E5
100
AcDbEntity
  8
BEMAßUNG
  0
POLYLINE
  5
4E9
330
1F
100
AcDbEntity
  8
BEMAßUNG
 62
     7
100
AcDb2dPolyline
 66
     1
 10
0.0
 20
0.0
 30
0.0
  0
VERTEX
  5
4EA
330
4E9
100
AcDbEntity
  8
BEMAßUNG
 62
     7
100
AcDbVertex
100
AcDb2dVertex
 10
53.65994600438015
 20
188.6341362375637
 30
0.0
  0
VERTEX
  5
4EB
330
4E9
100
AcDbEntity
  8
BEMAßUNG
 62
     7
100
AcDbVertex
100
AcDb2dVertex
 10
55.23090954565408
 20
188.6341362375637
 30
0.0
  0
SEQEND
  5
4EC
330
4E9
100
AcDbEntity
  8
BEMAßUNG
  0
POLYLINE
  5
4ED
330
1F
100
AcDbEntity
  8
BEMAßUNG
 62
     7
100
AcDb2dPolyline
 66
     1
 10
0.0
 20
0.0
 30
0.0
  0
VERTEX
  5
4EE
330
4ED
100
AcDbEntity
  8
BEMAßUNG
 62
     7
100
AcDbVertex
100
AcDb2dVertex
 10
53.65994600438015
 20
188.6849513959711
 30
0.0
  0
VERTEX
  5
4EF
330
4ED
100
AcDbEntity
  8
BEMAßUNG
 62
     7
100
AcDbVertex
100
AcDb2dVertex
 10
55.61641573045354
 20
188.6849513959711
 30
0.0
  0
SEQEND
  5
4F0
330
4ED
100
AcDbEntity
  8
BEMAßUNG
  0
POLYLINE
  5
4F1
330
1F
100
AcDbEntity
  8
BEMAßUNG
 62
     7
100
AcDb2dPolyline
 66
     1
 10
0.0
 20
0.0
 30
0.0
  0
VERTEX
  5
4F2
330
4F1
100
AcDbEntity
  8
BEMAßUNG
 62
     7
100
AcDbVertex
100
AcDb2dVertex
 10
53.65994600438015
 20
188.7357665543786
 30
0.0
  0
VERTEX
  5
4F3
330
4F1
100
AcDbEntity
  8
BEMAßUNG
 62
     7
100
AcDbVertex
100
AcDb2dVertex
 10
56.00243867957578
 20
188.7357665543786
 30
0.0
  0
SEQEND
  5
4F4
330
4F1
100
AcDbEntity
  8
BEMAßUNG
  0
POLYLINE
  5
4F5
330
1F
100
AcDbEntity
  8
BEMAßUNG
 62
     7
100
AcDb2dPolyline
 66
     1
 10
0.0
 20
0.0
 30
0.0
  0
VERTEX
  5
4F6
330
4F5
100
AcDbEntity
  8
BEMAßUNG
 62
     7
100
AcDbVertex
100
AcDb2dVertex
 10
53.65994600438015
 20
188.7862372032375
 30
0.0
  0
VERTEX
  5
4F7
330
4F5
100
AcDbEntity
  8
BEMAßUNG
 62
     7
100
AcDbVertex
100
AcDb2dVertex
 10
56.38828937392376
 20
188.7862372032375
 30
0.0
  0
SEQEND
  5
4F8
330
4F5
100
AcDbEntity
  8
BEMAßUNG
  0
POLYLINE
  5
4F9
330
1F
100
AcDbEntity
  8
BEMAßUNG
 62
     7
100
AcDb2dPolyline
 66
     1
 10
0.0
 20
0.0
 30
0.0
  0
VERTEX
  5
4FA
330
4F9
100
AcDbEntity
  8
BEMAßUNG
 62
     7
100
AcDbVertex
100
AcDb2dVertex
 10
53.65994600438015
 20
188.8370523616449
 30
0.0
  0
VERTEX
  5
4FB
330
4F9
100
AcDbEntity
  8
BEMAßUNG
 62
     7
100
AcDbVertex
100
AcDb2dVertex
 10
56.77431232304601
 20
188.8370523616449
 30
0.0
  0
SEQEND
  5
4FC
330
4F9
100
AcDbEntity
  8
BEMAßUNG
  0
POLYLINE
  5
4FD
330
1F
100
AcDbEntity
  8
BEMAßUNG
 62
     7
100
AcDb2dPolyline
 66
     1
 10
0.0
 20
0.0
 30
0.0
  0
VERTEX
  5
4FE
330
4FD
100
AcDbEntity
  8
BEMAßUNG
 62
     7
100
AcDbVertex
100
AcDb2dVertex
 10
53.65994600438015
 20
188.8878675200523
 30
0.0
  0
VERTEX
  5
4FF
330
4FD
100
AcDbEntity
  8
BEMAßUNG
 62
     7
100
AcDbVertex
100
AcDb2dVertex
 10
57.15981850784546
 20
188.8878675200523
 30
0.0
  0
SEQEND
  5
500
330
4FD
100
AcDbEntity
  8
BEMAßUNG
  0
POLYLINE
  5
501
330
1F
100
AcDbEntity
  8
BEMAßUNG
 62
     7
100
AcDb2dPolyline
 66
     1
 10
0.0
 20
0.0
 30
0.0
  0
VERTEX
  5
502
330
501
100
AcDbEntity
  8
BEMAßUNG
 62
     7
100
AcDbVertex
100
AcDb2dVertex
 10
102.5132947877397
 20
235.2328422806015
 30
0.0
  0
VERTEX
  5
503
330
501
100
AcDbEntity
  8
BEMAßUNG
 62
     7
100
AcDbVertex
100
AcDb2dVertex
 10
102.5132947877397
 20
258.2735547585653
 30
0.0
  0
SEQEND
  5
504
330
501
100
AcDbEntity
  8
BEMAßUNG
  0
POLYLINE
  5
505
330
1F
100
AcDbEntity
  8
BEMAßUNG
 62
     7
100
AcDb2dPolyline
 66
     1
 10
0.0
 20
0.0
 30
0.0
  0
VERTEX
  5
506
330
505
100
AcDbEntity
  8
BEMAßUNG
 62
     7
100
AcDbVertex
100
AcDb2dVertex
 10
147.4762694943809
 20
221.2731431195949
 30
0.0
  0
VERTEX
  5
507
330
505
100
AcDbEntity
  8
BEMAßUNG
 62
     7
100
AcDbVertex
100
AcDb2dVertex
 10
147.4762694943809
 20
258.2735547585653
 30
0.0
  0
SEQEND
  5
508
330
505
100
AcDbEntity
  8
BEMAßUNG
  0
POLYLINE
  5
509
330
1F
100
AcDbEntity
  8
BEMAßUNG
 62
     7
100
AcDb2dPolyline
 66
     1
 10
0.0
 20
0.0
 30
0.0
  0
VERTEX
  5
50A
330
509
100
AcDbEntity
  8
BEMAßUNG
 62
     7
100
AcDbVertex
100
AcDb2dVertex
 10
102.5132947877397
 20
256.2729878102807
 30
0.0
  0
VERTEX
  5
50B
330
509
100
AcDbEntity
  8
BEMAßUNG
 62
     7
100
AcDbVertex
100
AcDb2dVertex
 10
147.4762694943809
 20
256.2729878102807
 30
0.0
  0
SEQEND
  5
50C
330
509
100
AcDbEntity
  8
BEMAßUNG
  0
POLYLINE
  5
50D
330
1F
100
AcDbEntity
  8
BEMAßUNG
 62
     7
100
AcDb2dPolyline
 66
     1
 10
0.0
 20
0.0
 30
0.0
  0
VERTEX
  5
50E
330
50D
100
AcDbEntity
  8
BEMAßUNG
 62
     7
100
AcDbVertex
100
AcDb2dVertex
 10
102.5132947877397
 20
256.2729878102807
 30
0.0
  0
VERTEX
  5
50F
330
50D
100
AcDbEntity
  8
BEMAßUNG
 62
     7
100
AcDbVertex
100
AcDb2dVertex
 10
106.0128227816565
 20
255.8126369260642
 30
0.0
  0
VERTEX
  5
510
330
50D
100
AcDbEntity
  8
BEMAßUNG
 62
     7
100
AcDbVertex
100
AcDb2dVertex
 10
106.0128227816565
 20
256.7340277135943
 30
0.0
  0
VERTEX
  5
511
330
50D
100
AcDbEntity
  8
BEMAßUNG
 62
     7
100
AcDbVertex
100
AcDb2dVertex
 10
102.5132947877397
 20
256.2729878102807
 30
0.0
  0
SEQEND
  5
512
330
50D
100
AcDbEntity
  8
BEMAßUNG
  0
POLYLINE
  5
513
330
1F
100
AcDbEntity
  8
BEMAßUNG
 62
     7
100
AcDb2dPolyline
 66
     1
 10
0.0
 20
0.0
 30
0.0
  0
VERTEX
  5
514
330
513
100
AcDbEntity
  8
BEMAßUNG
 62
     7
100
AcDbVertex
100
AcDb2dVertex
 10
106.0128227816565
 20
255.8160820215495
 30
0.0
  0
VERTEX
  5
515
330
513
100
AcDbEntity
  8
BEMAßUNG
 62
     7
100
AcDbVertex
100
AcDb2dVertex
 10
105.9857787820973
 20
255.8160820215495
 30
0.0
  0
SEQEND
  5
516
330
513
100
AcDbEntity
  8
BEMAßUNG
  0
POLYLINE
  5
517
330
1F
100
AcDbEntity
  8
BEMAßUNG
 62
     7
100
AcDb2dPolyline
 66
     1
 10
0.0
 20
0.0
 30
0.0
  0
VERTEX
  5
518
330
517
100
AcDbEntity
  8
BEMAßUNG
 62
     7
100
AcDbVertex
100
AcDb2dVertex
 10
106.0128227816565
 20
255.8160820215495
 30
0.0
  0
VERTEX
  5
519
330
517
100
AcDbEntity
  8
BEMAßUNG
 62
     7
100
AcDbVertex
100
AcDb2dVertex
 10
105.9857787820973
 20
255.8160820215495
 30
0.0
  0
SEQEND
  5
51A
330
517
100
AcDbEntity
  8
BEMAßUNG
  0
POLYLINE
  5
51B
330
1F
100
AcDbEntity
  8
BEMAßUNG
 62
     7
100
AcDb2dPolyline
 66
     1
 10
0.0
 20
0.0
 30
0.0
  0
VERTEX
  5
51C
330
51B
100
AcDbEntity
  8
BEMAßUNG
 62
     7
100
AcDbVertex
100
AcDb2dVertex
 10
106.0128227816565
 20
255.8668971799569
 30
0.0
  0
VERTEX
  5
51D
330
51B
100
AcDbEntity
  8
BEMAßUNG
 62
     7
100
AcDbVertex
100
AcDb2dVertex
 10
105.6001003425236
 20
255.8668971799569
 30
0.0
  0
SEQEND
  5
51E
330
51B
100
AcDbEntity
  8
BEMAßUNG
  0
POLYLINE
  5
51F
330
1F
100
AcDbEntity
  8
BEMAßUNG
 62
     7
100
AcDb2dPolyline
 66
     1
 10
0.0
 20
0.0
 30
0.0
  0
VERTEX
  5
520
330
51F
100
AcDbEntity
  8
BEMAßUNG
 62
     7
100
AcDbVertex
100
AcDb2dVertex
 10
106.0128227816565
 20
255.9177123383643
 30
0.0
  0
VERTEX
  5
521
330
51F
100
AcDbEntity
  8
BEMAßUNG
 62
     7
100
AcDbVertex
100
AcDb2dVertex
 10
105.2142496481756
 20
255.9177123383643
 30
0.0
  0
SEQEND
  5
522
330
51F
100
AcDbEntity
  8
BEMAßUNG
  0
POLYLINE
  5
523
330
1F
100
AcDbEntity
  8
BEMAßUNG
 62
     7
100
AcDb2dPolyline
 66
     1
 10
0.0
 20
0.0
 30
0.0
  0
VERTEX
  5
524
330
523
100
AcDbEntity
  8
BEMAßUNG
 62
     7
100
AcDbVertex
100
AcDb2dVertex
 10
106.0128227816565
 20
255.9685274967718
 30
0.0
  0
VERTEX
  5
525
330
523
100
AcDbEntity
  8
BEMAßUNG
 62
     7
100
AcDbVertex
100
AcDb2dVertex
 10
104.8285712086019
 20
255.9685274967718
 30
0.0
  0
SEQEND
  5
526
330
523
100
AcDbEntity
  8
BEMAßUNG
  0
POLYLINE
  5
527
330
1F
100
AcDbEntity
  8
BEMAßUNG
 62
     7
100
AcDb2dPolyline
 66
     1
 10
0.0
 20
0.0
 30
0.0
  0
VERTEX
  5
528
330
527
100
AcDbEntity
  8
BEMAßUNG
 62
     7
100
AcDbVertex
100
AcDb2dVertex
 10
106.0128227816565
 20
256.0193426551792
 30
0.0
  0
VERTEX
  5
529
330
527
100
AcDbEntity
  8
BEMAßUNG
 62
     7
100
AcDbVertex
100
AcDb2dVertex
 10
104.4423760047054
 20
256.0193426551792
 30
0.0
  0
SEQEND
  5
52A
330
527
100
AcDbEntity
  8
BEMAßUNG
  0
POLYLINE
  5
52B
330
1F
100
AcDbEntity
  8
BEMAßUNG
 62
     7
100
AcDb2dPolyline
 66
     1
 10
0.0
 20
0.0
 30
0.0
  0
VERTEX
  5
52C
330
52B
100
AcDbEntity
  8
BEMAßUNG
 62
     7
100
AcDbVertex
100
AcDb2dVertex
 10
106.0128227816565
 20
256.0701578135867
 30
0.0
  0
VERTEX
  5
52D
330
52B
100
AcDbEntity
  8
BEMAßUNG
 62
     7
100
AcDbVertex
100
AcDb2dVertex
 10
104.0566975651317
 20
256.0701578135867
 30
0.0
  0
SEQEND
  5
52E
330
52B
100
AcDbEntity
  8
BEMAßUNG
  0
POLYLINE
  5
52F
330
1F
100
AcDbEntity
  8
BEMAßUNG
 62
     7
100
AcDb2dPolyline
 66
     1
 10
0.0
 20
0.0
 30
0.0
  0
VERTEX
  5
530
330
52F
100
AcDbEntity
  8
BEMAßUNG
 62
     7
100
AcDbVertex
100
AcDb2dVertex
 10
106.0128227816565
 20
256.1205423350584
 30
0.0
  0
VERTEX
  5
531
330
52F
100
AcDbEntity
  8
BEMAßUNG
 62
     7
100
AcDbVertex
100
AcDb2dVertex
 10
103.6708468707837
 20
256.1205423350584
 30
0.0
  0
SEQEND
  5
532
330
52F
100
AcDbEntity
  8
BEMAßUNG
  0
POLYLINE
  5
533
330
1F
100
AcDbEntity
  8
BEMAßUNG
 62
     7
100
AcDb2dPolyline
 66
     1
 10
0.0
 20
0.0
 30
0.0
  0
VERTEX
  5
534
330
533
100
AcDbEntity
  8
BEMAßUNG
 62
     7
100
AcDbVertex
100
AcDb2dVertex
 10
106.0128227816565
 20
256.1713574934658
 30
0.0
  0
VERTEX
  5
535
330
533
100
AcDbEntity
  8
BEMAßUNG
 62
     7
100
AcDbVertex
100
AcDb2dVertex
 10
103.28516843121
 20
256.1713574934658
 30
0.0
  0
SEQEND
  5
536
330
533
100
AcDbEntity
  8
BEMAßUNG
  0
POLYLINE
  5
537
330
1F
100
AcDbEntity
  8
BEMAßUNG
 62
     7
100
AcDb2dPolyline
 66
     1
 10
0.0
 20
0.0
 30
0.0
  0
VERTEX
  5
538
330
537
100
AcDbEntity
  8
BEMAßUNG
 62
     7
100
AcDbVertex
100
AcDb2dVertex
 10
106.0128227816565
 20
256.2221726518733
 30
0.0
  0
VERTEX
  5
539
330
537
100
AcDbEntity
  8
BEMAßUNG
 62
     7
100
AcDbVertex
100
AcDb2dVertex
 10
102.8989732273135
 20
256.2221726518733
 30
0.0
  0
SEQEND
  5
53A
330
537
100
AcDbEntity
  8
BEMAßUNG
  0
POLYLINE
  5
53B
330
1F
100
AcDbEntity
  8
BEMAßUNG
 62
     7
100
AcDb2dPolyline
 66
     1
 10
0.0
 20
0.0
 30
0.0
  0
VERTEX
  5
53C
330
53B
100
AcDbEntity
  8
BEMAßUNG
 62
     7
100
AcDbVertex
100
AcDb2dVertex
 10
106.0128227816565
 20
256.2729878102807
 30
0.0
  0
VERTEX
  5
53D
330
53B
100
AcDbEntity
  8
BEMAßUNG
 62
     7
100
AcDbVertex
100
AcDb2dVertex
 10
102.5132947877397
 20
256.2729878102807
 30
0.0
  0
SEQEND
  5
53E
330
53B
100
AcDbEntity
  8
BEMAßUNG
  0
POLYLINE
  5
53F
330
1F
100
AcDbEntity
  8
BEMAßUNG
 62
     7
100
AcDb2dPolyline
 66
     1
 10
0.0
 20
0.0
 30
0.0
  0
VERTEX
  5
540
330
53F
100
AcDbEntity
  8
BEMAßUNG
 62
     7
100
AcDbVertex
100
AcDb2dVertex
 10
106.0128227816565
 20
256.7304964907219
 30
0.0
  0
VERTEX
  5
541
330
53F
100
AcDbEntity
  8
BEMAßUNG
 62
     7
100
AcDbVertex
100
AcDb2dVertex
 10
105.9857787820973
 20
256.7304964907219
 30
0.0
  0
SEQEND
  5
542
330
53F
100
AcDbEntity
  8
BEMAßUNG
  0
POLYLINE
  5
543
330
1F
100
AcDbEntity
  8
BEMAßUNG
 62
     7
100
AcDb2dPolyline
 66
     1
 10
0.0
 20
0.0
 30
0.0
  0
VERTEX
  5
544
330
543
100
AcDbEntity
  8
BEMAßUNG
 62
     7
100
AcDbVertex
100
AcDb2dVertex
 10
106.0128227816565
 20
256.7304964907219
 30
0.0
  0
VERTEX
  5
545
330
543
100
AcDbEntity
  8
BEMAßUNG
 62
     7
100
AcDbVertex
100
AcDb2dVertex
 10
105.9857787820973
 20
256.7304964907219
 30
0.0
  0
SEQEND
  5
546
330
543
100
AcDbEntity
  8
BEMAßUNG
  0
POLYLINE
  5
547
330
1F
100
AcDbEntity
  8
BEMAßUNG
 62
     7
100
AcDb2dPolyline
 66
     1
 10
0.0
 20
0.0
 30
0.0
  0
VERTEX
  5
548
330
547
100
AcDbEntity
  8
BEMAßUNG
 62
     7
100
AcDbVertex
100
AcDb2dVertex
 10
106.0128227816565
 20
256.6796813323145
 30
0.0
  0
VERTEX
  5
549
330
547
100
AcDbEntity
  8
BEMAßUNG
 62
     7
100
AcDbVertex
100
AcDb2dVertex
 10
105.6001003425236
 20
256.6796813323145
 30
0.0
  0
SEQEND
  5
54A
330
547
100
AcDbEntity
  8
BEMAßUNG
  0
POLYLINE
  5
54B
330
1F
100
AcDbEntity
  8
BEMAßUNG
 62
     7
100
AcDb2dPolyline
 66
     1
 10
0.0
 20
0.0
 30
0.0
  0
VERTEX
  5
54C
330
54B
100
AcDbEntity
  8
BEMAßUNG
 62
     7
100
AcDbVertex
100
AcDb2dVertex
 10
106.0128227816565
 20
256.6286077917457
 30
0.0
  0
VERTEX
  5
54D
330
54B
100
AcDbEntity
  8
BEMAßUNG
 62
     7
100
AcDbVertex
100
AcDb2dVertex
 10
105.2142496481756
 20
256.6286077917457
 30
0.0
  0
SEQEND
  5
54E
330
54B
100
AcDbEntity
  8
BEMAßUNG
  0
POLYLINE
  5
54F
330
1F
100
AcDbEntity
  8
BEMAßUNG
 62
     7
100
AcDb2dPolyline
 66
     1
 10
0.0
 20
0.0
 30
0.0
  0
VERTEX
  5
550
330
54F
100
AcDbEntity
  8
BEMAßUNG
 62
     7
100
AcDbVertex
100
AcDb2dVertex
 10
106.0128227816565
 20
256.5777926333382
 30
0.0
  0
VERTEX
  5
551
330
54F
100
AcDbEntity
  8
BEMAßUNG
 62
     7
100
AcDbVertex
100
AcDb2dVertex
 10
104.8285712086019
 20
256.5777926333382
 30
0.0
  0
SEQEND
  5
552
330
54F
100
AcDbEntity
  8
BEMAßUNG
  0
POLYLINE
  5
553
330
1F
100
AcDbEntity
  8
BEMAßUNG
 62
     7
100
AcDb2dPolyline
 66
     1
 10
0.0
 20
0.0
 30
0.0
  0
VERTEX
  5
554
330
553
100
AcDbEntity
  8
BEMAßUNG
 62
     7
100
AcDbVertex
100
AcDb2dVertex
 10
106.0128227816565
 20
256.5269774749308
 30
0.0
  0
VERTEX
  5
555
330
553
100
AcDbEntity
  8
BEMAßUNG
 62
     7
100
AcDbVertex
100
AcDb2dVertex
 10
104.4423760047054
 20
256.5269774749308
 30
0.0
  0
SEQEND
  5
556
330
553
100
AcDbEntity
  8
BEMAßUNG
  0
POLYLINE
  5
557
330
1F
100
AcDbEntity
  8
BEMAßUNG
 62
     7
100
AcDb2dPolyline
 66
     1
 10
0.0
 20
0.0
 30
0.0
  0
VERTEX
  5
558
330
557
100
AcDbEntity
  8
BEMAßUNG
 62
     7
100
AcDbVertex
100
AcDb2dVertex
 10
106.0128227816565
 20
256.4761623165234
 30
0.0
  0
VERTEX
  5
559
330
557
100
AcDbEntity
  8
BEMAßUNG
 62
     7
100
AcDbVertex
100
AcDb2dVertex
 10
104.0566975651317
 20
256.4761623165234
 30
0.0
  0
SEQEND
  5
55A
330
557
100
AcDbEntity
  8
BEMAßUNG
  0
POLYLINE
  5
55B
330
1F
100
AcDbEntity
  8
BEMAßUNG
 62
     7
100
AcDb2dPolyline
 66
     1
 10
0.0
 20
0.0
 30
0.0
  0
VERTEX
  5
55C
330
55B
100
AcDbEntity
  8
BEMAßUNG
 62
     7
100
AcDbVertex
100
AcDb2dVertex
 10
106.0128227816565
 20
256.4253471581159
 30
0.0
  0
VERTEX
  5
55D
330
55B
100
AcDbEntity
  8
BEMAßUNG
 62
     7
100
AcDbVertex
100
AcDb2dVertex
 10
103.6708468707837
 20
256.4253471581159
 30
0.0
  0
SEQEND
  5
55E
330
55B
100
AcDbEntity
  8
BEMAßUNG
  0
POLYLINE
  5
55F
330
1F
100
AcDbEntity
  8
BEMAßUNG
 62
     7
100
AcDb2dPolyline
 66
     1
 10
0.0
 20
0.0
 30
0.0
  0
VERTEX
  5
560
330
55F
100
AcDbEntity
  8
BEMAßUNG
 62
     7
100
AcDbVertex
100
AcDb2dVertex
 10
106.0128227816565
 20
256.3745319997084
 30
0.0
  0
VERTEX
  5
561
330
55F
100
AcDbEntity
  8
BEMAßUNG
 62
     7
100
AcDbVertex
100
AcDb2dVertex
 10
103.28516843121
 20
256.3745319997084
 30
0.0
  0
SEQEND
  5
562
330
55F
100
AcDbEntity
  8
BEMAßUNG
  0
POLYLINE
  5
563
330
1F
100
AcDbEntity
  8
BEMAßUNG
 62
     7
100
AcDb2dPolyline
 66
     1
 10
0.0
 20
0.0
 30
0.0
  0
VERTEX
  5
564
330
563
100
AcDbEntity
  8
BEMAßUNG
 62
     7
100
AcDbVertex
100
AcDb2dVertex
 10
106.0128227816565
 20
256.323716841301
 30
0.0
  0
VERTEX
  5
565
330
563
100
AcDbEntity
  8
BEMAßUNG
 62
     7
100
AcDbVertex
100
AcDb2dVertex
 10
102.8989732273135
 20
256.323716841301
 30
0.0
  0
SEQEND
  5
566
330
563
100
AcDbEntity
  8
BEMAßUNG
  0
POLYLINE
  5
567
330
1F
100
AcDbEntity
  8
BEMAßUNG
 62
     7
100
AcDb2dPolyline
 66
     1
 10
0.0
 20
0.0
 30
0.0
  0
VERTEX
  5
568
330
567
100
AcDbEntity
  8
BEMAßUNG
 62
     7
100
AcDbVertex
100
AcDb2dVertex
 10
106.0128227816565
 20
256.2729878102807
 30
0.0
  0
VERTEX
  5
569
330
567
100
AcDbEntity
  8
BEMAßUNG
 62
     7
100
AcDbVertex
100
AcDb2dVertex
 10
102.5132947877397
 20
256.2729878102807
 30
0.0
  0
SEQEND
  5
56A
330
567
100
AcDbEntity
  8
BEMAßUNG
  0
POLYLINE
  5
56B
330
1F
100
AcDbEntity
  8
BEMAßUNG
 62
     7
100
AcDb2dPolyline
 66
     1
 10
0.0
 20
0.0
 30
0.0
  0
VERTEX
  5
56C
330
56B
100
AcDbEntity
  8
BEMAßUNG
 62
     7
100
AcDbVertex
100
AcDb2dVertex
 10
147.4762694943809
 20
256.2729878102807
 30
0.0
  0
VERTEX
  5
56D
330
56B
100
AcDbEntity
  8
BEMAßUNG
 62
     7
100
AcDbVertex
100
AcDb2dVertex
 10
143.9760524813671
 20
256.7340277135943
 30
0.0
  0
VERTEX
  5
56E
330
56B
100
AcDbEntity
  8
BEMAßUNG
 62
     7
100
AcDbVertex
100
AcDb2dVertex
 10
143.9760524813671
 20
255.8126369260642
 30
0.0
  0
VERTEX
  5
56F
330
56B
100
AcDbEntity
  8
BEMAßUNG
 62
     7
100
AcDbVertex
100
AcDb2dVertex
 10
147.4762694943809
 20
256.2729878102807
 30
0.0
  0
SEQEND
  5
570
330
56B
100
AcDbEntity
  8
BEMAßUNG
  0
POLYLINE
  5
571
330
1F
100
AcDbEntity
  8
BEMAßUNG
 62
     7
100
AcDb2dPolyline
 66
     1
 10
0.0
 20
0.0
 30
0.0
  0
VERTEX
  5
572
330
571
100
AcDbEntity
  8
BEMAßUNG
 62
     7
100
AcDbVertex
100
AcDb2dVertex
 10
143.9760524813671
 20
256.7304964907219
 30
0.0
  0
VERTEX
  5
573
330
571
100
AcDbEntity
  8
BEMAßUNG
 62
     7
100
AcDbVertex
100
AcDb2dVertex
 10
144.0032687357006
 20
256.7304964907219
 30
0.0
  0
SEQEND
  5
574
330
571
100
AcDbEntity
  8
BEMAßUNG
  0
POLYLINE
  5
575
330
1F
100
AcDbEntity
  8
BEMAßUNG
 62
     7
100
AcDb2dPolyline
 66
     1
 10
0.0
 20
0.0
 30
0.0
  0
VERTEX
  5
576
330
575
100
AcDbEntity
  8
BEMAßUNG
 62
     7
100
AcDbVertex
100
AcDb2dVertex
 10
143.9760524813671
 20
256.7304964907219
 30
0.0
  0
VERTEX
  5
577
330
575
100
AcDbEntity
  8
BEMAßUNG
 62
     7
100
AcDbVertex
100
AcDb2dVertex
 10
144.0032687357006
 20
256.7304964907219
 30
0.0
  0
SEQEND
  5
578
330
575
100
AcDbEntity
  8
BEMAßUNG
  0
POLYLINE
  5
579
330
1F
100
AcDbEntity
  8
BEMAßUNG
 62
     7
100
AcDb2dPolyline
 66
     1
 10
0.0
 20
0.0
 30
0.0
  0
VERTEX
  5
57A
330
579
100
AcDbEntity
  8
BEMAßUNG
 62
     7
100
AcDbVertex
100
AcDb2dVertex
 10
143.9760524813671
 20
256.6796813323145
 30
0.0
  0
VERTEX
  5
57B
330
579
100
AcDbEntity
  8
BEMAßUNG
 62
     7
100
AcDbVertex
100
AcDb2dVertex
 10
144.3894639395971
 20
256.6796813323145
 30
0.0
  0
SEQEND
  5
57C
330
579
100
AcDbEntity
  8
BEMAßUNG
  0
POLYLINE
  5
57D
330
1F
100
AcDbEntity
  8
BEMAßUNG
 62
     7
100
AcDb2dPolyline
 66
     1
 10
0.0
 20
0.0
 30
0.0
  0
VERTEX
  5
57E
330
57D
100
AcDbEntity
  8
BEMAßUNG
 62
     7
100
AcDbVertex
100
AcDb2dVertex
 10
143.9760524813671
 20
256.6286077917457
 30
0.0
  0
VERTEX
  5
57F
330
57D
100
AcDbEntity
  8
BEMAßUNG
 62
     7
100
AcDbVertex
100
AcDb2dVertex
 10
144.7751423791708
 20
256.6286077917457
 30
0.0
  0
SEQEND
  5
580
330
57D
100
AcDbEntity
  8
BEMAßUNG
  0
POLYLINE
  5
581
330
1F
100
AcDbEntity
  8
BEMAßUNG
 62
     7
100
AcDb2dPolyline
 66
     1
 10
0.0
 20
0.0
 30
0.0
  0
VERTEX
  5
582
330
581
100
AcDbEntity
  8
BEMAßUNG
 62
     7
100
AcDbVertex
100
AcDb2dVertex
 10
143.9760524813671
 20
256.5777926333382
 30
0.0
  0
VERTEX
  5
583
330
581
100
AcDbEntity
  8
BEMAßUNG
 62
     7
100
AcDbVertex
100
AcDb2dVertex
 10
145.1609930735188
 20
256.5777926333382
 30
0.0
  0
SEQEND
  5
584
330
581
100
AcDbEntity
  8
BEMAßUNG
  0
POLYLINE
  5
585
330
1F
100
AcDbEntity
  8
BEMAßUNG
 62
     7
100
AcDb2dPolyline
 66
     1
 10
0.0
 20
0.0
 30
0.0
  0
VERTEX
  5
586
330
585
100
AcDbEntity
  8
BEMAßUNG
 62
     7
100
AcDbVertex
100
AcDb2dVertex
 10
143.9760524813671
 20
256.5269774749308
 30
0.0
  0
VERTEX
  5
587
330
585
100
AcDbEntity
  8
BEMAßUNG
 62
     7
100
AcDbVertex
100
AcDb2dVertex
 10
145.5466715130925
 20
256.5269774749308
 30
0.0
  0
SEQEND
  5
588
330
585
100
AcDbEntity
  8
BEMAßUNG
  0
POLYLINE
  5
589
330
1F
100
AcDbEntity
  8
BEMAßUNG
 62
     7
100
AcDb2dPolyline
 66
     1
 10
0.0
 20
0.0
 30
0.0
  0
VERTEX
  5
58A
330
589
100
AcDbEntity
  8
BEMAßUNG
 62
     7
100
AcDbVertex
100
AcDb2dVertex
 10
143.9760524813671
 20
256.4761623165234
 30
0.0
  0
VERTEX
  5
58B
330
589
100
AcDbEntity
  8
BEMAßUNG
 62
     7
100
AcDbVertex
100
AcDb2dVertex
 10
145.932866716989
 20
256.4761623165234
 30
0.0
  0
SEQEND
  5
58C
330
589
100
AcDbEntity
  8
BEMAßUNG
  0
POLYLINE
  5
58D
330
1F
100
AcDbEntity
  8
BEMAßUNG
 62
     7
100
AcDb2dPolyline
 66
     1
 10
0.0
 20
0.0
 30
0.0
  0
VERTEX
  5
58E
330
58D
100
AcDbEntity
  8
BEMAßUNG
 62
     7
100
AcDbVertex
100
AcDb2dVertex
 10
143.9760524813671
 20
256.4253471581159
 30
0.0
  0
VERTEX
  5
58F
330
58D
100
AcDbEntity
  8
BEMAßUNG
 62
     7
100
AcDbVertex
100
AcDb2dVertex
 10
146.3185451565627
 20
256.4253471581159
 30
0.0
  0
SEQEND
  5
590
330
58D
100
AcDbEntity
  8
BEMAßUNG
  0
POLYLINE
  5
591
330
1F
100
AcDbEntity
  8
BEMAßUNG
 62
     7
100
AcDb2dPolyline
 66
     1
 10
0.0
 20
0.0
 30
0.0
  0
VERTEX
  5
592
330
591
100
AcDbEntity
  8
BEMAßUNG
 62
     7
100
AcDbVertex
100
AcDb2dVertex
 10
143.9760524813671
 20
256.3745319997084
 30
0.0
  0
VERTEX
  5
593
330
591
100
AcDbEntity
  8
BEMAßUNG
 62
     7
100
AcDbVertex
100
AcDb2dVertex
 10
146.7043958509107
 20
256.3745319997084
 30
0.0
  0
SEQEND
  5
594
330
591
100
AcDbEntity
  8
BEMAßUNG
  0
POLYLINE
  5
595
330
1F
100
AcDbEntity
  8
BEMAßUNG
 62
     7
100
AcDb2dPolyline
 66
     1
 10
0.0
 20
0.0
 30
0.0
  0
VERTEX
  5
596
330
595
100
AcDbEntity
  8
BEMAßUNG
 62
     7
100
AcDbVertex
100
AcDb2dVertex
 10
143.9760524813671
 20
256.323716841301
 30
0.0
  0
VERTEX
  5
597
330
595
100
AcDbEntity
  8
BEMAßUNG
 62
     7
100
AcDbVertex
100
AcDb2dVertex
 10
147.0900742904844
 20
256.323716841301
 30
0.0
  0
SEQEND
  5
598
330
595
100
AcDbEntity
  8
BEMAßUNG
  0
POLYLINE
  5
599
330
1F
100
AcDbEntity
  8
BEMAßUNG
 62
     7
100
AcDb2dPolyline
 66
     1
 10
0.0
 20
0.0
 30
0.0
  0
VERTEX
  5
59A
330
599
100
AcDbEntity
  8
BEMAßUNG
 62
     7
100
AcDbVertex
100
AcDb2dVertex
 10
143.9760524813671
 20
256.2729878102807
 30
0.0
  0
VERTEX
  5
59B
330
599
100
AcDbEntity
  8
BEMAßUNG
 62
     7
100
AcDbVertex
100
AcDb2dVertex
 10
147.4762694943809
 20
256.2729878102807
 30
0.0
  0
SEQEND
  5
59C
330
599
100
AcDbEntity
  8
BEMAßUNG
  0
POLYLINE
  5
59D
330
1F
100
AcDbEntity
  8
BEMAßUNG
 62
     7
100
AcDb2dPolyline
 66
     1
 10
0.0
 20
0.0
 30
0.0
  0
VERTEX
  5
59E
330
59D
100
AcDbEntity
  8
BEMAßUNG
 62
     7
100
AcDbVertex
100
AcDb2dVertex
 10
143.9760524813671
 20
255.8160820215495
 30
0.0
  0
VERTEX
  5
59F
330
59D
100
AcDbEntity
  8
BEMAßUNG
 62
     7
100
AcDbVertex
100
AcDb2dVertex
 10
144.0032687357006
 20
255.8160820215495
 30
0.0
  0
SEQEND
  5
5A0
330
59D
100
AcDbEntity
  8
BEMAßUNG
  0
POLYLINE
  5
5A1
330
1F
100
AcDbEntity
  8
BEMAßUNG
 62
     7
100
AcDb2dPolyline
 66
     1
 10
0.0
 20
0.0
 30
0.0
  0
VERTEX
  5
5A2
330
5A1
100
AcDbEntity
  8
BEMAßUNG
 62
     7
100
AcDbVertex
100
AcDb2dVertex
 10
143.9760524813671
 20
255.8160820215495
 30
0.0
  0
VERTEX
  5
5A3
330
5A1
100
AcDbEntity
  8
BEMAßUNG
 62
     7
100
AcDbVertex
100
AcDb2dVertex
 10
144.0032687357006
 20
255.8160820215495
 30
0.0
  0
SEQEND
  5
5A4
330
5A1
100
AcDbEntity
  8
BEMAßUNG
  0
POLYLINE
  5
5A5
330
1F
100
AcDbEntity
  8
BEMAßUNG
 62
     7
100
AcDb2dPolyline
 66
     1
 10
0.0
 20
0.0
 30
0.0
  0
VERTEX
  5
5A6
330
5A5
100
AcDbEntity
  8
BEMAßUNG
 62
     7
100
AcDbVertex
100
AcDb2dVertex
 10
143.9760524813671
 20
255.8668971799569
 30
0.0
  0
VERTEX
  5
5A7
330
5A5
100
AcDbEntity
  8
BEMAßUNG
 62
     7
100
AcDbVertex
100
AcDb2dVertex
 10
144.3894639395971
 20
255.8668971799569
 30
0.0
  0
SEQEND
  5
5A8
330
5A5
100
AcDbEntity
  8
BEMAßUNG
  0
POLYLINE
  5
5A9
330
1F
100
AcDbEntity
  8
BEMAßUNG
 62
     7
100
AcDb2dPolyline
 66
     1
 10
0.0
 20
0.0
 30
0.0
  0
VERTEX
  5
5AA
330
5A9
100
AcDbEntity
  8
BEMAßUNG
 62
     7
100
AcDbVertex
100
AcDb2dVertex
 10
143.9760524813671
 20
255.9177123383643
 30
0.0
  0
VERTEX
  5
5AB
330
5A9
100
AcDbEntity
  8
BEMAßUNG
 62
     7
100
AcDbVertex
100
AcDb2dVertex
 10
144.7751423791708
 20
255.9177123383643
 30
0.0
  0
SEQEND
  5
5AC
330
5A9
100
AcDbEntity
  8
BEMAßUNG
  0
POLYLINE
  5
5AD
330
1F
100
AcDbEntity
  8
BEMAßUNG
 62
     7
100
AcDb2dPolyline
 66
     1
 10
0.0
 20
0.0
 30
0.0
  0
VERTEX
  5
5AE
330
5AD
100
AcDbEntity
  8
BEMAßUNG
 62
     7
100
AcDbVertex
100
AcDb2dVertex
 10
143.9760524813671
 20
255.9685274967718
 30
0.0
  0
VERTEX
  5
5AF
330
5AD
100
AcDbEntity
  8
BEMAßUNG
 62
     7
100
AcDbVertex
100
AcDb2dVertex
 10
145.1609930735188
 20
255.9685274967718
 30
0.0
  0
SEQEND
  5
5B0
330
5AD
100
AcDbEntity
  8
BEMAßUNG
  0
POLYLINE
  5
5B1
330
1F
100
AcDbEntity
  8
BEMAßUNG
 62
     7
100
AcDb2dPolyline
 66
     1
 10
0.0
 20
0.0
 30
0.0
  0
VERTEX
  5
5B2
330
5B1
100
AcDbEntity
  8
BEMAßUNG
 62
     7
100
AcDbVertex
100
AcDb2dVertex
 10
143.9760524813671
 20
256.0193426551792
 30
0.0
  0
VERTEX
  5
5B3
330
5B1
100
AcDbEntity
  8
BEMAßUNG
 62
     7
100
AcDbVertex
100
AcDb2dVertex
 10
145.5466715130925
 20
256.0193426551792
 30
0.0
  0
SEQEND
  5
5B4
330
5B1
100
AcDbEntity
  8
BEMAßUNG
  0
POLYLINE
  5
5B5
330
1F
100
AcDbEntity
  8
BEMAßUNG
 62
     7
100
AcDb2dPolyline
 66
     1
 10
0.0
 20
0.0
 30
0.0
  0
VERTEX
  5
5B6
330
5B5
100
AcDbEntity
  8
BEMAßUNG
 62
     7
100
AcDbVertex
100
AcDb2dVertex
 10
143.9760524813671
 20
256.0701578135867
 30
0.0
  0
VERTEX
  5
5B7
330
5B5
100
AcDbEntity
  8
BEMAßUNG
 62
     7
100
AcDbVertex
100
AcDb2dVertex
 10
145.932866716989
 20
256.0701578135867
 30
0.0
  0
SEQEND
  5
5B8
330
5B5
100
AcDbEntity
  8
BEMAßUNG
  0
POLYLINE
  5
5B9
330
1F
100
AcDbEntity
  8
BEMAßUNG
 62
     7
100
AcDb2dPolyline
 66
     1
 10
0.0
 20
0.0
 30
0.0
  0
VERTEX
  5
5BA
330
5B9
100
AcDbEntity
  8
BEMAßUNG
 62
     7
100
AcDbVertex
100
AcDb2dVertex
 10
143.9760524813671
 20
256.1205423350584
 30
0.0
  0
VERTEX
  5
5BB
330
5B9
100
AcDbEntity
  8
BEMAßUNG
 62
     7
100
AcDbVertex
100
AcDb2dVertex
 10
146.3185451565627
 20
256.1205423350584
 30
0.0
  0
SEQEND
  5
5BC
330
5B9
100
AcDbEntity
  8
BEMAßUNG
  0
POLYLINE
  5
5BD
330
1F
100
AcDbEntity
  8
BEMAßUNG
 62
     7
100
AcDb2dPolyline
 66
     1
 10
0.0
 20
0.0
 30
0.0
  0
VERTEX
  5
5BE
330
5BD
100
AcDbEntity
  8
BEMAßUNG
 62
     7
100
AcDbVertex
100
AcDb2dVertex
 10
143.9760524813671
 20
256.1713574934658
 30
0.0
  0
VERTEX
  5
5BF
330
5BD
100
AcDbEntity
  8
BEMAßUNG
 62
     7
100
AcDbVertex
100
AcDb2dVertex
 10
146.7043958509107
 20
256.1713574934658
 30
0.0
  0
SEQEND
  5
5C0
330
5BD
100
AcDbEntity
  8
BEMAßUNG
  0
POLYLINE
  5
5C1
330
1F
100
AcDbEntity
  8
BEMAßUNG
 62
     7
100
AcDb2dPolyline
 66
     1
 10
0.0
 20
0.0
 30
0.0
  0
VERTEX
  5
5C2
330
5C1
100
AcDbEntity
  8
BEMAßUNG
 62
     7
100
AcDbVertex
100
AcDb2dVertex
 10
143.9760524813671
 20
256.2221726518733
 30
0.0
  0
VERTEX
  5
5C3
330
5C1
100
AcDbEntity
  8
BEMAßUNG
 62
     7
100
AcDbVertex
100
AcDb2dVertex
 10
147.0900742904844
 20
256.2221726518733
 30
0.0
  0
SEQEND
  5
5C4
330
5C1
100
AcDbEntity
  8
BEMAßUNG
  0
POLYLINE
  5
5C5
330
1F
100
AcDbEntity
  8
BEMAßUNG
 62
     7
100
AcDb2dPolyline
 66
     1
 10
0.0
 20
0.0
 30
0.0
  0
VERTEX
  5
5C6
330
5C5
100
AcDbEntity
  8
BEMAßUNG
 62
     7
100
AcDbVertex
100
AcDb2dVertex
 10
143.9760524813671
 20
256.2729878102807
 30
0.0
  0
VERTEX
  5
5C7
330
5C5
100
AcDbEntity
  8
BEMAßUNG
 62
     7
100
AcDbVertex
100
AcDb2dVertex
 10
147.4762694943809
 20
256.2729878102807
 30
0.0
  0
SEQEND
  5
5C8
330
5C5
100
AcDbEntity
  8
BEMAßUNG
  0
POLYLINE
  5
5C9
330
1F
100
AcDbEntity
  8
BEMAßUNG
 62
     7
100
AcDb2dPolyline
 66
     1
 10
0.0
 20
0.0
 30
0.0
  0
VERTEX
  5
5CA
330
5C9
100
AcDbEntity
  8
BEMAßUNG
 62
     7
100
AcDbVertex
100
AcDb2dVertex
 10
103.7628309202398
 20
236.1081549160164
 30
0.0
  0
VERTEX
  5
5CB
330
5C9
100
AcDbEntity
  8
BEMAßUNG
 62
     7
100
AcDbVertex
100
AcDb2dVertex
 10
80.60128171813093
 20
236.1081549160164
 30
0.0
  0
SEQEND
  5
5CC
330
5C9
100
AcDbEntity
  8
BEMAßUNG
  0
POLYLINE
  5
5CD
330
1F
100
AcDbEntity
  8
BEMAßUNG
 62
     7
100
AcDb2dPolyline
 66
     1
 10
0.0
 20
0.0
 30
0.0
  0
VERTEX
  5
5CE
330
5CD
100
AcDbEntity
  8
BEMAßUNG
 62
     7
100
AcDbVertex
100
AcDb2dVertex
 10
122.4762450865684
 20
200.2730468249318
 30
0.0
  0
VERTEX
  5
5CF
330
5CD
100
AcDbEntity
  8
BEMAßUNG
 62
     7
100
AcDbVertex
100
AcDb2dVertex
 10
80.60128171813093
 20
200.2730468249318
 30
0.0
  0
SEQEND
  5
5D0
330
5CD
100
AcDbEntity
  8
BEMAßUNG
  0
POLYLINE
  5
5D1
330
1F
100
AcDbEntity
  8
BEMAßUNG
 62
     7
100
AcDb2dPolyline
 66
     1
 10
0.0
 20
0.0
 30
0.0
  0
VERTEX
  5
5D2
330
5D1
100
AcDbEntity
  8
BEMAßUNG
 62
     7
100
AcDbVertex
100
AcDb2dVertex
 10
82.601504156867
 20
236.1081549160164
 30
0.0
  0
VERTEX
  5
5D3
330
5D1
100
AcDbEntity
  8
BEMAßUNG
 62
     7
100
AcDbVertex
100
AcDb2dVertex
 10
82.601504156867
 20
200.2730468249318
 30
0.0
  0
SEQEND
  5
5D4
330
5D1
100
AcDbEntity
  8
BEMAßUNG
  0
POLYLINE
  5
5D5
330
1F
100
AcDbEntity
  8
BEMAßUNG
 62
     7
100
AcDb2dPolyline
 66
     1
 10
0.0
 20
0.0
 30
0.0
  0
VERTEX
  5
5D6
330
5D5
100
AcDbEntity
  8
BEMAßUNG
 62
     7
100
AcDbVertex
100
AcDb2dVertex
 10
82.601504156867
 20
236.1081549160164
 30
0.0
  0
VERTEX
  5
5D7
330
5D5
100
AcDbEntity
  8
BEMAßUNG
 62
     7
100
AcDbVertex
100
AcDb2dVertex
 10
82.1403781261663
 20
232.6080240303897
 30
0.0
  0
VERTEX
  5
5D8
330
5D5
100
AcDbEntity
  8
BEMAßUNG
 62
     7
100
AcDbVertex
100
AcDb2dVertex
 10
83.06194116847063
 20
232.6080240303897
 30
0.0
  0
VERTEX
  5
5D9
330
5D5
100
AcDbEntity
  8
BEMAßUNG
 62
     7
100
AcDbVertex
100
AcDb2dVertex
 10
82.601504156867
 20
236.1081549160164
 30
0.0
  0
SEQEND
  5
5DA
330
5D5
100
AcDbEntity
  8
BEMAßUNG
  0
POLYLINE
  5
5DB
330
1F
100
AcDbEntity
  8
BEMAßUNG
 62
     7
100
AcDb2dPolyline
 66
     1
 10
0.0
 20
0.0
 30
0.0
  0
VERTEX
  5
5DC
330
5DB
100
AcDbEntity
  8
BEMAßUNG
 62
     7
100
AcDbVertex
100
AcDb2dVertex
 10
82.14433998597434
 20
232.6080240303897
 30
0.0
  0
VERTEX
  5
5DD
330
5DB
100
AcDbEntity
  8
BEMAßUNG
 62
     7
100
AcDbVertex
100
AcDb2dVertex
 10
82.14433998597434
 20
232.6350680299489
 30
0.0
  0
SEQEND
  5
5DE
330
5DB
100
AcDbEntity
  8
BEMAßUNG
  0
POLYLINE
  5
5DF
330
1F
100
AcDbEntity
  8
BEMAßUNG
 62
     7
100
AcDb2dPolyline
 66
     1
 10
0.0
 20
0.0
 30
0.0
  0
VERTEX
  5
5E0
330
5DF
100
AcDbEntity
  8
BEMAßUNG
 62
     7
100
AcDbVertex
100
AcDb2dVertex
 10
82.14433998597434
 20
232.6080240303897
 30
0.0
  0
VERTEX
  5
5E1
330
5DF
100
AcDbEntity
  8
BEMAßUNG
 62
     7
100
AcDbVertex
100
AcDb2dVertex
 10
82.14433998597434
 20
232.6350680299489
 30
0.0
  0
SEQEND
  5
5E2
330
5DF
100
AcDbEntity
  8
BEMAßUNG
  0
POLYLINE
  5
5E3
330
1F
100
AcDbEntity
  8
BEMAßUNG
 62
     7
100
AcDb2dPolyline
 66
     1
 10
0.0
 20
0.0
 30
0.0
  0
VERTEX
  5
5E4
330
5E3
100
AcDbEntity
  8
BEMAßUNG
 62
     7
100
AcDbVertex
100
AcDb2dVertex
 10
82.19515514438177
 20
232.6080240303897
 30
0.0
  0
VERTEX
  5
5E5
330
5E3
100
AcDbEntity
  8
BEMAßUNG
 62
     7
100
AcDbVertex
100
AcDb2dVertex
 10
82.19515514438177
 20
233.0210909790711
 30
0.0
  0
SEQEND
  5
5E6
330
5E3
100
AcDbEntity
  8
BEMAßUNG
  0
POLYLINE
  5
5E7
330
1F
100
AcDbEntity
  8
BEMAßUNG
 62
     7
100
AcDb2dPolyline
 66
     1
 10
0.0
 20
0.0
 30
0.0
  0
VERTEX
  5
5E8
330
5E7
100
AcDbEntity
  8
BEMAßUNG
 62
     7
100
AcDbVertex
100
AcDb2dVertex
 10
82.24562579324068
 20
232.6080240303897
 30
0.0
  0
VERTEX
  5
5E9
330
5E7
100
AcDbEntity
  8
BEMAßUNG
 62
     7
100
AcDbVertex
100
AcDb2dVertex
 10
82.24562579324068
 20
233.4065971638706
 30
0.0
  0
SEQEND
  5
5EA
330
5E7
100
AcDbEntity
  8
BEMAßUNG
  0
POLYLINE
  5
5EB
330
1F
100
AcDbEntity
  8
BEMAßUNG
 62
     7
100
AcDb2dPolyline
 66
     1
 10
0.0
 20
0.0
 30
0.0
  0
VERTEX
  5
5EC
330
5EB
100
AcDbEntity
  8
BEMAßUNG
 62
     7
100
AcDbVertex
100
AcDb2dVertex
 10
82.29644095164812
 20
232.6080240303897
 30
0.0
  0
VERTEX
  5
5ED
330
5EB
100
AcDbEntity
  8
BEMAßUNG
 62
     7
100
AcDbVertex
100
AcDb2dVertex
 10
82.29644095164812
 20
233.7927923677671
 30
0.0
  0
SEQEND
  5
5EE
330
5EB
100
AcDbEntity
  8
BEMAßUNG
  0
POLYLINE
  5
5EF
330
1F
100
AcDbEntity
  8
BEMAßUNG
 62
     7
100
AcDb2dPolyline
 66
     1
 10
0.0
 20
0.0
 30
0.0
  0
VERTEX
  5
5F0
330
5EF
100
AcDbEntity
  8
BEMAßUNG
 62
     7
100
AcDbVertex
100
AcDb2dVertex
 10
82.34708385528128
 20
232.6080240303897
 30
0.0
  0
VERTEX
  5
5F1
330
5EF
100
AcDbEntity
  8
BEMAßUNG
 62
     7
100
AcDbVertex
100
AcDb2dVertex
 10
82.34708385528128
 20
234.1784708073408
 30
0.0
  0
SEQEND
  5
5F2
330
5EF
100
AcDbEntity
  8
BEMAßUNG
  0
POLYLINE
  5
5F3
330
1F
100
AcDbEntity
  8
BEMAßUNG
 62
     7
100
AcDb2dPolyline
 66
     1
 10
0.0
 20
0.0
 30
0.0
  0
VERTEX
  5
5F4
330
5F3
100
AcDbEntity
  8
BEMAßUNG
 62
     7
100
AcDbVertex
100
AcDb2dVertex
 10
82.39789901368873
 20
232.6080240303897
 30
0.0
  0
VERTEX
  5
5F5
330
5F3
100
AcDbEntity
  8
BEMAßUNG
 62
     7
100
AcDbVertex
100
AcDb2dVertex
 10
82.39789901368873
 20
234.5648382660116
 30
0.0
  0
SEQEND
  5
5F6
330
5F3
100
AcDbEntity
  8
BEMAßUNG
  0
POLYLINE
  5
5F7
330
1F
100
AcDbEntity
  8
BEMAßUNG
 62
     7
100
AcDb2dPolyline
 66
     1
 10
0.0
 20
0.0
 30
0.0
  0
VERTEX
  5
5F8
330
5F7
100
AcDbEntity
  8
BEMAßUNG
 62
     7
100
AcDbVertex
100
AcDb2dVertex
 10
82.44871417209616
 20
232.6080240303897
 30
0.0
  0
VERTEX
  5
5F9
330
5F7
100
AcDbEntity
  8
BEMAßUNG
 62
     7
100
AcDbVertex
100
AcDb2dVertex
 10
82.44871417209616
 20
234.9499999412625
 30
0.0
  0
SEQEND
  5
5FA
330
5F7
100
AcDbEntity
  8
BEMAßUNG
  0
POLYLINE
  5
5FB
330
1F
100
AcDbEntity
  8
BEMAßUNG
 62
     7
100
AcDb2dPolyline
 66
     1
 10
0.0
 20
0.0
 30
0.0
  0
VERTEX
  5
5FC
330
5FB
100
AcDbEntity
  8
BEMAßUNG
 62
     7
100
AcDbVertex
100
AcDb2dVertex
 10
82.49987384005212
 20
232.6080240303897
 30
0.0
  0
VERTEX
  5
5FD
330
5FB
100
AcDbEntity
  8
BEMAßUNG
 62
     7
100
AcDbVertex
100
AcDb2dVertex
 10
82.49987384005212
 20
235.336195145159
 30
0.0
  0
SEQEND
  5
5FE
330
5FB
100
AcDbEntity
  8
BEMAßUNG
  0
POLYLINE
  5
5FF
330
1F
100
AcDbEntity
  8
BEMAßUNG
 62
     7
100
AcDb2dPolyline
 66
     1
 10
0.0
 20
0.0
 30
0.0
  0
VERTEX
  5
600
330
5FF
100
AcDbEntity
  8
BEMAßUNG
 62
     7
100
AcDbVertex
100
AcDb2dVertex
 10
82.55068899845955
 20
232.6080240303897
 30
0.0
  0
VERTEX
  5
601
330
5FF
100
AcDbEntity
  8
BEMAßUNG
 62
     7
100
AcDbVertex
100
AcDb2dVertex
 10
82.55068899845955
 20
235.7218735847327
 30
0.0
  0
SEQEND
  5
602
330
5FF
100
AcDbEntity
  8
BEMAßUNG
  0
POLYLINE
  5
603
330
1F
100
AcDbEntity
  8
BEMAßUNG
 62
     7
100
AcDb2dPolyline
 66
     1
 10
0.0
 20
0.0
 30
0.0
  0
VERTEX
  5
604
330
603
100
AcDbEntity
  8
BEMAßUNG
 62
     7
100
AcDbVertex
100
AcDb2dVertex
 10
82.601504156867
 20
232.6080240303897
 30
0.0
  0
VERTEX
  5
605
330
603
100
AcDbEntity
  8
BEMAßUNG
 62
     7
100
AcDbVertex
100
AcDb2dVertex
 10
82.601504156867
 20
236.1081549160164
 30
0.0
  0
SEQEND
  5
606
330
603
100
AcDbEntity
  8
BEMAßUNG
  0
POLYLINE
  5
607
330
1F
100
AcDbEntity
  8
BEMAßUNG
 62
     7
100
AcDb2dPolyline
 66
     1
 10
0.0
 20
0.0
 30
0.0
  0
VERTEX
  5
608
330
607
100
AcDbEntity
  8
BEMAßUNG
 62
     7
100
AcDbVertex
100
AcDb2dVertex
 10
83.05866832775965
 20
232.6080240303897
 30
0.0
  0
VERTEX
  5
609
330
607
100
AcDbEntity
  8
BEMAßUNG
 62
     7
100
AcDbVertex
100
AcDb2dVertex
 10
83.05866832775965
 20
232.6350680299489
 30
0.0
  0
SEQEND
  5
60A
330
607
100
AcDbEntity
  8
BEMAßUNG
  0
POLYLINE
  5
60B
330
1F
100
AcDbEntity
  8
BEMAßUNG
 62
     7
100
AcDb2dPolyline
 66
     1
 10
0.0
 20
0.0
 30
0.0
  0
VERTEX
  5
60C
330
60B
100
AcDbEntity
  8
BEMAßUNG
 62
     7
100
AcDbVertex
100
AcDb2dVertex
 10
83.05866832775965
 20
232.6080240303897
 30
0.0
  0
VERTEX
  5
60D
330
60B
100
AcDbEntity
  8
BEMAßUNG
 62
     7
100
AcDbVertex
100
AcDb2dVertex
 10
83.05866832775965
 20
232.6350680299489
 30
0.0
  0
SEQEND
  5
60E
330
60B
100
AcDbEntity
  8
BEMAßUNG
  0
POLYLINE
  5
60F
330
1F
100
AcDbEntity
  8
BEMAßUNG
 62
     7
100
AcDb2dPolyline
 66
     1
 10
0.0
 20
0.0
 30
0.0
  0
VERTEX
  5
610
330
60F
100
AcDbEntity
  8
BEMAßUNG
 62
     7
100
AcDbVertex
100
AcDb2dVertex
 10
83.0078531693522
 20
232.6080240303897
 30
0.0
  0
VERTEX
  5
611
330
60F
100
AcDbEntity
  8
BEMAßUNG
 62
     7
100
AcDbVertex
100
AcDb2dVertex
 10
83.0078531693522
 20
233.0210909790711
 30
0.0
  0
SEQEND
  5
612
330
60F
100
AcDbEntity
  8
BEMAßUNG
  0
POLYLINE
  5
613
330
1F
100
AcDbEntity
  8
BEMAßUNG
 62
     7
100
AcDb2dPolyline
 66
     1
 10
0.0
 20
0.0
 30
0.0
  0
VERTEX
  5
614
330
613
100
AcDbEntity
  8
BEMAßUNG
 62
     7
100
AcDbVertex
100
AcDb2dVertex
 10
82.95669350139624
 20
232.6080240303897
 30
0.0
  0
VERTEX
  5
615
330
613
100
AcDbEntity
  8
BEMAßUNG
 62
     7
100
AcDbVertex
100
AcDb2dVertex
 10
82.95669350139624
 20
233.4065971638706
 30
0.0
  0
SEQEND
  5
616
330
613
100
AcDbEntity
  8
BEMAßUNG
  0
POLYLINE
  5
617
330
1F
100
AcDbEntity
  8
BEMAßUNG
 62
     7
100
AcDb2dPolyline
 66
     1
 10
0.0
 20
0.0
 30
0.0
  0
VERTEX
  5
618
330
617
100
AcDbEntity
  8
BEMAßUNG
 62
     7
100
AcDbVertex
100
AcDb2dVertex
 10
82.90587834298881
 20
232.6080240303897
 30
0.0
  0
VERTEX
  5
619
330
617
100
AcDbEntity
  8
BEMAßUNG
 62
     7
100
AcDbVertex
100
AcDb2dVertex
 10
82.90587834298881
 20
233.7927923677671
 30
0.0
  0
SEQEND
  5
61A
330
617
100
AcDbEntity
  8
BEMAßUNG
  0
POLYLINE
  5
61B
330
1F
100
AcDbEntity
  8
BEMAßUNG
 62
     7
100
AcDb2dPolyline
 66
     1
 10
0.0
 20
0.0
 30
0.0
  0
VERTEX
  5
61C
330
61B
100
AcDbEntity
  8
BEMAßUNG
 62
     7
100
AcDbVertex
100
AcDb2dVertex
 10
82.85523543935564
 20
232.6080240303897
 30
0.0
  0
VERTEX
  5
61D
330
61B
100
AcDbEntity
  8
BEMAßUNG
 62
     7
100
AcDbVertex
100
AcDb2dVertex
 10
82.85523543935564
 20
234.1784708073408
 30
0.0
  0
SEQEND
  5
61E
330
61B
100
AcDbEntity
  8
BEMAßUNG
  0
POLYLINE
  5
61F
330
1F
100
AcDbEntity
  8
BEMAßUNG
 62
     7
100
AcDb2dPolyline
 66
     1
 10
0.0
 20
0.0
 30
0.0
  0
VERTEX
  5
620
330
61F
100
AcDbEntity
  8
BEMAßUNG
 62
     7
100
AcDbVertex
100
AcDb2dVertex
 10
82.80442028094821
 20
232.6080240303897
 30
0.0
  0
VERTEX
  5
621
330
61F
100
AcDbEntity
  8
BEMAßUNG
 62
     7
100
AcDbVertex
100
AcDb2dVertex
 10
82.80442028094821
 20
234.5648382660116
 30
0.0
  0
SEQEND
  5
622
330
61F
100
AcDbEntity
  8
BEMAßUNG
  0
POLYLINE
  5
623
330
1F
100
AcDbEntity
  8
BEMAßUNG
 62
     7
100
AcDb2dPolyline
 66
     1
 10
0.0
 20
0.0
 30
0.0
  0
VERTEX
  5
624
330
623
100
AcDbEntity
  8
BEMAßUNG
 62
     7
100
AcDbVertex
100
AcDb2dVertex
 10
82.75360512254078
 20
232.6080240303897
 30
0.0
  0
VERTEX
  5
625
330
623
100
AcDbEntity
  8
BEMAßUNG
 62
     7
100
AcDbVertex
100
AcDb2dVertex
 10
82.75360512254078
 20
234.9499999412625
 30
0.0
  0
SEQEND
  5
626
330
623
100
AcDbEntity
  8
BEMAßUNG
  0
POLYLINE
  5
627
330
1F
100
AcDbEntity
  8
BEMAßUNG
 62
     7
100
AcDb2dPolyline
 66
     1
 10
0.0
 20
0.0
 30
0.0
  0
VERTEX
  5
628
330
627
100
AcDbEntity
  8
BEMAßUNG
 62
     7
100
AcDbVertex
100
AcDb2dVertex
 10
82.70313447368186
 20
232.6080240303897
 30
0.0
  0
VERTEX
  5
629
330
627
100
AcDbEntity
  8
BEMAßUNG
 62
     7
100
AcDbVertex
100
AcDb2dVertex
 10
82.70313447368186
 20
235.336195145159
 30
0.0
  0
SEQEND
  5
62A
330
627
100
AcDbEntity
  8
BEMAßUNG
  0
POLYLINE
  5
62B
330
1F
100
AcDbEntity
  8
BEMAßUNG
 62
     7
100
AcDb2dPolyline
 66
     1
 10
0.0
 20
0.0
 30
0.0
  0
VERTEX
  5
62C
330
62B
100
AcDbEntity
  8
BEMAßUNG
 62
     7
100
AcDbVertex
100
AcDb2dVertex
 10
82.65231931527443
 20
232.6080240303897
 30
0.0
  0
VERTEX
  5
62D
330
62B
100
AcDbEntity
  8
BEMAßUNG
 62
     7
100
AcDbVertex
100
AcDb2dVertex
 10
82.65231931527443
 20
235.7218735847327
 30
0.0
  0
SEQEND
  5
62E
330
62B
100
AcDbEntity
  8
BEMAßUNG
  0
POLYLINE
  5
62F
330
1F
100
AcDbEntity
  8
BEMAßUNG
 62
     7
100
AcDb2dPolyline
 66
     1
 10
0.0
 20
0.0
 30
0.0
  0
VERTEX
  5
630
330
62F
100
AcDbEntity
  8
BEMAßUNG
 62
     7
100
AcDbVertex
100
AcDb2dVertex
 10
82.601504156867
 20
232.6080240303897
 30
0.0
  0
VERTEX
  5
631
330
62F
100
AcDbEntity
  8
BEMAßUNG
 62
     7
100
AcDbVertex
100
AcDb2dVertex
 10
82.601504156867
 20
236.1081549160164
 30
0.0
  0
SEQEND
  5
632
330
62F
100
AcDbEntity
  8
BEMAßUNG
  0
POLYLINE
  5
633
330
1F
100
AcDbEntity
  8
BEMAßUNG
 62
     7
100
AcDb2dPolyline
 66
     1
 10
0.0
 20
0.0
 30
0.0
  0
VERTEX
  5
634
330
633
100
AcDbEntity
  8
BEMAßUNG
 62
     7
100
AcDbVertex
100
AcDb2dVertex
 10
82.601504156867
 20
200.2730468249318
 30
0.0
  0
VERTEX
  5
635
330
633
100
AcDbEntity
  8
BEMAßUNG
 62
     7
100
AcDbVertex
100
AcDb2dVertex
 10
83.06194116847063
 20
203.7732638379456
 30
0.0
  0
VERTEX
  5
636
330
633
100
AcDbEntity
  8
BEMAßUNG
 62
     7
100
AcDbVertex
100
AcDb2dVertex
 10
82.1403781261663
 20
203.7732638379456
 30
0.0
  0
VERTEX
  5
637
330
633
100
AcDbEntity
  8
BEMAßUNG
 62
     7
100
AcDbVertex
100
AcDb2dVertex
 10
82.601504156867
 20
200.2730468249318
 30
0.0
  0
SEQEND
  5
638
330
633
100
AcDbEntity
  8
BEMAßUNG
  0
POLYLINE
  5
639
330
1F
100
AcDbEntity
  8
BEMAßUNG
 62
     7
100
AcDb2dPolyline
 66
     1
 10
0.0
 20
0.0
 30
0.0
  0
VERTEX
  5
63A
330
639
100
AcDbEntity
  8
BEMAßUNG
 62
     7
100
AcDbVertex
100
AcDb2dVertex
 10
83.05866832775965
 20
203.7732638379456
 30
0.0
  0
VERTEX
  5
63B
330
639
100
AcDbEntity
  8
BEMAßUNG
 62
     7
100
AcDbVertex
100
AcDb2dVertex
 10
83.05866832775965
 20
203.7460475836121
 30
0.0
  0
SEQEND
  5
63C
330
639
100
AcDbEntity
  8
BEMAßUNG
  0
POLYLINE
  5
63D
330
1F
100
AcDbEntity
  8
BEMAßUNG
 62
     7
100
AcDb2dPolyline
 66
     1
 10
0.0
 20
0.0
 30
0.0
  0
VERTEX
  5
63E
330
63D
100
AcDbEntity
  8
BEMAßUNG
 62
     7
100
AcDbVertex
100
AcDb2dVertex
 10
83.05866832775965
 20
203.7732638379456
 30
0.0
  0
VERTEX
  5
63F
330
63D
100
AcDbEntity
  8
BEMAßUNG
 62
     7
100
AcDbVertex
100
AcDb2dVertex
 10
83.05866832775965
 20
203.7460475836121
 30
0.0
  0
SEQEND
  5
640
330
63D
100
AcDbEntity
  8
BEMAßUNG
  0
POLYLINE
  5
641
330
1F
100
AcDbEntity
  8
BEMAßUNG
 62
     7
100
AcDb2dPolyline
 66
     1
 10
0.0
 20
0.0
 30
0.0
  0
VERTEX
  5
642
330
641
100
AcDbEntity
  8
BEMAßUNG
 62
     7
100
AcDbVertex
100
AcDb2dVertex
 10
83.0078531693522
 20
203.7732638379456
 30
0.0
  0
VERTEX
  5
643
330
641
100
AcDbEntity
  8
BEMAßUNG
 62
     7
100
AcDbVertex
100
AcDb2dVertex
 10
83.0078531693522
 20
203.3598523797156
 30
0.0
  0
SEQEND
  5
644
330
641
100
AcDbEntity
  8
BEMAßUNG
  0
POLYLINE
  5
645
330
1F
100
AcDbEntity
  8
BEMAßUNG
 62
     7
100
AcDb2dPolyline
 66
     1
 10
0.0
 20
0.0
 30
0.0
  0
VERTEX
  5
646
330
645
100
AcDbEntity
  8
BEMAßUNG
 62
     7
100
AcDbVertex
100
AcDb2dVertex
 10
82.95669350139624
 20
203.7732638379456
 30
0.0
  0
VERTEX
  5
647
330
645
100
AcDbEntity
  8
BEMAßUNG
 62
     7
100
AcDbVertex
100
AcDb2dVertex
 10
82.95669350139624
 20
202.9741739401419
 30
0.0
  0
SEQEND
  5
648
330
645
100
AcDbEntity
  8
BEMAßUNG
  0
POLYLINE
  5
649
330
1F
100
AcDbEntity
  8
BEMAßUNG
 62
     7
100
AcDb2dPolyline
 66
     1
 10
0.0
 20
0.0
 30
0.0
  0
VERTEX
  5
64A
330
649
100
AcDbEntity
  8
BEMAßUNG
 62
     7
100
AcDbVertex
100
AcDb2dVertex
 10
82.90587834298881
 20
203.7732638379456
 30
0.0
  0
VERTEX
  5
64B
330
649
100
AcDbEntity
  8
BEMAßUNG
 62
     7
100
AcDbVertex
100
AcDb2dVertex
 10
82.90587834298881
 20
202.5886677553424
 30
0.0
  0
SEQEND
  5
64C
330
649
100
AcDbEntity
  8
BEMAßUNG
  0
POLYLINE
  5
64D
330
1F
100
AcDbEntity
  8
BEMAßUNG
 62
     7
100
AcDb2dPolyline
 66
     1
 10
0.0
 20
0.0
 30
0.0
  0
VERTEX
  5
64E
330
64D
100
AcDbEntity
  8
BEMAßUNG
 62
     7
100
AcDbVertex
100
AcDb2dVertex
 10
82.85523543935564
 20
203.7732638379456
 30
0.0
  0
VERTEX
  5
64F
330
64D
100
AcDbEntity
  8
BEMAßUNG
 62
     7
100
AcDbVertex
100
AcDb2dVertex
 10
82.85523543935564
 20
202.2026448062202
 30
0.0
  0
SEQEND
  5
650
330
64D
100
AcDbEntity
  8
BEMAßUNG
  0
POLYLINE
  5
651
330
1F
100
AcDbEntity
  8
BEMAßUNG
 62
     7
100
AcDb2dPolyline
 66
     1
 10
0.0
 20
0.0
 30
0.0
  0
VERTEX
  5
652
330
651
100
AcDbEntity
  8
BEMAßUNG
 62
     7
100
AcDbVertex
100
AcDb2dVertex
 10
82.80442028094821
 20
203.7732638379456
 30
0.0
  0
VERTEX
  5
653
330
651
100
AcDbEntity
  8
BEMAßUNG
 62
     7
100
AcDbVertex
100
AcDb2dVertex
 10
82.80442028094821
 20
201.8164496023237
 30
0.0
  0
SEQEND
  5
654
330
651
100
AcDbEntity
  8
BEMAßUNG
  0
POLYLINE
  5
655
330
1F
100
AcDbEntity
  8
BEMAßUNG
 62
     7
100
AcDb2dPolyline
 66
     1
 10
0.0
 20
0.0
 30
0.0
  0
VERTEX
  5
656
330
655
100
AcDbEntity
  8
BEMAßUNG
 62
     7
100
AcDbVertex
100
AcDb2dVertex
 10
82.75360512254078
 20
203.7732638379456
 30
0.0
  0
VERTEX
  5
657
330
655
100
AcDbEntity
  8
BEMAßUNG
 62
     7
100
AcDbVertex
100
AcDb2dVertex
 10
82.75360512254078
 20
201.4307711627499
 30
0.0
  0
SEQEND
  5
658
330
655
100
AcDbEntity
  8
BEMAßUNG
  0
POLYLINE
  5
659
330
1F
100
AcDbEntity
  8
BEMAßUNG
 62
     7
100
AcDb2dPolyline
 66
     1
 10
0.0
 20
0.0
 30
0.0
  0
VERTEX
  5
65A
330
659
100
AcDbEntity
  8
BEMAßUNG
 62
     7
100
AcDbVertex
100
AcDb2dVertex
 10
82.70313447368186
 20
203.7732638379456
 30
0.0
  0
VERTEX
  5
65B
330
659
100
AcDbEntity
  8
BEMAßUNG
 62
     7
100
AcDbVertex
100
AcDb2dVertex
 10
82.70313447368186
 20
201.0452649779505
 30
0.0
  0
SEQEND
  5
65C
330
659
100
AcDbEntity
  8
BEMAßUNG
  0
POLYLINE
  5
65D
330
1F
100
AcDbEntity
  8
BEMAßUNG
 62
     7
100
AcDb2dPolyline
 66
     1
 10
0.0
 20
0.0
 30
0.0
  0
VERTEX
  5
65E
330
65D
100
AcDbEntity
  8
BEMAßUNG
 62
     7
100
AcDbVertex
100
AcDb2dVertex
 10
82.65231931527443
 20
203.7732638379456
 30
0.0
  0
VERTEX
  5
65F
330
65D
100
AcDbEntity
  8
BEMAßUNG
 62
     7
100
AcDbVertex
100
AcDb2dVertex
 10
82.65231931527443
 20
200.6592420288283
 30
0.0
  0
SEQEND
  5
660
330
65D
100
AcDbEntity
  8
BEMAßUNG
  0
POLYLINE
  5
661
330
1F
100
AcDbEntity
  8
BEMAßUNG
 62
     7
100
AcDb2dPolyline
 66
     1
 10
0.0
 20
0.0
 30
0.0
  0
VERTEX
  5
662
330
661
100
AcDbEntity
  8
BEMAßUNG
 62
     7
100
AcDbVertex
100
AcDb2dVertex
 10
82.601504156867
 20
203.7732638379456
 30
0.0
  0
VERTEX
  5
663
330
661
100
AcDbEntity
  8
BEMAßUNG
 62
     7
100
AcDbVertex
100
AcDb2dVertex
 10
82.601504156867
 20
200.2730468249318
 30
0.0
  0
SEQEND
  5
664
330
661
100
AcDbEntity
  8
BEMAßUNG
  0
POLYLINE
  5
665
330
1F
100
AcDbEntity
  8
BEMAßUNG
 62
     7
100
AcDb2dPolyline
 66
     1
 10
0.0
 20
0.0
 30
0.0
  0
VERTEX
  5
666
330
665
100
AcDbEntity
  8
BEMAßUNG
 62
     7
100
AcDbVertex
100
AcDb2dVertex
 10
82.14433998597434
 20
203.7732638379456
 30
0.0
  0
VERTEX
  5
667
330
665
100
AcDbEntity
  8
BEMAßUNG
 62
     7
100
AcDbVertex
100
AcDb2dVertex
 10
82.14433998597434
 20
203.7460475836121
 30
0.0
  0
SEQEND
  5
668
330
665
100
AcDbEntity
  8
BEMAßUNG
  0
POLYLINE
  5
669
330
1F
100
AcDbEntity
  8
BEMAßUNG
 62
     7
100
AcDb2dPolyline
 66
     1
 10
0.0
 20
0.0
 30
0.0
  0
VERTEX
  5
66A
330
669
100
AcDbEntity
  8
BEMAßUNG
 62
     7
100
AcDbVertex
100
AcDb2dVertex
 10
82.14433998597434
 20
203.7732638379456
 30
0.0
  0
VERTEX
  5
66B
330
669
100
AcDbEntity
  8
BEMAßUNG
 62
     7
100
AcDbVertex
100
AcDb2dVertex
 10
82.14433998597434
 20
203.7460475836121
 30
0.0
  0
SEQEND
  5
66C
330
669
100
AcDbEntity
  8
BEMAßUNG
  0
POLYLINE
  5
66D
330
1F
100
AcDbEntity
  8
BEMAßUNG
 62
     7
100
AcDb2dPolyline
 66
     1
 10
0.0
 20
0.0
 30
0.0
  0
VERTEX
  5
66E
330
66D
100
AcDbEntity
  8
BEMAßUNG
 62
     7
100
AcDbVertex
100
AcDb2dVertex
 10
82.19515514438177
 20
203.7732638379456
 30
0.0
  0
VERTEX
  5
66F
330
66D
100
AcDbEntity
  8
BEMAßUNG
 62
     7
100
AcDbVertex
100
AcDb2dVertex
 10
82.19515514438177
 20
203.3598523797156
 30
0.0
  0
SEQEND
  5
670
330
66D
100
AcDbEntity
  8
BEMAßUNG
  0
POLYLINE
  5
671
330
1F
100
AcDbEntity
  8
BEMAßUNG
 62
     7
100
AcDb2dPolyline
 66
     1
 10
0.0
 20
0.0
 30
0.0
  0
VERTEX
  5
672
330
671
100
AcDbEntity
  8
BEMAßUNG
 62
     7
100
AcDbVertex
100
AcDb2dVertex
 10
82.24562579324068
 20
203.7732638379456
 30
0.0
  0
VERTEX
  5
673
330
671
100
AcDbEntity
  8
BEMAßUNG
 62
     7
100
AcDbVertex
100
AcDb2dVertex
 10
82.24562579324068
 20
202.9741739401419
 30
0.0
  0
SEQEND
  5
674
330
671
100
AcDbEntity
  8
BEMAßUNG
  0
POLYLINE
  5
675
330
1F
100
AcDbEntity
  8
BEMAßUNG
 62
     7
100
AcDb2dPolyline
 66
     1
 10
0.0
 20
0.0
 30
0.0
  0
VERTEX
  5
676
330
675
100
AcDbEntity
  8
BEMAßUNG
 62
     7
100
AcDbVertex
100
AcDb2dVertex
 10
82.29644095164812
 20
203.7732638379456
 30
0.0
  0
VERTEX
  5
677
330
675
100
AcDbEntity
  8
BEMAßUNG
 62
     7
100
AcDbVertex
100
AcDb2dVertex
 10
82.29644095164812
 20
202.5886677553424
 30
0.0
  0
SEQEND
  5
678
330
675
100
AcDbEntity
  8
BEMAßUNG
  0
POLYLINE
  5
679
330
1F
100
AcDbEntity
  8
BEMAßUNG
 62
     7
100
AcDb2dPolyline
 66
     1
 10
0.0
 20
0.0
 30
0.0
  0
VERTEX
  5
67A
330
679
100
AcDbEntity
  8
BEMAßUNG
 62
     7
100
AcDbVertex
100
AcDb2dVertex
 10
82.34708385528128
 20
203.7732638379456
 30
0.0
  0
VERTEX
  5
67B
330
679
100
AcDbEntity
  8
BEMAßUNG
 62
     7
100
AcDbVertex
100
AcDb2dVertex
 10
82.34708385528128
 20
202.2026448062202
 30
0.0
  0
SEQEND
  5
67C
330
679
100
AcDbEntity
  8
BEMAßUNG
  0
POLYLINE
  5
67D
330
1F
100
AcDbEntity
  8
BEMAßUNG
 62
     7
100
AcDb2dPolyline
 66
     1
 10
0.0
 20
0.0
 30
0.0
  0
VERTEX
  5
67E
330
67D
100
AcDbEntity
  8
BEMAßUNG
 62
     7
100
AcDbVertex
100
AcDb2dVertex
 10
82.39789901368873
 20
203.7732638379456
 30
0.0
  0
VERTEX
  5
67F
330
67D
100
AcDbEntity
  8
BEMAßUNG
 62
     7
100
AcDbVertex
100
AcDb2dVertex
 10
82.39789901368873
 20
201.8164496023237
 30
0.0
  0
SEQEND
  5
680
330
67D
100
AcDbEntity
  8
BEMAßUNG
  0
POLYLINE
  5
681
330
1F
100
AcDbEntity
  8
BEMAßUNG
 62
     7
100
AcDb2dPolyline
 66
     1
 10
0.0
 20
0.0
 30
0.0
  0
VERTEX
  5
682
330
681
100
AcDbEntity
  8
BEMAßUNG
 62
     7
100
AcDbVertex
100
AcDb2dVertex
 10
82.44871417209616
 20
203.7732638379456
 30
0.0
  0
VERTEX
  5
683
330
681
100
AcDbEntity
  8
BEMAßUNG
 62
     7
100
AcDbVertex
100
AcDb2dVertex
 10
82.44871417209616
 20
201.4307711627499
 30
0.0
  0
SEQEND
  5
684
330
681
100
AcDbEntity
  8
BEMAßUNG
  0
POLYLINE
  5
685
330
1F
100
AcDbEntity
  8
BEMAßUNG
 62
     7
100
AcDb2dPolyline
 66
     1
 10
0.0
 20
0.0
 30
0.0
  0
VERTEX
  5
686
330
685
100
AcDbEntity
  8
BEMAßUNG
 62
     7
100
AcDbVertex
100
AcDb2dVertex
 10
82.49987384005212
 20
203.7732638379456
 30
0.0
  0
VERTEX
  5
687
330
685
100
AcDbEntity
  8
BEMAßUNG
 62
     7
100
AcDbVertex
100
AcDb2dVertex
 10
82.49987384005212
 20
201.0452649779505
 30
0.0
  0
SEQEND
  5
688
330
685
100
AcDbEntity
  8
BEMAßUNG
  0
POLYLINE
  5
689
330
1F
100
AcDbEntity
  8
BEMAßUNG
 62
     7
100
AcDb2dPolyline
 66
     1
 10
0.0
 20
0.0
 30
0.0
  0
VERTEX
  5
68A
330
689
100
AcDbEntity
  8
BEMAßUNG
 62
     7
100
AcDbVertex
100
AcDb2dVertex
 10
82.55068899845955
 20
203.7732638379456
 30
0.0
  0
VERTEX
  5
68B
330
689
100
AcDbEntity
  8
BEMAßUNG
 62
     7
100
AcDbVertex
100
AcDb2dVertex
 10
82.55068899845955
 20
200.6592420288283
 30
0.0
  0
SEQEND
  5
68C
330
689
100
AcDbEntity
  8
BEMAßUNG
  0
POLYLINE
  5
68D
330
1F
100
AcDbEntity
  8
BEMAßUNG
 62
     7
100
AcDb2dPolyline
 66
     1
 10
0.0
 20
0.0
 30
0.0
  0
VERTEX
  5
68E
330
68D
100
AcDbEntity
  8
BEMAßUNG
 62
     7
100
AcDbVertex
100
AcDb2dVertex
 10
82.601504156867
 20
203.7732638379456
 30
0.0
  0
VERTEX
  5
68F
330
68D
100
AcDbEntity
  8
BEMAßUNG
 62
     7
100
AcDbVertex
100
AcDb2dVertex
 10
82.601504156867
 20
200.2730468249318
 30
0.0
  0
SEQEND
  5
690
330
68D
100
AcDbEntity
  8
BEMAßUNG
  0
POLYLINE
  5
691
330
1F
100
AcDbEntity
  8
BEMAßUNG
 62
     7
100
AcDb2dPolyline
 66
     1
 10
0.0
 20
0.0
 30
0.0
  0
VERTEX
  5
692
330
691
100
AcDbEntity
  8
BEMAßUNG
 62
     7
100
AcDbVertex
100
AcDb2dVertex
 10
102.5132947877397
 20
235.2328422806015
 30
0.0
  0
VERTEX
  5
693
330
691
100
AcDbEntity
  8
BEMAßUNG
 62
     7
100
AcDbVertex
100
AcDb2dVertex
 10
95.51286076171206
 20
257.435363027004
 30
0.0
  0
SEQEND
  5
694
330
691
100
AcDbEntity
  8
BEMAßUNG
  0
POLYLINE
  5
695
330
1F
100
AcDbEntity
  8
BEMAßUNG
 62
     7
100
AcDb2dPolyline
 66
     1
 10
0.0
 20
0.0
 30
0.0
  0
VERTEX
  5
696
330
695
100
AcDbEntity
  8
BEMAßUNG
 62
     7
100
AcDbVertex
100
AcDb2dVertex
 10
103.7628309202398
 20
236.1081549160164
 30
0.0
  0
VERTEX
  5
697
330
695
100
AcDbEntity
  8
BEMAßUNG
 62
     7
100
AcDbVertex
100
AcDb2dVertex
 10
85.29384627858974
 20
250.2799858315272
 30
0.0
  0
SEQEND
  5
698
330
695
100
AcDbEntity
  8
BEMAßUNG
  0
SPLINE
  5
699
330
1F
100
AcDbEntity
  8
BEMAßUNG
 62
     7
100
AcDbSpline
210
0.0
220
0.0
230
1.0
 70
     8
 71
     3
 72
     8
 73
     4
 74
     0
 42
0.0000000001
 43
0.0000000001
 40
0.0
 40
0.0
 40
0.0
 40
0.0
 40
1.0
 40
1.0
 40
1.0
 40
1.0
 10
96.1143744334367
 20
255.5278997842083
 30
0.0
 10
92.27498776990001
 20
254.3171209759172
 30
0.0
 10
89.09998777069376
 20
251.985997115823
 30
0.0
 10
86.88065725909581
 20
249.0624890870399
 30
0.0
  0
POLYLINE
  5
69A
330
1F
100
AcDbEntity
  8
BEMAßUNG
 62
     7
100
AcDb2dPolyline
 66
     1
 10
0.0
 20
0.0
 30
0.0
  0
VERTEX
  5
69B
330
69A
100
AcDbEntity
  8
BEMAßUNG
 62
     7
100
AcDbVertex
100
AcDb2dVertex
 10
96.1143744334367
 20
255.5278997842083
 30
0.0
  0
VERTEX
  5
69C
330
69A
100
AcDbEntity
  8
BEMAßUNG
 62
     7
100
AcDbVertex
100
AcDb2dVertex
 10
92.67014022205817
 20
254.7535284465113
 30
0.0
  0
VERTEX
  5
69D
330
69A
100
AcDbEntity
  8
BEMAßUNG
 62
     7
100
AcDbVertex
100
AcDb2dVertex
 10
92.98726126147541
 20
253.8885510975522
 30
0.0
  0
VERTEX
  5
69E
330
69A
100
AcDbEntity
  8
BEMAßUNG
 62
     7
100
AcDbVertex
100
AcDb2dVertex
 10
96.1143744334367
 20
255.5278997842083
 30
0.0
  0
SEQEND
  5
69F
330
69A
100
AcDbEntity
  8
BEMAßUNG
  0
POLYLINE
  5
6A0
330
1F
100
AcDbEntity
  8
BEMAßUNG
 62
     7
100
AcDb2dPolyline
 66
     1
 10
0.0
 20
0.0
 30
0.0
  0
VERTEX
  5
6A1
330
6A0
100
AcDbEntity
  8
BEMAßUNG
 62
     7
100
AcDbVertex
100
AcDb2dVertex
 10
92.67082924115522
 20
254.750686242736
 30
0.0
  0
VERTEX
  5
6A2
330
6A0
100
AcDbEntity
  8
BEMAßUNG
 62
     7
100
AcDbVertex
100
AcDb2dVertex
 10
92.69666745729458
 20
254.7595573636105
 30
0.0
  0
SEQEND
  5
6A3
330
6A0
100
AcDbEntity
  8
BEMAßUNG
  0
POLYLINE
  5
6A4
330
1F
100
AcDbEntity
  8
BEMAßUNG
 62
     7
100
AcDb2dPolyline
 66
     1
 10
0.0
 20
0.0
 30
0.0
  0
VERTEX
  5
6A5
330
6A4
100
AcDbEntity
  8
BEMAßUNG
 62
     7
100
AcDbVertex
100
AcDb2dVertex
 10
92.67082924115522
 20
254.750686242736
 30
0.0
  0
VERTEX
  5
6A6
330
6A4
100
AcDbEntity
  8
BEMAßUNG
 62
     7
100
AcDbVertex
100
AcDb2dVertex
 10
92.69666745729458
 20
254.7595573636105
 30
0.0
  0
SEQEND
  5
6A7
330
6A4
100
AcDbEntity
  8
BEMAßUNG
  0
POLYLINE
  5
6A8
330
1F
100
AcDbEntity
  8
BEMAßUNG
 62
     7
100
AcDb2dPolyline
 66
     1
 10
0.0
 20
0.0
 30
0.0
  0
VERTEX
  5
6A9
330
6A8
100
AcDbEntity
  8
BEMAßUNG
 62
     7
100
AcDbVertex
100
AcDb2dVertex
 10
92.68891599245278
 20
254.7023687785553
 30
0.0
  0
VERTEX
  5
6AA
330
6A8
100
AcDbEntity
  8
BEMAßUNG
 62
     7
100
AcDbVertex
100
AcDb2dVertex
 10
93.07614472499486
 20
254.8449096042575
 30
0.0
  0
SEQEND
  5
6AB
330
6A8
100
AcDbEntity
  8
BEMAßUNG
  0
POLYLINE
  5
6AC
330
1F
100
AcDbEntity
  8
BEMAßUNG
 62
     7
100
AcDb2dPolyline
 66
     1
 10
0.0
 20
0.0
 30
0.0
  0
VERTEX
  5
6AD
330
6AC
100
AcDbEntity
  8
BEMAßUNG
 62
     7
100
AcDbVertex
100
AcDb2dVertex
 10
92.70648597942755
 20
254.6547403334718
 30
0.0
  0
VERTEX
  5
6AE
330
6AC
100
AcDbEntity
  8
BEMAßUNG
 62
     7
100
AcDbVertex
100
AcDb2dVertex
 10
93.45648326656644
 20
254.9306924818403
 30
0.0
  0
SEQEND
  5
6AF
330
6AC
100
AcDbEntity
  8
BEMAßUNG
  0
POLYLINE
  5
6B0
330
1F
100
AcDbEntity
  8
BEMAßUNG
 62
     7
100
AcDb2dPolyline
 66
     1
 10
0.0
 20
0.0
 30
0.0
  0
VERTEX
  5
6B1
330
6B0
100
AcDbEntity
  8
BEMAßUNG
 62
     7
100
AcDbVertex
100
AcDb2dVertex
 10
92.72336694730528
 20
254.6071118883882
 30
0.0
  0
VERTEX
  5
6B2
330
6B0
100
AcDbEntity
  8
BEMAßUNG
 62
     7
100
AcDbVertex
100
AcDb2dVertex
 10
93.83578827949245
 20
255.0156140855517
 30
0.0
  0
SEQEND
  5
6B3
330
6B0
100
AcDbEntity
  8
BEMAßUNG
  0
POLYLINE
  5
6B4
330
1F
100
AcDbEntity
  8
BEMAßUNG
 62
     7
100
AcDb2dPolyline
 66
     1
 10
0.0
 20
0.0
 30
0.0
  0
VERTEX
  5
6B5
330
6B4
100
AcDbEntity
  8
BEMAßUNG
 62
     7
100
AcDbVertex
100
AcDb2dVertex
 10
92.74145369860284
 20
254.5594834433046
 30
0.0
  0
VERTEX
  5
6B6
330
6B4
100
AcDbEntity
  8
BEMAßUNG
 62
     7
100
AcDbVertex
100
AcDb2dVertex
 10
94.21526554719271
 20
255.1010524535859
 30
0.0
  0
SEQEND
  5
6B7
330
6B4
100
AcDbEntity
  8
BEMAßUNG
  0
POLYLINE
  5
6B8
330
1F
100
AcDbEntity
  8
BEMAßUNG
 62
     7
100
AcDb2dPolyline
 66
     1
 10
0.0
 20
0.0
 30
0.0
  0
VERTEX
  5
6B9
330
6B8
100
AcDbEntity
  8
BEMAßUNG
 62
     7
100
AcDbVertex
100
AcDb2dVertex
 10
92.7590236855776
 20
254.5119411256081
 30
0.0
  0
VERTEX
  5
6BA
330
6B8
100
AcDbEntity
  8
BEMAßUNG
 62
     7
100
AcDbVertex
100
AcDb2dVertex
 10
94.59525957921578
 20
255.1867492037815
 30
0.0
  0
SEQEND
  5
6BB
330
6B8
100
AcDbEntity
  8
BEMAßUNG
  0
POLYLINE
  5
6BC
330
1F
100
AcDbEntity
  8
BEMAßUNG
 62
     7
100
AcDb2dPolyline
 66
     1
 10
0.0
 20
0.0
 30
0.0
  0
VERTEX
  5
6BD
330
6BC
100
AcDbEntity
  8
BEMAßUNG
 62
     7
100
AcDbVertex
100
AcDb2dVertex
 10
92.77590465345533
 20
254.464571062686
 30
0.0
  0
VERTEX
  5
6BE
330
6BC
100
AcDbEntity
  8
BEMAßUNG
 62
     7
100
AcDbVertex
100
AcDb2dVertex
 10
94.97525361123883
 20
255.27175693488
 30
0.0
  0
SEQEND
  5
6BF
330
6BC
100
AcDbEntity
  8
BEMAßUNG
  0
POLYLINE
  5
6C0
330
1F
100
AcDbEntity
  8
BEMAßUNG
 62
     7
100
AcDb2dPolyline
 66
     1
 10
0.0
 20
0.0
 30
0.0
  0
VERTEX
  5
6C1
330
6C0
100
AcDbEntity
  8
BEMAßUNG
 62
     7
100
AcDbVertex
100
AcDb2dVertex
 10
92.7939914047529
 20
254.416684235441
 30
0.0
  0
VERTEX
  5
6C2
330
6C0
100
AcDbEntity
  8
BEMAßUNG
 62
     7
100
AcDbVertex
100
AcDb2dVertex
 10
95.3547308789391
 20
255.3571953029142
 30
0.0
  0
SEQEND
  5
6C3
330
6C0
100
AcDbEntity
  8
BEMAßUNG
  0
POLYLINE
  5
6C4
330
1F
100
AcDbEntity
  8
BEMAßUNG
 62
     7
100
AcDb2dPolyline
 66
     1
 10
0.0
 20
0.0
 30
0.0
  0
VERTEX
  5
6C5
330
6C4
100
AcDbEntity
  8
BEMAßUNG
 62
     7
100
AcDbVertex
100
AcDb2dVertex
 10
92.81087237263061
 20
254.3689696629703
 30
0.0
  0
VERTEX
  5
6C6
330
6C4
100
AcDbEntity
  8
BEMAßUNG
 62
     7
100
AcDbVertex
100
AcDb2dVertex
 10
95.73472491096216
 20
255.4428059257226
 30
0.0
  0
SEQEND
  5
6C7
330
6C4
100
AcDbEntity
  8
BEMAßUNG
  0
POLYLINE
  5
6C8
330
1F
100
AcDbEntity
  8
BEMAßUNG
 62
     7
100
AcDb2dPolyline
 66
     1
 10
0.0
 20
0.0
 30
0.0
  0
VERTEX
  5
6C9
330
6C8
100
AcDbEntity
  8
BEMAßUNG
 62
     7
100
AcDbVertex
100
AcDb2dVertex
 10
92.82895912392819
 20
254.3209967083382
 30
0.0
  0
VERTEX
  5
6CA
330
6C8
100
AcDbEntity
  8
BEMAßUNG
 62
     7
100
AcDbVertex
100
AcDb2dVertex
 10
96.1143744334367
 20
255.5278997842083
 30
0.0
  0
SEQEND
  5
6CB
330
6C8
100
AcDbEntity
  8
BEMAßUNG
  0
POLYLINE
  5
6CC
330
1F
100
AcDbEntity
  8
BEMAßUNG
 62
     7
100
AcDb2dPolyline
 66
     1
 10
0.0
 20
0.0
 30
0.0
  0
VERTEX
  5
6CD
330
6CC
100
AcDbEntity
  8
BEMAßUNG
 62
     7
100
AcDbVertex
100
AcDb2dVertex
 10
92.98657224237836
 20
253.891737810876
 30
0.0
  0
VERTEX
  5
6CE
330
6CC
100
AcDbEntity
  8
BEMAßUNG
 62
     7
100
AcDbVertex
100
AcDb2dVertex
 10
93.01206594896921
 20
253.901556333009
 30
0.0
  0
SEQEND
  5
6CF
330
6CC
100
AcDbEntity
  8
BEMAßUNG
  0
POLYLINE
  5
6D0
330
1F
100
AcDbEntity
  8
BEMAßUNG
 62
     7
100
AcDb2dPolyline
 66
     1
 10
0.0
 20
0.0
 30
0.0
  0
VERTEX
  5
6D1
330
6D0
100
AcDbEntity
  8
BEMAßUNG
 62
     7
100
AcDbVertex
100
AcDb2dVertex
 10
92.98657224237836
 20
253.891737810876
 30
0.0
  0
VERTEX
  5
6D2
330
6D0
100
AcDbEntity
  8
BEMAßUNG
 62
     7
100
AcDbVertex
100
AcDb2dVertex
 10
93.01206594896921
 20
253.901556333009
 30
0.0
  0
SEQEND
  5
6D3
330
6D0
100
AcDbEntity
  8
BEMAßUNG
  0
POLYLINE
  5
6D4
330
1F
100
AcDbEntity
  8
BEMAßUNG
 62
     7
100
AcDb2dPolyline
 66
     1
 10
0.0
 20
0.0
 30
0.0
  0
VERTEX
  5
6D5
330
6D4
100
AcDbEntity
  8
BEMAßUNG
 62
     7
100
AcDbVertex
100
AcDb2dVertex
 10
92.96865774585507
 20
253.9400552750567
 30
0.0
  0
VERTEX
  5
6D6
330
6D4
100
AcDbEntity
  8
BEMAßUNG
 62
     7
100
AcDbVertex
100
AcDb2dVertex
 10
93.35657549749419
 20
254.0818209542747
 30
0.0
  0
SEQEND
  5
6D7
330
6D4
100
AcDbEntity
  8
BEMAßUNG
  0
POLYLINE
  5
6D8
330
1F
100
AcDbEntity
  8
BEMAßUNG
 62
     7
100
AcDb2dPolyline
 66
     1
 10
0.0
 20
0.0
 30
0.0
  0
VERTEX
  5
6D9
330
6D8
100
AcDbEntity
  8
BEMAßUNG
 62
     7
100
AcDbVertex
100
AcDb2dVertex
 10
92.95160452320307
 20
253.9876837201402
 30
0.0
  0
VERTEX
  5
6DA
330
6D8
100
AcDbEntity
  8
BEMAßUNG
 62
     7
100
AcDbVertex
100
AcDb2dVertex
 10
93.70125730079344
 20
254.2628607220246
 30
0.0
  0
SEQEND
  5
6DB
330
6D8
100
AcDbEntity
  8
BEMAßUNG
  0
POLYLINE
  5
6DC
330
1F
100
AcDbEntity
  8
BEMAßUNG
 62
     7
100
AcDb2dPolyline
 66
     1
 10
0.0
 20
0.0
 30
0.0
  0
VERTEX
  5
6DD
330
6DC
100
AcDbEntity
  8
BEMAßUNG
 62
     7
100
AcDbVertex
100
AcDb2dVertex
 10
92.9340345362283
 20
254.0353121652238
 30
0.0
  0
VERTEX
  5
6DE
330
6DC
100
AcDbEntity
  8
BEMAßUNG
 62
     7
100
AcDbVertex
100
AcDb2dVertex
 10
94.04593910409268
 20
254.4438143623873
 30
0.0
  0
SEQEND
  5
6DF
330
6DC
100
AcDbEntity
  8
BEMAßUNG
  0
POLYLINE
  5
6E0
330
1F
100
AcDbEntity
  8
BEMAßUNG
 62
     7
100
AcDb2dPolyline
 66
     1
 10
0.0
 20
0.0
 30
0.0
  0
VERTEX
  5
6E1
330
6E0
100
AcDbEntity
  8
BEMAßUNG
 62
     7
100
AcDbVertex
100
AcDb2dVertex
 10
92.91594778493074
 20
254.0829406103074
 30
0.0
  0
VERTEX
  5
6E2
330
6E0
100
AcDbEntity
  8
BEMAßUNG
 62
     7
100
AcDbVertex
100
AcDb2dVertex
 10
94.39096541694046
 20
254.624078983653
 30
0.0
  0
SEQEND
  5
6E3
330
6E0
100
AcDbEntity
  8
BEMAßUNG
  0
POLYLINE
  5
6E4
330
1F
100
AcDbEntity
  8
BEMAßUNG
 62
     7
100
AcDb2dPolyline
 66
     1
 10
0.0
 20
0.0
 30
0.0
  0
VERTEX
  5
6E5
330
6E4
100
AcDbEntity
  8
BEMAßUNG
 62
     7
100
AcDbVertex
100
AcDb2dVertex
 10
92.89906681705301
 20
254.130569055391
 30
0.0
  0
VERTEX
  5
6E6
330
6E4
100
AcDbEntity
  8
BEMAßUNG
 62
     7
100
AcDbVertex
100
AcDb2dVertex
 10
94.7356472202397
 20
254.8050326240158
 30
0.0
  0
SEQEND
  5
6E7
330
6E4
100
AcDbEntity
  8
BEMAßUNG
  0
POLYLINE
  5
6E8
330
1F
100
AcDbEntity
  8
BEMAßUNG
 62
     7
100
AcDb2dPolyline
 66
     1
 10
0.0
 20
0.0
 30
0.0
  0
VERTEX
  5
6E9
330
6E8
100
AcDbEntity
  8
BEMAßUNG
 62
     7
100
AcDbVertex
100
AcDb2dVertex
 10
92.88149683007825
 20
254.1777668635389
 30
0.0
  0
VERTEX
  5
6EA
330
6E8
100
AcDbEntity
  8
BEMAßUNG
 62
     7
100
AcDbVertex
100
AcDb2dVertex
 10
95.08032902353895
 20
254.98564175483
 30
0.0
  0
SEQEND
  5
6EB
330
6E8
100
AcDbEntity
  8
BEMAßUNG
  0
POLYLINE
  5
6EC
330
1F
100
AcDbEntity
  8
BEMAßUNG
 62
     7
100
AcDb2dPolyline
 66
     1
 10
0.0
 20
0.0
 30
0.0
  0
VERTEX
  5
6ED
330
6EC
100
AcDbEntity
  8
BEMAßUNG
 62
     7
100
AcDbVertex
100
AcDb2dVertex
 10
92.86341007878067
 20
254.2258259455581
 30
0.0
  0
VERTEX
  5
6EE
330
6EC
100
AcDbEntity
  8
BEMAßUNG
 62
     7
100
AcDbVertex
100
AcDb2dVertex
 10
95.42466631728968
 20
255.1666815225799
 30
0.0
  0
SEQEND
  5
6EF
330
6EC
100
AcDbEntity
  8
BEMAßUNG
  0
POLYLINE
  5
6F0
330
1F
100
AcDbEntity
  8
BEMAßUNG
 62
     7
100
AcDb2dPolyline
 66
     1
 10
0.0
 20
0.0
 30
0.0
  0
VERTEX
  5
6F1
330
6F0
100
AcDbEntity
  8
BEMAßUNG
 62
     7
100
AcDbVertex
100
AcDb2dVertex
 10
92.84652911090295
 20
254.2733682632546
 30
0.0
  0
VERTEX
  5
6F2
330
6F0
100
AcDbEntity
  8
BEMAßUNG
 62
     7
100
AcDbVertex
100
AcDb2dVertex
 10
95.76934812058892
 20
255.3469461438456
 30
0.0
  0
SEQEND
  5
6F3
330
6F0
100
AcDbEntity
  8
BEMAßUNG
  0
POLYLINE
  5
6F4
330
1F
100
AcDbEntity
  8
BEMAßUNG
 62
     7
100
AcDb2dPolyline
 66
     1
 10
0.0
 20
0.0
 30
0.0
  0
VERTEX
  5
6F5
330
6F4
100
AcDbEntity
  8
BEMAßUNG
 62
     7
100
AcDbVertex
100
AcDb2dVertex
 10
92.82895912392819
 20
254.3209967083382
 30
0.0
  0
VERTEX
  5
6F6
330
6F4
100
AcDbEntity
  8
BEMAßUNG
 62
     7
100
AcDbVertex
100
AcDb2dVertex
 10
96.1143744334367
 20
255.5278997842083
 30
0.0
  0
SEQEND
  5
6F7
330
6F4
100
AcDbEntity
  8
BEMAßUNG
  0
POLYLINE
  5
6F8
330
1F
100
AcDbEntity
  8
BEMAßUNG
 62
     7
100
AcDb2dPolyline
 66
     1
 10
0.0
 20
0.0
 30
0.0
  0
VERTEX
  5
6F9
330
6F8
100
AcDbEntity
  8
BEMAßUNG
 62
     7
100
AcDbVertex
100
AcDb2dVertex
 10
86.88065725909581
 20
249.0624890870399
 30
0.0
  0
VERTEX
  5
6FA
330
6F8
100
AcDbEntity
  8
BEMAßUNG
 62
     7
100
AcDbVertex
100
AcDb2dVertex
 10
89.49014483439831
 20
251.4399494814108
 30
0.0
  0
VERTEX
  5
6FB
330
6F8
100
AcDbEntity
  8
BEMAßUNG
 62
     7
100
AcDbVertex
100
AcDb2dVertex
 10
88.78613957198749
 20
252.0339700704551
 30
0.0
  0
VERTEX
  5
6FC
330
6F8
100
AcDbEntity
  8
BEMAßUNG
 62
     7
100
AcDbVertex
100
AcDb2dVertex
 10
86.88065725909581
 20
249.0624890870399
 30
0.0
  0
SEQEND
  5
6FD
330
6F8
100
AcDbEntity
  8
BEMAßUNG
  0
POLYLINE
  5
6FE
330
1F
100
AcDbEntity
  8
BEMAßUNG
 62
     7
100
AcDb2dPolyline
 66
     1
 10
0.0
 20
0.0
 30
0.0
  0
VERTEX
  5
6FF
330
6FE
100
AcDbEntity
  8
BEMAßUNG
 62
     7
100
AcDbVertex
100
AcDb2dVertex
 10
89.4873887580101
 20
251.4423610482505
 30
0.0
  0
VERTEX
  5
700
330
6FE
100
AcDbEntity
  8
BEMAßUNG
 62
     7
100
AcDbVertex
100
AcDb2dVertex
 10
89.46981877103532
 20
251.4215182205648
 30
0.0
  0
SEQEND
  5
701
330
6FE
100
AcDbEntity
  8
BEMAßUNG
  0
POLYLINE
  5
702
330
1F
100
AcDbEntity
  8
BEMAßUNG
 62
     7
100
AcDb2dPolyline
 66
     1
 10
0.0
 20
0.0
 30
0.0
  0
VERTEX
  5
703
330
702
100
AcDbEntity
  8
BEMAßUNG
 62
     7
100
AcDbVertex
100
AcDb2dVertex
 10
89.4873887580101
 20
251.4423610482505
 30
0.0
  0
VERTEX
  5
704
330
702
100
AcDbEntity
  8
BEMAßUNG
 62
     7
100
AcDbVertex
100
AcDb2dVertex
 10
89.46981877103532
 20
251.4215182205648
 30
0.0
  0
SEQEND
  5
705
330
702
100
AcDbEntity
  8
BEMAßUNG
  0
POLYLINE
  5
706
330
1F
100
AcDbEntity
  8
BEMAßUNG
 62
     7
100
AcDb2dPolyline
 66
     1
 10
0.0
 20
0.0
 30
0.0
  0
VERTEX
  5
707
330
706
100
AcDbEntity
  8
BEMAßUNG
 62
     7
100
AcDbVertex
100
AcDb2dVertex
 10
89.44863143380104
 20
251.474831073199
 30
0.0
  0
VERTEX
  5
708
330
706
100
AcDbEntity
  8
BEMAßUNG
 62
     7
100
AcDbVertex
100
AcDb2dVertex
 10
89.18215329801697
 20
251.1590880719759
 30
0.0
  0
SEQEND
  5
709
330
706
100
AcDbEntity
  8
BEMAßUNG
  0
POLYLINE
  5
70A
330
1F
100
AcDbEntity
  8
BEMAßUNG
 62
     7
100
AcDb2dPolyline
 66
     1
 10
0.0
 20
0.0
 30
0.0
  0
VERTEX
  5
70B
330
70A
100
AcDbEntity
  8
BEMAßUNG
 62
     7
100
AcDbVertex
100
AcDb2dVertex
 10
89.41004636436624
 20
251.5079901172445
 30
0.0
  0
VERTEX
  5
70C
330
70A
100
AcDbEntity
  8
BEMAßUNG
 62
     7
100
AcDbVertex
100
AcDb2dVertex
 10
88.89466007977286
 20
250.897346942484
 30
0.0
  0
SEQEND
  5
70D
330
70A
100
AcDbEntity
  8
BEMAßUNG
  0
POLYLINE
  5
70E
330
1F
100
AcDbEntity
  8
BEMAßUNG
 62
     7
100
AcDb2dPolyline
 66
     1
 10
0.0
 20
0.0
 30
0.0
  0
VERTEX
  5
70F
330
70E
100
AcDbEntity
  8
BEMAßUNG
 62
     7
100
AcDbVertex
100
AcDb2dVertex
 10
89.37128904015718
 20
251.540460142193
 30
0.0
  0
VERTEX
  5
710
330
70E
100
AcDbEntity
  8
BEMAßUNG
 62
     7
100
AcDbVertex
100
AcDb2dVertex
 10
88.60647784243172
 20
250.634830666508
 30
0.0
  0
SEQEND
  5
711
330
70E
100
AcDbEntity
  8
BEMAßUNG
  0
POLYLINE
  5
712
330
1F
100
AcDbEntity
  8
BEMAßUNG
 62
     7
100
AcDb2dPolyline
 66
     1
 10
0.0
 20
0.0
 30
0.0
  0
VERTEX
  5
713
330
712
100
AcDbEntity
  8
BEMAßUNG
 62
     7
100
AcDbVertex
100
AcDb2dVertex
 10
89.3321872063996
 20
251.5729301671415
 30
0.0
  0
VERTEX
  5
714
330
712
100
AcDbEntity
  8
BEMAßUNG
 62
     7
100
AcDbVertex
100
AcDb2dVertex
 10
88.31898462418762
 20
250.3730895370161
 30
0.0
  0
SEQEND
  5
715
330
712
100
AcDbEntity
  8
BEMAßUNG
  0
POLYLINE
  5
716
330
1F
100
AcDbEntity
  8
BEMAßUNG
 62
     7
100
AcDb2dPolyline
 66
     1
 10
0.0
 20
0.0
 30
0.0
  0
VERTEX
  5
717
330
716
100
AcDbEntity
  8
BEMAßUNG
 62
     7
100
AcDbVertex
100
AcDb2dVertex
 10
89.29342988219054
 20
251.606089211187
 30
0.0
  0
VERTEX
  5
718
330
716
100
AcDbEntity
  8
BEMAßUNG
 62
     7
100
AcDbVertex
100
AcDb2dVertex
 10
88.03149140594353
 20
250.1106593884272
 30
0.0
  0
SEQEND
  5
719
330
716
100
AcDbEntity
  8
BEMAßUNG
  0
POLYLINE
  5
71A
330
1F
100
AcDbEntity
  8
BEMAßUNG
 62
     7
100
AcDb2dPolyline
 66
     1
 10
0.0
 20
0.0
 30
0.0
  0
VERTEX
  5
71B
330
71A
100
AcDbEntity
  8
BEMAßUNG
 62
     7
100
AcDbVertex
100
AcDb2dVertex
 10
89.25450030320721
 20
251.638903745684
 30
0.0
  0
VERTEX
  5
71C
330
71A
100
AcDbEntity
  8
BEMAßUNG
 62
     7
100
AcDbVertex
100
AcDb2dVertex
 10
87.74399818769942
 20
249.8484876219997
 30
0.0
  0
SEQEND
  5
71D
330
71A
100
AcDbEntity
  8
BEMAßUNG
  0
POLYLINE
  5
71E
330
1F
100
AcDbEntity
  8
BEMAßUNG
 62
     7
100
AcDb2dPolyline
 66
     1
 10
0.0
 20
0.0
 30
0.0
  0
VERTEX
  5
71F
330
71E
100
AcDbEntity
  8
BEMAßUNG
 62
     7
100
AcDbVertex
100
AcDb2dVertex
 10
89.21608748854668
 20
251.6712876432454
 30
0.0
  0
VERTEX
  5
720
330
71E
100
AcDbEntity
  8
BEMAßUNG
 62
     7
100
AcDbVertex
100
AcDb2dVertex
 10
87.45581595035827
 20
249.5867464925078
 30
0.0
  0
SEQEND
  5
721
330
71E
100
AcDbEntity
  8
BEMAßUNG
  0
POLYLINE
  5
722
330
1F
100
AcDbEntity
  8
BEMAßUNG
 62
     7
100
AcDb2dPolyline
 66
     1
 10
0.0
 20
0.0
 30
0.0
  0
VERTEX
  5
723
330
722
100
AcDbEntity
  8
BEMAßUNG
 62
     7
100
AcDbVertex
100
AcDb2dVertex
 10
89.17733016433762
 20
251.704532814678
 30
0.0
  0
VERTEX
  5
724
330
722
100
AcDbEntity
  8
BEMAßUNG
 62
     7
100
AcDbVertex
100
AcDb2dVertex
 10
87.1681504773399
 20
249.3243163439189
 30
0.0
  0
SEQEND
  5
725
330
722
100
AcDbEntity
  8
BEMAßUNG
  0
POLYLINE
  5
726
330
1F
100
AcDbEntity
  8
BEMAßUNG
 62
     7
100
AcDb2dPolyline
 66
     1
 10
0.0
 20
0.0
 30
0.0
  0
VERTEX
  5
727
330
726
100
AcDbEntity
  8
BEMAßUNG
 62
     7
100
AcDbVertex
100
AcDb2dVertex
 10
89.13805607580576
 20
251.7372612217879
 30
0.0
  0
VERTEX
  5
728
330
726
100
AcDbEntity
  8
BEMAßUNG
 62
     7
100
AcDbVertex
100
AcDb2dVertex
 10
86.88065725909581
 20
249.0624890870399
 30
0.0
  0
SEQEND
  5
729
330
726
100
AcDbEntity
  8
BEMAßUNG
  0
POLYLINE
  5
72A
330
1F
100
AcDbEntity
  8
BEMAßUNG
 62
     7
100
AcDb2dPolyline
 66
     1
 10
0.0
 20
0.0
 30
0.0
  0
VERTEX
  5
72B
330
72A
100
AcDbEntity
  8
BEMAßUNG
 62
     7
100
AcDbVertex
100
AcDb2dVertex
 10
88.7888956483757
 20
252.0322475227124
 30
0.0
  0
VERTEX
  5
72C
330
72A
100
AcDbEntity
  8
BEMAßUNG
 62
     7
100
AcDbVertex
100
AcDb2dVertex
 10
88.77080889707814
 20
252.0114046950267
 30
0.0
  0
SEQEND
  5
72D
330
72A
100
AcDbEntity
  8
BEMAßUNG
  0
POLYLINE
  5
72E
330
1F
100
AcDbEntity
  8
BEMAßUNG
 62
     7
100
AcDb2dPolyline
 66
     1
 10
0.0
 20
0.0
 30
0.0
  0
VERTEX
  5
72F
330
72E
100
AcDbEntity
  8
BEMAßUNG
 62
     7
100
AcDbVertex
100
AcDb2dVertex
 10
88.7888956483757
 20
252.0322475227124
 30
0.0
  0
VERTEX
  5
730
330
72E
100
AcDbEntity
  8
BEMAßUNG
 62
     7
100
AcDbVertex
100
AcDb2dVertex
 10
88.77080889707814
 20
252.0114046950267
 30
0.0
  0
SEQEND
  5
731
330
72E
100
AcDbEntity
  8
BEMAßUNG
  0
POLYLINE
  5
732
330
1F
100
AcDbEntity
  8
BEMAßUNG
 62
     7
100
AcDb2dPolyline
 66
     1
 10
0.0
 20
0.0
 30
0.0
  0
VERTEX
  5
733
330
732
100
AcDbEntity
  8
BEMAßUNG
 62
     7
100
AcDbVertex
100
AcDb2dVertex
 10
88.82765297258476
 20
251.9990884786669
 30
0.0
  0
VERTEX
  5
734
330
732
100
AcDbEntity
  8
BEMAßUNG
 62
     7
100
AcDbVertex
100
AcDb2dVertex
 10
88.56134709157494
 20
251.6833454774438
 30
0.0
  0
SEQEND
  5
735
330
732
100
AcDbEntity
  8
BEMAßUNG
  0
POLYLINE
  5
736
330
1F
100
AcDbEntity
  8
BEMAßUNG
 62
     7
100
AcDb2dPolyline
 66
     1
 10
0.0
 20
0.0
 30
0.0
  0
VERTEX
  5
737
330
736
100
AcDbEntity
  8
BEMAßUNG
 62
     7
100
AcDbVertex
100
AcDb2dVertex
 10
88.86606578724529
 20
251.9662739441699
 30
0.0
  0
VERTEX
  5
738
330
736
100
AcDbEntity
  8
BEMAßUNG
 62
     7
100
AcDbVertex
100
AcDb2dVertex
 10
88.35102401220044
 20
251.3555446420222
 30
0.0
  0
SEQEND
  5
739
330
736
100
AcDbEntity
  8
BEMAßUNG
  0
POLYLINE
  5
73A
330
1F
100
AcDbEntity
  8
BEMAßUNG
 62
     7
100
AcDb2dPolyline
 66
     1
 10
0.0
 20
0.0
 30
0.0
  0
VERTEX
  5
73B
330
73A
100
AcDbEntity
  8
BEMAßUNG
 62
     7
100
AcDbVertex
100
AcDb2dVertex
 10
88.90499536622862
 20
251.9338039192214
 30
0.0
  0
VERTEX
  5
73C
330
73A
100
AcDbEntity
  8
BEMAßUNG
 62
     7
100
AcDbVertex
100
AcDb2dVertex
 10
88.1408731876002
 20
251.0282605709235
 30
0.0
  0
SEQEND
  5
73D
330
73A
100
AcDbEntity
  8
BEMAßUNG
  0
POLYLINE
  5
73E
330
1F
100
AcDbEntity
  8
BEMAßUNG
 62
     7
100
AcDb2dPolyline
 66
     1
 10
0.0
 20
0.0
 30
0.0
  0
VERTEX
  5
73F
330
73E
100
AcDbEntity
  8
BEMAßUNG
 62
     7
100
AcDbVertex
100
AcDb2dVertex
 10
88.9440971999862
 20
251.9006448751759
 30
0.0
  0
VERTEX
  5
740
330
73E
100
AcDbEntity
  8
BEMAßUNG
 62
     7
100
AcDbVertex
100
AcDb2dVertex
 10
87.93123912732275
 20
250.7008042450505
 30
0.0
  0
SEQEND
  5
741
330
73E
100
AcDbEntity
  8
BEMAßUNG
  0
POLYLINE
  5
742
330
1F
100
AcDbEntity
  8
BEMAßUNG
 62
     7
100
AcDb2dPolyline
 66
     1
 10
0.0
 20
0.0
 30
0.0
  0
VERTEX
  5
743
330
742
100
AcDbEntity
  8
BEMAßUNG
 62
     7
100
AcDbVertex
100
AcDb2dVertex
 10
88.98285452419526
 20
251.8678303406789
 30
0.0
  0
VERTEX
  5
744
330
742
100
AcDbEntity
  8
BEMAßUNG
 62
     7
100
AcDbVertex
100
AcDb2dVertex
 10
87.7210883027225
 20
250.3730895370161
 30
0.0
  0
SEQEND
  5
745
330
742
100
AcDbEntity
  8
BEMAßUNG
  0
POLYLINE
  5
746
330
1F
100
AcDbEntity
  8
BEMAßUNG
 62
     7
100
AcDb2dPolyline
 66
     1
 10
0.0
 20
0.0
 30
0.0
  0
VERTEX
  5
747
330
746
100
AcDbEntity
  8
BEMAßUNG
 62
     7
100
AcDbVertex
100
AcDb2dVertex
 10
89.02178410317859
 20
251.8353603157304
 30
0.0
  0
VERTEX
  5
748
330
746
100
AcDbEntity
  8
BEMAßUNG
 62
     7
100
AcDbVertex
100
AcDb2dVertex
 10
87.510765223348
 20
250.0450303194332
 30
0.0
  0
SEQEND
  5
749
330
746
100
AcDbEntity
  8
BEMAßUNG
  0
POLYLINE
  5
74A
330
1F
100
AcDbEntity
  8
BEMAßUNG
 62
     7
100
AcDb2dPolyline
 66
     1
 10
0.0
 20
0.0
 30
0.0
  0
VERTEX
  5
74B
330
74A
100
AcDbEntity
  8
BEMAßUNG
 62
     7
100
AcDbVertex
100
AcDb2dVertex
 10
89.06019691783912
 20
251.8022012716849
 30
0.0
  0
VERTEX
  5
74C
330
74A
100
AcDbEntity
  8
BEMAßUNG
 62
     7
100
AcDbVertex
100
AcDb2dVertex
 10
87.3004421439735
 20
249.7176601209473
 30
0.0
  0
SEQEND
  5
74D
330
74A
100
AcDbEntity
  8
BEMAßUNG
  0
POLYLINE
  5
74E
330
1F
100
AcDbEntity
  8
BEMAßUNG
 62
     7
100
AcDb2dPolyline
 66
     1
 10
0.0
 20
0.0
 30
0.0
  0
VERTEX
  5
74F
330
74E
100
AcDbEntity
  8
BEMAßUNG
 62
     7
100
AcDbVertex
100
AcDb2dVertex
 10
89.09895424204818
 20
251.7697312467364
 30
0.0
  0
VERTEX
  5
750
330
74E
100
AcDbEntity
  8
BEMAßUNG
 62
     7
100
AcDbVertex
100
AcDb2dVertex
 10
87.09098033847032
 20
249.3899454129129
 30
0.0
  0
SEQEND
  5
751
330
74E
100
AcDbEntity
  8
BEMAßUNG
  0
POLYLINE
  5
752
330
1F
100
AcDbEntity
  8
BEMAßUNG
 62
     7
100
AcDb2dPolyline
 66
     1
 10
0.0
 20
0.0
 30
0.0
  0
VERTEX
  5
753
330
752
100
AcDbEntity
  8
BEMAßUNG
 62
     7
100
AcDbVertex
100
AcDb2dVertex
 10
89.13805607580576
 20
251.7372612217879
 30
0.0
  0
VERTEX
  5
754
330
752
100
AcDbEntity
  8
BEMAßUNG
 62
     7
100
AcDbVertex
100
AcDb2dVertex
 10
86.88065725909581
 20
249.0624890870399
 30
0.0
  0
SEQEND
  5
755
330
752
100
AcDbEntity
  8
BEMAßUNG
  0
POLYLINE
  5
756
330
1F
100
AcDbEntity
  8
BEMAßUNG
 62
     7
100
AcDb2dPolyline
 66
     1
 10
0.0
 20
0.0
 30
0.0
  0
VERTEX
  5
757
330
756
100
AcDbEntity
  8
BEMAßUNG
 62
     7
100
AcDbVertex
100
AcDb2dVertex
 10
103.7628309202398
 20
236.1081549160164
 30
0.0
  0
VERTEX
  5
758
330
756
100
AcDbEntity
  8
BEMAßUNG
 62
     7
100
AcDbVertex
100
AcDb2dVertex
 10
87.66424422721589
 20
236.1081549160164
 30
0.0
  0
SEQEND
  5
759
330
756
100
AcDbEntity
  8
BEMAßUNG
  0
SPLINE
  5
75A
330
1F
100
AcDbEntity
  8
BEMAßUNG
 62
     7
100
AcDbSpline
210
0.0
220
0.0
230
1.0
 70
     8
 71
     3
 72
    11
 73
     7
 74
     0
 42
0.0000000001
 43
0.0000000001
 40
0.0
 40
0.0
 40
0.0
 40
0.0
 40
1.0
 40
1.0
 40
1.0
 40
2.0
 40
2.0
 40
2.0
 40
2.0
 10
89.66412215640342
 20
236.1081549160164
 30
0.0
 10
89.66412215640342
 20
229.1644788381082
 30
0.0
 10
95.29375268885018
 20
223.53519281521
 30
0.0
 10
102.2375148941455
 20
223.53519281521
 30
0.0
 10
103.5874755600406
 20
223.53519281521
 30
0.0
 10
104.8878268509482
 20
223.7475829518756
 30
0.0
 10
106.0181626796587
 20
224.1172416974429
 30
0.0
  0
POLYLINE
  5
75B
330
1F
100
AcDbEntity
  8
BEMAßUNG
 62
     7
100
AcDb2dPolyline
 66
     1
 10
0.0
 20
0.0
 30
0.0
  0
VERTEX
  5
75C
330
75B
100
AcDbEntity
  8
BEMAßUNG
 62
     7
100
AcDbVertex
100
AcDb2dVertex
 10
106.0181626796587
 20
224.1172416974429
 30
0.0
  0
VERTEX
  5
75D
330
75B
100
AcDbEntity
  8
BEMAßUNG
 62
     7
100
AcDbVertex
100
AcDb2dVertex
 10
102.5074381254148
 20
223.745860404133
 30
0.0
  0
VERTEX
  5
75E
330
75B
100
AcDbEntity
  8
BEMAßUNG
 62
     7
100
AcDbVertex
100
AcDb2dVertex
 10
102.7229288480172
 20
222.8497910684195
 30
0.0
  0
VERTEX
  5
75F
330
75B
100
AcDbEntity
  8
BEMAßUNG
 62
     7
100
AcDbVertex
100
AcDb2dVertex
 10
106.0181626796587
 20
224.1172416974429
 30
0.0
  0
SEQEND
  5
760
330
75B
100
AcDbEntity
  8
BEMAßUNG
  0
POLYLINE
  5
761
330
1F
100
AcDbEntity
  8
BEMAßUNG
 62
     7
100
AcDb2dPolyline
 66
     1
 10
0.0
 20
0.0
 30
0.0
  0
VERTEX
  5
762
330
761
100
AcDbEntity
  8
BEMAßUNG
 62
     7
100
AcDbVertex
100
AcDb2dVertex
 10
102.5084716540604
 20
223.7422430538735
 30
0.0
  0
VERTEX
  5
763
330
761
100
AcDbEntity
  8
BEMAßUNG
 62
     7
100
AcDbVertex
100
AcDb2dVertex
 10
102.534482124974
 20
223.7486164805212
 30
0.0
  0
SEQEND
  5
764
330
761
100
AcDbEntity
  8
BEMAßUNG
  0
POLYLINE
  5
765
330
1F
100
AcDbEntity
  8
BEMAßUNG
 62
     7
100
AcDb2dPolyline
 66
     1
 10
0.0
 20
0.0
 30
0.0
  0
VERTEX
  5
766
330
765
100
AcDbEntity
  8
BEMAßUNG
 62
     7
100
AcDbVertex
100
AcDb2dVertex
 10
102.5084716540604
 20
223.7422430538735
 30
0.0
  0
VERTEX
  5
767
330
765
100
AcDbEntity
  8
BEMAßUNG
 62
     7
100
AcDbVertex
100
AcDb2dVertex
 10
102.534482124974
 20
223.7486164805212
 30
0.0
  0
SEQEND
  5
768
330
765
100
AcDbEntity
  8
BEMAßUNG
  0
POLYLINE
  5
769
330
1F
100
AcDbEntity
  8
BEMAßUNG
 62
     7
100
AcDb2dPolyline
 66
     1
 10
0.0
 20
0.0
 30
0.0
  0
VERTEX
  5
76A
330
769
100
AcDbEntity
  8
BEMAßUNG
 62
     7
100
AcDbVertex
100
AcDb2dVertex
 10
102.5203572334845
 20
223.6928059336601
 30
0.0
  0
VERTEX
  5
76B
330
769
100
AcDbEntity
  8
BEMAßUNG
 62
     7
100
AcDbVertex
100
AcDb2dVertex
 10
102.9215386027418
 20
223.7896131167957
 30
0.0
  0
SEQEND
  5
76C
330
769
100
AcDbEntity
  8
BEMAßUNG
  0
POLYLINE
  5
76D
330
1F
100
AcDbEntity
  8
BEMAßUNG
 62
     7
100
AcDb2dPolyline
 66
     1
 10
0.0
 20
0.0
 30
0.0
  0
VERTEX
  5
76E
330
76D
100
AcDbEntity
  8
BEMAßUNG
 62
     7
100
AcDbVertex
100
AcDb2dVertex
 10
102.5320705581344
 20
223.6435410682211
 30
0.0
  0
VERTEX
  5
76F
330
76D
100
AcDbEntity
  8
BEMAßUNG
 62
     7
100
AcDbVertex
100
AcDb2dVertex
 10
103.3089395900582
 20
223.8304374982959
 30
0.0
  0
SEQEND
  5
770
330
76D
100
AcDbEntity
  8
BEMAßUNG
  0
POLYLINE
  5
771
330
1F
100
AcDbEntity
  8
BEMAßUNG
 62
     7
100
AcDb2dPolyline
 66
     1
 10
0.0
 20
0.0
 30
0.0
  0
VERTEX
  5
772
330
771
100
AcDbEntity
  8
BEMAßUNG
 62
     7
100
AcDbVertex
100
AcDb2dVertex
 10
102.5439561375585
 20
223.5937594384592
 30
0.0
  0
VERTEX
  5
773
330
771
100
AcDbEntity
  8
BEMAßUNG
 62
     7
100
AcDbVertex
100
AcDb2dVertex
 10
103.6958238130517
 20
223.8712618797961
 30
0.0
  0
SEQEND
  5
774
330
771
100
AcDbEntity
  8
BEMAßUNG
  0
POLYLINE
  5
775
330
1F
100
AcDbEntity
  8
BEMAßUNG
 62
     7
100
AcDb2dPolyline
 66
     1
 10
0.0
 20
0.0
 30
0.0
  0
VERTEX
  5
776
330
775
100
AcDbEntity
  8
BEMAßUNG
 62
     7
100
AcDbVertex
100
AcDb2dVertex
 10
102.5560139717568
 20
223.5443223182459
 30
0.0
  0
VERTEX
  5
777
330
775
100
AcDbEntity
  8
BEMAßUNG
 62
     7
100
AcDbVertex
100
AcDb2dVertex
 10
104.0828802908196
 20
223.911914006522
 30
0.0
  0
SEQEND
  5
778
330
775
100
AcDbEntity
  8
BEMAßUNG
  0
POLYLINE
  5
779
330
1F
100
AcDbEntity
  8
BEMAßUNG
 62
     7
100
AcDb2dPolyline
 66
     1
 10
0.0
 20
0.0
 30
0.0
  0
VERTEX
  5
77A
330
779
100
AcDbEntity
  8
BEMAßUNG
 62
     7
100
AcDbVertex
100
AcDb2dVertex
 10
102.5680718059552
 20
223.4950574528068
 30
0.0
  0
VERTEX
  5
77B
330
779
100
AcDbEntity
  8
BEMAßUNG
 62
     7
100
AcDbVertex
100
AcDb2dVertex
 10
104.4694200042646
 20
223.9529106427965
 30
0.0
  0
SEQEND
  5
77C
330
779
100
AcDbEntity
  8
BEMAßUNG
  0
POLYLINE
  5
77D
330
1F
100
AcDbEntity
  8
BEMAßUNG
 62
     7
100
AcDb2dPolyline
 66
     1
 10
0.0
 20
0.0
 30
0.0
  0
VERTEX
  5
77E
330
77D
100
AcDbEntity
  8
BEMAßUNG
 62
     7
100
AcDbVertex
100
AcDb2dVertex
 10
102.5796128758308
 20
223.4456203325935
 30
0.0
  0
VERTEX
  5
77F
330
77D
100
AcDbEntity
  8
BEMAßUNG
 62
     7
100
AcDbVertex
100
AcDb2dVertex
 10
104.8568209915809
 20
223.994596298168
 30
0.0
  0
SEQEND
  5
780
330
77D
100
AcDbEntity
  8
BEMAßUNG
  0
POLYLINE
  5
781
330
1F
100
AcDbEntity
  8
BEMAßUNG
 62
     7
100
AcDb2dPolyline
 66
     1
 10
0.0
 20
0.0
 30
0.0
  0
VERTEX
  5
782
330
781
100
AcDbEntity
  8
BEMAßUNG
 62
     7
100
AcDbVertex
100
AcDb2dVertex
 10
102.5916707100292
 20
223.3965277219287
 30
0.0
  0
VERTEX
  5
783
330
781
100
AcDbEntity
  8
BEMAßUNG
 62
     7
100
AcDbVertex
100
AcDb2dVertex
 10
105.2442219788973
 20
224.0354206796682
 30
0.0
  0
SEQEND
  5
784
330
781
100
AcDbEntity
  8
BEMAßUNG
  0
POLYLINE
  5
785
330
1F
100
AcDbEntity
  8
BEMAßUNG
 62
     7
100
AcDb2dPolyline
 66
     1
 10
0.0
 20
0.0
 30
0.0
  0
VERTEX
  5
786
330
785
100
AcDbEntity
  8
BEMAßUNG
 62
     7
100
AcDbVertex
100
AcDb2dVertex
 10
102.6037285442276
 20
223.3470906017153
 30
0.0
  0
VERTEX
  5
787
330
785
100
AcDbEntity
  8
BEMAßUNG
 62
     7
100
AcDbVertex
100
AcDb2dVertex
 10
105.6311062018908
 20
224.0762450611684
 30
0.0
  0
SEQEND
  5
788
330
785
100
AcDbEntity
  8
BEMAßUNG
  0
POLYLINE
  5
789
330
1F
100
AcDbEntity
  8
BEMAßUNG
 62
     7
100
AcDb2dPolyline
 66
     1
 10
0.0
 20
0.0
 30
0.0
  0
VERTEX
  5
78A
330
789
100
AcDbEntity
  8
BEMAßUNG
 62
     7
100
AcDbVertex
100
AcDb2dVertex
 10
102.6152696141031
 20
223.297653481502
 30
0.0
  0
VERTEX
  5
78B
330
789
100
AcDbEntity
  8
BEMAßUNG
 62
     7
100
AcDbVertex
100
AcDb2dVertex
 10
106.0181626796587
 20
224.1172416974429
 30
0.0
  0
SEQEND
  5
78C
330
789
100
AcDbEntity
  8
BEMAßUNG
  0
POLYLINE
  5
78D
330
1F
100
AcDbEntity
  8
BEMAßUNG
 62
     7
100
AcDb2dPolyline
 66
     1
 10
0.0
 20
0.0
 30
0.0
  0
VERTEX
  5
78E
330
78D
100
AcDbEntity
  8
BEMAßUNG
 62
     7
100
AcDbVertex
100
AcDb2dVertex
 10
102.7225843384687
 20
222.8532361639048
 30
0.0
  0
VERTEX
  5
78F
330
78D
100
AcDbEntity
  8
BEMAßUNG
 62
     7
100
AcDbVertex
100
AcDb2dVertex
 10
102.7485948093823
 20
222.8592650810039
 30
0.0
  0
SEQEND
  5
790
330
78D
100
AcDbEntity
  8
BEMAßUNG
  0
POLYLINE
  5
791
330
1F
100
AcDbEntity
  8
BEMAßUNG
 62
     7
100
AcDb2dPolyline
 66
     1
 10
0.0
 20
0.0
 30
0.0
  0
VERTEX
  5
792
330
791
100
AcDbEntity
  8
BEMAßUNG
 62
     7
100
AcDbVertex
100
AcDb2dVertex
 10
102.7225843384687
 20
222.8532361639048
 30
0.0
  0
VERTEX
  5
793
330
791
100
AcDbEntity
  8
BEMAßUNG
 62
     7
100
AcDbVertex
100
AcDb2dVertex
 10
102.7485948093823
 20
222.8592650810039
 30
0.0
  0
SEQEND
  5
794
330
791
100
AcDbEntity
  8
BEMAßUNG
  0
POLYLINE
  5
795
330
1F
100
AcDbEntity
  8
BEMAßUNG
 62
     7
100
AcDb2dPolyline
 66
     1
 10
0.0
 20
0.0
 30
0.0
  0
VERTEX
  5
796
330
795
100
AcDbEntity
  8
BEMAßUNG
 62
     7
100
AcDbVertex
100
AcDb2dVertex
 10
102.7105265042703
 20
222.9026732841181
 30
0.0
  0
VERTEX
  5
797
330
795
100
AcDbEntity
  8
BEMAßUNG
 62
     7
100
AcDbVertex
100
AcDb2dVertex
 10
103.1117078735276
 20
222.9993082124793
 30
0.0
  0
SEQEND
  5
798
330
795
100
AcDbEntity
  8
BEMAßUNG
  0
POLYLINE
  5
799
330
1F
100
AcDbEntity
  8
BEMAßUNG
 62
     7
100
AcDb2dPolyline
 66
     1
 10
0.0
 20
0.0
 30
0.0
  0
VERTEX
  5
79A
330
799
100
AcDbEntity
  8
BEMAßUNG
 62
     7
100
AcDbVertex
100
AcDb2dVertex
 10
102.6986409248462
 20
222.9521104043314
 30
0.0
  0
VERTEX
  5
79B
330
799
100
AcDbEntity
  8
BEMAßUNG
 62
     7
100
AcDbVertex
100
AcDb2dVertex
 10
103.4753377019958
 20
223.1386623248577
 30
0.0
  0
SEQEND
  5
79C
330
799
100
AcDbEntity
  8
BEMAßUNG
  0
POLYLINE
  5
79D
330
1F
100
AcDbEntity
  8
BEMAßUNG
 62
     7
100
AcDb2dPolyline
 66
     1
 10
0.0
 20
0.0
 30
0.0
  0
VERTEX
  5
79E
330
79D
100
AcDbEntity
  8
BEMAßUNG
 62
     7
100
AcDbVertex
100
AcDb2dVertex
 10
102.6869276001963
 20
223.001030760222
 30
0.0
  0
VERTEX
  5
79F
330
79D
100
AcDbEntity
  8
BEMAßUNG
 62
     7
100
AcDbVertex
100
AcDb2dVertex
 10
103.8387952756896
 20
223.2787054563331
 30
0.0
  0
SEQEND
  5
7A0
330
79D
100
AcDbEntity
  8
BEMAßUNG
  0
POLYLINE
  5
7A1
330
1F
100
AcDbEntity
  8
BEMAßUNG
 62
     7
100
AcDb2dPolyline
 66
     1
 10
0.0
 20
0.0
 30
0.0
  0
VERTEX
  5
7A2
330
7A1
100
AcDbEntity
  8
BEMAßUNG
 62
     7
100
AcDbVertex
100
AcDb2dVertex
 10
102.674869765998
 20
223.0504678804353
 30
0.0
  0
VERTEX
  5
7A3
330
7A1
100
AcDbEntity
  8
BEMAßUNG
 62
     7
100
AcDbVertex
100
AcDb2dVertex
 10
104.2017360850607
 20
223.41840407826
 30
0.0
  0
SEQEND
  5
7A4
330
7A1
100
AcDbEntity
  8
BEMAßUNG
  0
POLYLINE
  5
7A5
330
1F
100
AcDbEntity
  8
BEMAßUNG
 62
     7
100
AcDb2dPolyline
 66
     1
 10
0.0
 20
0.0
 30
0.0
  0
VERTEX
  5
7A6
330
7A5
100
AcDbEntity
  8
BEMAßUNG
 62
     7
100
AcDbVertex
100
AcDb2dVertex
 10
102.6629841865738
 20
223.0999050006486
 30
0.0
  0
VERTEX
  5
7A7
330
7A5
100
AcDbEntity
  8
BEMAßUNG
 62
     7
100
AcDbVertex
100
AcDb2dVertex
 10
104.564849149206
 20
223.5577581906383
 30
0.0
  0
SEQEND
  5
7A8
330
7A5
100
AcDbEntity
  8
BEMAßUNG
  0
POLYLINE
  5
7A9
330
1F
100
AcDbEntity
  8
BEMAßUNG
 62
     7
100
AcDb2dPolyline
 66
     1
 10
0.0
 20
0.0
 30
0.0
  0
VERTEX
  5
7AA
330
7A9
100
AcDbEntity
  8
BEMAßUNG
 62
     7
100
AcDbVertex
100
AcDb2dVertex
 10
102.6509263523755
 20
223.1491698660877
 30
0.0
  0
VERTEX
  5
7AB
330
7A9
100
AcDbEntity
  8
BEMAßUNG
 62
     7
100
AcDbVertex
100
AcDb2dVertex
 10
104.9281344681256
 20
223.6981458316623
 30
0.0
  0
SEQEND
  5
7AC
330
7A9
100
AcDbEntity
  8
BEMAßUNG
  0
POLYLINE
  5
7AD
330
1F
100
AcDbEntity
  8
BEMAßUNG
 62
     7
100
AcDb2dPolyline
 66
     1
 10
0.0
 20
0.0
 30
0.0
  0
VERTEX
  5
7AE
330
7AD
100
AcDbEntity
  8
BEMAßUNG
 62
     7
100
AcDbVertex
100
AcDb2dVertex
 10
102.6393852824999
 20
223.1989514958496
 30
0.0
  0
VERTEX
  5
7AF
330
7AD
100
AcDbEntity
  8
BEMAßUNG
 62
     7
100
AcDbVertex
100
AcDb2dVertex
 10
105.2917642965937
 20
223.8374999440406
 30
0.0
  0
SEQEND
  5
7B0
330
7AD
100
AcDbEntity
  8
BEMAßUNG
  0
POLYLINE
  5
7B1
330
1F
100
AcDbEntity
  8
BEMAßUNG
 62
     7
100
AcDb2dPolyline
 66
     1
 10
0.0
 20
0.0
 30
0.0
  0
VERTEX
  5
7B2
330
7B1
100
AcDbEntity
  8
BEMAßUNG
 62
     7
100
AcDbVertex
100
AcDb2dVertex
 10
102.6273274483015
 20
223.2483886160629
 30
0.0
  0
VERTEX
  5
7B3
330
7B1
100
AcDbEntity
  8
BEMAßUNG
 62
     7
100
AcDbVertex
100
AcDb2dVertex
 10
105.6548773607391
 20
223.9775430755161
 30
0.0
  0
SEQEND
  5
7B4
330
7B1
100
AcDbEntity
  8
BEMAßUNG
  0
POLYLINE
  5
7B5
330
1F
100
AcDbEntity
  8
BEMAßUNG
 62
     7
100
AcDb2dPolyline
 66
     1
 10
0.0
 20
0.0
 30
0.0
  0
VERTEX
  5
7B6
330
7B5
100
AcDbEntity
  8
BEMAßUNG
 62
     7
100
AcDbVertex
100
AcDb2dVertex
 10
102.6152696141031
 20
223.297653481502
 30
0.0
  0
VERTEX
  5
7B7
330
7B5
100
AcDbEntity
  8
BEMAßUNG
 62
     7
100
AcDbVertex
100
AcDb2dVertex
 10
106.0181626796587
 20
224.1172416974429
 30
0.0
  0
SEQEND
  5
7B8
330
7B5
100
AcDbEntity
  8
BEMAßUNG
  0
POLYLINE
  5
7B9
330
1F
100
AcDbEntity
  8
BEMAßUNG
 62
     7
100
AcDb2dPolyline
 66
     1
 10
0.0
 20
0.0
 30
0.0
  0
VERTEX
  5
7BA
330
7B9
100
AcDbEntity
  8
BEMAßUNG
 62
     7
100
AcDbVertex
100
AcDb2dVertex
 10
89.66412215640342
 20
236.1081549160164
 30
0.0
  0
VERTEX
  5
7BB
330
7B9
100
AcDbEntity
  8
BEMAßUNG
 62
     7
100
AcDbVertex
100
AcDb2dVertex
 10
89.44673663128415
 20
232.5842528715415
 30
0.0
  0
VERTEX
  5
7BC
330
7B9
100
AcDbEntity
  8
BEMAßUNG
 62
     7
100
AcDbVertex
100
AcDb2dVertex
 10
90.36623261629734
 20
232.6481593927928
 30
0.0
  0
VERTEX
  5
7BD
330
7B9
100
AcDbEntity
  8
BEMAßUNG
 62
     7
100
AcDbVertex
100
AcDb2dVertex
 10
89.66412215640342
 20
236.1081549160164
 30
0.0
  0
SEQEND
  5
7BE
330
7B9
100
AcDbEntity
  8
BEMAßUNG
  0
POLYLINE
  5
7BF
330
1F
100
AcDbEntity
  8
BEMAßUNG
 62
     7
100
AcDb2dPolyline
 66
     1
 10
0.0
 20
0.0
 30
0.0
  0
VERTEX
  5
7C0
330
7BF
100
AcDbEntity
  8
BEMAßUNG
 62
     7
100
AcDbVertex
100
AcDb2dVertex
 10
89.45035398154367
 20
232.5849418906385
 30
0.0
  0
VERTEX
  5
7C1
330
7BF
100
AcDbEntity
  8
BEMAßUNG
 62
     7
100
AcDbVertex
100
AcDb2dVertex
 10
89.44863143380104
 20
232.612158144972
 30
0.0
  0
SEQEND
  5
7C2
330
7BF
100
AcDbEntity
  8
BEMAßUNG
  0
POLYLINE
  5
7C3
330
1F
100
AcDbEntity
  8
BEMAßUNG
 62
     7
100
AcDb2dPolyline
 66
     1
 10
0.0
 20
0.0
 30
0.0
  0
VERTEX
  5
7C4
330
7C3
100
AcDbEntity
  8
BEMAßUNG
 62
     7
100
AcDbVertex
100
AcDb2dVertex
 10
89.45035398154367
 20
232.5849418906385
 30
0.0
  0
VERTEX
  5
7C5
330
7C3
100
AcDbEntity
  8
BEMAßUNG
 62
     7
100
AcDbVertex
100
AcDb2dVertex
 10
89.44863143380104
 20
232.612158144972
 30
0.0
  0
SEQEND
  5
7C6
330
7C3
100
AcDbEntity
  8
BEMAßUNG
  0
POLYLINE
  5
7C7
330
1F
100
AcDbEntity
  8
BEMAßUNG
 62
     7
100
AcDb2dPolyline
 66
     1
 10
0.0
 20
0.0
 30
0.0
  0
VERTEX
  5
7C8
330
7C7
100
AcDbEntity
  8
BEMAßUNG
 62
     7
100
AcDbVertex
100
AcDb2dVertex
 10
89.5011691399511
 20
232.588559240898
 30
0.0
  0
VERTEX
  5
7C9
330
7C7
100
AcDbEntity
  8
BEMAßUNG
 62
     7
100
AcDbVertex
100
AcDb2dVertex
 10
89.472230337875
 20
233.0005926609339
 30
0.0
  0
SEQEND
  5
7CA
330
7C7
100
AcDbEntity
  8
BEMAßUNG
  0
POLYLINE
  5
7CB
330
1F
100
AcDbEntity
  8
BEMAßUNG
 62
     7
100
AcDb2dPolyline
 66
     1
 10
0.0
 20
0.0
 30
0.0
  0
VERTEX
  5
7CC
330
7CB
100
AcDbEntity
  8
BEMAßUNG
 62
     7
100
AcDbVertex
100
AcDb2dVertex
 10
89.55129527926148
 20
232.5920043363833
 30
0.0
  0
VERTEX
  5
7CD
330
7CB
100
AcDbEntity
  8
BEMAßUNG
 62
     7
100
AcDbVertex
100
AcDb2dVertex
 10
89.4961737514975
 20
233.3890271768958
 30
0.0
  0
SEQEND
  5
7CE
330
7CB
100
AcDbEntity
  8
BEMAßUNG
  0
POLYLINE
  5
7CF
330
1F
100
AcDbEntity
  8
BEMAßUNG
 62
     7
100
AcDb2dPolyline
 66
     1
 10
0.0
 20
0.0
 30
0.0
  0
VERTEX
  5
7D0
330
7CF
100
AcDbEntity
  8
BEMAßUNG
 62
     7
100
AcDbVertex
100
AcDb2dVertex
 10
89.60211043766893
 20
232.5956216866428
 30
0.0
  0
VERTEX
  5
7D1
330
7CF
100
AcDbEntity
  8
BEMAßUNG
 62
     7
100
AcDbVertex
100
AcDb2dVertex
 10
89.5204616746685
 20
233.7772894380835
 30
0.0
  0
SEQEND
  5
7D2
330
7CF
100
AcDbEntity
  8
BEMAßUNG
  0
POLYLINE
  5
7D3
330
1F
100
AcDbEntity
  8
BEMAßUNG
 62
     7
100
AcDb2dPolyline
 66
     1
 10
0.0
 20
0.0
 30
0.0
  0
VERTEX
  5
7D4
330
7D3
100
AcDbEntity
  8
BEMAßUNG
 62
     7
100
AcDbVertex
100
AcDb2dVertex
 10
89.65275334130209
 20
232.599066782128
 30
0.0
  0
VERTEX
  5
7D5
330
7D3
100
AcDbEntity
  8
BEMAßUNG
 62
     7
100
AcDbVertex
100
AcDb2dVertex
 10
89.54423283351673
 20
234.1658962088196
 30
0.0
  0
SEQEND
  5
7D6
330
7D3
100
AcDbEntity
  8
BEMAßUNG
  0
POLYLINE
  5
7D7
330
1F
100
AcDbEntity
  8
BEMAßUNG
 62
     7
100
AcDb2dPolyline
 66
     1
 10
0.0
 20
0.0
 30
0.0
  0
VERTEX
  5
7D8
330
7D7
100
AcDbEntity
  8
BEMAßUNG
 62
     7
100
AcDbVertex
100
AcDb2dVertex
 10
89.70356849970953
 20
232.6025118776133
 30
0.0
  0
VERTEX
  5
7D9
330
7D7
100
AcDbEntity
  8
BEMAßUNG
 62
     7
100
AcDbVertex
100
AcDb2dVertex
 10
89.5681762471392
 20
234.5541584700073
 30
0.0
  0
SEQEND
  5
7DA
330
7D7
100
AcDbEntity
  8
BEMAßUNG
  0
POLYLINE
  5
7DB
330
1F
100
AcDbEntity
  8
BEMAßUNG
 62
     7
100
AcDb2dPolyline
 66
     1
 10
0.0
 20
0.0
 30
0.0
  0
VERTEX
  5
7DC
330
7DB
100
AcDbEntity
  8
BEMAßUNG
 62
     7
100
AcDbVertex
100
AcDb2dVertex
 10
89.75438365811696
 20
232.6057847183243
 30
0.0
  0
VERTEX
  5
7DD
330
7DB
100
AcDbEntity
  8
BEMAßUNG
 62
     7
100
AcDbVertex
100
AcDb2dVertex
 10
89.59246417031022
 20
234.9425929859692
 30
0.0
  0
SEQEND
  5
7DE
330
7DB
100
AcDbEntity
  8
BEMAßUNG
  0
POLYLINE
  5
7DF
330
1F
100
AcDbEntity
  8
BEMAßUNG
 62
     7
100
AcDb2dPolyline
 66
     1
 10
0.0
 20
0.0
 30
0.0
  0
VERTEX
  5
7E0
330
7DF
100
AcDbEntity
  8
BEMAßUNG
 62
     7
100
AcDbVertex
100
AcDb2dVertex
 10
89.80450979742734
 20
232.6094020685838
 30
0.0
  0
VERTEX
  5
7E1
330
7DF
100
AcDbEntity
  8
BEMAßUNG
 62
     7
100
AcDbVertex
100
AcDb2dVertex
 10
89.61657983870697
 20
235.3313720114797
 30
0.0
  0
SEQEND
  5
7E2
330
7DF
100
AcDbEntity
  8
BEMAßUNG
  0
POLYLINE
  5
7E3
330
1F
100
AcDbEntity
  8
BEMAßUNG
 62
     7
100
AcDb2dPolyline
 66
     1
 10
0.0
 20
0.0
 30
0.0
  0
VERTEX
  5
7E4
330
7E3
100
AcDbEntity
  8
BEMAßUNG
 62
     7
100
AcDbVertex
100
AcDb2dVertex
 10
89.85566946538331
 20
232.612847164069
 30
0.0
  0
VERTEX
  5
7E5
330
7E3
100
AcDbEntity
  8
BEMAßUNG
 62
     7
100
AcDbVertex
100
AcDb2dVertex
 10
89.64017874278093
 20
235.7198065274416
 30
0.0
  0
SEQEND
  5
7E6
330
7E3
100
AcDbEntity
  8
BEMAßUNG
  0
POLYLINE
  5
7E7
330
1F
100
AcDbEntity
  8
BEMAßUNG
 62
     7
100
AcDb2dPolyline
 66
     1
 10
0.0
 20
0.0
 30
0.0
  0
VERTEX
  5
7E8
330
7E7
100
AcDbEntity
  8
BEMAßUNG
 62
     7
100
AcDbVertex
100
AcDb2dVertex
 10
89.90648462379075
 20
232.6159477500057
 30
0.0
  0
VERTEX
  5
7E9
330
7E7
100
AcDbEntity
  8
BEMAßUNG
 62
     7
100
AcDbVertex
100
AcDb2dVertex
 10
89.66412215640342
 20
236.1081549160164
 30
0.0
  0
SEQEND
  5
7EA
330
7E7
100
AcDbEntity
  8
BEMAßUNG
  0
POLYLINE
  5
7EB
330
1F
100
AcDbEntity
  8
BEMAßUNG
 62
     7
100
AcDb2dPolyline
 66
     1
 10
0.0
 20
0.0
 30
0.0
  0
VERTEX
  5
7EC
330
7EB
100
AcDbEntity
  8
BEMAßUNG
 62
     7
100
AcDbVertex
100
AcDb2dVertex
 10
90.36261526603782
 20
232.6481593927928
 30
0.0
  0
VERTEX
  5
7ED
330
7EB
100
AcDbEntity
  8
BEMAßUNG
 62
     7
100
AcDbVertex
100
AcDb2dVertex
 10
90.36020369919815
 20
232.675203392352
 30
0.0
  0
SEQEND
  5
7EE
330
7EB
100
AcDbEntity
  8
BEMAßUNG
  0
POLYLINE
  5
7EF
330
1F
100
AcDbEntity
  8
BEMAßUNG
 62
     7
100
AcDb2dPolyline
 66
     1
 10
0.0
 20
0.0
 30
0.0
  0
VERTEX
  5
7F0
330
7EF
100
AcDbEntity
  8
BEMAßUNG
 62
     7
100
AcDbVertex
100
AcDb2dVertex
 10
90.36261526603782
 20
232.6481593927928
 30
0.0
  0
VERTEX
  5
7F1
330
7EF
100
AcDbEntity
  8
BEMAßUNG
 62
     7
100
AcDbVertex
100
AcDb2dVertex
 10
90.36020369919815
 20
232.675203392352
 30
0.0
  0
SEQEND
  5
7F2
330
7EF
100
AcDbEntity
  8
BEMAßUNG
  0
POLYLINE
  5
7F3
330
1F
100
AcDbEntity
  8
BEMAßUNG
 62
     7
100
AcDb2dPolyline
 66
     1
 10
0.0
 20
0.0
 30
0.0
  0
VERTEX
  5
7F4
330
7F3
100
AcDbEntity
  8
BEMAßUNG
 62
     7
100
AcDbVertex
100
AcDb2dVertex
 10
90.31180010763039
 20
232.6445420425333
 30
0.0
  0
VERTEX
  5
7F5
330
7F3
100
AcDbEntity
  8
BEMAßUNG
 62
     7
100
AcDbVertex
100
AcDb2dVertex
 10
90.28286130555429
 20
233.0565754625692
 30
0.0
  0
SEQEND
  5
7F6
330
7F3
100
AcDbEntity
  8
BEMAßUNG
  0
POLYLINE
  5
7F7
330
1F
100
AcDbEntity
  8
BEMAßUNG
 62
     7
100
AcDb2dPolyline
 66
     1
 10
0.0
 20
0.0
 30
0.0
  0
VERTEX
  5
7F8
330
7F7
100
AcDbEntity
  8
BEMAßUNG
 62
     7
100
AcDbVertex
100
AcDb2dVertex
 10
90.26098494922296
 20
232.6410969470481
 30
0.0
  0
VERTEX
  5
7F9
330
7F7
100
AcDbEntity
  8
BEMAßUNG
 62
     7
100
AcDbVertex
100
AcDb2dVertex
 10
90.20569116668469
 20
233.4379475327864
 30
0.0
  0
SEQEND
  5
7FA
330
7F7
100
AcDbEntity
  8
BEMAßUNG
  0
POLYLINE
  5
7FB
330
1F
100
AcDbEntity
  8
BEMAßUNG
 62
     7
100
AcDb2dPolyline
 66
     1
 10
0.0
 20
0.0
 30
0.0
  0
VERTEX
  5
7FC
330
7FB
100
AcDbEntity
  8
BEMAßUNG
 62
     7
100
AcDbVertex
100
AcDb2dVertex
 10
90.21016979081551
 20
232.6376518515628
 30
0.0
  0
VERTEX
  5
7FD
330
7FB
100
AcDbEntity
  8
BEMAßUNG
 62
     7
100
AcDbVertex
100
AcDb2dVertex
 10
90.12869328258935
 20
233.818975093455
 30
0.0
  0
SEQEND
  5
7FE
330
7FB
100
AcDbEntity
  8
BEMAßUNG
  0
POLYLINE
  5
7FF
330
1F
100
AcDbEntity
  8
BEMAßUNG
 62
     7
100
AcDb2dPolyline
 66
     1
 10
0.0
 20
0.0
 30
0.0
  0
VERTEX
  5
800
330
7FF
100
AcDbEntity
  8
BEMAßUNG
 62
     7
100
AcDbVertex
100
AcDb2dVertex
 10
90.15969914195661
 20
232.6336899917548
 30
0.0
  0
VERTEX
  5
801
330
7FF
100
AcDbEntity
  8
BEMAßUNG
 62
     7
100
AcDbVertex
100
AcDb2dVertex
 10
90.05083412462271
 20
234.2006916732207
 30
0.0
  0
SEQEND
  5
802
330
7FF
100
AcDbEntity
  8
BEMAßUNG
  0
POLYLINE
  5
803
330
1F
100
AcDbEntity
  8
BEMAßUNG
 62
     7
100
AcDb2dPolyline
 66
     1
 10
0.0
 20
0.0
 30
0.0
  0
VERTEX
  5
804
330
803
100
AcDbEntity
  8
BEMAßUNG
 62
     7
100
AcDbVertex
100
AcDb2dVertex
 10
90.10905623832343
 20
232.6300726414953
 30
0.0
  0
VERTEX
  5
805
330
803
100
AcDbEntity
  8
BEMAßUNG
 62
     7
100
AcDbVertex
100
AcDb2dVertex
 10
89.97349173097885
 20
234.5820637434378
 30
0.0
  0
SEQEND
  5
806
330
803
100
AcDbEntity
  8
BEMAßUNG
  0
POLYLINE
  5
807
330
1F
100
AcDbEntity
  8
BEMAßUNG
 62
     7
100
AcDb2dPolyline
 66
     1
 10
0.0
 20
0.0
 30
0.0
  0
VERTEX
  5
808
330
807
100
AcDbEntity
  8
BEMAßUNG
 62
     7
100
AcDbVertex
100
AcDb2dVertex
 10
90.058241079916
 20
232.62662754601
 30
0.0
  0
VERTEX
  5
809
330
807
100
AcDbEntity
  8
BEMAßUNG
 62
     7
100
AcDbVertex
100
AcDb2dVertex
 10
89.89632159210926
 20
234.963435813655
 30
0.0
  0
SEQEND
  5
80A
330
807
100
AcDbEntity
  8
BEMAßUNG
  0
POLYLINE
  5
80B
330
1F
100
AcDbEntity
  8
BEMAßUNG
 62
     7
100
AcDb2dPolyline
 66
     1
 10
0.0
 20
0.0
 30
0.0
  0
VERTEX
  5
80C
330
80B
100
AcDbEntity
  8
BEMAßUNG
 62
     7
100
AcDbVertex
100
AcDb2dVertex
 10
90.00742592150857
 20
232.6231824505248
 30
0.0
  0
VERTEX
  5
80D
330
80B
100
AcDbEntity
  8
BEMAßUNG
 62
     7
100
AcDbVertex
100
AcDb2dVertex
 10
89.8189791984654
 20
235.3451523934207
 30
0.0
  0
SEQEND
  5
80E
330
80B
100
AcDbEntity
  8
BEMAßUNG
  0
POLYLINE
  5
80F
330
1F
100
AcDbEntity
  8
BEMAßUNG
 62
     7
100
AcDb2dPolyline
 66
     1
 10
0.0
 20
0.0
 30
0.0
  0
VERTEX
  5
810
330
80F
100
AcDbEntity
  8
BEMAßUNG
 62
     7
100
AcDbVertex
100
AcDb2dVertex
 10
89.95661076310112
 20
232.6195651002652
 30
0.0
  0
VERTEX
  5
811
330
80F
100
AcDbEntity
  8
BEMAßUNG
 62
     7
100
AcDbVertex
100
AcDb2dVertex
 10
89.74215356914432
 20
235.7265244636378
 30
0.0
  0
SEQEND
  5
812
330
80F
100
AcDbEntity
  8
BEMAßUNG
  0
POLYLINE
  5
813
330
1F
100
AcDbEntity
  8
BEMAßUNG
 62
     7
100
AcDb2dPolyline
 66
     1
 10
0.0
 20
0.0
 30
0.0
  0
VERTEX
  5
814
330
813
100
AcDbEntity
  8
BEMAßUNG
 62
     7
100
AcDbVertex
100
AcDb2dVertex
 10
89.90648462379075
 20
232.6159477500057
 30
0.0
  0
VERTEX
  5
815
330
813
100
AcDbEntity
  8
BEMAßUNG
 62
     7
100
AcDbVertex
100
AcDb2dVertex
 10
89.66412215640342
 20
236.1081549160164
 30
0.0
  0
SEQEND
  5
816
330
813
100
AcDbEntity
  8
BEMAßUNG
  0
MTEXT
  5
818
330
1F
100
AcDbEntity
  8
TEXT
 62
     7
100
AcDbMText
 10
38.87583549375326
 20
189.6158161960856
 30
0.0
 40
3.311186211711877
 41
0.0
 71
     7
 72
     1
  1
\fINDEX Univers 45 Light|b0|i0|c0|p34;\W1;26,8
  0
MTEXT
  5
819
330
1F
100
AcDbEntity
  8
TEXT
 62
     7
100
AcDbMText
 10
123.4749782677424
 20
256.970705773431
 30
0.0
 40
3.311186211711877
 41
0.0
 71
     7
 72
     1
  1
\fINDEX Univers 45 Light|b0|i0|c0|p34;\W1;45
  0
MTEXT
  5
81A
330
1F
100
AcDbEntity
  8
TEXT
 62
     7
100
AcDbMText
 10
81.99258352984909
 20
214.9808484705603
 30
0.0
 40
3.311186211711877
 41
0.0
 71
     7
 72
     1
  1
\fINDEX Univers 45 Light|b0|i0|c0|p34;\W1;36
 11
-4.371139000186241E-8
 21
0.999999999999999
 31
0.0
  0
MTEXT
  5
81B
330
1F
100
AcDbEntity
  8
TEXT
 62
     7
100
AcDbMText
 10
88.18152531432615
 20
251.8927211555598
 30
0.0
 40
3.311185067832516
 41
0.0
 71
     7
 72
     1
  1
\fINDEX Univers 45 Light|b0|i0|c0|p34;\W1;35°
 11
0.8646324907794956
 21
0.5024048724768159
 31
0.0
  0
MTEXT
  5
81C
330
1F
100
AcDbEntity
  8
TEXT
 62
     7
100
AcDbMText
 10
91.33017033307024
 20
231.214396779219
 30
0.0
 40
3.311186211711877
 41
0.0
 71
     7
 72
     1
  1
\fINDEX Univers 45 Light|b0|i0|c0|p34;\W1;107,5°
 11
0.7999364819487911
 21
-0.6000846813970436
 31
0.0
  0
ENDSEC
  0
SECTION
  2
OBJECTS
  0
DICTIONARY
  5
C
330
0
100
AcDbDictionary
  3
ACAD_GROUP
350
D
  3
ACAD_LAYOUT
350
1A
  3
ACAD_MLINESTYLE
350
17
  3
ACAD_PLOTSETTINGS
350
19
  3
ACAD_TABLESTYLE
350
83D
  3
ACAD_VISUALSTYLE
350
2A
  3
ACDBHEADERROUNDTRIPXREC
350
81D
  0
DICTIONARY
  5
D
102
{ACAD_REACTORS
330
C
102
}
330
C
100
AcDbDictionary
  0
DICTIONARY
  5
1A
102
{ACAD_REACTORS
330
C
102
}
330
C
100
AcDbDictionary
  0
DICTIONARY
  5
17
102
{ACAD_REACTORS
330
C
102
}
330
C
100
AcDbDictionary
  3
STANDARD
350
18
  0
DICTIONARY
  5
19
102
{ACAD_REACTORS
330
C
102
}
330
C
100
AcDbDictionary
  0
DICTIONARY
  5
83D
102
{ACAD_REACTORS
330
C
102
}
330
C
100
AcDbDictionary
  0
DICTIONARY
  5
2A
102
{ACAD_REACTORS
330
C
102
}
330
C
100
AcDbDictionary
  3
2DWIREFRAME
350
2F
  3
3D_HIDDEN
350
31
  3
3DWIREFRAME
350
30
  3
BASIC
350
32
  3
BRIGHTEN
350
36
  3
COLORCHANGE
350
3A
  3
CONCEPTUAL
350
34
  3
DIM
350
35
  3
FACEPATTERN
350
39
  3
FLAT
350
2B
  3
FLATWITHEDGES
350
2C
  3
GOURAUD
350
2D
  3
GOURAUDWITHEDGES
350
2E
  3
LINEPATTERN
350
38
  3
REALISTIC
350
33
  3
THICKEN
350
37
  0
DICTIONARY
  5
81D
102
{ACAD_REACTORS
330
C
102
}
330
C
100
AcDbDictionary
  3
CEPSNTYPE
350
826
  3
DIMSTYLEDATA
350
83C
  3
FINGERPRINTGUID
350
827
  3
HYPERLINKBASE
350
820
  3
INSUNITS
350
825
  3
LAYOUTDICT
350
822
  3
LWETCUNION
350
824
  3
PLOTSETDICT
350
823
  3
PSVPSCALE
350
829
  3
PUCSBASE
350
82C
  3
PUCSORGBACK
350
832
  3
PUCSORGBOTTOM
350
82E
  3
PUCSORGFRONT
350
831
  3
PUCSORGLEFT
350
82F
  3
PUCSORGRIGHT
350
830
  3
PUCSORGTOP
350
82D
  3
PUCSORTHOREF
350
82A
  3
PUCSORTHOVIEW
350
82B
  3
STYLESHEET
350
821
  3
TSTACKALIGN
350
81E
  3
TSTACKSIZE
350
81F
  3
UCSBASE
350
835
  3
UCSORGBACK
350
83B
  3
UCSORGBOTTOM
350
837
  3
UCSORGFRONT
350
83A
  3
UCSORGLEFT
350
838
  3
UCSORGRIGHT
350
839
  3
UCSORGTOP
350
836
  3
UCSORTHOREF
350
833
  3
UCSORTHOVIEW
350
834
  3
VERSIONGUID
350
828
  0
MLINESTYLE
  5
18
102
{ACAD_REACTORS
330
17
102
}
330
17
100
AcDbMlineStyle
  2
Standard
 70
     0
  3

 62
   256
 51
90.0
 52
90.0
 71
     2
 49
0.5
 62
   256
  6
BYLAYER
 49
-0.5
 62
   256
  6
BYLAYER
  0
VISUALSTYLE
  5
2F
102
{ACAD_REACTORS
330
2A
102
}
330
2A
100
AcDbVisualStyle
  2
2dWireframe
 70
     4
 71
     0
 72
     2
 73
     0
 90
        0
 40
-0.6
 41
-30.0
 62
     5
 63
     7
 74
     1
 91
        4
 64
     7
 65
   257
 75
     1
175
     1
 42
1.0
 92
        0
 66
   257
 43
1.0
 76
     1
 77
     6
 78
     2
 67
     7
 79
     5
170
     0
171
     0
290
     0
174
     0
 93
        1
 44
0.0
173
     0
291
     0
 45
0.0
1001
ACAD
1000
AcDbSavedByObjectVersion
1070
     0
  0
VISUALSTYLE
  5
31
102
{ACAD_REACTORS
330
2A
102
}
330
2A
100
AcDbVisualStyle
  2
3D Hidden
 70
     6
 71
     1
 72
     2
 73
     2
 90
        0
 40
-0.6
 41
-30.0
 62
     5
 63
     7
 74
     2
 91
        2
 64
     7
 65
   257
 75
     2
175
     1
 42
40.0
 92
        0
 66
   257
 43
1.0
 76
     1
 77
     6
 78
     2
 67
     7
 79
     3
170
     0
171
     0
290
     0
174
     0
 93
        1
 44
0.0
173
     0
291
     0
 45
0.0
1001
ACAD
1000
AcDbSavedByObjectVersion
1070
     0
  0
VISUALSTYLE
  5
30
102
{ACAD_REACTORS
330
2A
102
}
330
2A
100
AcDbVisualStyle
  2
3dWireframe
 70
     5
 71
     0
 72
     2
 73
     0
 90
        0
 40
-0.6
 41
-30.0
 62
     5
 63
     7
 74
     1
 91
        4
 64
     7
 65
   257
 75
     1
175
     1
 42
1.0
 92
        0
 66
   257
 43
1.0
 76
     1
 77
     6
 78
     2
 67
     7
 79
     5
170
     0
171
     0
290
     0
174
     0
 93
        1
 44
0.0
173
     0
291
     0
 45
0.0
1001
ACAD
1000
AcDbSavedByObjectVersion
1070
     0
  0
VISUALSTYLE
  5
32
102
{ACAD_REACTORS
330
2A
102
}
330
2A
100
AcDbVisualStyle
  2
Basic
 70
     7
 71
     1
 72
     0
 73
     1
 90
        0
 40
-0.6
 41
-30.0
 62
     5
 63
     7
 74
     0
 91
        4
 64
     7
 65
   257
 75
     1
175
     1
 42
1.0
 92
        8
 66
     7
 43
1.0
 76
     1
 77
     6
 78
     2
 67
     7
 79
     5
170
     0
171
     0
290
     0
174
     0
 93
        1
 44
0.0
173
     0
291
     1
 45
0.0
1001
ACAD
1000
AcDbSavedByObjectVersion
1070
     0
  0
VISUALSTYLE
  5
36
102
{ACAD_REACTORS
330
2A
102
}
330
2A
100
AcDbVisualStyle
  2
Brighten
 70
    12
 71
     2
 72
     2
 73
     0
 90
        0
 40
-0.6
 41
-30.0
 62
     5
 63
     7
 74
     1
 91
        4
 64
     7
 65
   257
 75
     1
175
     1
 42
1.0
 92
        8
 66
     7
 43
1.0
 76
     1
 77
     6
 78
     2
 67
     7
 79
     5
170
     0
171
     0
290
     0
174
     0
 93
        1
 44
50.0
173
     0
291
     1
 45
0.0
1001
ACAD
1000
AcDbSavedByObjectVersion
1070
     0
  0
VISUALSTYLE
  5
3A
102
{ACAD_REACTORS
330
2A
102
}
330
2A
100
AcDbVisualStyle
  2
ColorChange
 70
    16
 71
     2
 72
     2
 73
     3
 90
        0
 40
-0.6
 41
-30.0
 62
     5
 63
     8
 74
     1
 91
        4
 64
     7
 65
   257
 75
     1
175
     1
 42
1.0
 92
        8
 66
     8
 43
1.0
 76
     1
 77
     6
 78
     2
 67
     7
 79
     5
170
     0
171
     0
290
     0
174
     0
 93
        1
 44
0.0
173
     0
291
     1
 45
0.0
1001
ACAD
1000
AcDbSavedByObjectVersion
1070
     0
  0
VISUALSTYLE
  5
34
102
{ACAD_REACTORS
330
2A
102
}
330
2A
100
AcDbVisualStyle
  2
Conceptual
 70
     9
 71
     3
 72
     2
 73
     0
 90
        0
 40
-0.6
 41
-30.0
 62
     5
 63
     7
 74
     2
 91
        2
 64
     7
 65
   257
 75
     1
175
     1
 42
40.0
 92
        8
 66
     7
 43
1.0
 76
     1
 77
     6
 78
     2
 67
     7
 79
     3
170
     0
171
     0
290
     0
174
     0
 93
        1
 44
0.0
173
     0
291
     0
 45
0.0
1001
ACAD
1000
AcDbSavedByObjectVersion
1070
     0
  0
VISUALSTYLE
  5
35
102
{ACAD_REACTORS
330
2A
102
}
330
2A
100
AcDbVisualStyle
  2
Dim
 70
    11
 71
     2
 72
     2
 73
     0
 90
        0
 40
-0.6
 41
-30.0
 62
     5
 63
     7
 74
     1
 91
        4
 64
     7
 65
   257
 75
     1
175
     1
 42
1.0
 92
        8
 66
     7
 43
1.0
 76
     1
 77
     6
 78
     2
 67
     7
 79
     5
170
     0
171
     0
290
     0
174
     0
 93
        1
 44
-50.0
173
     0
291
     1
 45
0.0
1001
ACAD
1000
AcDbSavedByObjectVersion
1070
     0
  0
VISUALSTYLE
  5
39
102
{ACAD_REACTORS
330
2A
102
}
330
2A
100
AcDbVisualStyle
  2
Facepattern
 70
    15
 71
     2
 72
     2
 73
     0
 90
        0
 40
-0.6
 41
-30.0
 62
     5
 63
     7
 74
     1
 91
        4
 64
     7
 65
   257
 75
     1
175
     1
 42
1.0
 92
        8
 66
     7
 43
1.0
 76
     1
 77
     6
 78
     2
 67
     7
 79
     5
170
     0
171
     0
290
     0
174
     0
 93
        1
 44
0.0
173
     0
291
     1
 45
0.0
1001
ACAD
1000
AcDbSavedByObjectVersion
1070
     0
  0
VISUALSTYLE
  5
2B
102
{ACAD_REACTORS
330
2A
102
}
330
2A
100
AcDbVisualStyle
  2
Flat
 70
     0
 71
     2
 72
     1
 73
     1
 90
        2
 40
-0.6
 41
30.0
 62
     5
 63
     7
 74
     0
 91
        4
 64
     7
 65
   257
 75
     1
175
     1
 42
1.0
 92
        8
 66
     7
 43
1.0
 76
     1
 77
     6
 78
     2
 67
     7
 79
     5
170
     0
171
     0
290
     0
174
     0
 93
       13
 44
0.0
173
     0
291
     1
 45
0.0
1001
ACAD
1000
AcDbSavedByObjectVersion
1070
     0
  0
VISUALSTYLE
  5
2C
102
{ACAD_REACTORS
330
2A
102
}
330
2A
100
AcDbVisualStyle
  2
FlatWithEdges
 70
     1
 71
     2
 72
     1
 73
     1
 90
        2
 40
-0.6
 41
30.0
 62
     5
 63
     7
 74
     1
 91
        4
 64
     7
 65
   257
 75
     1
175
     1
 42
1.0
 92
        0
 66
   257
 43
1.0
 76
     1
 77
     6
 78
     2
 67
     7
 79
     5
170
     0
171
     0
290
     0
174
     0
 93
       13
 44
0.0
173
     0
291
     1
 45
0.0
1001
ACAD
1000
AcDbSavedByObjectVersion
1070
     0
  0
VISUALSTYLE
  5
2D
102
{ACAD_REACTORS
330
2A
102
}
330
2A
100
AcDbVisualStyle
  2
Gouraud
 70
     2
 71
     2
 72
     2
 73
     1
 90
        2
 40
-0.6
 41
30.0
 62
     5
 63
     7
 74
     0
 91
        4
 64
     7
 65
   257
 75
     1
175
     1
 42
1.0
 92
        0
 66
     7
 43
1.0
 76
     1
 77
     6
 78
     2
 67
     7
 79
     5
170
     0
171
     0
290
     0
174
     0
 93
       13
 44
0.0
173
     0
291
     1
 45
0.0
1001
ACAD
1000
AcDbSavedByObjectVersion
1070
     0
  0
VISUALSTYLE
  5
2E
102
{ACAD_REACTORS
330
2A
102
}
330
2A
100
AcDbVisualStyle
  2
GouraudWithEdges
 70
     3
 71
     2
 72
     2
 73
     1
 90
        2
 40
-0.6
 41
30.0
 62
     5
 63
     7
 74
     1
 91
        4
 64
     7
 65
   257
 75
     1
175
     1
 42
1.0
 92
        0
 66
   257
 43
1.0
 76
     1
 77
     6
 78
     2
 67
     7
 79
     5
170
     0
171
     0
290
     0
174
     0
 93
       13
 44
0.0
173
     0
291
     1
 45
0.0
1001
ACAD
1000
AcDbSavedByObjectVersion
1070
     0
  0
VISUALSTYLE
  5
38
102
{ACAD_REACTORS
330
2A
102
}
330
2A
100
AcDbVisualStyle
  2
Linepattern
 70
    14
 71
     2
 72
     2
 73
     0
 90
        0
 40
-0.6
 41
-30.0
 62
     5
 63
     7
 74
     1
 91
        4
 64
     7
 65
   257
 75
     7
175
     7
 42
1.0
 92
        8
 66
     7
 43
1.0
 76
     1
 77
     6
 78
     2
 67
     7
 79
     5
170
     0
171
     0
290
     0
174
     0
 93
        1
 44
0.0
173
     0
291
     1
 45
0.0
1001
ACAD
1000
AcDbSavedByObjectVersion
1070
     0
  0
VISUALSTYLE
  5
33
102
{ACAD_REACTORS
330
2A
102
}
330
2A
100
AcDbVisualStyle
  2
Realistic
 70
     8
 71
     2
 72
     2
 73
     0
 90
        0
 40
-0.6
 41
-30.0
 62
     5
 63
     7
 74
     1
 91
        0
 64
     7
 65
   257
 75
     1
175
     1
 42
1.0
 92
        8
 66
     8
 43
1.0
 76
     1
 77
     6
 78
     2
 67
     7
 79
     5
170
     0
171
     0
290
     0
174
     0
 93
       13
 44
0.0
173
     0
291
     0
 45
0.0
1001
ACAD
1000
AcDbSavedByObjectVersion
1070
     0
  0
VISUALSTYLE
  5
37
102
{ACAD_REACTORS
330
2A
102
}
330
2A
100
AcDbVisualStyle
  2
Thicken
 70
    13
 71
     2
 72
     2
 73
     0
 90
        0
 40
-0.6
 41
-30.0
 62
     5
 63
     7
 74
     1
 91
        4
 64
     7
 65
   257
 75
     1
175
     1
 42
1.0
 92
       12
 66
     7
 43
1.0
 76
     1
 77
     6
 78
     2
 67
     7
 79
     5
170
     0
171
     0
290
     0
174
     0
 93
        1
 44
0.0
173
     0
291
     1
 45
0.0
1001
ACAD
1000
AcDbSavedByObjectVersion
1070
     0
  0
XRECORD
  5
826
102
{ACAD_REACTORS
330
81D
102
}
330
81D
100
AcDbXrecord
 90
        0
  0
XRECORD
  5
83C
102
{ACAD_REACTORS
330
81D
102
}
330
81D
100
AcDbXrecord
1000
DSTYLE
1002
{
1070
   340
340
11
1002
}
  0
XRECORD
  5
827
102
{ACAD_REACTORS
330
81D
102
}
330
81D
100
AcDbXrecord
  1
{8B6CB2C4-A54D-44BE-856E-B1D7A29F945A}
  0
XRECORD
  5
820
102
{ACAD_REACTORS
330
81D
102
}
330
81D
100
AcDbXrecord
  1

  0
XRECORD
  5
825
102
{ACAD_REACTORS
330
81D
102
}
330
81D
100
AcDbXrecord
 90
        1
  0
XRECORD
  5
822
102
{ACAD_REACTORS
330
81D
102
}
330
81D
100
AcDbXrecord
340
1A
  0
XRECORD
  5
824
102
{ACAD_REACTORS
330
81D
102
}
330
81D
100
AcDbXrecord
 90
    10269
  0
XRECORD
  5
823
102
{ACAD_REACTORS
330
81D
102
}
330
81D
100
AcDbXrecord
340
19
  0
XRECORD
  5
829
102
{ACAD_REACTORS
330
81D
102
}
330
81D
100
AcDbXrecord
 40
0.0
  0
XRECORD
  5
82C
102
{ACAD_REACTORS
330
81D
102
}
330
81D
100
AcDbXrecord
340
0
  0
XRECORD
  5
832
102
{ACAD_REACTORS
330
81D
102
}
330
81D
100
AcDbXrecord
 10
0.0
 20
0.0
 30
0.0
  0
XRECORD
  5
82E
102
{ACAD_REACTORS
330
81D
102
}
330
81D
100
AcDbXrecord
 10
0.0
 20
0.0
 30
0.0
  0
XRECORD
  5
831
102
{ACAD_REACTORS
330
81D
102
}
330
81D
100
AcDbXrecord
 10
0.0
 20
0.0
 30
0.0
  0
XRECORD
  5
82F
102
{ACAD_REACTORS
330
81D
102
}
330
81D
100
AcDbXrecord
 10
0.0
 20
0.0
 30
0.0
  0
XRECORD
  5
830
102
{ACAD_REACTORS
330
81D
102
}
330
81D
100
AcDbXrecord
 10
0.0
 20
0.0
 30
0.0
  0
XRECORD
  5
82D
102
{ACAD_REACTORS
330
81D
102
}
330
81D
100
AcDbXrecord
 10
0.0
 20
0.0
 30
0.0
  0
XRECORD
  5
82A
102
{ACAD_REACTORS
330
81D
102
}
330
81D
100
AcDbXrecord
340
0
  0
XRECORD
  5
82B
102
{ACAD_REACTORS
330
81D
102
}
330
81D
100
AcDbXrecord
 70
     0
  0
XRECORD
  5
821
102
{ACAD_REACTORS
330
81D
102
}
330
81D
100
AcDbXrecord
  1

  0
XRECORD
  5
81E
102
{ACAD_REACTORS
330
81D
102
}
330
81D
100
AcDbXrecord
 90
        1
  0
XRECORD
  5
81F
102
{ACAD_REACTORS
330
81D
102
}
330
81D
100
AcDbXrecord
 90
       70
  0
XRECORD
  5
835
102
{ACAD_REACTORS
330
81D
102
}
330
81D
100
AcDbXrecord
340
0
  0
XRECORD
  5
83B
102
{ACAD_REACTORS
330
81D
102
}
330
81D
100
AcDbXrecord
 10
0.0
 20
0.0
 30
0.0
  0
XRECORD
  5
837
102
{ACAD_REACTORS
330
81D
102
}
330
81D
100
AcDbXrecord
 10
0.0
 20
0.0
 30
0.0
  0
XRECORD
  5
83A
102
{ACAD_REACTORS
330
81D
102
}
330
81D
100
AcDbXrecord
 10
0.0
 20
0.0
 30
0.0
  0
XRECORD
  5
838
102
{ACAD_REACTORS
330
81D
102
}
330
81D
100
AcDbXrecord
 10
0.0
 20
0.0
 30
0.0
  0
XRECORD
  5
839
102
{ACAD_REACTORS
330
81D
102
}
330
81D
100
AcDbXrecord
 10
0.0
 20
0.0
 30
0.0
  0
XRECORD
  5
836
102
{ACAD_REACTORS
330
81D
102
}
330
81D
100
AcDbXrecord
 10
0.0
 20
0.0
 30
0.0
  0
XRECORD
  5
833
102
{ACAD_REACTORS
330
81D
102
}
330
81D
100
AcDbXrecord
340
0
  0
XRECORD
  5
834
102
{ACAD_REACTORS
330
81D
102
}
330
81D
100
AcDbXrecord
 70
     0
  0
XRECORD
  5
828
102
{ACAD_REACTORS
330
81D
102
}
330
81D
100
AcDbXrecord
  1
{FAEB1C32-E019-11D5-929B-00C0DF256EC4}
  0
ENDSEC
  0
EOF
