  0
SECTION
  2
HEADER
  9
$ACADVER
  1
AC1014
  9
$ACADMAINTVER
 70
     9
  9
$DWGCODEPAGE
  3
ASCII
  9
$INSBASE
 10
0.0
 20
0.0
 30
0.0
  9
$EXTMIN
 10
1.000000000000000E+20
 20
1.000000000000000E+20
 30
1.000000000000000E+20
  9
$EXTMAX
 10
-1.000000000000000E+20
 20
-1.000000000000000E+20
 30
-1.000000000000000E+20
  9
$LIMMIN
 10
0.0
 20
0.0
  9
$LIMMAX
 10
12.0
 20
9.0
  9
$ORTHOMODE
 70
     0
  9
$REGENMODE
 70
     1
  9
$FILLMODE
 70
     1
  9
$QTEXTMODE
 70
     0
  9
$MIRRTEXT
 70
     1
  9
$DRAGMODE
 70
     2
  9
$LTSCALE
 40
1.0
  9
$OSMODE
 70
    37
  9
$ATTMODE
 70
     1
  9
$TEXTSIZE
 40
0.2
  9
$TRACEWID
 40
0.05
  9
$TEXTSTYLE
  7
STANDARD
  9
$CLAYER
  8
0
  9
$CELTYPE
  6
BYLAYER
  9
$CECOLOR
 62
   256
  9
$CELTSCALE
 40
1.0
  9
$DELOBJ
 70
     1
  9
$DISPSILH
 70
     0
  9
$DIMSCALE
 40
1.0
  9
$DIMASZ
 40
0.18
  9
$DIMEXO
 40
0.0625
  9
$DIMDLI
 40
0.38
  9
$DIMRND
 40
0.0
  9
$DIMDLE
 40
0.0
  9
$DIMEXE
 40
0.18
  9
$DIMTP
 40
0.0
  9
$DIMTM
 40
0.0
  9
$DIMTXT
 40
0.18
  9
$DIMCEN
 40
0.09
  9
$DIMTSZ
 40
0.0
  9
$DIMTOL
 70
     0
  9
$DIMLIM
 70
     0
  9
$DIMTIH
 70
     1
  9
$DIMTOH
 70
     1
  9
$DIMSE1
 70
     0
  9
$DIMSE2
 70
     0
  9
$DIMTAD
 70
     0
  9
$DIMZIN
 70
     0
  9
$DIMBLK
  1

  9
$DIMASO
 70
     1
  9
$DIMSHO
 70
     1
  9
$DIMPOST
  1

  9
$DIMAPOST
  1

  9
$DIMALT
 70
     0
  9
$DIMALTD
 70
     2
  9
$DIMALTF
 40
25.4
  9
$DIMLFAC
 40
1.0
  9
$DIMTOFL
 70
     0
  9
$DIMTVP
 40
0.0
  9
$DIMTIX
 70
     0
  9
$DIMSOXD
 70
     0
  9
$DIMSAH
 70
     0
  9
$DIMBLK1
  1

  9
$DIMBLK2
  1

  9
$DIMSTYLE
  2
STANDARD
  9
$DIMCLRD
 70
     0
  9
$DIMCLRE
 70
     0
  9
$DIMCLRT
 70
     0
  9
$DIMTFAC
 40
1.0
  9
$DIMGAP
 40
0.09
  9
$DIMJUST
 70
     0
  9
$DIMSD1
 70
     0
  9
$DIMSD2
 70
     0
  9
$DIMTOLJ
 70
     1
  9
$DIMTZIN
 70
     0
  9
$DIMALTZ
 70
     0
  9
$DIMALTTZ
 70
     0
  9
$DIMFIT
 70
     3
  9
$DIMUPT
 70
     0
  9
$DIMUNIT
 70
     2
  9
$DIMDEC
 70
     4
  9
$DIMTDEC
 70
     4
  9
$DIMALTU
 70
     2
  9
$DIMALTTD
 70
     2
  9
$DIMTXSTY
  7
STANDARD
  9
$DIMAUNIT
 70
     0
  9
$LUNITS
 70
     2
  9
$LUPREC
 70
     4
  9
$SKETCHINC
 40
0.1
  9
$FILLETRAD
 40
0.5
  9
$AUNITS
 70
     0
  9
$AUPREC
 70
     0
  9
$MENU
  1
.
  9
$ELEVATION
 40
0.0
  9
$PELEVATION
 40
0.0
  9
$THICKNESS
 40
0.0
  9
$LIMCHECK
 70
     0
  9
$CHAMFERA
 40
0.5
  9
$CHAMFERB
 40
0.5
  9
$CHAMFERC
 40
1.0
  9
$CHAMFERD
 40
0.0
  9
$SKPOLY
 70
     0
  9
$TDCREATE
 40
2454882.535857581
  9
$TDUPDATE
 40
2454882.535857593
  9
$TDINDWG
 40
0.0000000116
  9
$TDUSRTIMER
 40
0.0000000116
  9
$USRTIMER
 70
     1
  9
$ANGBASE
 50
0.0
  9
$ANGDIR
 70
     0
  9
$PDMODE
 70
     0
  9
$PDSIZE
 40
0.0
  9
$PLINEWID
 40
0.0
  9
$COORDS
 70
     1
  9
$SPLFRAME
 70
     0
  9
$SPLINETYPE
 70
     6
  9
$SPLINESEGS
 70
     8
  9
$ATTDIA
 70
     0
  9
$ATTREQ
 70
     1
  9
$HANDLING
 70
     1
  9
$HANDSEED
  5
860
  9
$SURFTAB1
 70
     6
  9
$SURFTAB2
 70
     6
  9
$SURFTYPE
 70
     6
  9
$SURFU
 70
     6
  9
$SURFV
 70
     6
  9
$UCSNAME
  2

  9
$UCSORG
 10
0.0
 20
0.0
 30
0.0
  9
$UCSXDIR
 10
1.0
 20
0.0
 30
0.0
  9
$UCSYDIR
 10
0.0
 20
1.0
 30
0.0
  9
$PUCSNAME
  2

  9
$PUCSORG
 10
0.0
 20
0.0
 30
0.0
  9
$PUCSXDIR
 10
1.0
 20
0.0
 30
0.0
  9
$PUCSYDIR
 10
0.0
 20
1.0
 30
0.0
  9
$USERI1
 70
     0
  9
$USERI2
 70
     0
  9
$USERI3
 70
     0
  9
$USERI4
 70
     0
  9
$USERI5
 70
     0
  9
$USERR1
 40
0.0
  9
$USERR2
 40
0.0
  9
$USERR3
 40
0.0
  9
$USERR4
 40
0.0
  9
$USERR5
 40
0.0
  9
$WORLDVIEW
 70
     1
  9
$SHADEDGE
 70
     3
  9
$SHADEDIF
 70
    70
  9
$TILEMODE
 70
     1
  9
$MAXACTVP
 70
    64
  9
$PINSBASE
 10
0.0
 20
0.0
 30
0.0
  9
$PLIMCHECK
 70
     0
  9
$PEXTMIN
 10
1.000000000000000E+20
 20
1.000000000000000E+20
 30
1.000000000000000E+20
  9
$PEXTMAX
 10
-1.000000000000000E+20
 20
-1.000000000000000E+20
 30
-1.000000000000000E+20
  9
$PLIMMIN
 10
0.0
 20
0.0
  9
$PLIMMAX
 10
12.0
 20
9.0
  9
$UNITMODE
 70
     0
  9
$VISRETAIN
 70
     1
  9
$PLINEGEN
 70
     0
  9
$PSLTSCALE
 70
     1
  9
$TREEDEPTH
 70
  3020
  9
$PICKSTYLE
 70
     1
  9
$CMLSTYLE
  2
STANDARD
  9
$CMLJUST
 70
     0
  9
$CMLSCALE
 40
1.0
  9
$PROXYGRAPHICS
 70
     1
  9
$MEASUREMENT
 70
     0
  0
ENDSEC
  0
SECTION
  2
CLASSES
  0
CLASS
  1
ACDBDICTIONARYWDFLT
  2
AcDbDictionaryWithDefault
  3
ObjectDBX Classes
 90
        0
280
     0
281
     0
  0
CLASS
  1
VISUALSTYLE
  2
AcDbVisualStyle
  3
ObjectDBX Classes
 90
     4095
280
     0
281
     0
  0
CLASS
  1
XRECORD
  2
AcDbXrecord
  3
AutoCAD 2000
 90
        0
280
     0
281
     0
  0
CLASS
  1
LWPOLYLINE
  2
AcDbPolyline
  3
AutoCAD 2000
 90
        0
280
     0
281
     1
  0
CLASS
  1
HATCH
  2
AcDbHatch
  3
AutoCAD 2000
 90
        0
280
     0
281
     1
  0
CLASS
  1
ACDBPLACEHOLDER
  2
AcDbPlaceHolder
  3
ObjectDBX Classes
 90
        0
280
     0
281
     0
  0
CLASS
  1
LAYOUT
  2
AcDbLayout
  3
ObjectDBX Classes
 90
        0
280
     0
281
     0
  0
ENDSEC
  0
SECTION
  2
TABLES
  0
TABLE
  2
VPORT
  5
8
330
0
100
AcDbSymbolTable
 70
     1
  0
VPORT
  5
29
330
8
100
AcDbSymbolTableRecord
100
AcDbViewportTableRecord
  2
*ACTIVE
 70
     0
 10
0.0
 20
0.0
 11
1.0
 21
1.0
 12
0.0
 22
0.0
 13
0.0
 23
0.0
 14
0.5
 24
0.5
 15
0.5
 25
0.5
 16
0.0
 26
0.0
 36
1.0
 17
-56.95470064439843
 27
-66.484616189916
 37
0.0
 40
115.8971572382834
 41
0.8110716446012997
 42
50.0
 43
0.0
 44
0.0
 50
0.0
 51
0.0
 71
     0
 72
   100
 73
     1
 74
     3
 75
     0
 76
     0
 77
     0
 78
     0
  0
ENDTAB
  0
TABLE
  2
LTYPE
  5
5
330
0
100
AcDbSymbolTable
 70
     5
  0
LTYPE
  5
14
330
5
100
AcDbSymbolTableRecord
100
AcDbLinetypeTableRecord
  2
BYBLOCK
 70
     0
  3

 72
    65
 73
     0
 40
0.0
  0
LTYPE
  5
15
330
5
100
AcDbSymbolTableRecord
100
AcDbLinetypeTableRecord
  2
BYLAYER
 70
     0
  3

 72
    65
 73
     0
 40
0.0
  0
LTYPE
  5
16
330
5
100
AcDbSymbolTableRecord
100
AcDbLinetypeTableRecord
  2
CONTINUOUS
 70
     0
  3
Solid line
 72
    65
 73
     0
 40
0.0
  0
LTYPE
  5
47E
330
5
100
AcDbSymbolTableRecord
100
AcDbLinetypeTableRecord
  2
AI-LINETYPE-1
 70
     0
  3
Adobe Illustrator Linetype No. 1
 72
    65
 73
     4
 40
8.819450260381924
 49
7.055560208305538
 74
     0
 49
-0.7055560208305538
 74
     0
 49
0.3527780104152769
 74
     0
 49
-0.7055560208305538
 74
     0
  0
LTYPE
  5
483
330
5
100
AcDbSymbolTableRecord
100
AcDbLinetypeTableRecord
  2
AI-LINETYPE-2
 70
     0
  3
Adobe Illustrator Linetype No. 2
 72
    65
 73
     4
 40
8.819450260381924
 49
7.055560208305538
 74
     0
 49
-0.7055560208305538
 74
     0
 49
0.3527780104152769
 74
     0
 49
-0.7055560208305538
 74
     0
  0
LTYPE
  5
488
330
5
100
AcDbSymbolTableRecord
100
AcDbLinetypeTableRecord
  2
AI-LINETYPE-3
 70
     0
  3
Adobe Illustrator Linetype No. 3
 72
    65
 73
     4
 40
8.819450260381924
 49
7.055560208305538
 74
     0
 49
-0.7055560208305538
 74
     0
 49
0.3527780104152769
 74
     0
 49
-0.7055560208305538
 74
     0
  0
LTYPE
  5
48D
330
5
100
AcDbSymbolTableRecord
100
AcDbLinetypeTableRecord
  2
AI-LINETYPE-4
 70
     0
  3
Adobe Illustrator Linetype No. 4
 72
    65
 73
     4
 40
8.819450260381924
 49
7.055560208305538
 74
     0
 49
-0.7055560208305538
 74
     0
 49
0.3527780104152769
 74
     0
 49
-0.7055560208305538
 74
     0
  0
ENDTAB
  0
TABLE
  2
LAYER
  5
2
330
0
100
AcDbSymbolTable
 70
     5
  0
LAYER
  5
10
330
2
100
AcDbSymbolTableRecord
100
AcDbLayerTableRecord
  2
0
 70
     0
 62
     7
  6
CONTINUOUS
  0
LAYER
  5
3B
330
2
100
AcDbSymbolTableRecord
100
AcDbLayerTableRecord
  2
GRAU_10_
 70
     1
 62
     7
  6
CONTINUOUS
  0
LAYER
  5
42
330
2
100
AcDbSymbolTableRecord
100
AcDbLayerTableRecord
  2
STANDARDEBENE
 70
     0
 62
     7
  6
CONTINUOUS
  0
LAYER
  5
48E
330
2
100
AcDbSymbolTableRecord
100
AcDbLayerTableRecord
  2
TEXT
 70
     1
 62
     7
  6
CONTINUOUS
  0
LAYER
  5
497
330
2
100
AcDbSymbolTableRecord
100
AcDbLayerTableRecord
  2
BEMA_UNG
 70
     1
 62
     7
  6
CONTINUOUS
  0
ENDTAB
  0
TABLE
  2
STYLE
  5
3
330
0
100
AcDbSymbolTable
 70
     1
  0
STYLE
  5
11
330
3
100
AcDbSymbolTableRecord
100
AcDbTextStyleTableRecord
  2
STANDARD
 70
     0
 40
0.0
 41
1.0
 50
0.0
 71
     0
 42
0.2
  3
txt
  4

  0
ENDTAB
  0
TABLE
  2
VIEW
  5
6
330
0
100
AcDbSymbolTable
 70
     0
  0
ENDTAB
  0
TABLE
  2
UCS
  5
7
330
0
100
AcDbSymbolTable
 70
     0
  0
ENDTAB
  0
TABLE
  2
APPID
  5
9
330
0
100
AcDbSymbolTable
 70
     1
  0
APPID
  5
12
330
9
100
AcDbSymbolTableRecord
100
AcDbRegAppTableRecord
  2
ACAD
 70
     0
  0
ENDTAB
  0
TABLE
  2
DIMSTYLE
  5
A
330
0
100
AcDbSymbolTable
 70
     1
  0
DIMSTYLE
105
27
330
A
100
AcDbSymbolTableRecord
100
AcDbDimStyleTableRecord
  2
STANDARD
 70
     0
  3

  4

  5

  6

  7

 40
1.0
 41
0.18
 42
0.0625
 43
0.38
 44
0.18
 45
0.0
 46
0.0
 47
0.0
 48
0.0
140
0.18
141
0.09
142
0.0
143
25.4
144
1.0
145
0.0
146
1.0
147
0.09
 71
     0
 72
     0
 73
     1
 74
     1
 75
     0
 76
     0
 77
     0
 78
     0
170
     0
171
     2
172
     0
173
     0
174
     0
175
     0
176
     0
177
     0
178
     0
270
     2
271
     4
272
     4
273
     2
274
     2
340
11
275
     0
280
     0
281
     0
282
     0
283
     1
284
     0
285
     0
286
     0
287
     3
288
     0
  0
ENDTAB
  0
TABLE
  2
BLOCK_RECORD
  5
1
330
0
100
AcDbSymbolTable
 70
     1
  0
BLOCK_RECORD
  5
1F
330
1
100
AcDbSymbolTableRecord
100
AcDbBlockTableRecord
  2
*MODEL_SPACE
  0
BLOCK_RECORD
  5
1B
330
1
100
AcDbSymbolTableRecord
100
AcDbBlockTableRecord
  2
*PAPER_SPACE
  0
ENDTAB
  0
ENDSEC
  0
SECTION
  2
BLOCKS
  0
BLOCK
  5
20
330
1F
100
AcDbEntity
  8
0
100
AcDbBlockBegin
  2
*MODEL_SPACE
 70
     0
 71
     0
 10
0.0
 20
0.0
 30
0.0
  3
*MODEL_SPACE
  1

  0
ENDBLK
  5
21
330
1F
100
AcDbEntity
  8
0
100
AcDbBlockEnd
  0
BLOCK
  5
1C
330
1B
100
AcDbEntity
 67
     1
  8
0
100
AcDbBlockBegin
  2
*PAPER_SPACE
 70
     0
 71
     0
 10
0.0
 20
0.0
 30
0.0
  3
*PAPER_SPACE
  1

  0
ENDBLK
  5
1D
330
1B
100
AcDbEntity
 67
     1
  8
0
100
AcDbBlockEnd
  0
ENDSEC
  0
SECTION
  2
ENTITIES
  0
SPLINE
  5
3C
330
1F
100
AcDbEntity
  8
GRAU_10_
100
AcDbSpline
210
0.0
220
0.0
230
1.0
 70
    11
 71
     3
 72
    95
 73
    91
 74
     0
 42
0.0000000001
 43
0.0000000001
 40
0.0
 40
0.0
 40
0.0
 40
0.0
 40
1.0
 40
1.0
 40
1.0
 40
2.0
 40
2.0
 40
2.0
 40
3.0
 40
3.0
 40
3.0
 40
4.0
 40
4.0
 40
4.0
 40
5.0
 40
5.0
 40
5.0
 40
6.0
 40
6.0
 40
6.0
 40
7.0
 40
7.0
 40
7.0
 40
8.0
 40
8.0
 40
8.0
 40
9.0
 40
9.0
 40
9.0
 40
10.0
 40
10.0
 40
10.0
 40
11.0
 40
11.0
 40
11.0
 40
12.0
 40
12.0
 40
12.0
 40
13.0
 40
13.0
 40
13.0
 40
14.0
 40
14.0
 40
14.0
 40
15.0
 40
15.0
 40
15.0
 40
16.0
 40
16.0
 40
16.0
 40
17.0
 40
17.0
 40
17.0
 40
18.0
 40
18.0
 40
18.0
 40
19.0
 40
19.0
 40
19.0
 40
20.0
 40
20.0
 40
20.0
 40
21.0
 40
21.0
 40
21.0
 40
22.0
 40
22.0
 40
22.0
 40
23.0
 40
23.0
 40
23.0
 40
24.0
 40
24.0
 40
24.0
 40
25.0
 40
25.0
 40
25.0
 40
26.0
 40
26.0
 40
26.0
 40
27.0
 40
27.0
 40
27.0
 40
28.0
 40
28.0
 40
28.0
 40
29.0
 40
29.0
 40
29.0
 40
30.0
 40
30.0
 40
30.0
 40
30.0
 10
-67.45880370842362
 20
-36.74971905861682
 30
0.0
 10
-67.45880370842362
 20
-36.74971905861682
 30
0.0
 10
-67.5230547816096
 20
-59.23483859550537
 30
0.0
 10
-67.5230547816096
 20
-59.23483859550537
 30
0.0
 10
-67.5230547816096
 20
-59.23483859550537
 30
0.0
 10
-69.33207561431529
 20
-59.27807457236779
 30
0.0
 10
-69.33207561431529
 20
-59.27807457236779
 30
0.0
 10
-69.33207561431529
 20
-59.27807457236779
 30
0.0
 10
-69.33207561431529
 20
-59.42879759927862
 30
0.0
 10
-69.33207561431529
 20
-59.42879759927862
 30
0.0
 10
-69.33207561431529
 20
-59.42879759927862
 30
0.0
 10
-69.13811661054204
 20
-60.03186196180981
 30
0.0
 10
-69.13811661054204
 20
-60.03186196180981
 30
0.0
 10
-69.13811661054204
 20
-60.03186196180981
 30
0.0
 10
-69.1598207264172
 20
-60.69952190730279
 30
0.0
 10
-69.1598207264172
 20
-60.69952190730279
 30
0.0
 10
-69.1598207264172
 20
-60.69952190730279
 30
0.0
 10
-69.24594817036625
 20
-61.28088215395882
 30
0.0
 10
-69.24594817036625
 20
-61.28088215395882
 30
0.0
 10
-69.24594817036625
 20
-61.28088215395882
 30
0.0
 10
-69.22441630937898
 20
-62.25016040816134
 30
0.0
 10
-69.22441630937898
 20
-62.25016040816134
 30
0.0
 10
-69.22441630937898
 20
-62.25016040816134
 30
0.0
 10
-69.33207561431529
 20
-64.23143612876511
 30
0.0
 10
-69.33207561431529
 20
-64.23143612876511
 30
0.0
 10
-69.33207561431529
 20
-64.23143612876511
 30
0.0
 10
-69.5473942241879
 20
-64.25262347997658
 30
0.0
 10
-69.5473942241879
 20
-64.25262347997658
 30
0.0
 10
-69.5473942241879
 20
-64.25262347997658
 30
0.0
 10
-69.87347272697896
 20
-64.55992619998676
 30
0.0
 10
-69.87347272697896
 20
-64.55992619998676
 30
0.0
 10
-69.87347272697896
 20
-64.55992619998676
 30
0.0
 10
-70.00318065756622
 20
-66.10643058353575
 30
0.0
 10
-70.00318065756622
 20
-66.10643058353575
 30
0.0
 10
-70.00318065756622
 20
-66.10643058353575
 30
0.0
 10
-69.8703721389968
 20
-66.42803045924148
 30
0.0
 10
-70.08569074886941
 20
-66.42803045924148
 30
0.0
 10
-70.30118161362991
 20
-66.42803045924148
 30
0.0
 10
-78.55391329282713
 20
-66.42803045924148
 30
0.0
 10
-78.55391329282713
 20
-66.42803045924148
 30
0.0
 10
-78.55391329282713
 20
-66.42803045924148
 30
0.0
 10
-78.74770004171248
 20
-66.16947587250645
 30
0.0
 10
-78.74770004171248
 20
-66.16947587250645
 30
0.0
 10
-78.74770004171248
 20
-66.16947587250645
 30
0.0
 10
-78.69361200691247
 20
-65.6177434665689
 30
0.0
 10
-78.69361200691247
 20
-65.6177434665689
 30
0.0
 10
-78.69361200691247
 20
-65.6177434665689
 30
0.0
 10
-78.90307395059655
 20
-65.38829995588864
 30
0.0
 10
-78.90307395059655
 20
-65.38829995588864
 30
0.0
 10
-78.90307395059655
 20
-65.38829995588864
 30
0.0
 10
-79.17385863437234
 20
-65.39415662207718
 30
0.0
 10
-79.17385863437234
 20
-65.39415662207718
 30
0.0
 10
-79.17385863437234
 20
-65.39415662207718
 30
0.0
 10
-79.36781763814558
 20
-65.30820143301604
 30
0.0
 10
-79.36781763814558
 20
-65.30820143301604
 30
0.0
 10
-79.36781763814558
 20
-65.30820143301604
 30
0.0
 10
-79.54007252604367
 20
-62.27134775937281
 30
0.0
 10
-79.54007252604367
 20
-62.27134775937281
 30
0.0
 10
-79.54007252604367
 20
-62.27134775937281
 30
0.0
 10
-79.47547694308189
 20
-61.69033202249257
 30
0.0
 10
-79.47547694308189
 20
-61.69033202249257
 30
0.0
 10
-79.47547694308189
 20
-61.69033202249257
 30
0.0
 10
-79.45394508209462
 20
-61.19492696489768
 30
0.0
 10
-79.45394508209462
 20
-61.19492696489768
 30
0.0
 10
-79.45394508209462
 20
-61.19492696489768
 30
0.0
 10
-79.64773183097996
 20
-60.67781779142763
 30
0.0
 10
-79.64773183097996
 20
-60.67781779142763
 30
0.0
 10
-79.64773183097996
 20
-60.67781779142763
 30
0.0
 10
-79.58313624801819
 20
-60.03186196180981
 30
0.0
 10
-79.58313624801819
 20
-60.03186196180981
 30
0.0
 10
-79.58313624801819
 20
-60.03186196180981
 30
0.0
 10
-79.45394508209462
 20
-59.51509729811556
 30
0.0
 10
-79.45394508209462
 20
-59.51509729811556
 30
0.0
 10
-79.45394508209462
 20
-59.51509729811556
 30
0.0
 10
-79.4108813601201
 20
-59.17058752231939
 30
0.0
 10
-79.4108813601201
 20
-59.17058752231939
 30
0.0
 10
-79.4108813601201
 20
-59.17058752231939
 30
0.0
 10
-81.24143405381305
 20
-59.23483859550537
 30
0.0
 10
-81.24143405381305
 20
-59.23483859550537
 30
0.0
 10
-81.24143405381305
 20
-59.23483859550537
 30
0.0
 10
-81.2629659148003
 20
-36.68581249520663
 30
0.0
 10
-81.2629659148003
 20
-36.68581249520663
 30
0.0
 10
-81.2629659148003
 20
-36.68581249520663
 30
0.0
 10
-80.63096273110223
 20
-36.13011822684742
 30
0.0
 10
-80.63096273110223
 20
-36.13011822684742
 30
0.0
 10
-80.63096273110223
 20
-36.13011822684742
 30
0.0
 10
-68.04894895436246
 20
-36.13011822684742
 30
0.0
 10
-68.04894895436246
 20
-36.13011822684742
 30
0.0
 10
-68.04894895436246
 20
-36.13011822684742
 30
0.0
 10
-67.45880370842362
 20
-36.74971905861682
 30
0.0
 10
-67.45880370842362
 20
-36.74971905861682
 30
0.0
  0
HATCH
  5
3D
330
1F
100
AcDbEntity
  8
GRAU_10_
 62
   255
100
AcDbHatch
 10
0.0
 20
0.0
 30
0.0
210
0.0
220
0.0
230
1.0
  2
SOLID
 70
     1
 71
     0
 91
        1
 92
        1
 93
        1
 72
     4
 94
        3
 73
     0
 74
     1
 95
       95
 96
       91
 40
0.0
 40
0.0
 40
0.0
 40
0.0
 40
1.0
 40
1.0
 40
1.0
 40
2.0
 40
2.0
 40
2.0
 40
3.0
 40
3.0
 40
3.0
 40
4.0
 40
4.0
 40
4.0
 40
5.0
 40
5.0
 40
5.0
 40
6.0
 40
6.0
 40
6.0
 40
7.0
 40
7.0
 40
7.0
 40
8.0
 40
8.0
 40
8.0
 40
9.0
 40
9.0
 40
9.0
 40
10.0
 40
10.0
 40
10.0
 40
11.0
 40
11.0
 40
11.0
 40
12.0
 40
12.0
 40
12.0
 40
13.0
 40
13.0
 40
13.0
 40
14.0
 40
14.0
 40
14.0
 40
15.0
 40
15.0
 40
15.0
 40
16.0
 40
16.0
 40
16.0
 40
17.0
 40
17.0
 40
17.0
 40
18.0
 40
18.0
 40
18.0
 40
19.0
 40
19.0
 40
19.0
 40
20.0
 40
20.0
 40
20.0
 40
21.0
 40
21.0
 40
21.0
 40
22.0
 40
22.0
 40
22.0
 40
23.0
 40
23.0
 40
23.0
 40
24.0
 40
24.0
 40
24.0
 40
25.0
 40
25.0
 40
25.0
 40
26.0
 40
26.0
 40
26.0
 40
27.0
 40
27.0
 40
27.0
 40
28.0
 40
28.0
 40
28.0
 40
29.0
 40
29.0
 40
29.0
 40
30.0
 40
30.0
 40
30.0
 40
30.0
 10
-67.45880370842362
 20
-36.74971905861682
 10
-67.45880370842362
 20
-36.74971905861682
 10
-67.5230547816096
 20
-59.23483859550537
 10
-67.5230547816096
 20
-59.23483859550537
 10
-67.5230547816096
 20
-59.23483859550537
 10
-69.33207561431529
 20
-59.27807457236779
 10
-69.33207561431529
 20
-59.27807457236779
 10
-69.33207561431529
 20
-59.27807457236779
 10
-69.33207561431529
 20
-59.42879759927862
 10
-69.33207561431529
 20
-59.42879759927862
 10
-69.33207561431529
 20
-59.42879759927862
 10
-69.13811661054204
 20
-60.03186196180981
 10
-69.13811661054204
 20
-60.03186196180981
 10
-69.13811661054204
 20
-60.03186196180981
 10
-69.1598207264172
 20
-60.69952190730279
 10
-69.1598207264172
 20
-60.69952190730279
 10
-69.1598207264172
 20
-60.69952190730279
 10
-69.24594817036625
 20
-61.28088215395882
 10
-69.24594817036625
 20
-61.28088215395882
 10
-69.24594817036625
 20
-61.28088215395882
 10
-69.22441630937898
 20
-62.25016040816134
 10
-69.22441630937898
 20
-62.25016040816134
 10
-69.22441630937898
 20
-62.25016040816134
 10
-69.33207561431529
 20
-64.23143612876511
 10
-69.33207561431529
 20
-64.23143612876511
 10
-69.33207561431529
 20
-64.23143612876511
 10
-69.5473942241879
 20
-64.25262347997658
 10
-69.5473942241879
 20
-64.25262347997658
 10
-69.5473942241879
 20
-64.25262347997658
 10
-69.87347272697896
 20
-64.55992619998676
 10
-69.87347272697896
 20
-64.55992619998676
 10
-69.87347272697896
 20
-64.55992619998676
 10
-70.00318065756622
 20
-66.10643058353575
 10
-70.00318065756622
 20
-66.10643058353575
 10
-70.00318065756622
 20
-66.10643058353575
 10
-69.8703721389968
 20
-66.42803045924148
 10
-70.08569074886941
 20
-66.42803045924148
 10
-70.30118161362991
 20
-66.42803045924148
 10
-78.55391329282713
 20
-66.42803045924148
 10
-78.55391329282713
 20
-66.42803045924148
 10
-78.55391329282713
 20
-66.42803045924148
 10
-78.74770004171248
 20
-66.16947587250645
 10
-78.74770004171248
 20
-66.16947587250645
 10
-78.74770004171248
 20
-66.16947587250645
 10
-78.69361200691247
 20
-65.6177434665689
 10
-78.69361200691247
 20
-65.6177434665689
 10
-78.69361200691247
 20
-65.6177434665689
 10
-78.90307395059655
 20
-65.38829995588864
 10
-78.90307395059655
 20
-65.38829995588864
 10
-78.90307395059655
 20
-65.38829995588864
 10
-79.17385863437234
 20
-65.39415662207718
 10
-79.17385863437234
 20
-65.39415662207718
 10
-79.17385863437234
 20
-65.39415662207718
 10
-79.36781763814558
 20
-65.30820143301604
 10
-79.36781763814558
 20
-65.30820143301604
 10
-79.36781763814558
 20
-65.30820143301604
 10
-79.54007252604367
 20
-62.27134775937281
 10
-79.54007252604367
 20
-62.27134775937281
 10
-79.54007252604367
 20
-62.27134775937281
 10
-79.47547694308189
 20
-61.69033202249257
 10
-79.47547694308189
 20
-61.69033202249257
 10
-79.47547694308189
 20
-61.69033202249257
 10
-79.45394508209462
 20
-61.19492696489768
 10
-79.45394508209462
 20
-61.19492696489768
 10
-79.45394508209462
 20
-61.19492696489768
 10
-79.64773183097996
 20
-60.67781779142763
 10
-79.64773183097996
 20
-60.67781779142763
 10
-79.64773183097996
 20
-60.67781779142763
 10
-79.58313624801819
 20
-60.03186196180981
 10
-79.58313624801819
 20
-60.03186196180981
 10
-79.58313624801819
 20
-60.03186196180981
 10
-79.45394508209462
 20
-59.51509729811556
 10
-79.45394508209462
 20
-59.51509729811556
 10
-79.45394508209462
 20
-59.51509729811556
 10
-79.4108813601201
 20
-59.17058752231939
 10
-79.4108813601201
 20
-59.17058752231939
 10
-79.4108813601201
 20
-59.17058752231939
 10
-81.24143405381305
 20
-59.23483859550537
 10
-81.24143405381305
 20
-59.23483859550537
 10
-81.24143405381305
 20
-59.23483859550537
 10
-81.2629659148003
 20
-36.68581249520663
 10
-81.2629659148003
 20
-36.68581249520663
 10
-81.2629659148003
 20
-36.68581249520663
 10
-80.63096273110223
 20
-36.13011822684742
 10
-80.63096273110223
 20
-36.13011822684742
 10
-80.63096273110223
 20
-36.13011822684742
 10
-68.04894895436246
 20
-36.13011822684742
 10
-68.04894895436246
 20
-36.13011822684742
 10
-68.04894895436246
 20
-36.13011822684742
 10
-67.45880370842362
 20
-36.74971905861682
 10
-67.45880370842362
 20
-36.74971905861682
 97
        0
 75
     0
 76
     1
 98
        0
  0
SPLINE
  5
3E
330
1F
100
AcDbEntity
  8
GRAU_10_
100
AcDbSpline
210
0.0
220
0.0
230
1.0
 70
    11
 71
     3
 72
   137
 73
   133
 74
     0
 42
0.0000000001
 43
0.0000000001
 40
0.0
 40
0.0
 40
0.0
 40
0.0
 40
1.0
 40
1.0
 40
1.0
 40
2.0
 40
2.0
 40
2.0
 40
3.0
 40
3.0
 40
3.0
 40
4.0
 40
4.0
 40
4.0
 40
5.0
 40
5.0
 40
5.0
 40
6.0
 40
6.0
 40
6.0
 40
7.0
 40
7.0
 40
7.0
 40
8.0
 40
8.0
 40
8.0
 40
9.0
 40
9.0
 40
9.0
 40
10.0
 40
10.0
 40
10.0
 40
11.0
 40
11.0
 40
11.0
 40
12.0
 40
12.0
 40
12.0
 40
13.0
 40
13.0
 40
13.0
 40
14.0
 40
14.0
 40
14.0
 40
15.0
 40
15.0
 40
15.0
 40
16.0
 40
16.0
 40
16.0
 40
17.0
 40
17.0
 40
17.0
 40
18.0
 40
18.0
 40
18.0
 40
19.0
 40
19.0
 40
19.0
 40
20.0
 40
20.0
 40
20.0
 40
21.0
 40
21.0
 40
21.0
 40
22.0
 40
22.0
 40
22.0
 40
23.0
 40
23.0
 40
23.0
 40
24.0
 40
24.0
 40
24.0
 40
25.0
 40
25.0
 40
25.0
 40
26.0
 40
26.0
 40
26.0
 40
27.0
 40
27.0
 40
27.0
 40
28.0
 40
28.0
 40
28.0
 40
29.0
 40
29.0
 40
29.0
 40
30.0
 40
30.0
 40
30.0
 40
31.0
 40
31.0
 40
31.0
 40
32.0
 40
32.0
 40
32.0
 40
33.0
 40
33.0
 40
33.0
 40
34.0
 40
34.0
 40
34.0
 40
35.0
 40
35.0
 40
35.0
 40
36.0
 40
36.0
 40
36.0
 40
37.0
 40
37.0
 40
37.0
 40
38.0
 40
38.0
 40
38.0
 40
39.0
 40
39.0
 40
39.0
 40
40.0
 40
40.0
 40
40.0
 40
41.0
 40
41.0
 40
41.0
 40
42.0
 40
42.0
 40
42.0
 40
43.0
 40
43.0
 40
43.0
 40
44.0
 40
44.0
 40
44.0
 40
44.0
 10
-31.68594211907683
 20
-47.61262905413372
 30
0.0
 10
-31.68594211907683
 20
-47.61262905413372
 30
0.0
 10
-31.63805526024117
 20
-59.2324270270748
 30
0.0
 10
-31.63805526024117
 20
-59.2324270270748
 30
0.0
 10
-31.63805526024117
 20
-59.2324270270748
 30
0.0
 10
-33.50770981348698
 20
-59.27101212196397
 30
0.0
 10
-33.50770981348698
 20
-59.27101212196397
 30
0.0
 10
-33.50770981348698
 20
-59.27101212196397
 30
0.0
 10
-33.48841726604239
 20
-59.50200592663531
 30
0.0
 10
-33.48841726604239
 20
-59.50200592663531
 30
0.0
 10
-33.48841726604239
 20
-59.50200592663531
 30
0.0
 10
-33.25656218693157
 20
-60.0418527453079
 30
0.0
 10
-33.29583630137233
 20
-60.11885068019834
 30
0.0
 10
-33.3344213962615
 20
-60.19584861508879
 30
0.0
 10
-33.52700236093156
 20
-65.97844520182748
 30
0.0
 10
-33.52700236093156
 20
-65.97844520182748
 30
0.0
 10
-33.52700236093156
 20
-65.97844520182748
 30
0.0
 10
-33.56524294604493
 20
-66.26783341349626
 30
0.0
 10
-33.56524294604493
 20
-66.26783341349626
 30
0.0
 10
-33.56524294604493
 20
-66.26783341349626
 30
0.0
 10
-33.91216429027168
 20
-66.40305350049626
 30
0.0
 10
-33.91216429027168
 20
-66.40305350049626
 30
0.0
 10
-33.91216429027168
 20
-66.40305350049626
 30
0.0
 10
-36.53422819385631
 20
-66.38324418838798
 30
0.0
 10
-36.53422819385631
 20
-66.38324418838798
 30
0.0
 10
-36.53422819385631
 20
-66.38324418838798
 30
0.0
 10
-36.88114953808306
 20
-66.03632284416123
 30
0.0
 10
-36.88114953808306
 20
-66.03632284416123
 30
0.0
 10
-36.88114953808306
 20
-66.03632284416123
 30
0.0
 10
-36.90009757575185
 20
-65.67010895248991
 30
0.0
 10
-36.90009757575185
 20
-65.67010895248991
 30
0.0
 10
-36.90009757575185
 20
-65.67010895248991
 30
0.0
 10
-36.9765787459786
 20
-65.45823544037526
 30
0.0
 10
-36.9765787459786
 20
-65.45823544037526
 30
0.0
 10
-36.9765787459786
 20
-65.45823544037526
 30
0.0
 10
-37.32384459998114
 20
-65.30389506081858
 30
0.0
 10
-37.32384459998114
 20
-65.30389506081858
 30
0.0
 10
-37.32384459998114
 20
-65.30389506081858
 30
0.0
 10
-39.73369048167534
 20
-65.30389506081858
 30
0.0
 10
-39.73369048167534
 20
-65.30389506081858
 30
0.0
 10
-39.73369048167534
 20
-65.30389506081858
 30
0.0
 10
-39.96485654123457
 20
-65.38123750548482
 30
0.0
 10
-39.96485654123457
 20
-65.38123750548482
 30
0.0
 10
-39.96485654123457
 20
-65.38123750548482
 30
0.0
 10
-40.17673005334921
 20
-65.59328327248737
 30
0.0
 10
-40.17673005334921
 20
-65.59328327248737
 30
0.0
 10
-40.17673005334921
 20
-65.59328327248737
 30
0.0
 10
-40.11919692079125
 20
-66.11349303393958
 30
0.0
 10
-40.11919692079125
 20
-66.11349303393958
 30
0.0
 10
-40.11919692079125
 20
-66.11349303393958
 30
0.0
 10
-40.56189198268932
 20
-66.42200153816505
 30
0.0
 10
-40.56189198268932
 20
-66.42200153816505
 30
0.0
 10
-40.56189198268932
 20
-66.42200153816505
 30
0.0
 10
-43.16466333882938
 20
-66.42200153816505
 30
0.0
 10
-43.16466333882938
 20
-66.42200153816505
 30
0.0
 10
-43.16466333882938
 20
-66.42200153816505
 30
0.0
 10
-43.35758881327524
 20
-66.3639516409434
 30
0.0
 10
-43.35758881327524
 20
-66.3639516409434
 30
0.0
 10
-43.35758881327524
 20
-66.3639516409434
 30
0.0
 10
-43.45301802117078
 20
-66.13278558138417
 30
0.0
 10
-43.45301802117078
 20
-66.13278558138417
 30
0.0
 10
-43.45301802117078
 20
-66.13278558138417
 30
0.0
 10
-43.74275074261536
 20
-60.69711033887221
 30
0.0
 10
-43.74275074261536
 20
-60.69711033887221
 30
0.0
 10
-43.74275074261536
 20
-60.69711033887221
 30
0.0
 10
-43.72345819517077
 20
-60.02256019786331
 30
0.0
 10
-43.72345819517077
 20
-60.02256019786331
 30
0.0
 10
-43.72345819517077
 20
-60.02256019786331
 30
0.0
 10
-43.58841036305867
 20
-59.38625064196779
 30
0.0
 10
-43.58841036305867
 20
-59.38625064196779
 30
0.0
 10
-43.58841036305867
 20
-59.38625064196779
 30
0.0
 10
-43.58841036305867
 20
-59.21296222474232
 30
0.0
 10
-43.58841036305867
 20
-59.21296222474232
 30
0.0
 10
-43.58841036305867
 20
-59.21296222474232
 30
0.0
 10
-45.38158374607773
 20
-59.27101212196397
 30
0.0
 10
-45.38158374607773
 20
-59.27101212196397
 30
0.0
 10
-45.38158374607773
 20
-59.27101212196397
 30
0.0
 10
-45.46840020957836
 20
-47.66378875583945
 30
0.0
 10
-45.46840020957836
 20
-47.66378875583945
 30
0.0
 10
-45.46840020957836
 20
-47.66378875583945
 30
0.0
 10
-45.16213101889557
 20
-46.96563969518851
 30
0.0
 10
-45.16213101889557
 20
-46.96563969518851
 30
0.0
 10
-45.16213101889557
 20
-46.96563969518851
 30
0.0
 10
-45.07393651629175
 20
-45.76054449945352
 30
0.0
 10
-45.07393651629175
 20
-45.76054449945352
 30
0.0
 10
-45.07393651629175
 20
-45.76054449945352
 30
0.0
 10
-45.22069768078092
 20
-44.7904049708115
 30
0.0
 10
-45.22069768078092
 20
-44.7904049708115
 30
0.0
 10
-45.22069768078092
 20
-44.7904049708115
 30
0.0
 10
-45.4559978576497
 20
-43.90845994477331
 30
0.0
 10
-45.4559978576497
 20
-43.90845994477331
 30
0.0
 10
-45.4559978576497
 20
-43.90845994477331
 30
0.0
 10
-45.48528118859237
 20
-41.05660802073263
 30
0.0
 10
-45.48528118859237
 20
-41.05660802073263
 30
0.0
 10
-45.48528118859237
 20
-41.05660802073263
 30
0.0
 10
-45.16213101889557
 20
-39.93970732760145
 30
0.0
 10
-45.16213101889557
 20
-39.93970732760145
 30
0.0
 10
-45.16213101889557
 20
-39.93970732760145
 30
0.0
 10
-45.04430867557328
 20
-38.88137329635562
 30
0.0
 10
-45.04430867557328
 20
-38.88137329635562
 30
0.0
 10
-45.04430867557328
 20
-38.88137329635562
 30
0.0
 10
-45.27960885244207
 20
-37.82303926510978
 30
0.0
 10
-45.27960885244207
 20
-37.82303926510978
 30
0.0
 10
-45.27960885244207
 20
-37.82303926510978
 30
0.0
 10
-45.4559978576497
 20
-37.11748324427924
 30
0.0
 10
-45.4559978576497
 20
-37.11748324427924
 30
0.0
 10
-45.4559978576497
 20
-37.11748324427924
 30
0.0
 10
-45.39708668598855
 20
-36.70562180731491
 30
0.0
 10
-45.39708668598855
 20
-36.70562180731491
 30
0.0
 10
-45.39708668598855
 20
-36.70562180731491
 30
0.0
 10
-44.92683084202679
 20
-36.176454791692
 30
0.0
 10
-44.92683084202679
 20
-36.176454791692
 30
0.0
 10
-44.92683084202679
 20
-36.176454791692
 30
0.0
 10
-32.22682246707682
 20
-36.0591492130334
 30
0.0
 10
-32.22682246707682
 20
-36.0591492130334
 30
0.0
 10
-32.22682246707682
 20
-36.0591492130334
 30
0.0
 10
-31.6976554514539
 20
-36.64688289054166
 30
0.0
 10
-31.6976554514539
 20
-36.64688289054166
 30
0.0
 10
-31.6976554514539
 20
-36.64688289054166
 30
0.0
 10
-31.6976554514539
 20
-42.40915340050839
 30
0.0
 10
-31.6976554514539
 20
-42.40915340050839
 30
0.0
 10
-31.6976554514539
 20
-42.40915340050839
 30
0.0
 10
-31.93295562832269
 20
-43.46748743175421
 30
0.0
 10
-31.93295562832269
 20
-43.46748743175421
 30
0.0
 10
-31.93295562832269
 20
-43.46748743175421
 30
0.0
 10
-31.96223895926536
 20
-44.58438812488539
 30
0.0
 10
-31.96223895926536
 20
-44.58438812488539
 30
0.0
 10
-31.96223895926536
 20
-44.58438812488539
 30
0.0
 10
-31.6976554514539
 20
-46.31882259113121
 30
0.0
 10
-31.6976554514539
 20
-46.31882259113121
 30
0.0
 10
-31.6976554514539
 20
-46.31882259113121
 30
0.0
 10
-31.68594211907683
 20
-47.61262905413372
 30
0.0
 10
-31.68594211907683
 20
-47.61262905413372
 30
0.0
  0
HATCH
  5
3F
330
1F
100
AcDbEntity
  8
GRAU_10_
 62
   255
100
AcDbHatch
 10
0.0
 20
0.0
 30
0.0
210
0.0
220
0.0
230
1.0
  2
SOLID
 70
     1
 71
     0
 91
        1
 92
        1
 93
        1
 72
     4
 94
        3
 73
     0
 74
     1
 95
      137
 96
      133
 40
0.0
 40
0.0
 40
0.0
 40
0.0
 40
1.0
 40
1.0
 40
1.0
 40
2.0
 40
2.0
 40
2.0
 40
3.0
 40
3.0
 40
3.0
 40
4.0
 40
4.0
 40
4.0
 40
5.0
 40
5.0
 40
5.0
 40
6.0
 40
6.0
 40
6.0
 40
7.0
 40
7.0
 40
7.0
 40
8.0
 40
8.0
 40
8.0
 40
9.0
 40
9.0
 40
9.0
 40
10.0
 40
10.0
 40
10.0
 40
11.0
 40
11.0
 40
11.0
 40
12.0
 40
12.0
 40
12.0
 40
13.0
 40
13.0
 40
13.0
 40
14.0
 40
14.0
 40
14.0
 40
15.0
 40
15.0
 40
15.0
 40
16.0
 40
16.0
 40
16.0
 40
17.0
 40
17.0
 40
17.0
 40
18.0
 40
18.0
 40
18.0
 40
19.0
 40
19.0
 40
19.0
 40
20.0
 40
20.0
 40
20.0
 40
21.0
 40
21.0
 40
21.0
 40
22.0
 40
22.0
 40
22.0
 40
23.0
 40
23.0
 40
23.0
 40
24.0
 40
24.0
 40
24.0
 40
25.0
 40
25.0
 40
25.0
 40
26.0
 40
26.0
 40
26.0
 40
27.0
 40
27.0
 40
27.0
 40
28.0
 40
28.0
 40
28.0
 40
29.0
 40
29.0
 40
29.0
 40
30.0
 40
30.0
 40
30.0
 40
31.0
 40
31.0
 40
31.0
 40
32.0
 40
32.0
 40
32.0
 40
33.0
 40
33.0
 40
33.0
 40
34.0
 40
34.0
 40
34.0
 40
35.0
 40
35.0
 40
35.0
 40
36.0
 40
36.0
 40
36.0
 40
37.0
 40
37.0
 40
37.0
 40
38.0
 40
38.0
 40
38.0
 40
39.0
 40
39.0
 40
39.0
 40
40.0
 40
40.0
 40
40.0
 40
41.0
 40
41.0
 40
41.0
 40
42.0
 40
42.0
 40
42.0
 40
43.0
 40
43.0
 40
43.0
 40
44.0
 40
44.0
 40
44.0
 40
44.0
 10
-31.68594211907683
 20
-47.61262905413372
 10
-31.68594211907683
 20
-47.61262905413372
 10
-31.63805526024117
 20
-59.2324270270748
 10
-31.63805526024117
 20
-59.2324270270748
 10
-31.63805526024117
 20
-59.2324270270748
 10
-33.50770981348698
 20
-59.27101212196397
 10
-33.50770981348698
 20
-59.27101212196397
 10
-33.50770981348698
 20
-59.27101212196397
 10
-33.48841726604239
 20
-59.50200592663531
 10
-33.48841726604239
 20
-59.50200592663531
 10
-33.48841726604239
 20
-59.50200592663531
 10
-33.25656218693157
 20
-60.0418527453079
 10
-33.29583630137233
 20
-60.11885068019834
 10
-33.3344213962615
 20
-60.19584861508879
 10
-33.52700236093156
 20
-65.97844520182748
 10
-33.52700236093156
 20
-65.97844520182748
 10
-33.52700236093156
 20
-65.97844520182748
 10
-33.56524294604493
 20
-66.26783341349626
 10
-33.56524294604493
 20
-66.26783341349626
 10
-33.56524294604493
 20
-66.26783341349626
 10
-33.91216429027168
 20
-66.40305350049626
 10
-33.91216429027168
 20
-66.40305350049626
 10
-33.91216429027168
 20
-66.40305350049626
 10
-36.53422819385631
 20
-66.38324418838798
 10
-36.53422819385631
 20
-66.38324418838798
 10
-36.53422819385631
 20
-66.38324418838798
 10
-36.88114953808306
 20
-66.03632284416123
 10
-36.88114953808306
 20
-66.03632284416123
 10
-36.88114953808306
 20
-66.03632284416123
 10
-36.90009757575185
 20
-65.67010895248991
 10
-36.90009757575185
 20
-65.67010895248991
 10
-36.90009757575185
 20
-65.67010895248991
 10
-36.9765787459786
 20
-65.45823544037526
 10
-36.9765787459786
 20
-65.45823544037526
 10
-36.9765787459786
 20
-65.45823544037526
 10
-37.32384459998114
 20
-65.30389506081858
 10
-37.32384459998114
 20
-65.30389506081858
 10
-37.32384459998114
 20
-65.30389506081858
 10
-39.73369048167534
 20
-65.30389506081858
 10
-39.73369048167534
 20
-65.30389506081858
 10
-39.73369048167534
 20
-65.30389506081858
 10
-39.96485654123457
 20
-65.38123750548482
 10
-39.96485654123457
 20
-65.38123750548482
 10
-39.96485654123457
 20
-65.38123750548482
 10
-40.17673005334921
 20
-65.59328327248737
 10
-40.17673005334921
 20
-65.59328327248737
 10
-40.17673005334921
 20
-65.59328327248737
 10
-40.11919692079125
 20
-66.11349303393958
 10
-40.11919692079125
 20
-66.11349303393958
 10
-40.11919692079125
 20
-66.11349303393958
 10
-40.56189198268932
 20
-66.42200153816505
 10
-40.56189198268932
 20
-66.42200153816505
 10
-40.56189198268932
 20
-66.42200153816505
 10
-43.16466333882938
 20
-66.42200153816505
 10
-43.16466333882938
 20
-66.42200153816505
 10
-43.16466333882938
 20
-66.42200153816505
 10
-43.35758881327524
 20
-66.3639516409434
 10
-43.35758881327524
 20
-66.3639516409434
 10
-43.35758881327524
 20
-66.3639516409434
 10
-43.45301802117078
 20
-66.13278558138417
 10
-43.45301802117078
 20
-66.13278558138417
 10
-43.45301802117078
 20
-66.13278558138417
 10
-43.74275074261536
 20
-60.69711033887221
 10
-43.74275074261536
 20
-60.69711033887221
 10
-43.74275074261536
 20
-60.69711033887221
 10
-43.72345819517077
 20
-60.02256019786331
 10
-43.72345819517077
 20
-60.02256019786331
 10
-43.72345819517077
 20
-60.02256019786331
 10
-43.58841036305867
 20
-59.38625064196779
 10
-43.58841036305867
 20
-59.38625064196779
 10
-43.58841036305867
 20
-59.38625064196779
 10
-43.58841036305867
 20
-59.21296222474232
 10
-43.58841036305867
 20
-59.21296222474232
 10
-43.58841036305867
 20
-59.21296222474232
 10
-45.38158374607773
 20
-59.27101212196397
 10
-45.38158374607773
 20
-59.27101212196397
 10
-45.38158374607773
 20
-59.27101212196397
 10
-45.46840020957836
 20
-47.66378875583945
 10
-45.46840020957836
 20
-47.66378875583945
 10
-45.46840020957836
 20
-47.66378875583945
 10
-45.16213101889557
 20
-46.96563969518851
 10
-45.16213101889557
 20
-46.96563969518851
 10
-45.16213101889557
 20
-46.96563969518851
 10
-45.07393651629175
 20
-45.76054449945352
 10
-45.07393651629175
 20
-45.76054449945352
 10
-45.07393651629175
 20
-45.76054449945352
 10
-45.22069768078092
 20
-44.7904049708115
 10
-45.22069768078092
 20
-44.7904049708115
 10
-45.22069768078092
 20
-44.7904049708115
 10
-45.4559978576497
 20
-43.90845994477331
 10
-45.4559978576497
 20
-43.90845994477331
 10
-45.4559978576497
 20
-43.90845994477331
 10
-45.48528118859237
 20
-41.05660802073263
 10
-45.48528118859237
 20
-41.05660802073263
 10
-45.48528118859237
 20
-41.05660802073263
 10
-45.16213101889557
 20
-39.93970732760145
 10
-45.16213101889557
 20
-39.93970732760145
 10
-45.16213101889557
 20
-39.93970732760145
 10
-45.04430867557328
 20
-38.88137329635562
 10
-45.04430867557328
 20
-38.88137329635562
 10
-45.04430867557328
 20
-38.88137329635562
 10
-45.27960885244207
 20
-37.82303926510978
 10
-45.27960885244207
 20
-37.82303926510978
 10
-45.27960885244207
 20
-37.82303926510978
 10
-45.4559978576497
 20
-37.11748324427924
 10
-45.4559978576497
 20
-37.11748324427924
 10
-45.4559978576497
 20
-37.11748324427924
 10
-45.39708668598855
 20
-36.70562180731491
 10
-45.39708668598855
 20
-36.70562180731491
 10
-45.39708668598855
 20
-36.70562180731491
 10
-44.92683084202679
 20
-36.176454791692
 10
-44.92683084202679
 20
-36.176454791692
 10
-44.92683084202679
 20
-36.176454791692
 10
-32.22682246707682
 20
-36.0591492130334
 10
-32.22682246707682
 20
-36.0591492130334
 10
-32.22682246707682
 20
-36.0591492130334
 10
-31.6976554514539
 20
-36.64688289054166
 10
-31.6976554514539
 20
-36.64688289054166
 10
-31.6976554514539
 20
-36.64688289054166
 10
-31.6976554514539
 20
-42.40915340050839
 10
-31.6976554514539
 20
-42.40915340050839
 10
-31.6976554514539
 20
-42.40915340050839
 10
-31.93295562832269
 20
-43.46748743175421
 10
-31.93295562832269
 20
-43.46748743175421
 10
-31.93295562832269
 20
-43.46748743175421
 10
-31.96223895926536
 20
-44.58438812488539
 10
-31.96223895926536
 20
-44.58438812488539
 10
-31.96223895926536
 20
-44.58438812488539
 10
-31.6976554514539
 20
-46.31882259113121
 10
-31.6976554514539
 20
-46.31882259113121
 10
-31.6976554514539
 20
-46.31882259113121
 10
-31.68594211907683
 20
-47.61262905413372
 10
-31.68594211907683
 20
-47.61262905413372
 97
        0
 75
     0
 76
     1
 98
        0
  0
SPLINE
  5
40
330
1F
100
AcDbEntity
  8
GRAU_10_
100
AcDbSpline
210
0.0
220
0.0
230
1.0
 70
    11
 71
     3
 72
    17
 73
    13
 74
     0
 42
0.0000000001
 43
0.0000000001
 40
0.0
 40
0.0
 40
0.0
 40
0.0
 40
1.0
 40
1.0
 40
1.0
 40
2.0
 40
2.0
 40
2.0
 40
3.0
 40
3.0
 40
3.0
 40
4.0
 40
4.0
 40
4.0
 40
4.0
 10
-67.53941899595992
 20
-89.81025345230326
 30
0.0
 10
-67.53941899595992
 20
-93.54990706857068
 30
0.0
 10
-70.57058825830251
 20
-96.58055956624956
 30
0.0
 10
-74.30989736479412
 20
-96.58055956624956
 30
0.0
 10
-78.04920647128574
 20
-96.58055956624956
 30
0.0
 10
-81.08037573362834
 20
-93.54990706857068
 30
0.0
 10
-81.08037573362834
 20
-89.81025345230326
 30
0.0
 10
-81.08037573362834
 20
-86.07128885558744
 30
0.0
 10
-78.04920647128574
 20
-83.03960282858115
 30
0.0
 10
-74.30989736479412
 20
-83.03960282858115
 30
0.0
 10
-70.57058825830251
 20
-83.03960282858115
 30
0.0
 10
-67.53941899595992
 20
-86.07128885558744
 30
0.0
 10
-67.53941899595992
 20
-89.81025345230326
 30
0.0
  0
HATCH
  5
41
330
1F
100
AcDbEntity
  8
GRAU_10_
 62
   255
100
AcDbHatch
 10
0.0
 20
0.0
 30
0.0
210
0.0
220
0.0
230
1.0
  2
SOLID
 70
     1
 71
     0
 91
        1
 92
        1
 93
        1
 72
     4
 94
        3
 73
     0
 74
     1
 95
       17
 96
       13
 40
0.0
 40
0.0
 40
0.0
 40
0.0
 40
1.0
 40
1.0
 40
1.0
 40
2.0
 40
2.0
 40
2.0
 40
3.0
 40
3.0
 40
3.0
 40
4.0
 40
4.0
 40
4.0
 40
4.0
 10
-67.53941899595992
 20
-89.81025345230326
 10
-67.53941899595992
 20
-93.54990706857068
 10
-70.57058825830251
 20
-96.58055956624956
 10
-74.30989736479412
 20
-96.58055956624956
 10
-78.04920647128574
 20
-96.58055956624956
 10
-81.08037573362834
 20
-93.54990706857068
 10
-81.08037573362834
 20
-89.81025345230326
 10
-81.08037573362834
 20
-86.07128885558744
 10
-78.04920647128574
 20
-83.03960282858115
 10
-74.30989736479412
 20
-83.03960282858115
 10
-70.57058825830251
 20
-83.03960282858115
 10
-67.53941899595992
 20
-86.07128885558744
 10
-67.53941899595992
 20
-89.81025345230326
 97
        0
 75
     0
 76
     1
 98
        0
  0
POLYLINE
  5
43
330
1F
100
AcDbEntity
  8
STANDARDEBENE
 62
     7
100
AcDb2dPolyline
 66
     1
 10
0.0
 20
0.0
 30
0.0
  0
VERTEX
  5
44
330
43
100
AcDbEntity
  8
STANDARDEBENE
 62
     7
100
AcDbVertex
100
AcDb2dVertex
 10
-17.34675623088869
 20
-54.17364547928386
 30
0.0
  0
VERTEX
  5
45
330
43
100
AcDbEntity
  8
STANDARDEBENE
 62
     7
100
AcDbVertex
100
AcDb2dVertex
 10
-29.75668737461829
 20
-54.17364547928386
 30
0.0
  0
SEQEND
  5
46
330
43
100
AcDbEntity
  8
STANDARDEBENE
  0
POLYLINE
  5
47
330
1F
100
AcDbEntity
  8
STANDARDEBENE
 62
     7
100
AcDb2dPolyline
 66
     1
 10
0.0
 20
0.0
 30
0.0
  0
VERTEX
  5
48
330
47
100
AcDbEntity
  8
STANDARDEBENE
 62
     7
100
AcDbVertex
100
AcDb2dVertex
 10
-91.67215653559366
 20
-11.29268594082262
 30
0.0
  0
VERTEX
  5
49
330
47
100
AcDbEntity
  8
STANDARDEBENE
 62
     7
100
AcDbVertex
100
AcDb2dVertex
 10
-91.67215653559366
 20
-11.79274188039076
 30
0.0
  0
SEQEND
  5
4A
330
47
100
AcDbEntity
  8
STANDARDEBENE
  0
POLYLINE
  5
4B
330
1F
100
AcDbEntity
  8
STANDARDEBENE
 62
     7
100
AcDb2dPolyline
 66
     1
 10
0.0
 20
0.0
 30
0.0
  0
VERTEX
  5
4C
330
4B
100
AcDbEntity
  8
STANDARDEBENE
 62
     7
100
AcDbVertex
100
AcDb2dVertex
 10
-91.67215653559366
 20
-12.79285375952704
 30
0.0
  0
VERTEX
  5
4D
330
4B
100
AcDbEntity
  8
STANDARDEBENE
 62
     7
100
AcDbVertex
100
AcDb2dVertex
 10
-91.67215653559366
 20
-13.79244887399962
 30
0.0
  0
SEQEND
  5
4E
330
4B
100
AcDbEntity
  8
STANDARDEBENE
  0
POLYLINE
  5
4F
330
1F
100
AcDbEntity
  8
STANDARDEBENE
 62
     7
100
AcDb2dPolyline
 66
     1
 10
0.0
 20
0.0
 30
0.0
  0
VERTEX
  5
50
330
4F
100
AcDbEntity
  8
STANDARDEBENE
 62
     7
100
AcDbVertex
100
AcDb2dVertex
 10
-91.67215653559366
 20
-14.79307751779959
 30
0.0
  0
VERTEX
  5
51
330
4F
100
AcDbEntity
  8
STANDARDEBENE
 62
     7
100
AcDbVertex
100
AcDb2dVertex
 10
-91.67215653559366
 20
-15.79318939693587
 30
0.0
  0
SEQEND
  5
52
330
4F
100
AcDbEntity
  8
STANDARDEBENE
  0
POLYLINE
  5
53
330
1F
100
AcDbEntity
  8
STANDARDEBENE
 62
     7
100
AcDb2dPolyline
 66
     1
 10
0.0
 20
0.0
 30
0.0
  0
VERTEX
  5
54
330
53
100
AcDbEntity
  8
STANDARDEBENE
 62
     7
100
AcDbVertex
100
AcDb2dVertex
 10
-91.67215653559366
 20
-16.79278451140845
 30
0.0
  0
VERTEX
  5
55
330
53
100
AcDbEntity
  8
STANDARDEBENE
 62
     7
100
AcDbVertex
100
AcDb2dVertex
 10
-91.67215653559366
 20
-17.79324090032053
 30
0.0
  0
SEQEND
  5
56
330
53
100
AcDbEntity
  8
STANDARDEBENE
  0
POLYLINE
  5
57
330
1F
100
AcDbEntity
  8
STANDARDEBENE
 62
     7
100
AcDb2dPolyline
 66
     1
 10
0.0
 20
0.0
 30
0.0
  0
VERTEX
  5
58
330
57
100
AcDbEntity
  8
STANDARDEBENE
 62
     7
100
AcDbVertex
100
AcDb2dVertex
 10
-91.67215653559366
 20
-18.79249150501732
 30
0.0
  0
VERTEX
  5
59
330
57
100
AcDbEntity
  8
STANDARDEBENE
 62
     7
100
AcDbVertex
100
AcDb2dVertex
 10
-91.67215653559366
 20
-19.79294789392939
 30
0.0
  0
SEQEND
  5
5A
330
57
100
AcDbEntity
  8
STANDARDEBENE
  0
POLYLINE
  5
5B
330
1F
100
AcDbEntity
  8
STANDARDEBENE
 62
     7
100
AcDb2dPolyline
 66
     1
 10
0.0
 20
0.0
 30
0.0
  0
VERTEX
  5
5C
330
5B
100
AcDbEntity
  8
STANDARDEBENE
 62
     7
100
AcDbVertex
100
AcDb2dVertex
 10
-91.67215653559366
 20
-20.79323202795357
 30
0.0
  0
VERTEX
  5
5D
330
5B
100
AcDbEntity
  8
STANDARDEBENE
 62
     7
100
AcDbVertex
100
AcDb2dVertex
 10
-91.67215653559366
 20
-21.79299939731405
 30
0.0
  0
SEQEND
  5
5E
330
5B
100
AcDbEntity
  8
STANDARDEBENE
  0
POLYLINE
  5
5F
330
1F
100
AcDbEntity
  8
STANDARDEBENE
 62
     7
100
AcDb2dPolyline
 66
     1
 10
0.0
 20
0.0
 30
0.0
  0
VERTEX
  5
60
330
5F
100
AcDbEntity
  8
STANDARDEBENE
 62
     7
100
AcDbVertex
100
AcDb2dVertex
 10
-91.67215653559366
 20
-22.79293902156243
 30
0.0
  0
VERTEX
  5
61
330
5F
100
AcDbEntity
  8
STANDARDEBENE
 62
     7
100
AcDbVertex
100
AcDb2dVertex
 10
-91.67215653559366
 20
-23.79236188114712
 30
0.0
  0
SEQEND
  5
62
330
5F
100
AcDbEntity
  8
STANDARDEBENE
  0
POLYLINE
  5
63
330
1F
100
AcDbEntity
  8
STANDARDEBENE
 62
     7
100
AcDb2dPolyline
 66
     1
 10
0.0
 20
0.0
 30
0.0
  0
VERTEX
  5
64
330
63
100
AcDbEntity
  8
STANDARDEBENE
 62
     7
100
AcDbVertex
100
AcDb2dVertex
 10
-91.67215653559366
 20
-24.79264601517129
 30
0.0
  0
VERTEX
  5
65
330
63
100
AcDbEntity
  8
STANDARDEBENE
 62
     7
100
AcDbVertex
100
AcDb2dVertex
 10
-91.67215653559366
 20
-25.79361916874706
 30
0.0
  0
SEQEND
  5
66
330
63
100
AcDbEntity
  8
STANDARDEBENE
  0
POLYLINE
  5
67
330
1F
100
AcDbEntity
  8
STANDARDEBENE
 62
     7
100
AcDb2dPolyline
 66
     1
 10
0.0
 20
0.0
 30
0.0
  0
VERTEX
  5
68
330
67
100
AcDbEntity
  8
STANDARDEBENE
 62
     7
100
AcDbVertex
100
AcDb2dVertex
 10
-91.67215653559366
 20
-26.79304202833174
 30
0.0
  0
VERTEX
  5
69
330
67
100
AcDbEntity
  8
STANDARDEBENE
 62
     7
100
AcDbVertex
100
AcDb2dVertex
 10
-91.67215653559366
 20
-27.79298165258012
 30
0.0
  0
SEQEND
  5
6A
330
67
100
AcDbEntity
  8
STANDARDEBENE
  0
POLYLINE
  5
6B
330
1F
100
AcDbEntity
  8
STANDARDEBENE
 62
     7
100
AcDb2dPolyline
 66
     1
 10
0.0
 20
0.0
 30
0.0
  0
VERTEX
  5
6C
330
6B
100
AcDbEntity
  8
STANDARDEBENE
 62
     7
100
AcDbVertex
100
AcDb2dVertex
 10
-91.67215653559366
 20
-28.7930935317164
 30
0.0
  0
VERTEX
  5
6D
330
6B
100
AcDbEntity
  8
STANDARDEBENE
 62
     7
100
AcDbVertex
100
AcDb2dVertex
 10
-91.67215653559366
 20
-29.79268864618899
 30
0.0
  0
SEQEND
  5
6E
330
6B
100
AcDbEntity
  8
STANDARDEBENE
  0
POLYLINE
  5
6F
330
1F
100
AcDbEntity
  8
STANDARDEBENE
 62
     7
100
AcDb2dPolyline
 66
     1
 10
0.0
 20
0.0
 30
0.0
  0
VERTEX
  5
70
330
6F
100
AcDbEntity
  8
STANDARDEBENE
 62
     7
100
AcDbVertex
100
AcDb2dVertex
 10
-91.67215653559366
 20
-30.79331728998896
 30
0.0
  0
VERTEX
  5
71
330
6F
100
AcDbEntity
  8
STANDARDEBENE
 62
     7
100
AcDbVertex
100
AcDb2dVertex
 10
-91.67215653559366
 20
-31.79308465934944
 30
0.0
  0
SEQEND
  5
72
330
6F
100
AcDbEntity
  8
STANDARDEBENE
  0
POLYLINE
  5
73
330
1F
100
AcDbEntity
  8
STANDARDEBENE
 62
     7
100
AcDb2dPolyline
 66
     1
 10
0.0
 20
0.0
 30
0.0
  0
VERTEX
  5
74
330
73
100
AcDbEntity
  8
STANDARDEBENE
 62
     7
100
AcDbVertex
100
AcDb2dVertex
 10
-91.67215653559366
 20
-32.79319653848572
 30
0.0
  0
VERTEX
  5
75
330
73
100
AcDbEntity
  8
STANDARDEBENE
 62
     7
100
AcDbVertex
100
AcDb2dVertex
 10
-91.67215653559366
 20
-33.7931361627341
 30
0.0
  0
SEQEND
  5
76
330
73
100
AcDbEntity
  8
STANDARDEBENE
  0
POLYLINE
  5
77
330
1F
100
AcDbEntity
  8
STANDARDEBENE
 62
     7
100
AcDb2dPolyline
 66
     1
 10
0.0
 20
0.0
 30
0.0
  0
VERTEX
  5
78
330
77
100
AcDbEntity
  8
STANDARDEBENE
 62
     7
100
AcDbVertex
100
AcDb2dVertex
 10
-91.67215653559366
 20
-34.79255902231878
 30
0.0
  0
VERTEX
  5
79
330
77
100
AcDbEntity
  8
STANDARDEBENE
 62
     7
100
AcDbVertex
100
AcDb2dVertex
 10
-91.67215653559366
 20
-35.79284315634296
 30
0.0
  0
SEQEND
  5
7A
330
77
100
AcDbEntity
  8
STANDARDEBENE
  0
POLYLINE
  5
7B
330
1F
100
AcDbEntity
  8
STANDARDEBENE
 62
     7
100
AcDb2dPolyline
 66
     1
 10
0.0
 20
0.0
 30
0.0
  0
VERTEX
  5
7C
330
7B
100
AcDbEntity
  8
STANDARDEBENE
 62
     7
100
AcDbVertex
100
AcDb2dVertex
 10
-91.67215653559366
 20
-36.79295503547924
 30
0.0
  0
VERTEX
  5
7D
330
7B
100
AcDbEntity
  8
STANDARDEBENE
 62
     7
100
AcDbVertex
100
AcDb2dVertex
 10
-91.67215653559366
 20
-37.79323916950342
 30
0.0
  0
SEQEND
  5
7E
330
7B
100
AcDbEntity
  8
STANDARDEBENE
  0
POLYLINE
  5
7F
330
1F
100
AcDbEntity
  8
STANDARDEBENE
 62
     7
100
AcDb2dPolyline
 66
     1
 10
0.0
 20
0.0
 30
0.0
  0
VERTEX
  5
80
330
7F
100
AcDbEntity
  8
STANDARDEBENE
 62
     7
100
AcDbVertex
100
AcDb2dVertex
 10
-91.67215653559366
 20
-38.7931787937518
 30
0.0
  0
VERTEX
  5
81
330
7F
100
AcDbEntity
  8
STANDARDEBENE
 62
     7
100
AcDbVertex
100
AcDb2dVertex
 10
-91.67215653559366
 20
-39.79260165333648
 30
0.0
  0
SEQEND
  5
82
330
7F
100
AcDbEntity
  8
STANDARDEBENE
  0
POLYLINE
  5
83
330
1F
100
AcDbEntity
  8
STANDARDEBENE
 62
     7
100
AcDb2dPolyline
 66
     1
 10
0.0
 20
0.0
 30
0.0
  0
VERTEX
  5
84
330
83
100
AcDbEntity
  8
STANDARDEBENE
 62
     7
100
AcDbVertex
100
AcDb2dVertex
 10
-91.67215653559366
 20
-40.79288578736066
 30
0.0
  0
VERTEX
  5
85
330
83
100
AcDbEntity
  8
STANDARDEBENE
 62
     7
100
AcDbVertex
100
AcDb2dVertex
 10
-91.67215653559366
 20
-41.79265315672114
 30
0.0
  0
SEQEND
  5
86
330
83
100
AcDbEntity
  8
STANDARDEBENE
  0
POLYLINE
  5
87
330
1F
100
AcDbEntity
  8
STANDARDEBENE
 62
     7
100
AcDb2dPolyline
 66
     1
 10
0.0
 20
0.0
 30
0.0
  0
VERTEX
  5
88
330
87
100
AcDbEntity
  8
STANDARDEBENE
 62
     7
100
AcDbVertex
100
AcDb2dVertex
 10
-91.67215653559366
 20
-42.79293729074531
 30
0.0
  0
VERTEX
  5
89
330
87
100
AcDbEntity
  8
STANDARDEBENE
 62
     7
100
AcDbVertex
100
AcDb2dVertex
 10
-91.67215653559366
 20
-43.29316548520136
 30
0.0
  0
SEQEND
  5
8A
330
87
100
AcDbEntity
  8
STANDARDEBENE
  0
POLYLINE
  5
8B
330
1F
100
AcDbEntity
  8
STANDARDEBENE
 62
     7
100
AcDb2dPolyline
 66
     1
 10
0.0
 20
0.0
 30
0.0
  0
VERTEX
  5
8C
330
8B
100
AcDbEntity
  8
STANDARDEBENE
 62
     7
100
AcDbVertex
100
AcDb2dVertex
 10
-85.67217428032758
 20
-11.29268594082262
 30
0.0
  0
VERTEX
  5
8D
330
8B
100
AcDbEntity
  8
STANDARDEBENE
 62
     7
100
AcDbVertex
100
AcDb2dVertex
 10
-85.67217428032758
 20
-11.79274188039076
 30
0.0
  0
SEQEND
  5
8E
330
8B
100
AcDbEntity
  8
STANDARDEBENE
  0
POLYLINE
  5
8F
330
1F
100
AcDbEntity
  8
STANDARDEBENE
 62
     7
100
AcDb2dPolyline
 66
     1
 10
0.0
 20
0.0
 30
0.0
  0
VERTEX
  5
90
330
8F
100
AcDbEntity
  8
STANDARDEBENE
 62
     7
100
AcDbVertex
100
AcDb2dVertex
 10
-85.67217428032758
 20
-12.79285375952704
 30
0.0
  0
VERTEX
  5
91
330
8F
100
AcDbEntity
  8
STANDARDEBENE
 62
     7
100
AcDbVertex
100
AcDb2dVertex
 10
-85.67217428032758
 20
-13.79244887399962
 30
0.0
  0
SEQEND
  5
92
330
8F
100
AcDbEntity
  8
STANDARDEBENE
  0
POLYLINE
  5
93
330
1F
100
AcDbEntity
  8
STANDARDEBENE
 62
     7
100
AcDb2dPolyline
 66
     1
 10
0.0
 20
0.0
 30
0.0
  0
VERTEX
  5
94
330
93
100
AcDbEntity
  8
STANDARDEBENE
 62
     7
100
AcDbVertex
100
AcDb2dVertex
 10
-85.67217428032758
 20
-14.79307751779959
 30
0.0
  0
VERTEX
  5
95
330
93
100
AcDbEntity
  8
STANDARDEBENE
 62
     7
100
AcDbVertex
100
AcDb2dVertex
 10
-85.67217428032758
 20
-15.79318939693587
 30
0.0
  0
SEQEND
  5
96
330
93
100
AcDbEntity
  8
STANDARDEBENE
  0
POLYLINE
  5
97
330
1F
100
AcDbEntity
  8
STANDARDEBENE
 62
     7
100
AcDb2dPolyline
 66
     1
 10
0.0
 20
0.0
 30
0.0
  0
VERTEX
  5
98
330
97
100
AcDbEntity
  8
STANDARDEBENE
 62
     7
100
AcDbVertex
100
AcDb2dVertex
 10
-85.67217428032758
 20
-16.79278451140845
 30
0.0
  0
VERTEX
  5
99
330
97
100
AcDbEntity
  8
STANDARDEBENE
 62
     7
100
AcDbVertex
100
AcDb2dVertex
 10
-85.67217428032758
 20
-17.79324090032053
 30
0.0
  0
SEQEND
  5
9A
330
97
100
AcDbEntity
  8
STANDARDEBENE
  0
POLYLINE
  5
9B
330
1F
100
AcDbEntity
  8
STANDARDEBENE
 62
     7
100
AcDb2dPolyline
 66
     1
 10
0.0
 20
0.0
 30
0.0
  0
VERTEX
  5
9C
330
9B
100
AcDbEntity
  8
STANDARDEBENE
 62
     7
100
AcDbVertex
100
AcDb2dVertex
 10
-85.67217428032758
 20
-18.79249150501732
 30
0.0
  0
VERTEX
  5
9D
330
9B
100
AcDbEntity
  8
STANDARDEBENE
 62
     7
100
AcDbVertex
100
AcDb2dVertex
 10
-85.67217428032758
 20
-19.79294789392939
 30
0.0
  0
SEQEND
  5
9E
330
9B
100
AcDbEntity
  8
STANDARDEBENE
  0
POLYLINE
  5
9F
330
1F
100
AcDbEntity
  8
STANDARDEBENE
 62
     7
100
AcDb2dPolyline
 66
     1
 10
0.0
 20
0.0
 30
0.0
  0
VERTEX
  5
A0
330
9F
100
AcDbEntity
  8
STANDARDEBENE
 62
     7
100
AcDbVertex
100
AcDb2dVertex
 10
-85.67217428032758
 20
-20.79323202795357
 30
0.0
  0
VERTEX
  5
A1
330
9F
100
AcDbEntity
  8
STANDARDEBENE
 62
     7
100
AcDbVertex
100
AcDb2dVertex
 10
-85.67217428032758
 20
-21.79299939731405
 30
0.0
  0
SEQEND
  5
A2
330
9F
100
AcDbEntity
  8
STANDARDEBENE
  0
POLYLINE
  5
A3
330
1F
100
AcDbEntity
  8
STANDARDEBENE
 62
     7
100
AcDb2dPolyline
 66
     1
 10
0.0
 20
0.0
 30
0.0
  0
VERTEX
  5
A4
330
A3
100
AcDbEntity
  8
STANDARDEBENE
 62
     7
100
AcDbVertex
100
AcDb2dVertex
 10
-85.67217428032758
 20
-22.79293902156243
 30
0.0
  0
VERTEX
  5
A5
330
A3
100
AcDbEntity
  8
STANDARDEBENE
 62
     7
100
AcDbVertex
100
AcDb2dVertex
 10
-85.67217428032758
 20
-23.79236188114712
 30
0.0
  0
SEQEND
  5
A6
330
A3
100
AcDbEntity
  8
STANDARDEBENE
  0
POLYLINE
  5
A7
330
1F
100
AcDbEntity
  8
STANDARDEBENE
 62
     7
100
AcDb2dPolyline
 66
     1
 10
0.0
 20
0.0
 30
0.0
  0
VERTEX
  5
A8
330
A7
100
AcDbEntity
  8
STANDARDEBENE
 62
     7
100
AcDbVertex
100
AcDb2dVertex
 10
-85.67217428032758
 20
-24.79264601517129
 30
0.0
  0
VERTEX
  5
A9
330
A7
100
AcDbEntity
  8
STANDARDEBENE
 62
     7
100
AcDbVertex
100
AcDb2dVertex
 10
-85.67217428032758
 20
-25.79361916874706
 30
0.0
  0
SEQEND
  5
AA
330
A7
100
AcDbEntity
  8
STANDARDEBENE
  0
POLYLINE
  5
AB
330
1F
100
AcDbEntity
  8
STANDARDEBENE
 62
     7
100
AcDb2dPolyline
 66
     1
 10
0.0
 20
0.0
 30
0.0
  0
VERTEX
  5
AC
330
AB
100
AcDbEntity
  8
STANDARDEBENE
 62
     7
100
AcDbVertex
100
AcDb2dVertex
 10
-85.67217428032758
 20
-26.79304202833174
 30
0.0
  0
VERTEX
  5
AD
330
AB
100
AcDbEntity
  8
STANDARDEBENE
 62
     7
100
AcDbVertex
100
AcDb2dVertex
 10
-85.67217428032758
 20
-27.79298165258012
 30
0.0
  0
SEQEND
  5
AE
330
AB
100
AcDbEntity
  8
STANDARDEBENE
  0
POLYLINE
  5
AF
330
1F
100
AcDbEntity
  8
STANDARDEBENE
 62
     7
100
AcDb2dPolyline
 66
     1
 10
0.0
 20
0.0
 30
0.0
  0
VERTEX
  5
B0
330
AF
100
AcDbEntity
  8
STANDARDEBENE
 62
     7
100
AcDbVertex
100
AcDb2dVertex
 10
-85.67217428032758
 20
-28.7930935317164
 30
0.0
  0
VERTEX
  5
B1
330
AF
100
AcDbEntity
  8
STANDARDEBENE
 62
     7
100
AcDbVertex
100
AcDb2dVertex
 10
-85.67217428032758
 20
-29.79268864618899
 30
0.0
  0
SEQEND
  5
B2
330
AF
100
AcDbEntity
  8
STANDARDEBENE
  0
POLYLINE
  5
B3
330
1F
100
AcDbEntity
  8
STANDARDEBENE
 62
     7
100
AcDb2dPolyline
 66
     1
 10
0.0
 20
0.0
 30
0.0
  0
VERTEX
  5
B4
330
B3
100
AcDbEntity
  8
STANDARDEBENE
 62
     7
100
AcDbVertex
100
AcDb2dVertex
 10
-85.67217428032758
 20
-30.79331728998896
 30
0.0
  0
VERTEX
  5
B5
330
B3
100
AcDbEntity
  8
STANDARDEBENE
 62
     7
100
AcDbVertex
100
AcDb2dVertex
 10
-85.67217428032758
 20
-31.79308465934944
 30
0.0
  0
SEQEND
  5
B6
330
B3
100
AcDbEntity
  8
STANDARDEBENE
  0
POLYLINE
  5
B7
330
1F
100
AcDbEntity
  8
STANDARDEBENE
 62
     7
100
AcDb2dPolyline
 66
     1
 10
0.0
 20
0.0
 30
0.0
  0
VERTEX
  5
B8
330
B7
100
AcDbEntity
  8
STANDARDEBENE
 62
     7
100
AcDbVertex
100
AcDb2dVertex
 10
-85.67217428032758
 20
-32.79319653848572
 30
0.0
  0
VERTEX
  5
B9
330
B7
100
AcDbEntity
  8
STANDARDEBENE
 62
     7
100
AcDbVertex
100
AcDb2dVertex
 10
-85.67217428032758
 20
-33.7931361627341
 30
0.0
  0
SEQEND
  5
BA
330
B7
100
AcDbEntity
  8
STANDARDEBENE
  0
POLYLINE
  5
BB
330
1F
100
AcDbEntity
  8
STANDARDEBENE
 62
     7
100
AcDb2dPolyline
 66
     1
 10
0.0
 20
0.0
 30
0.0
  0
VERTEX
  5
BC
330
BB
100
AcDbEntity
  8
STANDARDEBENE
 62
     7
100
AcDbVertex
100
AcDb2dVertex
 10
-85.67217428032758
 20
-34.79255902231878
 30
0.0
  0
VERTEX
  5
BD
330
BB
100
AcDbEntity
  8
STANDARDEBENE
 62
     7
100
AcDbVertex
100
AcDb2dVertex
 10
-85.67217428032758
 20
-35.79284315634296
 30
0.0
  0
SEQEND
  5
BE
330
BB
100
AcDbEntity
  8
STANDARDEBENE
  0
POLYLINE
  5
BF
330
1F
100
AcDbEntity
  8
STANDARDEBENE
 62
     7
100
AcDb2dPolyline
 66
     1
 10
0.0
 20
0.0
 30
0.0
  0
VERTEX
  5
C0
330
BF
100
AcDbEntity
  8
STANDARDEBENE
 62
     7
100
AcDbVertex
100
AcDb2dVertex
 10
-85.67217428032758
 20
-36.79295503547924
 30
0.0
  0
VERTEX
  5
C1
330
BF
100
AcDbEntity
  8
STANDARDEBENE
 62
     7
100
AcDbVertex
100
AcDb2dVertex
 10
-85.67217428032758
 20
-37.79323916950342
 30
0.0
  0
SEQEND
  5
C2
330
BF
100
AcDbEntity
  8
STANDARDEBENE
  0
POLYLINE
  5
C3
330
1F
100
AcDbEntity
  8
STANDARDEBENE
 62
     7
100
AcDb2dPolyline
 66
     1
 10
0.0
 20
0.0
 30
0.0
  0
VERTEX
  5
C4
330
C3
100
AcDbEntity
  8
STANDARDEBENE
 62
     7
100
AcDbVertex
100
AcDb2dVertex
 10
-85.67217428032758
 20
-38.7931787937518
 30
0.0
  0
VERTEX
  5
C5
330
C3
100
AcDbEntity
  8
STANDARDEBENE
 62
     7
100
AcDbVertex
100
AcDb2dVertex
 10
-85.67217428032758
 20
-39.79260165333648
 30
0.0
  0
SEQEND
  5
C6
330
C3
100
AcDbEntity
  8
STANDARDEBENE
  0
POLYLINE
  5
C7
330
1F
100
AcDbEntity
  8
STANDARDEBENE
 62
     7
100
AcDb2dPolyline
 66
     1
 10
0.0
 20
0.0
 30
0.0
  0
VERTEX
  5
C8
330
C7
100
AcDbEntity
  8
STANDARDEBENE
 62
     7
100
AcDbVertex
100
AcDb2dVertex
 10
-85.67217428032758
 20
-40.79288578736066
 30
0.0
  0
VERTEX
  5
C9
330
C7
100
AcDbEntity
  8
STANDARDEBENE
 62
     7
100
AcDbVertex
100
AcDb2dVertex
 10
-85.67217428032758
 20
-41.79265315672114
 30
0.0
  0
SEQEND
  5
CA
330
C7
100
AcDbEntity
  8
STANDARDEBENE
  0
POLYLINE
  5
CB
330
1F
100
AcDbEntity
  8
STANDARDEBENE
 62
     7
100
AcDb2dPolyline
 66
     1
 10
0.0
 20
0.0
 30
0.0
  0
VERTEX
  5
CC
330
CB
100
AcDbEntity
  8
STANDARDEBENE
 62
     7
100
AcDbVertex
100
AcDb2dVertex
 10
-85.67217428032758
 20
-42.79293729074531
 30
0.0
  0
VERTEX
  5
CD
330
CB
100
AcDbEntity
  8
STANDARDEBENE
 62
     7
100
AcDbVertex
100
AcDb2dVertex
 10
-85.67217428032758
 20
-43.29316548520136
 30
0.0
  0
VERTEX
  5
CE
330
CB
100
AcDbEntity
  8
STANDARDEBENE
 62
     7
100
AcDbVertex
100
AcDb2dVertex
 10
-86.17188571011992
 20
-43.29316548520136
 30
0.0
  0
SEQEND
  5
CF
330
CB
100
AcDbEntity
  8
STANDARDEBENE
  0
POLYLINE
  5
D0
330
1F
100
AcDbEntity
  8
STANDARDEBENE
 62
     7
100
AcDb2dPolyline
 66
     1
 10
0.0
 20
0.0
 30
0.0
  0
VERTEX
  5
D1
330
D0
100
AcDbEntity
  8
STANDARDEBENE
 62
     7
100
AcDbVertex
100
AcDb2dVertex
 10
-87.1726866088078
 20
-43.29316548520136
 30
0.0
  0
VERTEX
  5
D2
330
D0
100
AcDbEntity
  8
STANDARDEBENE
 62
     7
100
AcDbVertex
100
AcDb2dVertex
 10
-88.17193721350458
 20
-43.29316548520136
 30
0.0
  0
SEQEND
  5
D3
330
D0
100
AcDbEntity
  8
STANDARDEBENE
  0
POLYLINE
  5
D4
330
1F
100
AcDbEntity
  8
STANDARDEBENE
 62
     7
100
AcDb2dPolyline
 66
     1
 10
0.0
 20
0.0
 30
0.0
  0
VERTEX
  5
D5
330
D4
100
AcDbEntity
  8
STANDARDEBENE
 62
     7
100
AcDbVertex
100
AcDb2dVertex
 10
-89.17204909264085
 20
-43.29316548520136
 30
0.0
  0
VERTEX
  5
D6
330
D4
100
AcDbEntity
  8
STANDARDEBENE
 62
     7
100
AcDbVertex
100
AcDb2dVertex
 10
-90.17164420711343
 20
-43.29316548520136
 30
0.0
  0
SEQEND
  5
D7
330
D4
100
AcDbEntity
  8
STANDARDEBENE
  0
POLYLINE
  5
D8
330
1F
100
AcDbEntity
  8
STANDARDEBENE
 62
     7
100
AcDb2dPolyline
 66
     1
 10
0.0
 20
0.0
 30
0.0
  0
VERTEX
  5
D9
330
D8
100
AcDbEntity
  8
STANDARDEBENE
 62
     7
100
AcDbVertex
100
AcDb2dVertex
 10
-91.17210059602552
 20
-43.29316548520136
 30
0.0
  0
VERTEX
  5
DA
330
D8
100
AcDbEntity
  8
STANDARDEBENE
 62
     7
100
AcDbVertex
100
AcDb2dVertex
 10
-91.67215653559366
 20
-43.29316548520136
 30
0.0
  0
SEQEND
  5
DB
330
D8
100
AcDbEntity
  8
STANDARDEBENE
  0
POLYLINE
  5
DC
330
1F
100
AcDbEntity
  8
STANDARDEBENE
 62
     7
100
AcDb2dPolyline
 66
     1
 10
0.0
 20
0.0
 30
0.0
  0
VERTEX
  5
DD
330
DC
100
AcDbEntity
  8
STANDARDEBENE
 62
     7
100
AcDbVertex
100
AcDb2dVertex
 10
-82.46719983609582
 20
-54.17364547928386
 30
0.0
  0
VERTEX
  5
DE
330
DC
100
AcDbEntity
  8
STANDARDEBENE
 62
     7
100
AcDbVertex
100
AcDb2dVertex
 10
-94.87747548960121
 20
-54.17364547928386
 30
0.0
  0
SEQEND
  5
DF
330
DC
100
AcDbEntity
  8
STANDARDEBENE
  0
POLYLINE
  5
E0
330
1F
100
AcDbEntity
  8
STANDARDEBENE
 62
     7
100
AcDb2dPolyline
 66
     1
 10
0.0
 20
0.0
 30
0.0
  0
VERTEX
  5
E1
330
E0
100
AcDbEntity
  8
STANDARDEBENE
 62
     7
100
AcDbVertex
100
AcDb2dVertex
 10
-86.28557393613265
 20
-26.34483481002093
 30
0.0
  0
VERTEX
  5
E2
330
E0
100
AcDbEntity
  8
STANDARDEBENE
 62
     7
100
AcDbVertex
100
AcDb2dVertex
 10
-86.39185520196577
 20
-25.64237937717254
 30
0.0
  0
VERTEX
  5
E3
330
E0
100
AcDbEntity
  8
STANDARDEBENE
 62
     7
100
AcDbVertex
100
AcDb2dVertex
 10
-86.70070821596704
 20
-25.00193570396747
 30
0.0
  0
VERTEX
  5
E4
330
E0
100
AcDbEntity
  8
STANDARDEBENE
 62
     7
100
AcDbVertex
100
AcDb2dVertex
 10
-87.18457219607275
 20
-24.48103692296366
 30
0.0
  0
VERTEX
  5
E5
330
E0
100
AcDbEntity
  8
STANDARDEBENE
 62
     7
100
AcDbVertex
100
AcDb2dVertex
 10
-87.79986665564472
 20
-24.12464155990252
 30
0.0
  0
VERTEX
  5
E6
330
E0
100
AcDbEntity
  8
STANDARDEBENE
 62
     7
100
AcDbVertex
100
AcDb2dVertex
 10
-88.49370934409819
 20
-23.96685608258787
 30
0.0
  0
VERTEX
  5
E7
330
E0
100
AcDbEntity
  8
STANDARDEBENE
 62
     7
100
AcDbVertex
100
AcDb2dVertex
 10
-89.20305497246251
 20
-24.01973833317259
 30
0.0
  0
VERTEX
  5
E8
330
E0
100
AcDbEntity
  8
STANDARDEBENE
 62
     7
100
AcDbVertex
100
AcDb2dVertex
 10
-89.86537501643065
 20
-24.279326449235
 30
0.0
  0
VERTEX
  5
E9
330
E0
100
AcDbEntity
  8
STANDARDEBENE
 62
     7
100
AcDbVertex
100
AcDb2dVertex
 10
-90.42193055922935
 20
-24.72322729534836
 30
0.0
  0
VERTEX
  5
EA
330
E0
100
AcDbEntity
  8
STANDARDEBENE
 62
     7
100
AcDbVertex
100
AcDb2dVertex
 10
-90.8222509187045
 20
-25.31009969841714
 30
0.0
  0
VERTEX
  5
EB
330
E0
100
AcDbEntity
  8
STANDARDEBENE
 62
     7
100
AcDbVertex
100
AcDb2dVertex
 10
-91.03240188194016
 20
-25.98998974095088
 30
0.0
  0
VERTEX
  5
EC
330
E0
100
AcDbEntity
  8
STANDARDEBENE
 62
     7
100
AcDbVertex
100
AcDb2dVertex
 10
-91.03240188194016
 20
-26.70088566330627
 30
0.0
  0
VERTEX
  5
ED
330
E0
100
AcDbEntity
  8
STANDARDEBENE
 62
     7
100
AcDbVertex
100
AcDb2dVertex
 10
-90.8222509187045
 20
-27.38060345095211
 30
0.0
  0
VERTEX
  5
EE
330
E0
100
AcDbEntity
  8
STANDARDEBENE
 62
     7
100
AcDbVertex
100
AcDb2dVertex
 10
-90.42193055922935
 20
-27.96782036379668
 30
0.0
  0
VERTEX
  5
EF
330
E0
100
AcDbEntity
  8
STANDARDEBENE
 62
     7
100
AcDbVertex
100
AcDb2dVertex
 10
-89.86537501643065
 20
-28.41068768058266
 30
0.0
  0
VERTEX
  5
F0
330
E0
100
AcDbEntity
  8
STANDARDEBENE
 62
     7
100
AcDbVertex
100
AcDb2dVertex
 10
-89.20305497246251
 20
-28.67027579664507
 30
0.0
  0
VERTEX
  5
F1
330
E0
100
AcDbEntity
  8
STANDARDEBENE
 62
     7
100
AcDbVertex
100
AcDb2dVertex
 10
-88.49370934409819
 20
-28.72350255700558
 30
0.0
  0
VERTEX
  5
F2
330
E0
100
AcDbEntity
  8
STANDARDEBENE
 62
     7
100
AcDbVertex
100
AcDb2dVertex
 10
-87.79986665564472
 20
-28.56537256991514
 30
0.0
  0
VERTEX
  5
F3
330
E0
100
AcDbEntity
  8
STANDARDEBENE
 62
     7
100
AcDbVertex
100
AcDb2dVertex
 10
-87.18457219607275
 20
-28.20983848129349
 30
0.0
  0
VERTEX
  5
F4
330
E0
100
AcDbEntity
  8
STANDARDEBENE
 62
     7
100
AcDbVertex
100
AcDb2dVertex
 10
-86.70070821596704
 20
-27.68911195517758
 30
0.0
  0
VERTEX
  5
F5
330
E0
100
AcDbEntity
  8
STANDARDEBENE
 62
     7
100
AcDbVertex
100
AcDb2dVertex
 10
-86.39185520196577
 20
-27.04832377219671
 30
0.0
  0
VERTEX
  5
F6
330
E0
100
AcDbEntity
  8
STANDARDEBENE
 62
     7
100
AcDbVertex
100
AcDb2dVertex
 10
-86.28557393613265
 20
-26.34483481002093
 30
0.0
  0
SEQEND
  5
F7
330
E0
100
AcDbEntity
  8
STANDARDEBENE
  0
POLYLINE
  5
F8
330
1F
100
AcDbEntity
  8
STANDARDEBENE
 62
     7
100
AcDb2dPolyline
 66
     1
 10
0.0
 20
0.0
 30
0.0
  0
VERTEX
  5
F9
330
F8
100
AcDbEntity
  8
STANDARDEBENE
 62
     7
100
AcDbVertex
100
AcDb2dVertex
 10
-89.26386094789054
 20
-27.7228739132056
 30
0.0
  0
VERTEX
  5
FA
330
F8
100
AcDbEntity
  8
STANDARDEBENE
 62
     7
100
AcDbVertex
100
AcDb2dVertex
 10
-89.42199093498097
 20
-27.64363666477249
 30
0.0
  0
VERTEX
  5
FB
330
F8
100
AcDbEntity
  8
STANDARDEBENE
 62
     7
100
AcDbVertex
100
AcDb2dVertex
 10
-89.56978562879753
 20
-27.54631265311007
 30
0.0
  0
VERTEX
  5
FC
330
F8
100
AcDbEntity
  8
STANDARDEBENE
 62
     7
100
AcDbVertex
100
AcDb2dVertex
 10
-90.16130891383955
 20
-27.20490346529607
 30
0.0
  0
VERTEX
  5
FD
330
F8
100
AcDbEntity
  8
STANDARDEBENE
 62
     7
100
AcDbVertex
100
AcDb2dVertex
 10
-90.16130891383955
 20
-26.52156832500436
 30
0.0
  0
VERTEX
  5
FE
330
F8
100
AcDbEntity
  8
STANDARDEBENE
 62
     7
100
AcDbVertex
100
AcDb2dVertex
 10
-90.17164420711343
 20
-26.34483481002093
 30
0.0
  0
VERTEX
  5
FF
330
F8
100
AcDbEntity
  8
STANDARDEBENE
 62
     7
100
AcDbVertex
100
AcDb2dVertex
 10
-90.16130891383955
 20
-26.16844580481329
 30
0.0
  0
VERTEX
  5
100
330
F8
100
AcDbEntity
  8
STANDARDEBENE
 62
     7
100
AcDbVertex
100
AcDb2dVertex
 10
-90.16130891383955
 20
-25.47356958703242
 30
0.0
  0
VERTEX
  5
101
330
F8
100
AcDbEntity
  8
STANDARDEBENE
 62
     7
100
AcDbVertex
100
AcDb2dVertex
 10
-88.66148560491094
 20
-24.60816103023244
 30
0.0
  0
SEQEND
  5
102
330
F8
100
AcDbEntity
  8
STANDARDEBENE
  0
POLYLINE
  5
103
330
1F
100
AcDbEntity
  8
STANDARDEBENE
 62
     7
100
AcDb2dPolyline
 66
     1
 10
0.0
 20
0.0
 30
0.0
  0
VERTEX
  5
104
330
103
100
AcDbEntity
  8
STANDARDEBENE
 62
     7
100
AcDbVertex
100
AcDb2dVertex
 10
-87.16200680575811
 20
-25.47356958703242
 30
0.0
  0
VERTEX
  5
105
330
103
100
AcDbEntity
  8
STANDARDEBENE
 62
     7
100
AcDbVertex
100
AcDb2dVertex
 10
-88.66148560491094
 20
-24.60816103023244
 30
0.0
  0
SEQEND
  5
106
330
103
100
AcDbEntity
  8
STANDARDEBENE
  0
POLYLINE
  5
107
330
1F
100
AcDbEntity
  8
STANDARDEBENE
 62
     7
100
AcDb2dPolyline
 66
     1
 10
0.0
 20
0.0
 30
0.0
  0
VERTEX
  5
108
330
107
100
AcDbEntity
  8
STANDARDEBENE
 62
     7
100
AcDbVertex
100
AcDb2dVertex
 10
-87.16200680575811
 20
-27.20490346529607
 30
0.0
  0
VERTEX
  5
109
330
107
100
AcDbEntity
  8
STANDARDEBENE
 62
     7
100
AcDbVertex
100
AcDb2dVertex
 10
-87.16200680575811
 20
-25.47356958703242
 30
0.0
  0
SEQEND
  5
10A
330
107
100
AcDbEntity
  8
STANDARDEBENE
  0
POLYLINE
  5
10B
330
1F
100
AcDbEntity
  8
STANDARDEBENE
 62
     7
100
AcDb2dPolyline
 66
     1
 10
0.0
 20
0.0
 30
0.0
  0
VERTEX
  5
10C
330
10B
100
AcDbEntity
  8
STANDARDEBENE
 62
     7
100
AcDbVertex
100
AcDb2dVertex
 10
-88.66148560491094
 20
-28.07013976720814
 30
0.0
  0
VERTEX
  5
10D
330
10B
100
AcDbEntity
  8
STANDARDEBENE
 62
     7
100
AcDbVertex
100
AcDb2dVertex
 10
-87.16200680575811
 20
-27.20490346529607
 30
0.0
  0
SEQEND
  5
10E
330
10B
100
AcDbEntity
  8
STANDARDEBENE
  0
POLYLINE
  5
10F
330
1F
100
AcDbEntity
  8
STANDARDEBENE
 62
     7
100
AcDb2dPolyline
 66
     1
 10
0.0
 20
0.0
 30
0.0
  0
VERTEX
  5
110
330
10F
100
AcDbEntity
  8
STANDARDEBENE
 62
     7
100
AcDbVertex
100
AcDb2dVertex
 10
-88.66148560491094
 20
-28.07013976720814
 30
0.0
  0
VERTEX
  5
111
330
10F
100
AcDbEntity
  8
STANDARDEBENE
 62
     7
100
AcDbVertex
100
AcDb2dVertex
 10
-89.26386094789054
 20
-27.7228739132056
 30
0.0
  0
SEQEND
  5
112
330
10F
100
AcDbEntity
  8
STANDARDEBENE
  0
POLYLINE
  5
113
330
1F
100
AcDbEntity
  8
STANDARDEBENE
 62
     7
100
AcDb2dPolyline
 66
     1
 10
0.0
 20
0.0
 30
0.0
  0
VERTEX
  5
114
330
113
100
AcDbEntity
  8
STANDARDEBENE
 62
     7
100
AcDbVertex
100
AcDb2dVertex
 10
-90.17078293267394
 20
-26.41408127495596
 30
0.0
  0
VERTEX
  5
115
330
113
100
AcDbEntity
  8
STANDARDEBENE
 62
     7
100
AcDbVertex
100
AcDb2dVertex
 10
-90.03384029679496
 20
-25.85339161484769
 30
0.0
  0
VERTEX
  5
116
330
113
100
AcDbEntity
  8
STANDARDEBENE
 62
     7
100
AcDbVertex
100
AcDb2dVertex
 10
-89.69604846162683
 20
-25.38675312353178
 30
0.0
  0
VERTEX
  5
117
330
113
100
AcDbEntity
  8
STANDARDEBENE
 62
     7
100
AcDbVertex
100
AcDb2dVertex
 10
-89.20650007022047
 20
-25.08151746217638
 30
0.0
  0
VERTEX
  5
118
330
113
100
AcDbEntity
  8
STANDARDEBENE
 62
     7
100
AcDbVertex
100
AcDb2dVertex
 10
-88.6380589401568
 20
-24.98436570540186
 30
0.0
  0
VERTEX
  5
119
330
113
100
AcDbEntity
  8
STANDARDEBENE
 62
     7
100
AcDbVertex
100
AcDb2dVertex
 10
-88.07461320184215
 20
-25.10804471491268
 30
0.0
  0
VERTEX
  5
11A
330
113
100
AcDbEntity
  8
STANDARDEBENE
 62
     7
100
AcDbVertex
100
AcDb2dVertex
 10
-87.59987873079504
 20
-25.43532900191904
 30
0.0
  0
VERTEX
  5
11B
330
113
100
AcDbEntity
  8
STANDARDEBENE
 62
     7
100
AcDbVertex
100
AcDb2dVertex
 10
-87.28292973706256
 20
-25.91695366848209
 30
0.0
  0
VERTEX
  5
11C
330
113
100
AcDbEntity
  8
STANDARDEBENE
 62
     7
100
AcDbVertex
100
AcDb2dVertex
 10
-87.1726866088078
 20
-26.4826387203394
 30
0.0
  0
SEQEND
  5
11D
330
113
100
AcDbEntity
  8
STANDARDEBENE
  0
POLYLINE
  5
11E
330
1F
100
AcDbEntity
  8
STANDARDEBENE
 62
     7
100
AcDb2dPolyline
 66
     1
 10
0.0
 20
0.0
 30
0.0
  0
VERTEX
  5
11F
330
11E
100
AcDbEntity
  8
STANDARDEBENE
 62
     7
100
AcDbVertex
100
AcDb2dVertex
 10
-88.8623348042001
 20
-27.95472899231643
 30
0.0
  0
VERTEX
  5
120
330
11E
100
AcDbEntity
  8
STANDARDEBENE
 62
     7
100
AcDbVertex
100
AcDb2dVertex
 10
-88.65838501692876
 20
-27.9666145795814
 30
0.0
  0
VERTEX
  5
121
330
11E
100
AcDbEntity
  8
STANDARDEBENE
 62
     7
100
AcDbVertex
100
AcDb2dVertex
 10
-88.45443522965743
 20
-27.95059487500687
 30
0.0
  0
SEQEND
  5
122
330
11E
100
AcDbEntity
  8
STANDARDEBENE
  0
POLYLINE
  5
123
330
1F
100
AcDbEntity
  8
STANDARDEBENE
 62
     7
100
AcDb2dPolyline
 66
     1
 10
0.0
 20
0.0
 30
0.0
  0
VERTEX
  5
124
330
123
100
AcDbEntity
  8
STANDARDEBENE
 62
     7
100
AcDbVertex
100
AcDb2dVertex
 10
-87.4961812882804
 20
-27.39748442996612
 30
0.0
  0
VERTEX
  5
125
330
123
100
AcDbEntity
  8
STANDARDEBENE
 62
     7
100
AcDbVertex
100
AcDb2dVertex
 10
-87.22866944737467
 20
-26.87348506098015
 30
0.0
  0
VERTEX
  5
126
330
123
100
AcDbEntity
  8
STANDARDEBENE
 62
     7
100
AcDbVertex
100
AcDb2dVertex
 10
-87.18267739230588
 20
-26.28781844212666
 30
0.0
  0
VERTEX
  5
127
330
123
100
AcDbEntity
  8
STANDARDEBENE
 62
     7
100
AcDbVertex
100
AcDb2dVertex
 10
-87.36647335769314
 20
-25.72919584067317
 30
0.0
  0
VERTEX
  5
128
330
123
100
AcDbEntity
  8
STANDARDEBENE
 62
     7
100
AcDbVertex
100
AcDb2dVertex
 10
-87.75146303214535
 20
-25.28408921034453
 30
0.0
  0
VERTEX
  5
129
330
123
100
AcDbEntity
  8
STANDARDEBENE
 62
     7
100
AcDbVertex
100
AcDb2dVertex
 10
-88.2782184793377
 20
-25.02157276118784
 30
0.0
  0
VERTEX
  5
12A
330
123
100
AcDbEntity
  8
STANDARDEBENE
 62
     7
100
AcDbVertex
100
AcDb2dVertex
 10
-88.86509088240646
 20
-24.98126511741969
 30
0.0
  0
VERTEX
  5
12B
330
123
100
AcDbEntity
  8
STANDARDEBENE
 62
     7
100
AcDbVertex
100
AcDb2dVertex
 10
-89.42199093498097
 20
-25.1693674550044
 30
0.0
  0
VERTEX
  5
12C
330
123
100
AcDbEntity
  8
STANDARDEBENE
 62
     7
100
AcDbVertex
100
AcDb2dVertex
 10
-89.92497520764339
 20
-25.64237937717254
 30
0.0
  0
VERTEX
  5
12D
330
123
100
AcDbEntity
  8
STANDARDEBENE
 62
     7
100
AcDbVertex
100
AcDb2dVertex
 10
-90.16130891383955
 20
-26.29074677522093
 30
0.0
  0
SEQEND
  5
12E
330
123
100
AcDbEntity
  8
STANDARDEBENE
  0
POLYLINE
  5
12F
330
1F
100
AcDbEntity
  8
STANDARDEBENE
 62
     7
100
AcDb2dPolyline
 66
     1
 10
0.0
 20
0.0
 30
0.0
  0
VERTEX
  5
130
330
12F
100
AcDbEntity
  8
STANDARDEBENE
 62
     7
100
AcDbVertex
100
AcDb2dVertex
 10
-90.16130891383955
 20
-26.16844580481329
 30
0.0
  0
VERTEX
  5
131
330
12F
100
AcDbEntity
  8
STANDARDEBENE
 62
     7
100
AcDbVertex
100
AcDb2dVertex
 10
-90.16130891383955
 20
-26.29074677522093
 30
0.0
  0
SEQEND
  5
132
330
12F
100
AcDbEntity
  8
STANDARDEBENE
  0
POLYLINE
  5
133
330
1F
100
AcDbEntity
  8
STANDARDEBENE
 62
     7
100
AcDb2dPolyline
 66
     1
 10
0.0
 20
0.0
 30
0.0
  0
VERTEX
  5
134
330
133
100
AcDbEntity
  8
STANDARDEBENE
 62
     7
100
AcDbVertex
100
AcDb2dVertex
 10
-90.16130891383955
 20
-26.64369704052411
 30
0.0
  0
VERTEX
  5
135
330
133
100
AcDbEntity
  8
STANDARDEBENE
 62
     7
100
AcDbVertex
100
AcDb2dVertex
 10
-90.06243460818605
 20
-27.03006475407951
 30
0.0
  0
VERTEX
  5
136
330
133
100
AcDbEntity
  8
STANDARDEBENE
 62
     7
100
AcDbVertex
100
AcDb2dVertex
 10
-89.86537501643065
 20
-27.37595256897886
 30
0.0
  0
SEQEND
  5
137
330
133
100
AcDbEntity
  8
STANDARDEBENE
  0
POLYLINE
  5
138
330
1F
100
AcDbEntity
  8
STANDARDEBENE
 62
     7
100
AcDb2dPolyline
 66
     1
 10
0.0
 20
0.0
 30
0.0
  0
VERTEX
  5
139
330
138
100
AcDbEntity
  8
STANDARDEBENE
 62
     7
100
AcDbVertex
100
AcDb2dVertex
 10
-89.42199093498097
 20
-25.1693674550044
 30
0.0
  0
VERTEX
  5
13A
330
138
100
AcDbEntity
  8
STANDARDEBENE
 62
     7
100
AcDbVertex
100
AcDb2dVertex
 10
-90.16130891383955
 20
-25.59569830255216
 30
0.0
  0
SEQEND
  5
13B
330
138
100
AcDbEntity
  8
STANDARDEBENE
  0
POLYLINE
  5
13C
330
1F
100
AcDbEntity
  8
STANDARDEBENE
 62
     7
100
AcDb2dPolyline
 66
     1
 10
0.0
 20
0.0
 30
0.0
  0
VERTEX
  5
13D
330
13C
100
AcDbEntity
  8
STANDARDEBENE
 62
     7
100
AcDbVertex
100
AcDb2dVertex
 10
-88.66148560491094
 20
-24.73028974575218
 30
0.0
  0
VERTEX
  5
13E
330
13C
100
AcDbEntity
  8
STANDARDEBENE
 62
     7
100
AcDbVertex
100
AcDb2dVertex
 10
-87.16200680575811
 20
-25.59569830255216
 30
0.0
  0
SEQEND
  5
13F
330
13C
100
AcDbEntity
  8
STANDARDEBENE
  0
POLYLINE
  5
140
330
1F
100
AcDbEntity
  8
STANDARDEBENE
 62
     7
100
AcDb2dPolyline
 66
     1
 10
0.0
 20
0.0
 30
0.0
  0
VERTEX
  5
141
330
140
100
AcDbEntity
  8
STANDARDEBENE
 62
     7
100
AcDbVertex
100
AcDb2dVertex
 10
-88.66148560491094
 20
-24.73028974575218
 30
0.0
  0
VERTEX
  5
142
330
140
100
AcDbEntity
  8
STANDARDEBENE
 62
     7
100
AcDbVertex
100
AcDb2dVertex
 10
-89.42199093498097
 20
-25.1693674550044
 30
0.0
  0
SEQEND
  5
143
330
140
100
AcDbEntity
  8
STANDARDEBENE
  0
POLYLINE
  5
144
330
1F
100
AcDbEntity
  8
STANDARDEBENE
 62
     7
100
AcDb2dPolyline
 66
     1
 10
0.0
 20
0.0
 30
0.0
  0
VERTEX
  5
145
330
144
100
AcDbEntity
  8
STANDARDEBENE
 62
     7
100
AcDbVertex
100
AcDb2dVertex
 10
-88.66148560491094
 20
-24.60816103023244
 30
0.0
  0
VERTEX
  5
146
330
144
100
AcDbEntity
  8
STANDARDEBENE
 62
     7
100
AcDbVertex
100
AcDb2dVertex
 10
-88.66148560491094
 20
-24.73028974575218
 30
0.0
  0
SEQEND
  5
147
330
144
100
AcDbEntity
  8
STANDARDEBENE
  0
POLYLINE
  5
148
330
1F
100
AcDbEntity
  8
STANDARDEBENE
 62
     7
100
AcDb2dPolyline
 66
     1
 10
0.0
 20
0.0
 30
0.0
  0
VERTEX
  5
149
330
148
100
AcDbEntity
  8
STANDARDEBENE
 62
     7
100
AcDbVertex
100
AcDb2dVertex
 10
-89.27281820206123
 20
-111.8206385181447
 30
0.0
  0
VERTEX
  5
14A
330
148
100
AcDbEntity
  8
STANDARDEBENE
 62
     7
100
AcDbVertex
100
AcDb2dVertex
 10
-88.67182089818482
 20
-111.8171934203867
 30
0.0
  0
VERTEX
  5
14B
330
148
100
AcDbEntity
  8
STANDARDEBENE
 62
     7
100
AcDbVertex
100
AcDb2dVertex
 10
-88.07151261386
 20
-111.8206385181447
 30
0.0
  0
SEQEND
  5
14C
330
148
100
AcDbEntity
  8
STANDARDEBENE
  0
POLYLINE
  5
14D
330
1F
100
AcDbEntity
  8
STANDARDEBENE
 62
     7
100
AcDb2dPolyline
 66
     1
 10
0.0
 20
0.0
 30
0.0
  0
VERTEX
  5
14E
330
14D
100
AcDbEntity
  8
STANDARDEBENE
 62
     7
100
AcDbVertex
100
AcDb2dVertex
 10
-11.05221811731689
 20
-12.29297007484679
 30
0.0
  0
VERTEX
  5
14F
330
14D
100
AcDbEntity
  8
STANDARDEBENE
 62
     7
100
AcDbVertex
100
AcDb2dVertex
 10
-12.05198548667737
 20
-11.29268594082262
 30
0.0
  0
SEQEND
  5
150
330
14D
100
AcDbEntity
  8
STANDARDEBENE
  0
POLYLINE
  5
151
330
1F
100
AcDbEntity
  8
STANDARDEBENE
 62
     7
100
AcDb2dPolyline
 66
     1
 10
0.0
 20
0.0
 30
0.0
  0
VERTEX
  5
152
330
151
100
AcDbEntity
  8
STANDARDEBENE
 62
     7
100
AcDbVertex
100
AcDb2dVertex
 10
-35.05145811882961
 20
-11.29268594082262
 30
0.0
  0
VERTEX
  5
153
330
151
100
AcDbEntity
  8
STANDARDEBENE
 62
     7
100
AcDbVertex
100
AcDb2dVertex
 10
-36.05191450774168
 20
-12.29297007484679
 30
0.0
  0
SEQEND
  5
154
330
151
100
AcDbEntity
  8
STANDARDEBENE
  0
POLYLINE
  5
155
330
1F
100
AcDbEntity
  8
STANDARDEBENE
 62
     7
100
AcDb2dPolyline
 66
     1
 10
0.0
 20
0.0
 30
0.0
  0
VERTEX
  5
156
330
155
100
AcDbEntity
  8
STANDARDEBENE
 62
     7
100
AcDbVertex
100
AcDb2dVertex
 10
-11.05221811731689
 20
-22.80137951106943
 30
0.0
  0
VERTEX
  5
157
330
155
100
AcDbEntity
  8
STANDARDEBENE
 62
     7
100
AcDbVertex
100
AcDb2dVertex
 10
-11.05221811731689
 20
-12.29297007484679
 30
0.0
  0
SEQEND
  5
158
330
155
100
AcDbEntity
  8
STANDARDEBENE
  0
POLYLINE
  5
159
330
1F
100
AcDbEntity
  8
STANDARDEBENE
 62
     7
100
AcDb2dPolyline
 66
     1
 10
0.0
 20
0.0
 30
0.0
  0
VERTEX
  5
15A
330
159
100
AcDbEntity
  8
STANDARDEBENE
 62
     7
100
AcDbVertex
100
AcDb2dVertex
 10
-11.05221811731689
 20
-53.29273398257305
 30
0.0
  0
VERTEX
  5
15B
330
159
100
AcDbEntity
  8
STANDARDEBENE
 62
     7
100
AcDbVertex
100
AcDb2dVertex
 10
-11.05221811731689
 20
-29.79458344995587
 30
0.0
  0
SEQEND
  5
15C
330
159
100
AcDbEntity
  8
STANDARDEBENE
  0
POLYLINE
  5
15D
330
1F
100
AcDbEntity
  8
STANDARDEBENE
 62
     7
100
AcDb2dPolyline
 66
     1
 10
0.0
 20
0.0
 30
0.0
  0
VERTEX
  5
15E
330
15D
100
AcDbEntity
  8
STANDARDEBENE
 62
     7
100
AcDbVertex
100
AcDb2dVertex
 10
-36.05191450774168
 20
-32.29296834402968
 30
0.0
  0
VERTEX
  5
15F
330
15D
100
AcDbEntity
  8
STANDARDEBENE
 62
     7
100
AcDbVertex
100
AcDb2dVertex
 10
-36.05191450774168
 20
-53.29273398257305
 30
0.0
  0
SEQEND
  5
160
330
15D
100
AcDbEntity
  8
STANDARDEBENE
  0
POLYLINE
  5
161
330
1F
100
AcDbEntity
  8
STANDARDEBENE
 62
     7
100
AcDb2dPolyline
 66
     1
 10
0.0
 20
0.0
 30
0.0
  0
VERTEX
  5
162
330
161
100
AcDbEntity
  8
STANDARDEBENE
 62
     7
100
AcDbVertex
100
AcDb2dVertex
 10
-36.05191450774168
 20
-20.29334834327333
 30
0.0
  0
VERTEX
  5
163
330
161
100
AcDbEntity
  8
STANDARDEBENE
 62
     7
100
AcDbVertex
100
AcDb2dVertex
 10
-36.05191450774168
 20
-25.3040707773407
 30
0.0
  0
SEQEND
  5
164
330
161
100
AcDbEntity
  8
STANDARDEBENE
  0
POLYLINE
  5
165
330
1F
100
AcDbEntity
  8
STANDARDEBENE
 62
     7
100
AcDb2dPolyline
 66
     1
 10
0.0
 20
0.0
 30
0.0
  0
VERTEX
  5
166
330
165
100
AcDbEntity
  8
STANDARDEBENE
 62
     7
100
AcDbVertex
100
AcDb2dVertex
 10
-36.05191450774168
 20
-12.29297007484679
 30
0.0
  0
VERTEX
  5
167
330
165
100
AcDbEntity
  8
STANDARDEBENE
 62
     7
100
AcDbVertex
100
AcDb2dVertex
 10
-36.05191450774168
 20
-13.30427852169645
 30
0.0
  0
SEQEND
  5
168
330
165
100
AcDbEntity
  8
STANDARDEBENE
  0
POLYLINE
  5
169
330
1F
100
AcDbEntity
  8
STANDARDEBENE
 62
     7
100
AcDb2dPolyline
 66
     1
 10
0.0
 20
0.0
 30
0.0
  0
VERTEX
  5
16A
330
169
100
AcDbEntity
  8
STANDARDEBENE
 62
     7
100
AcDbVertex
100
AcDb2dVertex
 10
-33.05157887033285
 20
-55.79318593530164
 30
0.0
  0
VERTEX
  5
16B
330
169
100
AcDbEntity
  8
STANDARDEBENE
 62
     7
100
AcDbVertex
100
AcDb2dVertex
 10
-32.55031714654942
 20
-65.81807590119436
 30
0.0
  0
SEQEND
  5
16C
330
169
100
AcDbEntity
  8
STANDARDEBENE
  0
POLYLINE
  5
16D
330
1F
100
AcDbEntity
  8
STANDARDEBENE
 62
     7
100
AcDb2dPolyline
 66
     1
 10
0.0
 20
0.0
 30
0.0
  0
VERTEX
  5
16E
330
16D
100
AcDbEntity
  8
STANDARDEBENE
 62
     7
100
AcDbVertex
100
AcDb2dVertex
 10
-14.55450449806075
 20
-65.81807590119436
 30
0.0
  0
VERTEX
  5
16F
330
16D
100
AcDbEntity
  8
STANDARDEBENE
 62
     7
100
AcDbVertex
100
AcDb2dVertex
 10
-14.05152022539834
 20
-55.79318593530164
 30
0.0
  0
SEQEND
  5
170
330
16D
100
AcDbEntity
  8
STANDARDEBENE
  0
POLYLINE
  5
171
330
1F
100
AcDbEntity
  8
STANDARDEBENE
 62
     7
100
AcDb2dPolyline
 66
     1
 10
0.0
 20
0.0
 30
0.0
  0
VERTEX
  5
172
330
171
100
AcDbEntity
  8
STANDARDEBENE
 62
     7
100
AcDbVertex
100
AcDb2dVertex
 10
-14.05152022539834
 20
-55.29295774084561
 30
0.0
  0
VERTEX
  5
173
330
171
100
AcDbEntity
  8
STANDARDEBENE
 62
     7
100
AcDbVertex
100
AcDb2dVertex
 10
-14.33126216334483
 20
-54.24943762995901
 30
0.0
  0
SEQEND
  5
174
330
171
100
AcDbEntity
  8
STANDARDEBENE
  0
POLYLINE
  5
175
330
1F
100
AcDbEntity
  8
STANDARDEBENE
 62
     7
100
AcDb2dPolyline
 66
     1
 10
0.0
 20
0.0
 30
0.0
  0
VERTEX
  5
176
330
175
100
AcDbEntity
  8
STANDARDEBENE
 62
     7
100
AcDbVertex
100
AcDb2dVertex
 10
-32.77218144216216
 20
-54.24943762995901
 30
0.0
  0
VERTEX
  5
177
330
175
100
AcDbEntity
  8
STANDARDEBENE
 62
     7
100
AcDbVertex
100
AcDb2dVertex
 10
-33.05157887033285
 20
-55.29295774084561
 30
0.0
  0
SEQEND
  5
178
330
175
100
AcDbEntity
  8
STANDARDEBENE
  0
POLYLINE
  5
179
330
1F
100
AcDbEntity
  8
STANDARDEBENE
 62
     7
100
AcDb2dPolyline
 66
     1
 10
0.0
 20
0.0
 30
0.0
  0
VERTEX
  5
17A
330
179
100
AcDbEntity
  8
STANDARDEBENE
 62
     7
100
AcDbVertex
100
AcDb2dVertex
 10
-14.05152022539834
 20
-55.79318593530164
 30
0.0
  0
VERTEX
  5
17B
330
179
100
AcDbEntity
  8
STANDARDEBENE
 62
     7
100
AcDbVertex
100
AcDb2dVertex
 10
-14.05152022539834
 20
-55.29295774084561
 30
0.0
  0
SEQEND
  5
17C
330
179
100
AcDbEntity
  8
STANDARDEBENE
  0
POLYLINE
  5
17D
330
1F
100
AcDbEntity
  8
STANDARDEBENE
 62
     7
100
AcDb2dPolyline
 66
     1
 10
0.0
 20
0.0
 30
0.0
  0
VERTEX
  5
17E
330
17D
100
AcDbEntity
  8
STANDARDEBENE
 62
     7
100
AcDbVertex
100
AcDb2dVertex
 10
-33.05157887033285
 20
-55.29295774084561
 30
0.0
  0
VERTEX
  5
17F
330
17D
100
AcDbEntity
  8
STANDARDEBENE
 62
     7
100
AcDbVertex
100
AcDb2dVertex
 10
-33.05157887033285
 20
-55.79318593530164
 30
0.0
  0
SEQEND
  5
180
330
17D
100
AcDbEntity
  8
STANDARDEBENE
  0
POLYLINE
  5
181
330
1F
100
AcDbEntity
  8
STANDARDEBENE
 62
     7
100
AcDb2dPolyline
 66
     1
 10
0.0
 20
0.0
 30
0.0
  0
VERTEX
  5
182
330
181
100
AcDbEntity
  8
STANDARDEBENE
 62
     7
100
AcDbVertex
100
AcDb2dVertex
 10
-32.75151085561438
 20
-53.53940298204311
 30
0.0
  0
VERTEX
  5
183
330
181
100
AcDbEntity
  8
STANDARDEBENE
 62
     7
100
AcDbVertex
100
AcDb2dVertex
 10
-32.75151085561438
 20
-54.09389146618705
 30
0.0
  0
SEQEND
  5
184
330
181
100
AcDbEntity
  8
STANDARDEBENE
  0
POLYLINE
  5
185
330
1F
100
AcDbEntity
  8
STANDARDEBENE
 62
     7
100
AcDb2dPolyline
 66
     1
 10
0.0
 20
0.0
 30
0.0
  0
VERTEX
  5
186
330
185
100
AcDbEntity
  8
STANDARDEBENE
 62
     7
100
AcDbVertex
100
AcDb2dVertex
 10
-14.3515882401168
 20
-54.09389146618705
 30
0.0
  0
VERTEX
  5
187
330
185
100
AcDbEntity
  8
STANDARDEBENE
 62
     7
100
AcDbVertex
100
AcDb2dVertex
 10
-14.3515882401168
 20
-53.53940298204311
 30
0.0
  0
SEQEND
  5
188
330
185
100
AcDbEntity
  8
STANDARDEBENE
  0
SPLINE
  5
189
330
1F
100
AcDbEntity
  8
STANDARDEBENE
 62
     7
100
AcDbSpline
210
0.0
220
0.0
230
1.0
 70
     8
 71
     3
 72
     8
 73
     4
 74
     0
 42
0.0000000001
 43
0.0000000001
 40
0.0
 40
0.0
 40
0.0
 40
0.0
 40
1.0
 40
1.0
 40
1.0
 40
1.0
 10
-14.29887824441999
 20
-53.29273398257305
 30
0.0
 10
-14.33505177087859
 20
-53.37472730921254
 30
0.0
 10
-14.35331078899578
 20
-53.4596489689463
 30
0.0
 10
-14.3515882401168
 20
-53.53940298204311
 30
0.0
  0
SPLINE
  5
18A
330
1F
100
AcDbEntity
  8
STANDARDEBENE
 62
     7
100
AcDbSpline
210
0.0
220
0.0
230
1.0
 70
     8
 71
     3
 72
     8
 73
     4
 74
     0
 42
0.0000000001
 43
0.0000000001
 40
0.0
 40
0.0
 40
0.0
 40
0.0
 40
1.0
 40
1.0
 40
1.0
 40
1.0
 10
-32.75151085561438
 20
-53.53940298204311
 30
0.0
 10
-32.75151085561438
 20
-53.44965818544821
 30
0.0
 10
-32.77149242261056
 20
-53.36473652571446
 30
0.0
 10
-32.8038763415354
 20
-53.29273398257305
 30
0.0
  0
SPLINE
  5
18B
330
1F
100
AcDbEntity
  8
STANDARDEBENE
 62
     7
100
AcDbSpline
210
0.0
220
0.0
230
1.0
 70
     8
 71
     3
 72
     8
 73
     4
 74
     0
 42
0.0000000001
 43
0.0000000001
 40
0.0
 40
0.0
 40
0.0
 40
0.0
 40
1.0
 40
1.0
 40
1.0
 40
1.0
 10
-14.3515882401168
 20
-54.09389146618705
 30
0.0
 10
-14.3515882401168
 20
-54.14987430475392
 30
0.0
 10
-14.34469804460088
 20
-54.20275655533863
 30
0.0
 10
-14.33126216334483
 20
-54.24943762995901
 30
0.0
  0
SPLINE
  5
18C
330
1F
100
AcDbEntity
  8
STANDARDEBENE
 62
     7
100
AcDbSpline
210
0.0
220
0.0
230
1.0
 70
     8
 71
     3
 72
     8
 73
     4
 74
     0
 42
0.0000000001
 43
0.0000000001
 40
0.0
 40
0.0
 40
0.0
 40
0.0
 40
1.0
 40
1.0
 40
1.0
 40
1.0
 10
-32.77218144216216
 20
-54.24943762995901
 30
0.0
 10
-32.75840105113031
 20
-54.19586635982271
 30
0.0
 10
-32.75151085561438
 20
-54.1426395994622
 30
0.0
 10
-32.75151085561438
 20
-54.09389146618705
 30
0.0
  0
SPLINE
  5
18D
330
1F
100
AcDbEntity
  8
STANDARDEBENE
 62
     7
100
AcDbSpline
210
0.0
220
0.0
230
1.0
 70
     8
 71
     3
 72
     8
 73
     4
 74
     0
 42
0.0000000001
 43
0.0000000001
 40
0.0
 40
0.0
 40
0.0
 40
0.0
 40
1.0
 40
1.0
 40
1.0
 40
1.0
 10
-15.0530101436378
 20
-66.29315488201728
 30
0.0
 10
-14.78601506739577
 20
-66.29315488201728
 30
0.0
 10
-14.567595869541
 20
-66.08334842855741
 30
0.0
 10
-14.55450449806075
 20
-65.81807590119436
 30
0.0
  0
SPLINE
  5
18E
330
1F
100
AcDbEntity
  8
STANDARDEBENE
 62
     7
100
AcDbSpline
210
0.0
220
0.0
230
1.0
 70
     8
 71
     3
 72
     8
 73
     4
 74
     0
 42
0.0000000001
 43
0.0000000001
 40
0.0
 40
0.0
 40
0.0
 40
0.0
 40
1.0
 40
1.0
 40
1.0
 40
1.0
 10
-32.55031714654942
 20
-65.81807590119436
 30
0.0
 10
-32.53584773596598
 20
-66.0848987225485
 30
0.0
 10
-32.31605049900803
 20
-66.29298262712938
 30
0.0
 10
-32.04974444231759
 20
-66.29315488201728
 30
0.0
  0
POLYLINE
  5
18F
330
1F
100
AcDbEntity
  8
STANDARDEBENE
 62
     7
100
AcDb2dPolyline
 66
     1
 10
0.0
 20
0.0
 30
0.0
  0
VERTEX
  5
190
330
18F
100
AcDbEntity
  8
STANDARDEBENE
 62
     7
100
AcDbVertex
100
AcDb2dVertex
 10
-15.0530101436378
 20
-66.29315488201728
 30
0.0
  0
VERTEX
  5
191
330
18F
100
AcDbEntity
  8
STANDARDEBENE
 62
     7
100
AcDbVertex
100
AcDb2dVertex
 10
-15.18220130956136
 20
-66.29315488201728
 30
0.0
  0
VERTEX
  5
192
330
18F
100
AcDbEntity
  8
STANDARDEBENE
 62
     7
100
AcDbVertex
100
AcDb2dVertex
 10
-15.5659851997983
 20
-66.29315488201728
 30
0.0
  0
VERTEX
  5
193
330
18F
100
AcDbEntity
  8
STANDARDEBENE
 62
     7
100
AcDbVertex
100
AcDb2dVertex
 10
-16.19161495264414
 20
-66.29315488201728
 30
0.0
  0
VERTEX
  5
194
330
18F
100
AcDbEntity
  8
STANDARDEBENE
 62
     7
100
AcDbVertex
100
AcDb2dVertex
 10
-17.04117605975749
 20
-66.29315488201728
 30
0.0
  0
VERTEX
  5
195
330
18F
100
AcDbEntity
  8
STANDARDEBENE
 62
     7
100
AcDbVertex
100
AcDb2dVertex
 10
-18.08917479772944
 20
-66.29315488201728
 30
0.0
  0
VERTEX
  5
196
330
18F
100
AcDbEntity
  8
STANDARDEBENE
 62
     7
100
AcDbVertex
100
AcDb2dVertex
 10
-19.30253822808355
 20
-66.29315488201728
 30
0.0
  0
VERTEX
  5
197
330
18F
100
AcDbEntity
  8
STANDARDEBENE
 62
     7
100
AcDbVertex
100
AcDb2dVertex
 10
-19.39693390665169
 20
-66.29315488201728
 30
0.0
  0
VERTEX
  5
198
330
18F
100
AcDbEntity
  8
STANDARDEBENE
 62
     7
100
AcDbVertex
100
AcDb2dVertex
 10
-19.56298761858545
 20
-66.29315488201728
 30
0.0
  0
VERTEX
  5
199
330
18F
100
AcDbEntity
  8
STANDARDEBENE
 62
     7
100
AcDbVertex
100
AcDb2dVertex
 10
-19.72766329141602
 20
-66.29315488201728
 30
0.0
  0
VERTEX
  5
19A
330
18F
100
AcDbEntity
  8
STANDARDEBENE
 62
     7
100
AcDbVertex
100
AcDb2dVertex
 10
-19.87373543635359
 20
-66.29315488201728
 30
0.0
  0
VERTEX
  5
19B
330
18F
100
AcDbEntity
  8
STANDARDEBENE
 62
     7
100
AcDbVertex
100
AcDb2dVertex
 10
-19.95125013590773
 20
-66.29315488201728
 30
0.0
  0
SEQEND
  5
19C
330
18F
100
AcDbEntity
  8
STANDARDEBENE
  0
POLYLINE
  5
19D
330
1F
100
AcDbEntity
  8
STANDARDEBENE
 62
     7
100
AcDb2dPolyline
 66
     1
 10
0.0
 20
0.0
 30
0.0
  0
VERTEX
  5
19E
330
19D
100
AcDbEntity
  8
STANDARDEBENE
 62
     7
100
AcDbVertex
100
AcDb2dVertex
 10
-14.05152022539834
 20
-55.79318593530164
 30
0.0
  0
VERTEX
  5
19F
330
19D
100
AcDbEntity
  8
STANDARDEBENE
 62
     7
100
AcDbVertex
100
AcDb2dVertex
 10
-14.16865354916904
 20
-55.79318593530164
 30
0.0
  0
VERTEX
  5
1A0
330
19D
100
AcDbEntity
  8
STANDARDEBENE
 62
     7
100
AcDbVertex
100
AcDb2dVertex
 10
-14.51695293249896
 20
-55.79318593530164
 30
0.0
  0
VERTEX
  5
1A1
330
19D
100
AcDbEntity
  8
STANDARDEBENE
 62
     7
100
AcDbVertex
100
AcDb2dVertex
 10
-15.08746112121742
 20
-55.79318593530164
 30
0.0
  0
VERTEX
  5
1A2
330
19D
100
AcDbEntity
  8
STANDARDEBENE
 62
     7
100
AcDbVertex
100
AcDb2dVertex
 10
-15.86605321451676
 20
-55.79318593530164
 30
0.0
  0
VERTEX
  5
1A3
330
19D
100
AcDbEntity
  8
STANDARDEBENE
 62
     7
100
AcDbVertex
100
AcDb2dVertex
 10
-16.8337811747282
 20
-55.79318593530164
 30
0.0
  0
VERTEX
  5
1A4
330
19D
100
AcDbEntity
  8
STANDARDEBENE
 62
     7
100
AcDbVertex
100
AcDb2dVertex
 10
-17.96756284687339
 20
-55.79318593530164
 30
0.0
  0
VERTEX
  5
1A5
330
19D
100
AcDbEntity
  8
STANDARDEBENE
 62
     7
100
AcDbVertex
100
AcDb2dVertex
 10
-19.23914842933705
 20
-55.79318593530164
 30
0.0
  0
VERTEX
  5
1A6
330
19D
100
AcDbEntity
  8
STANDARDEBENE
 62
     7
100
AcDbVertex
100
AcDb2dVertex
 10
-20.61649851297013
 20
-55.79318593530164
 30
0.0
  0
VERTEX
  5
1A7
330
19D
100
AcDbEntity
  8
STANDARDEBENE
 62
     7
100
AcDbVertex
100
AcDb2dVertex
 10
-22.06550662996882
 20
-55.79318593530164
 30
0.0
  0
VERTEX
  5
1A8
330
19D
100
AcDbEntity
  8
STANDARDEBENE
 62
     7
100
AcDbVertex
100
AcDb2dVertex
 10
-23.55172180275349
 20
-55.79318593530164
 30
0.0
  0
VERTEX
  5
1A9
330
19D
100
AcDbEntity
  8
STANDARDEBENE
 62
     7
100
AcDbVertex
100
AcDb2dVertex
 10
-25.03828148531396
 20
-55.79318593530164
 30
0.0
  0
VERTEX
  5
1AA
330
19D
100
AcDbEntity
  8
STANDARDEBENE
 62
     7
100
AcDbVertex
100
AcDb2dVertex
 10
-26.48763411208844
 20
-55.79318593530164
 30
0.0
  0
VERTEX
  5
1AB
330
19D
100
AcDbEntity
  8
STANDARDEBENE
 62
     7
100
AcDbVertex
100
AcDb2dVertex
 10
-27.86498419572153
 20
-55.79318593530164
 30
0.0
  0
VERTEX
  5
1AC
330
19D
100
AcDbEntity
  8
STANDARDEBENE
 62
     7
100
AcDbVertex
100
AcDb2dVertex
 10
-29.135191739082
 20
-55.79318593530164
 30
0.0
  0
VERTEX
  5
1AD
330
19D
100
AcDbEntity
  8
STANDARDEBENE
 62
     7
100
AcDbVertex
100
AcDb2dVertex
 10
-30.26897341122719
 20
-55.79318593530164
 30
0.0
  0
VERTEX
  5
1AE
330
19D
100
AcDbEntity
  8
STANDARDEBENE
 62
     7
100
AcDbVertex
100
AcDb2dVertex
 10
-31.23670137143863
 20
-55.79318593530164
 30
0.0
  0
VERTEX
  5
1AF
330
19D
100
AcDbEntity
  8
STANDARDEBENE
 62
     7
100
AcDbVertex
100
AcDb2dVertex
 10
-32.01598248428957
 20
-55.79318593530164
 30
0.0
  0
VERTEX
  5
1B0
330
19D
100
AcDbEntity
  8
STANDARDEBENE
 62
     7
100
AcDbVertex
100
AcDb2dVertex
 10
-32.58649067300802
 20
-55.79318593530164
 30
0.0
  0
VERTEX
  5
1B1
330
19D
100
AcDbEntity
  8
STANDARDEBENE
 62
     7
100
AcDbVertex
100
AcDb2dVertex
 10
-32.93479005633795
 20
-55.79318593530164
 30
0.0
  0
VERTEX
  5
1B2
330
19D
100
AcDbEntity
  8
STANDARDEBENE
 62
     7
100
AcDbVertex
100
AcDb2dVertex
 10
-33.05157887033285
 20
-55.79318593530164
 30
0.0
  0
SEQEND
  5
1B3
330
19D
100
AcDbEntity
  8
STANDARDEBENE
  0
POLYLINE
  5
1B4
330
1F
100
AcDbEntity
  8
STANDARDEBENE
 62
     7
100
AcDb2dPolyline
 66
     1
 10
0.0
 20
0.0
 30
0.0
  0
VERTEX
  5
1B5
330
1B4
100
AcDbEntity
  8
STANDARDEBENE
 62
     7
100
AcDbVertex
100
AcDb2dVertex
 10
-23.55172180275349
 20
-55.29295774084561
 30
0.0
  0
VERTEX
  5
1B6
330
1B4
100
AcDbEntity
  8
STANDARDEBENE
 62
     7
100
AcDbVertex
100
AcDb2dVertex
 10
-22.06550662996882
 20
-55.29295774084561
 30
0.0
  0
VERTEX
  5
1B7
330
1B4
100
AcDbEntity
  8
STANDARDEBENE
 62
     7
100
AcDbVertex
100
AcDb2dVertex
 10
-20.61649851297013
 20
-55.29295774084561
 30
0.0
  0
VERTEX
  5
1B8
330
1B4
100
AcDbEntity
  8
STANDARDEBENE
 62
     7
100
AcDbVertex
100
AcDb2dVertex
 10
-19.23914842933705
 20
-55.29295774084561
 30
0.0
  0
VERTEX
  5
1B9
330
1B4
100
AcDbEntity
  8
STANDARDEBENE
 62
     7
100
AcDbVertex
100
AcDb2dVertex
 10
-17.96756284687339
 20
-55.29295774084561
 30
0.0
  0
VERTEX
  5
1BA
330
1B4
100
AcDbEntity
  8
STANDARDEBENE
 62
     7
100
AcDbVertex
100
AcDb2dVertex
 10
-16.8337811747282
 20
-55.29295774084561
 30
0.0
  0
VERTEX
  5
1BB
330
1B4
100
AcDbEntity
  8
STANDARDEBENE
 62
     7
100
AcDbVertex
100
AcDb2dVertex
 10
-15.86605321451676
 20
-55.29295774084561
 30
0.0
  0
VERTEX
  5
1BC
330
1B4
100
AcDbEntity
  8
STANDARDEBENE
 62
     7
100
AcDbVertex
100
AcDb2dVertex
 10
-15.08746112121742
 20
-55.29295774084561
 30
0.0
  0
VERTEX
  5
1BD
330
1B4
100
AcDbEntity
  8
STANDARDEBENE
 62
     7
100
AcDbVertex
100
AcDb2dVertex
 10
-14.51695293249896
 20
-55.29295774084561
 30
0.0
  0
VERTEX
  5
1BE
330
1B4
100
AcDbEntity
  8
STANDARDEBENE
 62
     7
100
AcDbVertex
100
AcDb2dVertex
 10
-14.16865354916904
 20
-55.29295774084561
 30
0.0
  0
VERTEX
  5
1BF
330
1B4
100
AcDbEntity
  8
STANDARDEBENE
 62
     7
100
AcDbVertex
100
AcDb2dVertex
 10
-14.05152022539834
 20
-55.29295774084561
 30
0.0
  0
SEQEND
  5
1C0
330
1B4
100
AcDbEntity
  8
STANDARDEBENE
  0
POLYLINE
  5
1C1
330
1F
100
AcDbEntity
  8
STANDARDEBENE
 62
     7
100
AcDb2dPolyline
 66
     1
 10
0.0
 20
0.0
 30
0.0
  0
VERTEX
  5
1C2
330
1C1
100
AcDbEntity
  8
STANDARDEBENE
 62
     7
100
AcDbVertex
100
AcDb2dVertex
 10
-33.05157887033285
 20
-55.29295774084561
 30
0.0
  0
VERTEX
  5
1C3
330
1C1
100
AcDbEntity
  8
STANDARDEBENE
 62
     7
100
AcDbVertex
100
AcDb2dVertex
 10
-32.93479005633795
 20
-55.29295774084561
 30
0.0
  0
VERTEX
  5
1C4
330
1C1
100
AcDbEntity
  8
STANDARDEBENE
 62
     7
100
AcDbVertex
100
AcDb2dVertex
 10
-32.58649067300802
 20
-55.29295774084561
 30
0.0
  0
VERTEX
  5
1C5
330
1C1
100
AcDbEntity
  8
STANDARDEBENE
 62
     7
100
AcDbVertex
100
AcDb2dVertex
 10
-32.01598248428957
 20
-55.29295774084561
 30
0.0
  0
VERTEX
  5
1C6
330
1C1
100
AcDbEntity
  8
STANDARDEBENE
 62
     7
100
AcDbVertex
100
AcDb2dVertex
 10
-31.23670137143863
 20
-55.29295774084561
 30
0.0
  0
VERTEX
  5
1C7
330
1C1
100
AcDbEntity
  8
STANDARDEBENE
 62
     7
100
AcDbVertex
100
AcDb2dVertex
 10
-30.26897341122719
 20
-55.29295774084561
 30
0.0
  0
VERTEX
  5
1C8
330
1C1
100
AcDbEntity
  8
STANDARDEBENE
 62
     7
100
AcDbVertex
100
AcDb2dVertex
 10
-29.135191739082
 20
-55.29295774084561
 30
0.0
  0
VERTEX
  5
1C9
330
1C1
100
AcDbEntity
  8
STANDARDEBENE
 62
     7
100
AcDbVertex
100
AcDb2dVertex
 10
-27.86498419572153
 20
-55.29295774084561
 30
0.0
  0
VERTEX
  5
1CA
330
1C1
100
AcDbEntity
  8
STANDARDEBENE
 62
     7
100
AcDbVertex
100
AcDb2dVertex
 10
-26.48763411208844
 20
-55.29295774084561
 30
0.0
  0
VERTEX
  5
1CB
330
1C1
100
AcDbEntity
  8
STANDARDEBENE
 62
     7
100
AcDbVertex
100
AcDb2dVertex
 10
-25.03828148531396
 20
-55.29295774084561
 30
0.0
  0
VERTEX
  5
1CC
330
1C1
100
AcDbEntity
  8
STANDARDEBENE
 62
     7
100
AcDbVertex
100
AcDb2dVertex
 10
-23.55172180275349
 20
-55.29295774084561
 30
0.0
  0
SEQEND
  5
1CD
330
1C1
100
AcDbEntity
  8
STANDARDEBENE
  0
POLYLINE
  5
1CE
330
1F
100
AcDbEntity
  8
STANDARDEBENE
 62
     7
100
AcDb2dPolyline
 66
     1
 10
0.0
 20
0.0
 30
0.0
  0
VERTEX
  5
1CF
330
1CE
100
AcDbEntity
  8
STANDARDEBENE
 62
     7
100
AcDbVertex
100
AcDb2dVertex
 10
-27.15150445004766
 20
-66.29315488201728
 30
0.0
  0
VERTEX
  5
1D0
330
1CE
100
AcDbEntity
  8
STANDARDEBENE
 62
     7
100
AcDbVertex
100
AcDb2dVertex
 10
-27.18457738852409
 20
-66.29315488201728
 30
0.0
  0
VERTEX
  5
1D1
330
1CE
100
AcDbEntity
  8
STANDARDEBENE
 62
     7
100
AcDbVertex
100
AcDb2dVertex
 10
-27.31755816198141
 20
-66.29315488201728
 30
0.0
  0
VERTEX
  5
1D2
330
1CE
100
AcDbEntity
  8
STANDARDEBENE
 62
     7
100
AcDbVertex
100
AcDb2dVertex
 10
-27.47672167839924
 20
-66.29315488201728
 30
0.0
  0
VERTEX
  5
1D3
330
1CE
100
AcDbEntity
  8
STANDARDEBENE
 62
     7
100
AcDbVertex
100
AcDb2dVertex
 10
-27.64449793921198
 20
-66.29315488201728
 30
0.0
  0
VERTEX
  5
1D4
330
1CE
100
AcDbEntity
  8
STANDARDEBENE
 62
     7
100
AcDbVertex
100
AcDb2dVertex
 10
-27.80159439697503
 20
-66.29315488201728
 30
0.0
  0
VERTEX
  5
1D5
330
1CE
100
AcDbEntity
  8
STANDARDEBENE
 62
     7
100
AcDbVertex
100
AcDb2dVertex
 10
-29.01495782732914
 20
-66.29315488201728
 30
0.0
  0
VERTEX
  5
1D6
330
1CE
100
AcDbEntity
  8
STANDARDEBENE
 62
     7
100
AcDbVertex
100
AcDb2dVertex
 10
-30.06226754574949
 20
-66.29315488201728
 30
0.0
  0
VERTEX
  5
1D7
330
1CE
100
AcDbEntity
  8
STANDARDEBENE
 62
     7
100
AcDbVertex
100
AcDb2dVertex
 10
-30.91182865286284
 20
-66.29315488201728
 30
0.0
  0
VERTEX
  5
1D8
330
1CE
100
AcDbEntity
  8
STANDARDEBENE
 62
     7
100
AcDbVertex
100
AcDb2dVertex
 10
-31.53745840570868
 20
-66.29315488201728
 30
0.0
  0
VERTEX
  5
1D9
330
1CE
100
AcDbEntity
  8
STANDARDEBENE
 62
     7
100
AcDbVertex
100
AcDb2dVertex
 10
-31.92089778616982
 20
-66.29315488201728
 30
0.0
  0
VERTEX
  5
1DA
330
1CE
100
AcDbEntity
  8
STANDARDEBENE
 62
     7
100
AcDbVertex
100
AcDb2dVertex
 10
-32.04974444231759
 20
-66.29315488201728
 30
0.0
  0
SEQEND
  5
1DB
330
1CE
100
AcDbEntity
  8
STANDARDEBENE
  0
POLYLINE
  5
1DC
330
1F
100
AcDbEntity
  8
STANDARDEBENE
 62
     7
100
AcDb2dPolyline
 66
     1
 10
0.0
 20
0.0
 30
0.0
  0
VERTEX
  5
1DD
330
1DC
100
AcDbEntity
  8
STANDARDEBENE
 62
     7
100
AcDbVertex
100
AcDb2dVertex
 10
-28.04860790622088
 20
-65.05326419892687
 30
0.0
  0
VERTEX
  5
1DE
330
1DC
100
AcDbEntity
  8
STANDARDEBENE
 62
     7
100
AcDbVertex
100
AcDb2dVertex
 10
-28.04481829868713
 20
-65.04861331695362
 30
0.0
  0
VERTEX
  5
1DF
330
1DC
100
AcDbEntity
  8
STANDARDEBENE
 62
     7
100
AcDbVertex
100
AcDb2dVertex
 10
-27.86636223482471
 20
-64.87704744860713
 30
0.0
  0
VERTEX
  5
1E0
330
1DC
100
AcDbEntity
  8
STANDARDEBENE
 62
     7
100
AcDbVertex
100
AcDb2dVertex
 10
-27.68032695589478
 20
-64.71443883443133
 30
0.0
  0
VERTEX
  5
1E1
330
1DC
100
AcDbEntity
  8
STANDARDEBENE
 62
     7
100
AcDbVertex
100
AcDb2dVertex
 10
-27.41195384054956
 20
-64.52340816375236
 30
0.0
  0
VERTEX
  5
1E2
330
1DC
100
AcDbEntity
  8
STANDARDEBENE
 62
     7
100
AcDbVertex
100
AcDb2dVertex
 10
-27.10878523784893
 20
-64.37716376392689
 30
0.0
  0
VERTEX
  5
1E3
330
1DC
100
AcDbEntity
  8
STANDARDEBENE
 62
     7
100
AcDbVertex
100
AcDb2dVertex
 10
-26.65230978491901
 20
-64.29344788840842
 30
0.0
  0
VERTEX
  5
1E4
330
1DC
100
AcDbEntity
  8
STANDARDEBENE
 62
     7
100
AcDbVertex
100
AcDb2dVertex
 10
-25.12578696836619
 20
-64.29344788840842
 30
0.0
  0
VERTEX
  5
1E5
330
1DC
100
AcDbEntity
  8
STANDARDEBENE
 62
     7
100
AcDbVertex
100
AcDb2dVertex
 10
-23.55172180275349
 20
-64.29344788840842
 30
0.0
  0
VERTEX
  5
1E6
330
1DC
100
AcDbEntity
  8
STANDARDEBENE
 62
     7
100
AcDbVertex
100
AcDb2dVertex
 10
-21.9776566371408
 20
-64.29344788840842
 30
0.0
  0
VERTEX
  5
1E7
330
1DC
100
AcDbEntity
  8
STANDARDEBENE
 62
     7
100
AcDbVertex
100
AcDb2dVertex
 10
-20.45113382058797
 20
-64.29344788840842
 30
0.0
  0
VERTEX
  5
1E8
330
1DC
100
AcDbEntity
  8
STANDARDEBENE
 62
     7
100
AcDbVertex
100
AcDb2dVertex
 10
-19.99465836765805
 20
-64.37716376392689
 30
0.0
  0
VERTEX
  5
1E9
330
1DC
100
AcDbEntity
  8
STANDARDEBENE
 62
     7
100
AcDbVertex
100
AcDb2dVertex
 10
-19.69872447024914
 20
-64.5192740464428
 30
0.0
  0
VERTEX
  5
1EA
330
1DC
100
AcDbEntity
  8
STANDARDEBENE
 62
     7
100
AcDbVertex
100
AcDb2dVertex
 10
-19.4231166496122
 20
-64.71443883443133
 30
0.0
  0
VERTEX
  5
1EB
330
1DC
100
AcDbEntity
  8
STANDARDEBENE
 62
     7
100
AcDbVertex
100
AcDb2dVertex
 10
-19.23673686090648
 20
-64.87704744860713
 30
0.0
  0
VERTEX
  5
1EC
330
1DC
100
AcDbEntity
  8
STANDARDEBENE
 62
     7
100
AcDbVertex
100
AcDb2dVertex
 10
-19.05931432637145
 20
-65.04861331695362
 30
0.0
  0
VERTEX
  5
1ED
330
1DC
100
AcDbEntity
  8
STANDARDEBENE
 62
     7
100
AcDbVertex
100
AcDb2dVertex
 10
-19.0544911895103
 20
-65.05326419892687
 30
0.0
  0
SEQEND
  5
1EE
330
1DC
100
AcDbEntity
  8
STANDARDEBENE
  0
POLYLINE
  5
1EF
330
1F
100
AcDbEntity
  8
STANDARDEBENE
 62
     7
100
AcDb2dPolyline
 66
     1
 10
0.0
 20
0.0
 30
0.0
  0
VERTEX
  5
1F0
330
1EF
100
AcDbEntity
  8
STANDARDEBENE
 62
     7
100
AcDbVertex
100
AcDb2dVertex
 10
-23.55172180275349
 20
-55.79318593530164
 30
0.0
  0
VERTEX
  5
1F1
330
1EF
100
AcDbEntity
  8
STANDARDEBENE
 62
     7
100
AcDbVertex
100
AcDb2dVertex
 10
-23.26543417906688
 20
-55.82005769781374
 30
0.0
  0
VERTEX
  5
1F2
330
1EF
100
AcDbEntity
  8
STANDARDEBENE
 62
     7
100
AcDbVertex
100
AcDb2dVertex
 10
-22.80379107950001
 20
-55.99300160526342
 30
0.0
  0
VERTEX
  5
1F3
330
1EF
100
AcDbEntity
  8
STANDARDEBENE
 62
     7
100
AcDbVertex
100
AcDb2dVertex
 10
-22.42104071859046
 20
-56.30719452078953
 30
0.0
  0
VERTEX
  5
1F4
330
1EF
100
AcDbEntity
  8
STANDARDEBENE
 62
     7
100
AcDbVertex
100
AcDb2dVertex
 10
-22.15817975965799
 20
-56.73869301497423
 30
0.0
  0
VERTEX
  5
1F5
330
1EF
100
AcDbEntity
  8
STANDARDEBENE
 62
     7
100
AcDbVertex
100
AcDb2dVertex
 10
-22.05275976826436
 20
-57.235992876336
 30
0.0
  0
VERTEX
  5
1F6
330
1EF
100
AcDbEntity
  8
STANDARDEBENE
 62
     7
100
AcDbVertex
100
AcDb2dVertex
 10
-22.11718309633824
 20
-57.73380950236147
 30
0.0
  0
VERTEX
  5
1F7
330
1EF
100
AcDbEntity
  8
STANDARDEBENE
 62
     7
100
AcDbVertex
100
AcDb2dVertex
 10
-22.34145896038155
 20
-58.17908838757801
 30
0.0
  0
VERTEX
  5
1F8
330
1EF
100
AcDbEntity
  8
STANDARDEBENE
 62
     7
100
AcDbVertex
100
AcDb2dVertex
 10
-22.69940461743377
 20
-58.52738777090794
 30
0.0
  0
VERTEX
  5
1F9
330
1EF
100
AcDbEntity
  8
STANDARDEBENE
 62
     7
100
AcDbVertex
100
AcDb2dVertex
 10
-23.15725810946688
 20
-58.73995030257418
 30
0.0
  0
VERTEX
  5
1FA
330
1EF
100
AcDbEntity
  8
STANDARDEBENE
 62
     7
100
AcDbVertex
100
AcDb2dVertex
 10
-23.65714179414712
 20
-58.78921520051303
 30
0.0
  0
VERTEX
  5
1FB
330
1EF
100
AcDbEntity
  8
STANDARDEBENE
 62
     7
100
AcDbVertex
100
AcDb2dVertex
 10
-24.1442786171229
 20
-58.67104834741495
 30
0.0
  0
VERTEX
  5
1FC
330
1EF
100
AcDbEntity
  8
STANDARDEBENE
 62
     7
100
AcDbVertex
100
AcDb2dVertex
 10
-24.56526956314582
 20
-58.39871336964807
 30
0.0
  0
VERTEX
  5
1FD
330
1EF
100
AcDbEntity
  8
STANDARDEBENE
 62
     7
100
AcDbVertex
100
AcDb2dVertex
 10
-24.87463934181078
 20
-58.0006323237156
 30
0.0
  0
VERTEX
  5
1FE
330
1EF
100
AcDbEntity
  8
STANDARDEBENE
 62
     7
100
AcDbVertex
100
AcDb2dVertex
 10
-25.0344918777802
 20
-57.52296951957421
 30
0.0
  0
VERTEX
  5
1FF
330
1EF
100
AcDbEntity
  8
STANDARDEBENE
 62
     7
100
AcDbVertex
100
AcDb2dVertex
 10
-25.02760168226428
 20
-57.02532514843664
 30
0.0
  0
VERTEX
  5
200
330
1EF
100
AcDbEntity
  8
STANDARDEBENE
 62
     7
100
AcDbVertex
100
AcDb2dVertex
 10
-24.85948091167575
 20
-56.55834214734494
 30
0.0
  0
VERTEX
  5
201
330
1EF
100
AcDbEntity
  8
STANDARDEBENE
 62
     7
100
AcDbVertex
100
AcDb2dVertex
 10
-24.64416230180314
 20
-56.2651643281424
 30
0.0
  0
VERTEX
  5
202
330
1EF
100
AcDbEntity
  8
STANDARDEBENE
 62
     7
100
AcDbVertex
100
AcDb2dVertex
 10
-24.24384194232799
 20
-55.96165121566597
 30
0.0
  0
VERTEX
  5
203
330
1EF
100
AcDbEntity
  8
STANDARDEBENE
 62
     7
100
AcDbVertex
100
AcDb2dVertex
 10
-23.76359531486813
 20
-55.80799985566088
 30
0.0
  0
VERTEX
  5
204
330
1EF
100
AcDbEntity
  8
STANDARDEBENE
 62
     7
100
AcDbVertex
100
AcDb2dVertex
 10
-23.55172180275349
 20
-55.79318593530164
 30
0.0
  0
SEQEND
  5
205
330
1EF
100
AcDbEntity
  8
STANDARDEBENE
  0
POLYLINE
  5
206
330
1F
100
AcDbEntity
  8
STANDARDEBENE
 62
     7
100
AcDb2dPolyline
 66
     1
 10
0.0
 20
0.0
 30
0.0
  0
VERTEX
  5
207
330
206
100
AcDbEntity
  8
STANDARDEBENE
 62
     7
100
AcDbVertex
100
AcDb2dVertex
 10
-23.55172180275349
 20
-11.29268594082262
 30
0.0
  0
VERTEX
  5
208
330
206
100
AcDbEntity
  8
STANDARDEBENE
 62
     7
100
AcDbVertex
100
AcDb2dVertex
 10
-21.91495585794589
 20
-11.29268594082262
 30
0.0
  0
VERTEX
  5
209
330
206
100
AcDbEntity
  8
STANDARDEBENE
 62
     7
100
AcDbVertex
100
AcDb2dVertex
 10
-20.31160736139052
 20
-11.29268594082262
 30
0.0
  0
VERTEX
  5
20A
330
206
100
AcDbEntity
  8
STANDARDEBENE
 62
     7
100
AcDbVertex
100
AcDb2dVertex
 10
-18.77440474178802
 20
-11.29268594082262
 30
0.0
  0
VERTEX
  5
20B
330
206
100
AcDbEntity
  8
STANDARDEBENE
 62
     7
100
AcDbVertex
100
AcDb2dVertex
 10
-17.33435387896003
 20
-11.29268594082262
 30
0.0
  0
VERTEX
  5
20C
330
206
100
AcDbEntity
  8
STANDARDEBENE
 62
     7
100
AcDbVertex
100
AcDb2dVertex
 10
-16.02142712340083
 20
-11.29268594082262
 30
0.0
  0
VERTEX
  5
20D
330
206
100
AcDbEntity
  8
STANDARDEBENE
 62
     7
100
AcDbVertex
100
AcDb2dVertex
 10
-14.86077368874354
 20
-11.29268594082262
 30
0.0
  0
VERTEX
  5
20E
330
206
100
AcDbEntity
  8
STANDARDEBENE
 62
     7
100
AcDbVertex
100
AcDb2dVertex
 10
-13.87788729839707
 20
-11.29268594082262
 30
0.0
  0
VERTEX
  5
20F
330
206
100
AcDbEntity
  8
STANDARDEBENE
 62
     7
100
AcDbVertex
100
AcDb2dVertex
 10
-13.09102697047862
 20
-11.29268594082262
 30
0.0
  0
VERTEX
  5
210
330
206
100
AcDbEntity
  8
STANDARDEBENE
 62
     7
100
AcDbVertex
100
AcDb2dVertex
 10
-12.517418193778
 20
-11.29268594082262
 30
0.0
  0
VERTEX
  5
211
330
206
100
AcDbEntity
  8
STANDARDEBENE
 62
     7
100
AcDbVertex
100
AcDb2dVertex
 10
-12.16911881044807
 20
-11.29268594082262
 30
0.0
  0
VERTEX
  5
212
330
206
100
AcDbEntity
  8
STANDARDEBENE
 62
     7
100
AcDbVertex
100
AcDb2dVertex
 10
-12.05198548667737
 20
-11.29268594082262
 30
0.0
  0
SEQEND
  5
213
330
206
100
AcDbEntity
  8
STANDARDEBENE
  0
POLYLINE
  5
214
330
1F
100
AcDbEntity
  8
STANDARDEBENE
 62
     7
100
AcDb2dPolyline
 66
     1
 10
0.0
 20
0.0
 30
0.0
  0
VERTEX
  5
215
330
214
100
AcDbEntity
  8
STANDARDEBENE
 62
     7
100
AcDbVertex
100
AcDb2dVertex
 10
-35.05145811882961
 20
-11.29268594082262
 30
0.0
  0
VERTEX
  5
216
330
214
100
AcDbEntity
  8
STANDARDEBENE
 62
     7
100
AcDbVertex
100
AcDb2dVertex
 10
-34.9350138146105
 20
-11.29268594082262
 30
0.0
  0
VERTEX
  5
217
330
214
100
AcDbEntity
  8
STANDARDEBENE
 62
     7
100
AcDbVertex
100
AcDb2dVertex
 10
-34.58602541172898
 20
-11.29268594082262
 30
0.0
  0
VERTEX
  5
218
330
214
100
AcDbEntity
  8
STANDARDEBENE
 62
     7
100
AcDbVertex
100
AcDb2dVertex
 10
-34.01276114480416
 20
-11.29268594082262
 30
0.0
  0
VERTEX
  5
219
330
214
100
AcDbEntity
  8
STANDARDEBENE
 62
     7
100
AcDbVertex
100
AcDb2dVertex
 10
-33.2269343462131
 20
-11.29268594082262
 30
0.0
  0
VERTEX
  5
21A
330
214
100
AcDbEntity
  8
STANDARDEBENE
 62
     7
100
AcDbVertex
100
AcDb2dVertex
 10
-32.24266991676344
 20
-11.29268594082262
 30
0.0
  0
VERTEX
  5
21B
330
214
100
AcDbEntity
  8
STANDARDEBENE
 62
     7
100
AcDbVertex
100
AcDb2dVertex
 10
-31.08270550165774
 20
-11.29268594082262
 30
0.0
  0
VERTEX
  5
21C
330
214
100
AcDbEntity
  8
STANDARDEBENE
 62
     7
100
AcDbVertex
100
AcDb2dVertex
 10
-29.76908972654695
 20
-11.29268594082262
 30
0.0
  0
VERTEX
  5
21D
330
214
100
AcDbEntity
  8
STANDARDEBENE
 62
     7
100
AcDbVertex
100
AcDb2dVertex
 10
-28.32834984416737
 20
-11.29268594082262
 30
0.0
  0
VERTEX
  5
21E
330
214
100
AcDbEntity
  8
STANDARDEBENE
 62
     7
100
AcDbVertex
100
AcDb2dVertex
 10
-26.79149173434066
 20
-11.29268594082262
 30
0.0
  0
VERTEX
  5
21F
330
214
100
AcDbEntity
  8
STANDARDEBENE
 62
     7
100
AcDbVertex
100
AcDb2dVertex
 10
-25.18848774756109
 20
-11.29268594082262
 30
0.0
  0
VERTEX
  5
220
330
214
100
AcDbEntity
  8
STANDARDEBENE
 62
     7
100
AcDbVertex
100
AcDb2dVertex
 10
-23.55172180275349
 20
-11.29268594082262
 30
0.0
  0
SEQEND
  5
221
330
214
100
AcDbEntity
  8
STANDARDEBENE
  0
POLYLINE
  5
222
330
1F
100
AcDbEntity
  8
STANDARDEBENE
 62
     7
100
AcDb2dPolyline
 66
     1
 10
0.0
 20
0.0
 30
0.0
  0
VERTEX
  5
223
330
222
100
AcDbEntity
  8
STANDARDEBENE
 62
     7
100
AcDbVertex
100
AcDb2dVertex
 10
-36.05191450774168
 20
-32.29296834402968
 30
0.0
  0
VERTEX
  5
224
330
222
100
AcDbEntity
  8
STANDARDEBENE
 62
     7
100
AcDbVertex
100
AcDb2dVertex
 10
-36.03847862648563
 20
-32.2466317791851
 30
0.0
  0
VERTEX
  5
225
330
222
100
AcDbEntity
  8
STANDARDEBENE
 62
     7
100
AcDbVertex
100
AcDb2dVertex
 10
-36.01160686397353
 20
-32.14896325774689
 30
0.0
  0
VERTEX
  5
226
330
222
100
AcDbEntity
  8
STANDARDEBENE
 62
     7
100
AcDbVertex
100
AcDb2dVertex
 10
-36.00058255114805
 20
-32.10434924178128
 30
0.0
  0
VERTEX
  5
227
330
222
100
AcDbEntity
  8
STANDARDEBENE
 62
     7
100
AcDbVertex
100
AcDb2dVertex
 10
-35.94201588926271
 20
-31.87697278975581
 30
0.0
  0
VERTEX
  5
228
330
222
100
AcDbEntity
  8
STANDARDEBENE
 62
     7
100
AcDbVertex
100
AcDb2dVertex
 10
-35.88689432513532
 20
-31.64994084750613
 30
0.0
  0
VERTEX
  5
229
330
222
100
AcDbEntity
  8
STANDARDEBENE
 62
     7
100
AcDbVertex
100
AcDb2dVertex
 10
-35.86760177769073
 20
-31.56381340355709
 30
0.0
  0
VERTEX
  5
22A
330
222
100
AcDbEntity
  8
STANDARDEBENE
 62
     7
100
AcDbVertex
100
AcDb2dVertex
 10
-35.78560845105125
 20
-31.17365608246793
 30
0.0
  0
VERTEX
  5
22B
330
222
100
AcDbEntity
  8
STANDARDEBENE
 62
     7
100
AcDbVertex
100
AcDb2dVertex
 10
-35.72359669140793
 20
-30.83121336532654
 30
0.0
  0
VERTEX
  5
22C
330
222
100
AcDbEntity
  8
STANDARDEBENE
 62
     7
100
AcDbVertex
100
AcDb2dVertex
 10
-35.70430414396335
 20
-30.7085678851431
 30
0.0
  0
VERTEX
  5
22D
330
222
100
AcDbEntity
  8
STANDARDEBENE
 62
     7
100
AcDbVertex
100
AcDb2dVertex
 10
-35.68466708674296
 20
-30.58488887563228
 30
0.0
  0
VERTEX
  5
22E
330
222
100
AcDbEntity
  8
STANDARDEBENE
 62
     7
100
AcDbVertex
100
AcDb2dVertex
 10
-35.64918257983596
 20
-30.32581752423356
 30
0.0
  0
VERTEX
  5
22F
330
222
100
AcDbEntity
  8
STANDARDEBENE
 62
     7
100
AcDbVertex
100
AcDb2dVertex
 10
-35.61783219023851
 20
-30.05107097803612
 30
0.0
  0
VERTEX
  5
230
330
222
100
AcDbEntity
  8
STANDARDEBENE
 62
     7
100
AcDbVertex
100
AcDb2dVertex
 10
-35.59061591795061
 20
-29.76340531524631
 30
0.0
  0
VERTEX
  5
231
330
222
100
AcDbEntity
  8
STANDARDEBENE
 62
     7
100
AcDbVertex
100
AcDb2dVertex
 10
-35.58028062467672
 20
-29.61543836654186
 30
0.0
  0
VERTEX
  5
232
330
222
100
AcDbEntity
  8
STANDARDEBENE
 62
     7
100
AcDbVertex
100
AcDb2dVertex
 10
-35.55444239149201
 20
-29.04337988383232
 30
0.0
  0
VERTEX
  5
233
330
222
100
AcDbEntity
  8
STANDARDEBENE
 62
     7
100
AcDbVertex
100
AcDb2dVertex
 10
-35.55306435238883
 20
-28.60016805727055
 30
0.0
  0
VERTEX
  5
234
330
222
100
AcDbEntity
  8
STANDARDEBENE
 62
     7
100
AcDbVertex
100
AcDb2dVertex
 10
-35.55685395992258
 20
-28.45047855968711
 30
0.0
  0
VERTEX
  5
235
330
222
100
AcDbEntity
  8
STANDARDEBENE
 62
     7
100
AcDbVertex
100
AcDb2dVertex
 10
-35.58510376153787
 20
-27.89822938908586
 30
0.0
  0
VERTEX
  5
236
330
222
100
AcDbEntity
  8
STANDARDEBENE
 62
     7
100
AcDbVertex
100
AcDb2dVertex
 10
-35.6371247376831
 20
-27.35924384485275
 30
0.0
  0
VERTEX
  5
237
330
222
100
AcDbEntity
  8
STANDARDEBENE
 62
     7
100
AcDbVertex
100
AcDb2dVertex
 10
-35.70533767329074
 20
-26.86383878725786
 30
0.0
  0
VERTEX
  5
238
330
222
100
AcDbEntity
  8
STANDARDEBENE
 62
     7
100
AcDbVertex
100
AcDb2dVertex
 10
-35.76562688405507
 20
-26.52019028590118
 30
0.0
  0
VERTEX
  5
239
330
222
100
AcDbEntity
  8
STANDARDEBENE
 62
     7
100
AcDbVertex
100
AcDb2dVertex
 10
-35.78560845105125
 20
-26.41184196141328
 30
0.0
  0
VERTEX
  5
23A
330
222
100
AcDbEntity
  8
STANDARDEBENE
 62
     7
100
AcDbVertex
100
AcDb2dVertex
 10
-35.86829079724232
 20
-26.01875630722986
 30
0.0
  0
VERTEX
  5
23B
330
222
100
AcDbEntity
  8
STANDARDEBENE
 62
     7
100
AcDbVertex
100
AcDb2dVertex
 10
-35.92651294935187
 20
-25.76984799421712
 30
0.0
  0
VERTEX
  5
23C
330
222
100
AcDbEntity
  8
STANDARDEBENE
 62
     7
100
AcDbVertex
100
AcDb2dVertex
 10
-35.94546098702067
 20
-25.69681192174833
 30
0.0
  0
VERTEX
  5
23D
330
222
100
AcDbEntity
  8
STANDARDEBENE
 62
     7
100
AcDbVertex
100
AcDb2dVertex
 10
-35.96165294648308
 20
-25.63101055457127
 30
0.0
  0
VERTEX
  5
23E
330
222
100
AcDbEntity
  8
STANDARDEBENE
 62
     7
100
AcDbVertex
100
AcDb2dVertex
 10
-36.00402764890601
 20
-25.4666793915165
 30
0.0
  0
VERTEX
  5
23F
330
222
100
AcDbEntity
  8
STANDARDEBENE
 62
     7
100
AcDbVertex
100
AcDb2dVertex
 10
-36.03503352872767
 20
-25.35385243994325
 30
0.0
  0
VERTEX
  5
240
330
222
100
AcDbEntity
  8
STANDARDEBENE
 62
     7
100
AcDbVertex
100
AcDb2dVertex
 10
-36.0505364686385
 20
-25.29855862092797
 30
0.0
  0
SEQEND
  5
241
330
222
100
AcDbEntity
  8
STANDARDEBENE
  0
POLYLINE
  5
242
330
1F
100
AcDbEntity
  8
STANDARDEBENE
 62
     7
100
AcDb2dPolyline
 66
     1
 10
0.0
 20
0.0
 30
0.0
  0
VERTEX
  5
243
330
242
100
AcDbEntity
  8
STANDARDEBENE
 62
     7
100
AcDbVertex
100
AcDb2dVertex
 10
-36.05191450774168
 20
-20.29334834327333
 30
0.0
  0
VERTEX
  5
244
330
242
100
AcDbEntity
  8
STANDARDEBENE
 62
     7
100
AcDbVertex
100
AcDb2dVertex
 10
-36.03847862648563
 20
-20.24615050398925
 30
0.0
  0
VERTEX
  5
245
330
242
100
AcDbEntity
  8
STANDARDEBENE
 62
     7
100
AcDbVertex
100
AcDb2dVertex
 10
-36.01160686397353
 20
-20.14934325699053
 30
0.0
  0
VERTEX
  5
246
330
242
100
AcDbEntity
  8
STANDARDEBENE
 62
     7
100
AcDbVertex
100
AcDb2dVertex
 10
-36.00058255114805
 20
-20.10421247636123
 30
0.0
  0
VERTEX
  5
247
330
242
100
AcDbEntity
  8
STANDARDEBENE
 62
     7
100
AcDbVertex
100
AcDb2dVertex
 10
-35.94201588926271
 20
-19.87769729877525
 30
0.0
  0
VERTEX
  5
248
330
242
100
AcDbEntity
  8
STANDARDEBENE
 62
     7
100
AcDbVertex
100
AcDb2dVertex
 10
-35.88689432513532
 20
-19.65014859186188
 30
0.0
  0
VERTEX
  5
249
330
242
100
AcDbEntity
  8
STANDARDEBENE
 62
     7
100
AcDbVertex
100
AcDb2dVertex
 10
-35.86760177769073
 20
-19.56367663813704
 30
0.0
  0
VERTEX
  5
24A
330
242
100
AcDbEntity
  8
STANDARDEBENE
 62
     7
100
AcDbVertex
100
AcDb2dVertex
 10
-35.78560845105125
 20
-19.17403608171157
 30
0.0
  0
VERTEX
  5
24B
330
242
100
AcDbEntity
  8
STANDARDEBENE
 62
     7
100
AcDbVertex
100
AcDb2dVertex
 10
-35.72359669140793
 20
-18.83176561945808
 30
0.0
  0
VERTEX
  5
24C
330
242
100
AcDbEntity
  8
STANDARDEBENE
 62
     7
100
AcDbVertex
100
AcDb2dVertex
 10
-35.70430414396335
 20
-18.70894788438675
 30
0.0
  0
VERTEX
  5
24D
330
242
100
AcDbEntity
  8
STANDARDEBENE
 62
     7
100
AcDbVertex
100
AcDb2dVertex
 10
-35.68466708674296
 20
-18.58406309066063
 30
0.0
  0
VERTEX
  5
24E
330
242
100
AcDbEntity
  8
STANDARDEBENE
 62
     7
100
AcDbVertex
100
AcDb2dVertex
 10
-35.64918257983596
 20
-18.3261975234772
 30
0.0
  0
VERTEX
  5
24F
330
242
100
AcDbEntity
  8
STANDARDEBENE
 62
     7
100
AcDbVertex
100
AcDb2dVertex
 10
-35.61783219023851
 20
-18.05162323216766
 30
0.0
  0
VERTEX
  5
250
330
242
100
AcDbEntity
  8
STANDARDEBENE
 62
     7
100
AcDbVertex
100
AcDb2dVertex
 10
-35.59061591795061
 20
-17.76275178516257
 30
0.0
  0
VERTEX
  5
251
330
242
100
AcDbEntity
  8
STANDARDEBENE
 62
     7
100
AcDbVertex
100
AcDb2dVertex
 10
-35.58028062467672
 20
-17.61530160112181
 30
0.0
  0
VERTEX
  5
252
330
242
100
AcDbEntity
  8
STANDARDEBENE
 62
     7
100
AcDbVertex
100
AcDb2dVertex
 10
-35.55444239149201
 20
-17.04341537330017
 30
0.0
  0
VERTEX
  5
253
330
242
100
AcDbEntity
  8
STANDARDEBENE
 62
     7
100
AcDbVertex
100
AcDb2dVertex
 10
-35.55306435238883
 20
-16.5996867820747
 30
0.0
  0
VERTEX
  5
254
330
242
100
AcDbEntity
  8
STANDARDEBENE
 62
     7
100
AcDbVertex
100
AcDb2dVertex
 10
-35.55685395992258
 20
-16.45051404915496
 30
0.0
  0
VERTEX
  5
255
330
242
100
AcDbEntity
  8
STANDARDEBENE
 62
     7
100
AcDbVertex
100
AcDb2dVertex
 10
-35.58510376153787
 20
-15.8980926236658
 30
0.0
  0
VERTEX
  5
256
330
242
100
AcDbEntity
  8
STANDARDEBENE
 62
     7
100
AcDbVertex
100
AcDb2dVertex
 10
-35.6371247376831
 20
-15.35962384409639
 30
0.0
  0
VERTEX
  5
257
330
242
100
AcDbEntity
  8
STANDARDEBENE
 62
     7
100
AcDbVertex
100
AcDb2dVertex
 10
-35.70533767329074
 20
-14.8638742767257
 30
0.0
  0
VERTEX
  5
258
330
242
100
AcDbEntity
  8
STANDARDEBENE
 62
     7
100
AcDbVertex
100
AcDb2dVertex
 10
-35.76562688405507
 20
-14.52039803025692
 30
0.0
  0
VERTEX
  5
259
330
242
100
AcDbEntity
  8
STANDARDEBENE
 62
     7
100
AcDbVertex
100
AcDb2dVertex
 10
-35.78560845105125
 20
-14.41170519599323
 30
0.0
  0
VERTEX
  5
25A
330
242
100
AcDbEntity
  8
STANDARDEBENE
 62
     7
100
AcDbVertex
100
AcDb2dVertex
 10
-35.86829079724232
 20
-14.0189640515856
 30
0.0
  0
VERTEX
  5
25B
330
242
100
AcDbEntity
  8
STANDARDEBENE
 62
     7
100
AcDbVertex
100
AcDb2dVertex
 10
-35.92651294935187
 20
-13.76936671902128
 30
0.0
  0
VERTEX
  5
25C
330
242
100
AcDbEntity
  8
STANDARDEBENE
 62
     7
100
AcDbVertex
100
AcDb2dVertex
 10
-35.94546098702067
 20
-13.69598613677669
 30
0.0
  0
VERTEX
  5
25D
330
242
100
AcDbEntity
  8
STANDARDEBENE
 62
     7
100
AcDbVertex
100
AcDb2dVertex
 10
-35.96165294648308
 20
-13.63121829892701
 30
0.0
  0
VERTEX
  5
25E
330
242
100
AcDbEntity
  8
STANDARDEBENE
 62
     7
100
AcDbVertex
100
AcDb2dVertex
 10
-36.00402764890601
 20
-13.46705939076014
 30
0.0
  0
VERTEX
  5
25F
330
242
100
AcDbEntity
  8
STANDARDEBENE
 62
     7
100
AcDbVertex
100
AcDb2dVertex
 10
-36.03503352872767
 20
-13.35406018429899
 30
0.0
  0
VERTEX
  5
260
330
242
100
AcDbEntity
  8
STANDARDEBENE
 62
     7
100
AcDbVertex
100
AcDb2dVertex
 10
-36.0505364686385
 20
-13.29790509084422
 30
0.0
  0
SEQEND
  5
261
330
242
100
AcDbEntity
  8
STANDARDEBENE
  0
POLYLINE
  5
262
330
1F
100
AcDbEntity
  8
STANDARDEBENE
 62
     7
100
AcDb2dPolyline
 66
     1
 10
0.0
 20
0.0
 30
0.0
  0
VERTEX
  5
263
330
262
100
AcDbEntity
  8
STANDARDEBENE
 62
     7
100
AcDbVertex
100
AcDb2dVertex
 10
-11.05359615642008
 20
-22.79707313887198
 30
0.0
  0
VERTEX
  5
264
330
262
100
AcDbEntity
  8
STANDARDEBENE
 62
     7
100
AcDbVertex
100
AcDb2dVertex
 10
-11.05221811731689
 20
-22.79207774712294
 30
0.0
  0
VERTEX
  5
265
330
262
100
AcDbEntity
  8
STANDARDEBENE
 62
     7
100
AcDbVertex
100
AcDb2dVertex
 10
-11.06220890081498
 20
-22.83014607734842
 30
0.0
  0
VERTEX
  5
266
330
262
100
AcDbEntity
  8
STANDARDEBENE
 62
     7
100
AcDbVertex
100
AcDb2dVertex
 10
-11.06909909633091
 20
-22.85495078120574
 30
0.0
  0
VERTEX
  5
267
330
262
100
AcDbEntity
  8
STANDARDEBENE
 62
     7
100
AcDbVertex
100
AcDb2dVertex
 10
-11.10940674009906
 20
-23.00498478856497
 30
0.0
  0
VERTEX
  5
268
330
262
100
AcDbEntity
  8
STANDARDEBENE
 62
     7
100
AcDbVertex
100
AcDb2dVertex
 10
-11.16935144108759
 20
-23.24269653386433
 30
0.0
  0
VERTEX
  5
269
330
262
100
AcDbEntity
  8
STANDARDEBENE
 62
     7
100
AcDbVertex
100
AcDb2dVertex
 10
-11.24411006243536
 20
-23.56222935091527
 30
0.0
  0
VERTEX
  5
26A
330
262
100
AcDbEntity
  8
STANDARDEBENE
 62
     7
100
AcDbVertex
100
AcDb2dVertex
 10
-11.30474378297548
 20
-23.85334011146304
 30
0.0
  0
VERTEX
  5
26B
330
262
100
AcDbEntity
  8
STANDARDEBENE
 62
     7
100
AcDbVertex
100
AcDb2dVertex
 10
-11.32541436952325
 20
-23.96048265173565
 30
0.0
  0
VERTEX
  5
26C
330
262
100
AcDbEntity
  8
STANDARDEBENE
 62
     7
100
AcDbVertex
100
AcDb2dVertex
 10
-11.34608495607102
 20
-24.07072577999042
 30
0.0
  0
VERTEX
  5
26D
330
262
100
AcDbEntity
  8
STANDARDEBENE
 62
     7
100
AcDbVertex
100
AcDb2dVertex
 10
-11.38604809006338
 20
-24.3056814470834
 30
0.0
  0
VERTEX
  5
26E
330
262
100
AcDbEntity
  8
STANDARDEBENE
 62
     7
100
AcDbVertex
100
AcDb2dVertex
 10
-11.42497769472835
 20
-24.5583793676299
 30
0.0
  0
VERTEX
  5
26F
330
262
100
AcDbEntity
  8
STANDARDEBENE
 62
     7
100
AcDbVertex
100
AcDb2dVertex
 10
-11.46149573096274
 20
-24.82675248297511
 30
0.0
  0
VERTEX
  5
270
330
262
100
AcDbEntity
  8
STANDARDEBENE
 62
     7
100
AcDbVertex
100
AcDb2dVertex
 10
-11.47768769042516
 20
-24.96714021661205
 30
0.0
  0
VERTEX
  5
271
330
262
100
AcDbEntity
  8
STANDARDEBENE
 62
     7
100
AcDbVertex
100
AcDb2dVertex
 10
-11.49146808145701
 20
-25.10373834271523
 30
0.0
  0
VERTEX
  5
272
330
262
100
AcDbEntity
  8
STANDARDEBENE
 62
     7
100
AcDbVertex
100
AcDb2dVertex
 10
-11.52660807858822
 20
-25.53179173914197
 30
0.0
  0
VERTEX
  5
273
330
262
100
AcDbEntity
  8
STANDARDEBENE
 62
     7
100
AcDbVertex
100
AcDb2dVertex
 10
-11.54727866513599
 20
-25.98120474166807
 30
0.0
  0
VERTEX
  5
274
330
262
100
AcDbEntity
  8
STANDARDEBENE
 62
     7
100
AcDbVertex
100
AcDb2dVertex
 10
-11.55037925311815
 20
-26.13468384678527
 30
0.0
  0
VERTEX
  5
275
330
262
100
AcDbEntity
  8
STANDARDEBENE
 62
     7
100
AcDbVertex
100
AcDb2dVertex
 10
-11.54521160648121
 20
-26.70588105505531
 30
0.0
  0
VERTEX
  5
276
330
262
100
AcDbEntity
  8
STANDARDEBENE
 62
     7
100
AcDbVertex
100
AcDb2dVertex
 10
-11.52350749060605
 20
-27.13600151013683
 30
0.0
  0
VERTEX
  5
277
330
262
100
AcDbEntity
  8
STANDARDEBENE
 62
     7
100
AcDbVertex
100
AcDb2dVertex
 10
-11.51282768755637
 20
-27.27811179265275
 30
0.0
  0
VERTEX
  5
278
330
262
100
AcDbEntity
  8
STANDARDEBENE
 62
     7
100
AcDbVertex
100
AcDb2dVertex
 10
-11.45942867230796
 20
-27.80142214208713
 30
0.0
  0
VERTEX
  5
279
330
262
100
AcDbEntity
  8
STANDARDEBENE
 62
     7
100
AcDbVertex
100
AcDb2dVertex
 10
-11.38811514871816
 20
-28.29355435681196
 30
0.0
  0
VERTEX
  5
27A
330
262
100
AcDbEntity
  8
STANDARDEBENE
 62
     7
100
AcDbVertex
100
AcDb2dVertex
 10
-11.30784437095765
 20
-28.73418236005526
 30
0.0
  0
VERTEX
  5
27B
330
262
100
AcDbEntity
  8
STANDARDEBENE
 62
     7
100
AcDbVertex
100
AcDb2dVertex
 10
-11.24583261131434
 20
-29.02770468903359
 30
0.0
  0
VERTEX
  5
27C
330
262
100
AcDbEntity
  8
STANDARDEBENE
 62
     7
100
AcDbVertex
100
AcDb2dVertex
 10
-11.22585104431816
 20
-29.11624370141321
 30
0.0
  0
VERTEX
  5
27D
330
262
100
AcDbEntity
  8
STANDARDEBENE
 62
     7
100
AcDbVertex
100
AcDb2dVertex
 10
-11.15178144252198
 20
-29.42165161765652
 30
0.0
  0
VERTEX
  5
27E
330
262
100
AcDbEntity
  8
STANDARDEBENE
 62
     7
100
AcDbVertex
100
AcDb2dVertex
 10
-11.10630615211689
 20
-29.59735160331256
 30
0.0
  0
VERTEX
  5
27F
330
262
100
AcDbEntity
  8
STANDARDEBENE
 62
     7
100
AcDbVertex
100
AcDb2dVertex
 10
-11.09287027086084
 20
-29.64437718770874
 30
0.0
  0
VERTEX
  5
280
330
262
100
AcDbEntity
  8
STANDARDEBENE
 62
     7
100
AcDbVertex
100
AcDb2dVertex
 10
-11.06220890081498
 20
-29.75703188439408
 30
0.0
  0
VERTEX
  5
281
330
262
100
AcDbEntity
  8
STANDARDEBENE
 62
     7
100
AcDbVertex
100
AcDb2dVertex
 10
-11.05221811731689
 20
-29.79458344995587
 30
0.0
  0
SEQEND
  5
282
330
262
100
AcDbEntity
  8
STANDARDEBENE
  0
POLYLINE
  5
283
330
1F
100
AcDbEntity
  8
STANDARDEBENE
 62
     7
100
AcDb2dPolyline
 66
     1
 10
0.0
 20
0.0
 30
0.0
  0
VERTEX
  5
284
330
283
100
AcDbEntity
  8
STANDARDEBENE
 62
     7
100
AcDbVertex
100
AcDb2dVertex
 10
-11.05221811731689
 20
-12.29297007484679
 30
0.0
  0
VERTEX
  5
285
330
283
100
AcDbEntity
  8
STANDARDEBENE
 62
     7
100
AcDbVertex
100
AcDb2dVertex
 10
-11.15867163803791
 20
-12.29297007484679
 30
0.0
  0
VERTEX
  5
286
330
283
100
AcDbEntity
  8
STANDARDEBENE
 62
     7
100
AcDbVertex
100
AcDb2dVertex
 10
-11.47768769042516
 20
-12.29297007484679
 30
0.0
  0
VERTEX
  5
287
330
283
100
AcDbEntity
  8
STANDARDEBENE
 62
     7
100
AcDbVertex
100
AcDb2dVertex
 10
-12.00375411806591
 20
-12.29297007484679
 30
0.0
  0
VERTEX
  5
288
330
283
100
AcDbEntity
  8
STANDARDEBENE
 62
     7
100
AcDbVertex
100
AcDb2dVertex
 10
-12.72584660813468
 20
-12.29297007484679
 30
0.0
  0
VERTEX
  5
289
330
283
100
AcDbEntity
  8
STANDARDEBENE
 62
     7
100
AcDbVertex
100
AcDb2dVertex
 10
-13.63500790646077
 20
-12.29297007484679
 30
0.0
  0
VERTEX
  5
28A
330
283
100
AcDbEntity
  8
STANDARDEBENE
 62
     7
100
AcDbVertex
100
AcDb2dVertex
 10
-14.71297899492698
 20
-12.29297007484679
 30
0.0
  0
VERTEX
  5
28B
330
283
100
AcDbEntity
  8
STANDARDEBENE
 62
     7
100
AcDbVertex
100
AcDb2dVertex
 10
-15.94184536519192
 20
-12.29297007484679
 30
0.0
  0
VERTEX
  5
28C
330
283
100
AcDbEntity
  8
STANDARDEBENE
 62
     7
100
AcDbVertex
100
AcDb2dVertex
 10
-17.3016254502594
 20
-12.29297007484679
 30
0.0
  0
VERTEX
  5
28D
330
283
100
AcDbEntity
  8
STANDARDEBENE
 62
     7
100
AcDbVertex
100
AcDb2dVertex
 10
-18.76820356582369
 20
-12.29297007484679
 30
0.0
  0
VERTEX
  5
28E
330
283
100
AcDbEntity
  8
STANDARDEBENE
 62
     7
100
AcDbVertex
100
AcDb2dVertex
 10
-20.31574147870008
 20
-12.29297007484679
 30
0.0
  0
VERTEX
  5
28F
330
283
100
AcDbEntity
  8
STANDARDEBENE
 62
     7
100
AcDbVertex
100
AcDb2dVertex
 10
-21.92012350458284
 20
-12.29297007484679
 30
0.0
  0
VERTEX
  5
290
330
283
100
AcDbEntity
  8
STANDARDEBENE
 62
     7
100
AcDbVertex
100
AcDb2dVertex
 10
-23.55172180275349
 20
-12.29297007484679
 30
0.0
  0
VERTEX
  5
291
330
283
100
AcDbEntity
  8
STANDARDEBENE
 62
     7
100
AcDbVertex
100
AcDb2dVertex
 10
-25.18332010092415
 20
-12.29297007484679
 30
0.0
  0
VERTEX
  5
292
330
283
100
AcDbEntity
  8
STANDARDEBENE
 62
     7
100
AcDbVertex
100
AcDb2dVertex
 10
-26.78632408770372
 20
-12.29297007484679
 30
0.0
  0
VERTEX
  5
293
330
283
100
AcDbEntity
  8
STANDARDEBENE
 62
     7
100
AcDbVertex
100
AcDb2dVertex
 10
-28.3348955299075
 20
-12.29297007484679
 30
0.0
  0
VERTEX
  5
294
330
283
100
AcDbEntity
  8
STANDARDEBENE
 62
     7
100
AcDbVertex
100
AcDb2dVertex
 10
-29.80181815524758
 20
-12.29297007484679
 30
0.0
  0
VERTEX
  5
295
330
283
100
AcDbEntity
  8
STANDARDEBENE
 62
     7
100
AcDbVertex
100
AcDb2dVertex
 10
-31.16090922076347
 20
-12.29297007484679
 30
0.0
  0
VERTEX
  5
296
330
283
100
AcDbEntity
  8
STANDARDEBENE
 62
     7
100
AcDbVertex
100
AcDb2dVertex
 10
-32.39046461058
 20
-12.29297007484679
 30
0.0
  0
VERTEX
  5
297
330
283
100
AcDbEntity
  8
STANDARDEBENE
 62
     7
100
AcDbVertex
100
AcDb2dVertex
 10
-33.46843569904621
 20
-12.29297007484679
 30
0.0
  0
VERTEX
  5
298
330
283
100
AcDbEntity
  8
STANDARDEBENE
 62
     7
100
AcDbVertex
100
AcDb2dVertex
 10
-34.37690797782071
 20
-12.29297007484679
 30
0.0
  0
VERTEX
  5
299
330
283
100
AcDbEntity
  8
STANDARDEBENE
 62
     7
100
AcDbVertex
100
AcDb2dVertex
 10
-35.10037850699266
 20
-12.29297007484679
 30
0.0
  0
VERTEX
  5
29A
330
283
100
AcDbEntity
  8
STANDARDEBENE
 62
     7
100
AcDbVertex
100
AcDb2dVertex
 10
-35.62575591508182
 20
-12.29297007484679
 30
0.0
  0
VERTEX
  5
29B
330
283
100
AcDbEntity
  8
STANDARDEBENE
 62
     7
100
AcDbVertex
100
AcDb2dVertex
 10
-35.94546098702067
 20
-12.29297007484679
 30
0.0
  0
VERTEX
  5
29C
330
283
100
AcDbEntity
  8
STANDARDEBENE
 62
     7
100
AcDbVertex
100
AcDb2dVertex
 10
-36.05191450774168
 20
-12.29297007484679
 30
0.0
  0
SEQEND
  5
29D
330
283
100
AcDbEntity
  8
STANDARDEBENE
  0
POLYLINE
  5
29E
330
1F
100
AcDbEntity
  8
STANDARDEBENE
 62
     7
100
AcDb2dPolyline
 66
     1
 10
0.0
 20
0.0
 30
0.0
  0
VERTEX
  5
29F
330
29E
100
AcDbEntity
  8
STANDARDEBENE
 62
     7
100
AcDbVertex
100
AcDb2dVertex
 10
-11.05221811731689
 20
-53.29273398257305
 30
0.0
  0
VERTEX
  5
2A0
330
29E
100
AcDbEntity
  8
STANDARDEBENE
 62
     7
100
AcDbVertex
100
AcDb2dVertex
 10
-11.15867163803791
 20
-53.29273398257305
 30
0.0
  0
VERTEX
  5
2A1
330
29E
100
AcDbEntity
  8
STANDARDEBENE
 62
     7
100
AcDbVertex
100
AcDb2dVertex
 10
-11.47768769042516
 20
-53.29273398257305
 30
0.0
  0
VERTEX
  5
2A2
330
29E
100
AcDbEntity
  8
STANDARDEBENE
 62
     7
100
AcDbVertex
100
AcDb2dVertex
 10
-12.00375411806591
 20
-53.29273398257305
 30
0.0
  0
VERTEX
  5
2A3
330
29E
100
AcDbEntity
  8
STANDARDEBENE
 62
     7
100
AcDbVertex
100
AcDb2dVertex
 10
-12.72584660813468
 20
-53.29273398257305
 30
0.0
  0
VERTEX
  5
2A4
330
29E
100
AcDbEntity
  8
STANDARDEBENE
 62
     7
100
AcDbVertex
100
AcDb2dVertex
 10
-13.63500790646077
 20
-53.29273398257305
 30
0.0
  0
VERTEX
  5
2A5
330
29E
100
AcDbEntity
  8
STANDARDEBENE
 62
     7
100
AcDbVertex
100
AcDb2dVertex
 10
-14.71297899492698
 20
-53.29273398257305
 30
0.0
  0
VERTEX
  5
2A6
330
29E
100
AcDbEntity
  8
STANDARDEBENE
 62
     7
100
AcDbVertex
100
AcDb2dVertex
 10
-15.94184536519192
 20
-53.29273398257305
 30
0.0
  0
VERTEX
  5
2A7
330
29E
100
AcDbEntity
  8
STANDARDEBENE
 62
     7
100
AcDbVertex
100
AcDb2dVertex
 10
-17.3016254502594
 20
-53.29273398257305
 30
0.0
  0
VERTEX
  5
2A8
330
29E
100
AcDbEntity
  8
STANDARDEBENE
 62
     7
100
AcDbVertex
100
AcDb2dVertex
 10
-18.76820356582369
 20
-53.29273398257305
 30
0.0
  0
VERTEX
  5
2A9
330
29E
100
AcDbEntity
  8
STANDARDEBENE
 62
     7
100
AcDbVertex
100
AcDb2dVertex
 10
-20.31574147870008
 20
-53.29273398257305
 30
0.0
  0
VERTEX
  5
2AA
330
29E
100
AcDbEntity
  8
STANDARDEBENE
 62
     7
100
AcDbVertex
100
AcDb2dVertex
 10
-21.92012350458284
 20
-53.29273398257305
 30
0.0
  0
VERTEX
  5
2AB
330
29E
100
AcDbEntity
  8
STANDARDEBENE
 62
     7
100
AcDbVertex
100
AcDb2dVertex
 10
-23.55172180275349
 20
-53.29273398257305
 30
0.0
  0
VERTEX
  5
2AC
330
29E
100
AcDbEntity
  8
STANDARDEBENE
 62
     7
100
AcDbVertex
100
AcDb2dVertex
 10
-25.18332010092415
 20
-53.29273398257305
 30
0.0
  0
VERTEX
  5
2AD
330
29E
100
AcDbEntity
  8
STANDARDEBENE
 62
     7
100
AcDbVertex
100
AcDb2dVertex
 10
-26.78632408770372
 20
-53.29273398257305
 30
0.0
  0
VERTEX
  5
2AE
330
29E
100
AcDbEntity
  8
STANDARDEBENE
 62
     7
100
AcDbVertex
100
AcDb2dVertex
 10
-28.3348955299075
 20
-53.29273398257305
 30
0.0
  0
VERTEX
  5
2AF
330
29E
100
AcDbEntity
  8
STANDARDEBENE
 62
     7
100
AcDbVertex
100
AcDb2dVertex
 10
-29.80181815524758
 20
-53.29273398257305
 30
0.0
  0
VERTEX
  5
2B0
330
29E
100
AcDbEntity
  8
STANDARDEBENE
 62
     7
100
AcDbVertex
100
AcDb2dVertex
 10
-31.16090922076347
 20
-53.29273398257305
 30
0.0
  0
VERTEX
  5
2B1
330
29E
100
AcDbEntity
  8
STANDARDEBENE
 62
     7
100
AcDbVertex
100
AcDb2dVertex
 10
-32.39046461058
 20
-53.29273398257305
 30
0.0
  0
VERTEX
  5
2B2
330
29E
100
AcDbEntity
  8
STANDARDEBENE
 62
     7
100
AcDbVertex
100
AcDb2dVertex
 10
-33.46843569904621
 20
-53.29273398257305
 30
0.0
  0
VERTEX
  5
2B3
330
29E
100
AcDbEntity
  8
STANDARDEBENE
 62
     7
100
AcDbVertex
100
AcDb2dVertex
 10
-34.37690797782071
 20
-53.29273398257305
 30
0.0
  0
VERTEX
  5
2B4
330
29E
100
AcDbEntity
  8
STANDARDEBENE
 62
     7
100
AcDbVertex
100
AcDb2dVertex
 10
-35.10037850699266
 20
-53.29273398257305
 30
0.0
  0
VERTEX
  5
2B5
330
29E
100
AcDbEntity
  8
STANDARDEBENE
 62
     7
100
AcDbVertex
100
AcDb2dVertex
 10
-35.62575591508182
 20
-53.29273398257305
 30
0.0
  0
VERTEX
  5
2B6
330
29E
100
AcDbEntity
  8
STANDARDEBENE
 62
     7
100
AcDbVertex
100
AcDb2dVertex
 10
-35.94546098702067
 20
-53.29273398257305
 30
0.0
  0
VERTEX
  5
2B7
330
29E
100
AcDbEntity
  8
STANDARDEBENE
 62
     7
100
AcDbVertex
100
AcDb2dVertex
 10
-36.05191450774168
 20
-53.29273398257305
 30
0.0
  0
SEQEND
  5
2B8
330
29E
100
AcDbEntity
  8
STANDARDEBENE
  0
POLYLINE
  5
2B9
330
1F
100
AcDbEntity
  8
STANDARDEBENE
 62
     7
100
AcDb2dPolyline
 66
     1
 10
0.0
 20
0.0
 30
0.0
  0
VERTEX
  5
2BA
330
2B9
100
AcDbEntity
  8
STANDARDEBENE
 62
     7
100
AcDbVertex
100
AcDb2dVertex
 10
-20.55138616534466
 20
-65.69284659769245
 30
0.0
  0
VERTEX
  5
2BB
330
2B9
100
AcDbEntity
  8
STANDARDEBENE
 62
     7
100
AcDbVertex
100
AcDb2dVertex
 10
-20.55138616534466
 20
-65.09271056825553
 30
0.0
  0
SEQEND
  5
2BC
330
2B9
100
AcDbEntity
  8
STANDARDEBENE
  0
POLYLINE
  5
2BD
330
1F
100
AcDbEntity
  8
STANDARDEBENE
 62
     7
100
AcDb2dPolyline
 66
     1
 10
0.0
 20
0.0
 30
0.0
  0
VERTEX
  5
2BE
330
2BD
100
AcDbEntity
  8
STANDARDEBENE
 62
     7
100
AcDbVertex
100
AcDb2dVertex
 10
-26.55205744016233
 20
-65.09271056825553
 30
0.0
  0
VERTEX
  5
2BF
330
2BD
100
AcDbEntity
  8
STANDARDEBENE
 62
     7
100
AcDbVertex
100
AcDb2dVertex
 10
-26.55205744016233
 20
-65.69284659769245
 30
0.0
  0
VERTEX
  5
2C0
330
2BD
100
AcDbEntity
  8
STANDARDEBENE
 62
     7
100
AcDbVertex
100
AcDb2dVertex
 10
-26.58478586886296
 20
-65.72609179105679
 30
0.0
  0
VERTEX
  5
2C1
330
2BD
100
AcDbEntity
  8
STANDARDEBENE
 62
     7
100
AcDbVertex
100
AcDb2dVertex
 10
-26.66471213684767
 20
-65.80619031392939
 30
0.0
  0
VERTEX
  5
2C2
330
2BD
100
AcDbEntity
  8
STANDARDEBENE
 62
     7
100
AcDbVertex
100
AcDb2dVertex
 10
-26.7608303642948
 20
-65.90179177671283
 30
0.0
  0
VERTEX
  5
2C3
330
2BD
100
AcDbEntity
  8
STANDARDEBENE
 62
     7
100
AcDbVertex
100
AcDb2dVertex
 10
-26.85901565039671
 20
-66.00014931770264
 30
0.0
  0
VERTEX
  5
2C4
330
2BD
100
AcDbEntity
  8
STANDARDEBENE
 62
     7
100
AcDbVertex
100
AcDb2dVertex
 10
-26.94686564322474
 20
-66.08799931053066
 30
0.0
  0
VERTEX
  5
2C5
330
2BD
100
AcDbEntity
  8
STANDARDEBENE
 62
     7
100
AcDbVertex
100
AcDb2dVertex
 10
-27.01921269614193
 20
-66.16069087322366
 30
0.0
  0
VERTEX
  5
2C6
330
2BD
100
AcDbEntity
  8
STANDARDEBENE
 62
     7
100
AcDbVertex
100
AcDb2dVertex
 10
-27.08191347533683
 20
-66.22339165241856
 30
0.0
  0
VERTEX
  5
2C7
330
2BD
100
AcDbEntity
  8
STANDARDEBENE
 62
     7
100
AcDbVertex
100
AcDb2dVertex
 10
-27.12222111910499
 20
-66.26283802174721
 30
0.0
  0
VERTEX
  5
2C8
330
2BD
100
AcDbEntity
  8
STANDARDEBENE
 62
     7
100
AcDbVertex
100
AcDb2dVertex
 10
-27.14668131318651
 20
-66.28815949026824
 30
0.0
  0
VERTEX
  5
2C9
330
2BD
100
AcDbEntity
  8
STANDARDEBENE
 62
     7
100
AcDbVertex
100
AcDb2dVertex
 10
-27.15150445004766
 20
-66.29315488201728
 30
0.0
  0
SEQEND
  5
2CA
330
2BD
100
AcDbEntity
  8
STANDARDEBENE
  0
POLYLINE
  5
2CB
330
1F
100
AcDbEntity
  8
STANDARDEBENE
 62
     7
100
AcDb2dPolyline
 66
     1
 10
0.0
 20
0.0
 30
0.0
  0
VERTEX
  5
2CC
330
2CB
100
AcDbEntity
  8
STANDARDEBENE
 62
     7
100
AcDbVertex
100
AcDb2dVertex
 10
-19.95125013590773
 20
-66.29315488201728
 30
0.0
  0
VERTEX
  5
2CD
330
2CB
100
AcDbEntity
  8
STANDARDEBENE
 62
     7
100
AcDbVertex
100
AcDb2dVertex
 10
-19.96330797806059
 20
-66.2812692947523
 30
0.0
  0
VERTEX
  5
2CE
330
2CB
100
AcDbEntity
  8
STANDARDEBENE
 62
     7
100
AcDbVertex
100
AcDb2dVertex
 10
-19.99259130900327
 20
-66.25129694425804
 30
0.0
  0
VERTEX
  5
2CF
330
2CB
100
AcDbEntity
  8
STANDARDEBENE
 62
     7
100
AcDbVertex
100
AcDb2dVertex
 10
-20.04530130470009
 20
-66.19893145833703
 30
0.0
  0
VERTEX
  5
2D0
330
2CB
100
AcDbEntity
  8
STANDARDEBENE
 62
     7
100
AcDbVertex
100
AcDb2dVertex
 10
-20.10524600568862
 20
-66.13881450246059
 30
0.0
  0
VERTEX
  5
2D1
330
2CB
100
AcDbEntity
  8
STANDARDEBENE
 62
     7
100
AcDbVertex
100
AcDb2dVertex
 10
-20.17380345107205
 20
-66.07111833151664
 30
0.0
  0
VERTEX
  5
2D2
330
2CB
100
AcDbEntity
  8
STANDARDEBENE
 62
     7
100
AcDbVertex
100
AcDb2dVertex
 10
-20.25200717017779
 20
-65.99343137707461
 30
0.0
  0
VERTEX
  5
2D3
330
2CB
100
AcDbEntity
  8
STANDARDEBENE
 62
     7
100
AcDbVertex
100
AcDb2dVertex
 10
-20.33537853592046
 20
-65.90954324666825
 30
0.0
  0
VERTEX
  5
2D4
330
2CB
100
AcDbEntity
  8
STANDARDEBENE
 62
     7
100
AcDbVertex
100
AcDb2dVertex
 10
-20.41909441143893
 20
-65.82565511626188
 30
0.0
  0
VERTEX
  5
2D5
330
2CB
100
AcDbEntity
  8
STANDARDEBENE
 62
     7
100
AcDbVertex
100
AcDb2dVertex
 10
-20.43873146865931
 20
-65.80619031392939
 30
0.0
  0
VERTEX
  5
2D6
330
2CB
100
AcDbEntity
  8
STANDARDEBENE
 62
     7
100
AcDbVertex
100
AcDb2dVertex
 10
-20.44493264462364
 20
-65.79998913796507
 30
0.0
  0
VERTEX
  5
2D7
330
2CB
100
AcDbEntity
  8
STANDARDEBENE
 62
     7
100
AcDbVertex
100
AcDb2dVertex
 10
-20.5293375396937
 20
-65.7154119880071
 30
0.0
  0
VERTEX
  5
2D8
330
2CB
100
AcDbEntity
  8
STANDARDEBENE
 62
     7
100
AcDbVertex
100
AcDb2dVertex
 10
-20.55138616534466
 20
-65.69284659769245
 30
0.0
  0
SEQEND
  5
2D9
330
2CB
100
AcDbEntity
  8
STANDARDEBENE
  0
SPLINE
  5
2DA
330
1F
100
AcDbEntity
  8
STANDARDEBENE
 62
     7
100
AcDbSpline
210
0.0
220
0.0
230
1.0
 70
     8
 71
     3
 72
     8
 73
     4
 74
     0
 42
0.0000000001
 43
0.0000000001
 40
0.0
 40
0.0
 40
0.0
 40
0.0
 40
1.0
 40
1.0
 40
1.0
 40
1.0
 10
-20.55138616534466
 20
-65.09271056825553
 30
0.0
 10
-20.55138616534466
 20
-64.65122129057274
 30
0.0
 10
-20.90967633217267
 20
-64.29344788840842
 30
0.0
 10
-21.35202688429495
 20
-64.29344788840842
 30
0.0
  0
SPLINE
  5
2DB
330
1F
100
AcDbEntity
  8
STANDARDEBENE
 62
     7
100
AcDbSpline
210
0.0
220
0.0
230
1.0
 70
     8
 71
     3
 72
     8
 73
     4
 74
     0
 42
0.0000000001
 43
0.0000000001
 40
0.0
 40
0.0
 40
0.0
 40
0.0
 40
1.0
 40
1.0
 40
1.0
 40
1.0
 10
-25.75210574076362
 20
-64.29344788840842
 30
0.0
 10
-26.19307825378272
 20
-64.29344788840842
 30
0.0
 10
-26.55205744016233
 20
-64.65122129057274
 30
0.0
 10
-26.55205744016233
 20
-65.09271056825553
 30
0.0
  0
POLYLINE
  5
2DC
330
1F
100
AcDbEntity
  8
STANDARDEBENE
 62
     7
100
AcDb2dPolyline
 66
     1
 10
0.0
 20
0.0
 30
0.0
  0
VERTEX
  5
2DD
330
2DC
100
AcDbEntity
  8
STANDARDEBENE
 62
     7
100
AcDbVertex
100
AcDb2dVertex
 10
-76.17180044808453
 20
-53.29273398257305
 30
0.0
  0
VERTEX
  5
2DE
330
2DC
100
AcDbEntity
  8
STANDARDEBENE
 62
     7
100
AcDbVertex
100
AcDb2dVertex
 10
-76.17180044808453
 20
-12.29297007484679
 30
0.0
  0
SEQEND
  5
2DF
330
2DC
100
AcDbEntity
  8
STANDARDEBENE
  0
POLYLINE
  5
2E0
330
1F
100
AcDbEntity
  8
STANDARDEBENE
 62
     7
100
AcDb2dPolyline
 66
     1
 10
0.0
 20
0.0
 30
0.0
  0
VERTEX
  5
2E1
330
2E0
100
AcDbEntity
  8
STANDARDEBENE
 62
     7
100
AcDbVertex
100
AcDb2dVertex
 10
-101.1721858580609
 20
-12.29297007484679
 30
0.0
  0
VERTEX
  5
2E2
330
2E0
100
AcDbEntity
  8
STANDARDEBENE
 62
     7
100
AcDbVertex
100
AcDb2dVertex
 10
-101.1721858580609
 20
-53.29273398257305
 30
0.0
  0
SEQEND
  5
2E3
330
2E0
100
AcDbEntity
  8
STANDARDEBENE
  0
POLYLINE
  5
2E4
330
1F
100
AcDbEntity
  8
STANDARDEBENE
 62
     7
100
AcDb2dPolyline
 66
     1
 10
0.0
 20
0.0
 30
0.0
  0
VERTEX
  5
2E5
330
2E4
100
AcDbEntity
  8
STANDARDEBENE
 62
     7
100
AcDbVertex
100
AcDb2dVertex
 10
-76.17180044808453
 20
-12.29297007484679
 30
0.0
  0
VERTEX
  5
2E6
330
2E4
100
AcDbEntity
  8
STANDARDEBENE
 62
     7
100
AcDbVertex
100
AcDb2dVertex
 10
-77.1724290918845
 20
-11.29268594082262
 30
0.0
  0
SEQEND
  5
2E7
330
2E4
100
AcDbEntity
  8
STANDARDEBENE
  0
POLYLINE
  5
2E8
330
1F
100
AcDbEntity
  8
STANDARDEBENE
 62
     7
100
AcDb2dPolyline
 66
     1
 10
0.0
 20
0.0
 30
0.0
  0
VERTEX
  5
2E9
330
2E8
100
AcDbEntity
  8
STANDARDEBENE
 62
     7
100
AcDbVertex
100
AcDb2dVertex
 10
-100.1725907435883
 20
-11.29268594082262
 30
0.0
  0
VERTEX
  5
2EA
330
2E8
100
AcDbEntity
  8
STANDARDEBENE
 62
     7
100
AcDbVertex
100
AcDb2dVertex
 10
-101.1721858580609
 20
-12.29297007484679
 30
0.0
  0
SEQEND
  5
2EB
330
2E8
100
AcDbEntity
  8
STANDARDEBENE
  0
POLYLINE
  5
2EC
330
1F
100
AcDbEntity
  8
STANDARDEBENE
 62
     7
100
AcDb2dPolyline
 66
     1
 10
0.0
 20
0.0
 30
0.0
  0
VERTEX
  5
2ED
330
2EC
100
AcDbEntity
  8
STANDARDEBENE
 62
     7
100
AcDbVertex
100
AcDb2dVertex
 10
-98.02216072306864
 20
-58.78766490652195
 30
0.0
  0
VERTEX
  5
2EE
330
2EC
100
AcDbEntity
  8
STANDARDEBENE
 62
     7
100
AcDbVertex
100
AcDb2dVertex
 10
-97.7462083926559
 20
-64.29344788840842
 30
0.0
  0
SEQEND
  5
2EF
330
2EC
100
AcDbEntity
  8
STANDARDEBENE
  0
POLYLINE
  5
2F0
330
1F
100
AcDbEntity
  8
STANDARDEBENE
 62
     7
100
AcDb2dPolyline
 66
     1
 10
0.0
 20
0.0
 30
0.0
  0
VERTEX
  5
2F1
330
2F0
100
AcDbEntity
  8
STANDARDEBENE
 62
     7
100
AcDbVertex
100
AcDb2dVertex
 10
-79.49787007850864
 20
-62.29287962036007
 30
0.0
  0
VERTEX
  5
2F2
330
2F0
100
AcDbEntity
  8
STANDARDEBENE
 62
     7
100
AcDbVertex
100
AcDb2dVertex
 10
-79.32217009285259
 20
-58.78973196517672
 30
0.0
  0
SEQEND
  5
2F3
330
2F0
100
AcDbEntity
  8
STANDARDEBENE
  0
POLYLINE
  5
2F4
330
1F
100
AcDbEntity
  8
STANDARDEBENE
 62
     7
100
AcDb2dPolyline
 66
     1
 10
0.0
 20
0.0
 30
0.0
  0
VERTEX
  5
2F5
330
2F4
100
AcDbEntity
  8
STANDARDEBENE
 62
     7
100
AcDbVertex
100
AcDb2dVertex
 10
-79.17213608549336
 20
-55.79318593530164
 30
0.0
  0
VERTEX
  5
2F6
330
2F4
100
AcDbEntity
  8
STANDARDEBENE
 62
     7
100
AcDbVertex
100
AcDb2dVertex
 10
-79.17213608549336
 20
-55.29295774084561
 30
0.0
  0
SEQEND
  5
2F7
330
2F4
100
AcDbEntity
  8
STANDARDEBENE
  0
POLYLINE
  5
2F8
330
1F
100
AcDbEntity
  8
STANDARDEBENE
 62
     7
100
AcDb2dPolyline
 66
     1
 10
0.0
 20
0.0
 30
0.0
  0
VERTEX
  5
2F9
330
2F8
100
AcDbEntity
  8
STANDARDEBENE
 62
     7
100
AcDbVertex
100
AcDb2dVertex
 10
-98.17253924020366
 20
-55.29295774084561
 30
0.0
  0
VERTEX
  5
2FA
330
2F8
100
AcDbEntity
  8
STANDARDEBENE
 62
     7
100
AcDbVertex
100
AcDb2dVertex
 10
-98.17253924020366
 20
-55.79318593530164
 30
0.0
  0
SEQEND
  5
2FB
330
2F8
100
AcDbEntity
  8
STANDARDEBENE
  0
POLYLINE
  5
2FC
330
1F
100
AcDbEntity
  8
STANDARDEBENE
 62
     7
100
AcDb2dPolyline
 66
     1
 10
0.0
 20
0.0
 30
0.0
  0
VERTEX
  5
2FD
330
2FC
100
AcDbEntity
  8
STANDARDEBENE
 62
     7
100
AcDbVertex
100
AcDb2dVertex
 10
-79.17213608549336
 20
-55.29295774084561
 30
0.0
  0
VERTEX
  5
2FE
330
2FC
100
AcDbEntity
  8
STANDARDEBENE
 62
     7
100
AcDbVertex
100
AcDb2dVertex
 10
-79.45187802343985
 20
-54.24943762995901
 30
0.0
  0
SEQEND
  5
2FF
330
2FC
100
AcDbEntity
  8
STANDARDEBENE
  0
POLYLINE
  5
300
330
1F
100
AcDbEntity
  8
STANDARDEBENE
 62
     7
100
AcDb2dPolyline
 66
     1
 10
0.0
 20
0.0
 30
0.0
  0
VERTEX
  5
301
330
300
100
AcDbEntity
  8
STANDARDEBENE
 62
     7
100
AcDbVertex
100
AcDb2dVertex
 10
-97.89245279248138
 20
-54.24943762995901
 30
0.0
  0
VERTEX
  5
302
330
300
100
AcDbEntity
  8
STANDARDEBENE
 62
     7
100
AcDbVertex
100
AcDb2dVertex
 10
-98.17253924020366
 20
-55.29295774084561
 30
0.0
  0
SEQEND
  5
303
330
300
100
AcDbEntity
  8
STANDARDEBENE
  0
POLYLINE
  5
304
330
1F
100
AcDbEntity
  8
STANDARDEBENE
 62
     7
100
AcDb2dPolyline
 66
     1
 10
0.0
 20
0.0
 30
0.0
  0
VERTEX
  5
305
330
304
100
AcDbEntity
  8
STANDARDEBENE
 62
     7
100
AcDbVertex
100
AcDb2dVertex
 10
-97.87178220593361
 20
-53.53940298204311
 30
0.0
  0
VERTEX
  5
306
330
304
100
AcDbEntity
  8
STANDARDEBENE
 62
     7
100
AcDbVertex
100
AcDb2dVertex
 10
-97.87178220593361
 20
-54.09389146618705
 30
0.0
  0
SEQEND
  5
307
330
304
100
AcDbEntity
  8
STANDARDEBENE
  0
POLYLINE
  5
308
330
1F
100
AcDbEntity
  8
STANDARDEBENE
 62
     7
100
AcDb2dPolyline
 66
     1
 10
0.0
 20
0.0
 30
0.0
  0
VERTEX
  5
309
330
308
100
AcDbEntity
  8
STANDARDEBENE
 62
     7
100
AcDbVertex
100
AcDb2dVertex
 10
-79.47254860998761
 20
-54.09389146618705
 30
0.0
  0
VERTEX
  5
30A
330
308
100
AcDbEntity
  8
STANDARDEBENE
 62
     7
100
AcDbVertex
100
AcDb2dVertex
 10
-79.47254860998761
 20
-53.53940298204311
 30
0.0
  0
SEQEND
  5
30B
330
308
100
AcDbEntity
  8
STANDARDEBENE
  0
SPLINE
  5
30C
330
1F
100
AcDbEntity
  8
STANDARDEBENE
 62
     7
100
AcDbSpline
210
0.0
220
0.0
230
1.0
 70
     8
 71
     3
 72
     8
 73
     4
 74
     0
 42
0.0000000001
 43
0.0000000001
 40
0.0
 40
0.0
 40
0.0
 40
0.0
 40
1.0
 40
1.0
 40
1.0
 40
1.0
 10
-79.41966635940291
 20
-53.29273398257305
 30
0.0
 10
-79.45583988586151
 20
-53.37472730921254
 30
0.0
 10
-79.47289311976341
 20
-53.4596489689463
 30
0.0
 10
-79.47254860998761
 20
-53.53940298204311
 30
0.0
  0
SPLINE
  5
30D
330
1F
100
AcDbEntity
  8
STANDARDEBENE
 62
     7
100
AcDbSpline
210
0.0
220
0.0
230
1.0
 70
     8
 71
     3
 72
     8
 73
     4
 74
     0
 42
0.0000000001
 43
0.0000000001
 40
0.0
 40
0.0
 40
0.0
 40
0.0
 40
1.0
 40
1.0
 40
1.0
 40
1.0
 10
-97.87178220593361
 20
-53.53940298204311
 30
0.0
 10
-97.87178220593361
 20
-53.44965818544821
 30
0.0
 10
-97.89159151804189
 20
-53.36473652571446
 30
0.0
 10
-97.92500896629411
 20
-53.29273398257305
 30
0.0
  0
SPLINE
  5
30E
330
1F
100
AcDbEntity
  8
STANDARDEBENE
 62
     7
100
AcDbSpline
210
0.0
220
0.0
230
1.0
 70
     8
 71
     3
 72
     8
 73
     4
 74
     0
 42
0.0000000001
 43
0.0000000001
 40
0.0
 40
0.0
 40
0.0
 40
0.0
 40
1.0
 40
1.0
 40
1.0
 40
1.0
 10
-79.47254860998761
 20
-54.09389146618705
 30
0.0
 10
-79.47254860998761
 20
-54.14987430475392
 30
0.0
 10
-79.4646248851443
 20
-54.20275655533863
 30
0.0
 10
-79.45187802343985
 20
-54.24943762995901
 30
0.0
  0
SPLINE
  5
30F
330
1F
100
AcDbEntity
  8
STANDARDEBENE
 62
     7
100
AcDbSpline
210
0.0
220
0.0
230
1.0
 70
     8
 71
     3
 72
     8
 73
     4
 74
     0
 42
0.0000000001
 43
0.0000000001
 40
0.0
 40
0.0
 40
0.0
 40
0.0
 40
1.0
 40
1.0
 40
1.0
 40
1.0
 10
-97.89245279248138
 20
-54.24943762995901
 30
0.0
 10
-97.87815563678583
 20
-54.19586635982271
 30
0.0
 10
-97.87143769615781
 20
-54.1426395994622
 30
0.0
 10
-97.87178220593361
 20
-54.09389146618705
 30
0.0
  0
POLYLINE
  5
310
330
1F
100
AcDbEntity
  8
STANDARDEBENE
 62
     7
100
AcDb2dPolyline
 66
     1
 10
0.0
 20
0.0
 30
0.0
  0
VERTEX
  5
311
330
310
100
AcDbEntity
  8
STANDARDEBENE
 62
     7
100
AcDbVertex
100
AcDb2dVertex
 10
-96.64291583566867
 20
-65.04757978762623
 30
0.0
  0
VERTEX
  5
312
330
310
100
AcDbEntity
  8
STANDARDEBENE
 62
     7
100
AcDbVertex
100
AcDb2dVertex
 10
-96.68770210652218
 20
-64.82399294313451
 30
0.0
  0
VERTEX
  5
313
330
310
100
AcDbEntity
  8
STANDARDEBENE
 62
     7
100
AcDbVertex
100
AcDb2dVertex
 10
-96.79450013701899
 20
-64.62176570474217
 30
0.0
  0
SEQEND
  5
314
330
310
100
AcDbEntity
  8
STANDARDEBENE
  0
POLYLINE
  5
315
330
1F
100
AcDbEntity
  8
STANDARDEBENE
 62
     7
100
AcDb2dPolyline
 66
     1
 10
0.0
 20
0.0
 30
0.0
  0
VERTEX
  5
316
330
315
100
AcDbEntity
  8
STANDARDEBENE
 62
     7
100
AcDbVertex
100
AcDb2dVertex
 10
-80.43717598221689
 20
-62.62602057355496
 30
0.0
  0
VERTEX
  5
317
330
315
100
AcDbEntity
  8
STANDARDEBENE
 62
     7
100
AcDbVertex
100
AcDb2dVertex
 10
-80.54173469917103
 20
-62.82583624351674
 30
0.0
  0
VERTEX
  5
318
330
315
100
AcDbEntity
  8
STANDARDEBENE
 62
     7
100
AcDbVertex
100
AcDb2dVertex
 10
-80.58652097002452
 20
-63.04701151957788
 30
0.0
  0
SEQEND
  5
319
330
315
100
AcDbEntity
  8
STANDARDEBENE
  0
POLYLINE
  5
31A
330
1F
100
AcDbEntity
  8
STANDARDEBENE
 62
     7
100
AcDb2dPolyline
 66
     1
 10
0.0
 20
0.0
 30
0.0
  0
VERTEX
  5
31B
330
31A
100
AcDbEntity
  8
STANDARDEBENE
 62
     7
100
AcDbVertex
100
AcDb2dVertex
 10
-96.09893489968653
 20
-66.29315488201728
 30
0.0
  0
VERTEX
  5
31C
330
31A
100
AcDbEntity
  8
STANDARDEBENE
 62
     7
100
AcDbVertex
100
AcDb2dVertex
 10
-96.44154987171581
 20
-66.156729010802
 30
0.0
  0
VERTEX
  5
31D
330
31A
100
AcDbEntity
  8
STANDARDEBENE
 62
     7
100
AcDbVertex
100
AcDb2dVertex
 10
-96.59778505503938
 20
-65.82186550872812
 30
0.0
  0
SEQEND
  5
31E
330
31A
100
AcDbEntity
  8
STANDARDEBENE
  0
POLYLINE
  5
31F
330
1F
100
AcDbEntity
  8
STANDARDEBENE
 62
     7
100
AcDb2dPolyline
 66
     1
 10
0.0
 20
0.0
 30
0.0
  0
VERTEX
  5
320
330
31F
100
AcDbEntity
  8
STANDARDEBENE
 62
     7
100
AcDbVertex
100
AcDb2dVertex
 10
-80.74620125110606
 20
-65.82186550872812
 30
0.0
  0
VERTEX
  5
321
330
31F
100
AcDbEntity
  8
STANDARDEBENE
 62
     7
100
AcDbVertex
100
AcDb2dVertex
 10
-80.90226417954172
 20
-66.156729010802
 30
0.0
  0
VERTEX
  5
322
330
31F
100
AcDbEntity
  8
STANDARDEBENE
 62
     7
100
AcDbVertex
100
AcDb2dVertex
 10
-81.2453959162347
 20
-66.29315488201728
 30
0.0
  0
SEQEND
  5
323
330
31F
100
AcDbEntity
  8
STANDARDEBENE
  0
POLYLINE
  5
324
330
1F
100
AcDbEntity
  8
STANDARDEBENE
 62
     7
100
AcDb2dPolyline
 66
     1
 10
0.0
 20
0.0
 30
0.0
  0
VERTEX
  5
325
330
324
100
AcDbEntity
  8
STANDARDEBENE
 62
     7
100
AcDbVertex
100
AcDb2dVertex
 10
-80.43769274688059
 20
-62.62705410288235
 30
0.0
  0
VERTEX
  5
326
330
324
100
AcDbEntity
  8
STANDARDEBENE
 62
     7
100
AcDbVertex
100
AcDb2dVertex
 10
-80.54242371872262
 20
-62.82686977284413
 30
0.0
  0
VERTEX
  5
327
330
324
100
AcDbEntity
  8
STANDARDEBENE
 62
     7
100
AcDbVertex
100
AcDb2dVertex
 10
-80.58686547980032
 20
-63.04856181356896
 30
0.0
  0
SEQEND
  5
328
330
324
100
AcDbEntity
  8
STANDARDEBENE
  0
POLYLINE
  5
329
330
1F
100
AcDbEntity
  8
STANDARDEBENE
 62
     7
100
AcDb2dPolyline
 66
     1
 10
0.0
 20
0.0
 30
0.0
  0
VERTEX
  5
32A
330
329
100
AcDbEntity
  8
STANDARDEBENE
 62
     7
100
AcDbVertex
100
AcDb2dVertex
 10
-96.64291583566867
 20
-65.04671851318675
 30
0.0
  0
VERTEX
  5
32B
330
329
100
AcDbEntity
  8
STANDARDEBENE
 62
     7
100
AcDbVertex
100
AcDb2dVertex
 10
-96.68787436141007
 20
-64.82313166869503
 30
0.0
  0
VERTEX
  5
32C
330
329
100
AcDbEntity
  8
STANDARDEBENE
 62
     7
100
AcDbVertex
100
AcDb2dVertex
 10
-96.79570592123427
 20
-64.62073217541477
 30
0.0
  0
SEQEND
  5
32D
330
329
100
AcDbEntity
  8
STANDARDEBENE
  0
POLYLINE
  5
32E
330
1F
100
AcDbEntity
  8
STANDARDEBENE
 62
     7
100
AcDb2dPolyline
 66
     1
 10
0.0
 20
0.0
 30
0.0
  0
VERTEX
  5
32F
330
32E
100
AcDbEntity
  8
STANDARDEBENE
 62
     7
100
AcDbVertex
100
AcDb2dVertex
 10
-96.09893489968653
 20
-66.29315488201728
 30
0.0
  0
VERTEX
  5
330
330
32E
100
AcDbEntity
  8
STANDARDEBENE
 62
     7
100
AcDbVertex
100
AcDb2dVertex
 10
-96.44154987171581
 20
-66.15759028524148
 30
0.0
  0
VERTEX
  5
331
330
32E
100
AcDbEntity
  8
STANDARDEBENE
 62
     7
100
AcDbVertex
100
AcDb2dVertex
 10
-96.59778505503938
 20
-65.82341580271921
 30
0.0
  0
SEQEND
  5
332
330
32E
100
AcDbEntity
  8
STANDARDEBENE
  0
POLYLINE
  5
333
330
1F
100
AcDbEntity
  8
STANDARDEBENE
 62
     7
100
AcDb2dPolyline
 66
     1
 10
0.0
 20
0.0
 30
0.0
  0
VERTEX
  5
334
330
333
100
AcDbEntity
  8
STANDARDEBENE
 62
     7
100
AcDbVertex
100
AcDb2dVertex
 10
-80.74620125110606
 20
-65.82186550872812
 30
0.0
  0
VERTEX
  5
335
330
333
100
AcDbEntity
  8
STANDARDEBENE
 62
     7
100
AcDbVertex
100
AcDb2dVertex
 10
-80.90226417954172
 20
-66.1563845010262
 30
0.0
  0
VERTEX
  5
336
330
333
100
AcDbEntity
  8
STANDARDEBENE
 62
     7
100
AcDbVertex
100
AcDb2dVertex
 10
-81.2453959162347
 20
-66.29315488201728
 30
0.0
  0
SEQEND
  5
337
330
333
100
AcDbEntity
  8
STANDARDEBENE
  0
POLYLINE
  5
338
330
1F
100
AcDbEntity
  8
STANDARDEBENE
 62
     7
100
AcDb2dPolyline
 66
     1
 10
0.0
 20
0.0
 30
0.0
  0
VERTEX
  5
339
330
338
100
AcDbEntity
  8
STANDARDEBENE
 62
     7
100
AcDbVertex
100
AcDb2dVertex
 10
-96.64188230634129
 20
-65.04671851318675
 30
0.0
  0
VERTEX
  5
33A
330
338
100
AcDbEntity
  8
STANDARDEBENE
 62
     7
100
AcDbVertex
100
AcDb2dVertex
 10
-96.62000593557823
 20
-65.43515328539692
 30
0.0
  0
VERTEX
  5
33B
330
338
100
AcDbEntity
  8
STANDARDEBENE
 62
     7
100
AcDbVertex
100
AcDb2dVertex
 10
-96.59778505503938
 20
-65.82186550872812
 30
0.0
  0
SEQEND
  5
33C
330
338
100
AcDbEntity
  8
STANDARDEBENE
  0
POLYLINE
  5
33D
330
1F
100
AcDbEntity
  8
STANDARDEBENE
 62
     7
100
AcDb2dPolyline
 66
     1
 10
0.0
 20
0.0
 30
0.0
  0
VERTEX
  5
33E
330
33D
100
AcDbEntity
  8
STANDARDEBENE
 62
     7
100
AcDbVertex
100
AcDb2dVertex
 10
-80.75119664285509
 20
-65.82186550872812
 30
0.0
  0
VERTEX
  5
33F
330
33D
100
AcDbEntity
  8
STANDARDEBENE
 62
     7
100
AcDbVertex
100
AcDb2dVertex
 10
-80.67144262975829
 20
-64.43418013182115
 30
0.0
  0
VERTEX
  5
340
330
33D
100
AcDbEntity
  8
STANDARDEBENE
 62
     7
100
AcDbVertex
100
AcDb2dVertex
 10
-80.59186087154937
 20
-63.04666700980209
 30
0.0
  0
SEQEND
  5
341
330
33D
100
AcDbEntity
  8
STANDARDEBENE
  0
POLYLINE
  5
342
330
1F
100
AcDbEntity
  8
STANDARDEBENE
 62
     7
100
AcDb2dPolyline
 66
     1
 10
0.0
 20
0.0
 30
0.0
  0
VERTEX
  5
343
330
342
100
AcDbEntity
  8
STANDARDEBENE
 62
     7
100
AcDbVertex
100
AcDb2dVertex
 10
-81.31274757740286
 20
-66.29315488201728
 30
0.0
  0
VERTEX
  5
344
330
342
100
AcDbEntity
  8
STANDARDEBENE
 62
     7
100
AcDbVertex
100
AcDb2dVertex
 10
-82.08944486693531
 20
-66.29315488201728
 30
0.0
  0
VERTEX
  5
345
330
342
100
AcDbEntity
  8
STANDARDEBENE
 62
     7
100
AcDbVertex
100
AcDb2dVertex
 10
-83.03719126015058
 20
-66.29315488201728
 30
0.0
  0
VERTEX
  5
346
330
342
100
AcDbEntity
  8
STANDARDEBENE
 62
     7
100
AcDbVertex
100
AcDb2dVertex
 10
-84.13032077875182
 20
-66.29315488201728
 30
0.0
  0
VERTEX
  5
347
330
342
100
AcDbEntity
  8
STANDARDEBENE
 62
     7
100
AcDbVertex
100
AcDb2dVertex
 10
-85.34144489556326
 20
-66.29315488201728
 30
0.0
  0
VERTEX
  5
348
330
342
100
AcDbEntity
  8
STANDARDEBENE
 62
     7
100
AcDbVertex
100
AcDb2dVertex
 10
-86.63835194654793
 20
-66.29315488201728
 30
0.0
  0
VERTEX
  5
349
330
342
100
AcDbEntity
  8
STANDARDEBENE
 62
     7
100
AcDbVertex
100
AcDb2dVertex
 10
-87.98848575789312
 20
-66.29315488201728
 30
0.0
  0
VERTEX
  5
34A
330
342
100
AcDbEntity
  8
STANDARDEBENE
 62
     7
100
AcDbVertex
100
AcDb2dVertex
 10
-89.35584505802811
 20
-66.29315488201728
 30
0.0
  0
VERTEX
  5
34B
330
342
100
AcDbEntity
  8
STANDARDEBENE
 62
     7
100
AcDbVertex
100
AcDb2dVertex
 10
-90.7056343595975
 20
-66.29315488201728
 30
0.0
  0
VERTEX
  5
34C
330
342
100
AcDbEntity
  8
STANDARDEBENE
 62
     7
100
AcDbVertex
100
AcDb2dVertex
 10
-92.00271366547007
 20
-66.29315488201728
 30
0.0
  0
VERTEX
  5
34D
330
342
100
AcDbEntity
  8
STANDARDEBENE
 62
     7
100
AcDbVertex
100
AcDb2dVertex
 10
-93.21366552739362
 20
-66.29315488201728
 30
0.0
  0
VERTEX
  5
34E
330
342
100
AcDbEntity
  8
STANDARDEBENE
 62
     7
100
AcDbVertex
100
AcDb2dVertex
 10
-94.30748406554645
 20
-66.29315488201728
 30
0.0
  0
VERTEX
  5
34F
330
342
100
AcDbEntity
  8
STANDARDEBENE
 62
     7
100
AcDbVertex
100
AcDb2dVertex
 10
-95.25454143921012
 20
-66.29315488201728
 30
0.0
  0
VERTEX
  5
350
330
342
100
AcDbEntity
  8
STANDARDEBENE
 62
     7
100
AcDbVertex
100
AcDb2dVertex
 10
-96.03158323851837
 20
-66.29315488201728
 30
0.0
  0
SEQEND
  5
351
330
342
100
AcDbEntity
  8
STANDARDEBENE
  0
POLYLINE
  5
352
330
1F
100
AcDbEntity
  8
STANDARDEBENE
 62
     7
100
AcDb2dPolyline
 66
     1
 10
0.0
 20
0.0
 30
0.0
  0
VERTEX
  5
353
330
352
100
AcDbEntity
  8
STANDARDEBENE
 62
     7
100
AcDbVertex
100
AcDb2dVertex
 10
-95.9749113803999
 20
-66.29315488201728
 30
0.0
  0
VERTEX
  5
354
330
352
100
AcDbEntity
  8
STANDARDEBENE
 62
     7
100
AcDbVertex
100
AcDb2dVertex
 10
-95.89843021017315
 20
-66.29315488201728
 30
0.0
  0
SEQEND
  5
355
330
352
100
AcDbEntity
  8
STANDARDEBENE
  0
POLYLINE
  5
356
330
1F
100
AcDbEntity
  8
STANDARDEBENE
 62
     7
100
AcDb2dPolyline
 66
     1
 10
0.0
 20
0.0
 30
0.0
  0
VERTEX
  5
357
330
356
100
AcDbEntity
  8
STANDARDEBENE
 62
     7
100
AcDbVertex
100
AcDb2dVertex
 10
-81.25263062152642
 20
-66.29315488201728
 30
0.0
  0
VERTEX
  5
358
330
356
100
AcDbEntity
  8
STANDARDEBENE
 62
     7
100
AcDbVertex
100
AcDb2dVertex
 10
-81.2548699350691
 20
-66.29315488201728
 30
0.0
  0
VERTEX
  5
359
330
356
100
AcDbEntity
  8
STANDARDEBENE
 62
     7
100
AcDbVertex
100
AcDb2dVertex
 10
-81.31274757740286
 20
-66.29315488201728
 30
0.0
  0
SEQEND
  5
35A
330
356
100
AcDbEntity
  8
STANDARDEBENE
  0
POLYLINE
  5
35B
330
1F
100
AcDbEntity
  8
STANDARDEBENE
 62
     7
100
AcDb2dPolyline
 66
     1
 10
0.0
 20
0.0
 30
0.0
  0
VERTEX
  5
35C
330
35B
100
AcDbEntity
  8
STANDARDEBENE
 62
     7
100
AcDbVertex
100
AcDb2dVertex
 10
-79.17213608549336
 20
-55.79318593530164
 30
0.0
  0
VERTEX
  5
35D
330
35B
100
AcDbEntity
  8
STANDARDEBENE
 62
     7
100
AcDbVertex
100
AcDb2dVertex
 10
-79.27807284155068
 20
-55.79318593530164
 30
0.0
  0
VERTEX
  5
35E
330
35B
100
AcDbEntity
  8
STANDARDEBENE
 62
     7
100
AcDbVertex
100
AcDb2dVertex
 10
-79.59467732550736
 20
-55.79318593530164
 30
0.0
  0
VERTEX
  5
35F
330
35B
100
AcDbEntity
  8
STANDARDEBENE
 62
     7
100
AcDbVertex
100
AcDb2dVertex
 10
-80.1129922831927
 20
-55.79318593530164
 30
0.0
  0
VERTEX
  5
360
330
35B
100
AcDbEntity
  8
STANDARDEBENE
 62
     7
100
AcDbVertex
100
AcDb2dVertex
 10
-80.8230269311086
 20
-55.79318593530164
 30
0.0
  0
VERTEX
  5
361
330
35B
100
AcDbEntity
  8
STANDARDEBENE
 62
     7
100
AcDbVertex
100
AcDb2dVertex
 10
-81.70807254512896
 20
-55.79318593530164
 30
0.0
  0
VERTEX
  5
362
330
35B
100
AcDbEntity
  8
STANDARDEBENE
 62
     7
100
AcDbVertex
100
AcDb2dVertex
 10
-82.74918108758499
 20
-55.79318593530164
 30
0.0
  0
VERTEX
  5
363
330
35B
100
AcDbEntity
  8
STANDARDEBENE
 62
     7
100
AcDbVertex
100
AcDb2dVertex
 10
-83.92223687417093
 20
-55.79318593530164
 30
0.0
  0
VERTEX
  5
364
330
35B
100
AcDbEntity
  8
STANDARDEBENE
 62
     7
100
AcDbVertex
100
AcDb2dVertex
 10
-85.20140167170211
 20
-55.79318593530164
 30
0.0
  0
VERTEX
  5
365
330
35B
100
AcDbEntity
  8
STANDARDEBENE
 62
     7
100
AcDbVertex
100
AcDb2dVertex
 10
-86.55808116878742
 20
-55.79318593530164
 30
0.0
  0
VERTEX
  5
366
330
35B
100
AcDbEntity
  8
STANDARDEBENE
 62
     7
100
AcDbVertex
100
AcDb2dVertex
 10
-87.9624752698205
 20
-55.79318593530164
 30
0.0
  0
VERTEX
  5
367
330
35B
100
AcDbEntity
  8
STANDARDEBENE
 62
     7
100
AcDbVertex
100
AcDb2dVertex
 10
-89.38220005587652
 20
-55.79318593530164
 30
0.0
  0
VERTEX
  5
368
330
35B
100
AcDbEntity
  8
STANDARDEBENE
 62
     7
100
AcDbVertex
100
AcDb2dVertex
 10
-90.7862496471338
 20
-55.79318593530164
 30
0.0
  0
VERTEX
  5
369
330
35B
100
AcDbEntity
  8
STANDARDEBENE
 62
     7
100
AcDbVertex
100
AcDb2dVertex
 10
-92.14327365399491
 20
-55.79318593530164
 30
0.0
  0
VERTEX
  5
36A
330
35B
100
AcDbEntity
  8
STANDARDEBENE
 62
     7
100
AcDbVertex
100
AcDb2dVertex
 10
-93.42226619663819
 20
-55.79318593530164
 30
0.0
  0
VERTEX
  5
36B
330
35B
100
AcDbEntity
  8
STANDARDEBENE
 62
     7
100
AcDbVertex
100
AcDb2dVertex
 10
-94.59549423811204
 20
-55.79318593530164
 30
0.0
  0
VERTEX
  5
36C
330
35B
100
AcDbEntity
  8
STANDARDEBENE
 62
     7
100
AcDbVertex
100
AcDb2dVertex
 10
-95.63591376101647
 20
-55.79318593530164
 30
0.0
  0
VERTEX
  5
36D
330
35B
100
AcDbEntity
  8
STANDARDEBENE
 62
     7
100
AcDbVertex
100
AcDb2dVertex
 10
-96.52095937503682
 20
-55.79318593530164
 30
0.0
  0
VERTEX
  5
36E
330
35B
100
AcDbEntity
  8
STANDARDEBENE
 62
     7
100
AcDbVertex
100
AcDb2dVertex
 10
-97.23168304250433
 20
-55.79318593530164
 30
0.0
  0
VERTEX
  5
36F
330
35B
100
AcDbEntity
  8
STANDARDEBENE
 62
     7
100
AcDbVertex
100
AcDb2dVertex
 10
-97.75034250996546
 20
-55.79318593530164
 30
0.0
  0
VERTEX
  5
370
330
35B
100
AcDbEntity
  8
STANDARDEBENE
 62
     7
100
AcDbVertex
100
AcDb2dVertex
 10
-98.06625797437054
 20
-55.79318593530164
 30
0.0
  0
VERTEX
  5
371
330
35B
100
AcDbEntity
  8
STANDARDEBENE
 62
     7
100
AcDbVertex
100
AcDb2dVertex
 10
-98.17253924020366
 20
-55.79318593530164
 30
0.0
  0
SEQEND
  5
372
330
35B
100
AcDbEntity
  8
STANDARDEBENE
  0
POLYLINE
  5
373
330
1F
100
AcDbEntity
  8
STANDARDEBENE
 62
     7
100
AcDb2dPolyline
 66
     1
 10
0.0
 20
0.0
 30
0.0
  0
VERTEX
  5
374
330
373
100
AcDbEntity
  8
STANDARDEBENE
 62
     7
100
AcDbVertex
100
AcDb2dVertex
 10
-98.17253924020366
 20
-55.29295774084561
 30
0.0
  0
VERTEX
  5
375
330
373
100
AcDbEntity
  8
STANDARDEBENE
 62
     7
100
AcDbVertex
100
AcDb2dVertex
 10
-98.06625797437054
 20
-55.29295774084561
 30
0.0
  0
VERTEX
  5
376
330
373
100
AcDbEntity
  8
STANDARDEBENE
 62
     7
100
AcDbVertex
100
AcDb2dVertex
 10
-97.75034250996546
 20
-55.29295774084561
 30
0.0
  0
VERTEX
  5
377
330
373
100
AcDbEntity
  8
STANDARDEBENE
 62
     7
100
AcDbVertex
100
AcDb2dVertex
 10
-97.23168304250433
 20
-55.29295774084561
 30
0.0
  0
VERTEX
  5
378
330
373
100
AcDbEntity
  8
STANDARDEBENE
 62
     7
100
AcDbVertex
100
AcDb2dVertex
 10
-96.52095937503682
 20
-55.29295774084561
 30
0.0
  0
VERTEX
  5
379
330
373
100
AcDbEntity
  8
STANDARDEBENE
 62
     7
100
AcDbVertex
100
AcDb2dVertex
 10
-95.63591376101647
 20
-55.29295774084561
 30
0.0
  0
VERTEX
  5
37A
330
373
100
AcDbEntity
  8
STANDARDEBENE
 62
     7
100
AcDbVertex
100
AcDb2dVertex
 10
-94.59549423811204
 20
-55.29295774084561
 30
0.0
  0
VERTEX
  5
37B
330
373
100
AcDbEntity
  8
STANDARDEBENE
 62
     7
100
AcDbVertex
100
AcDb2dVertex
 10
-93.42226619663819
 20
-55.29295774084561
 30
0.0
  0
VERTEX
  5
37C
330
373
100
AcDbEntity
  8
STANDARDEBENE
 62
     7
100
AcDbVertex
100
AcDb2dVertex
 10
-92.14327365399491
 20
-55.29295774084561
 30
0.0
  0
VERTEX
  5
37D
330
373
100
AcDbEntity
  8
STANDARDEBENE
 62
     7
100
AcDbVertex
100
AcDb2dVertex
 10
-90.7862496471338
 20
-55.29295774084561
 30
0.0
  0
VERTEX
  5
37E
330
373
100
AcDbEntity
  8
STANDARDEBENE
 62
     7
100
AcDbVertex
100
AcDb2dVertex
 10
-89.38220005587652
 20
-55.29295774084561
 30
0.0
  0
VERTEX
  5
37F
330
373
100
AcDbEntity
  8
STANDARDEBENE
 62
     7
100
AcDbVertex
100
AcDb2dVertex
 10
-87.9624752698205
 20
-55.29295774084561
 30
0.0
  0
VERTEX
  5
380
330
373
100
AcDbEntity
  8
STANDARDEBENE
 62
     7
100
AcDbVertex
100
AcDb2dVertex
 10
-86.55808116878742
 20
-55.29295774084561
 30
0.0
  0
VERTEX
  5
381
330
373
100
AcDbEntity
  8
STANDARDEBENE
 62
     7
100
AcDbVertex
100
AcDb2dVertex
 10
-85.20140167170211
 20
-55.29295774084561
 30
0.0
  0
VERTEX
  5
382
330
373
100
AcDbEntity
  8
STANDARDEBENE
 62
     7
100
AcDbVertex
100
AcDb2dVertex
 10
-83.92223687417093
 20
-55.29295774084561
 30
0.0
  0
VERTEX
  5
383
330
373
100
AcDbEntity
  8
STANDARDEBENE
 62
     7
100
AcDbVertex
100
AcDb2dVertex
 10
-82.74918108758499
 20
-55.29295774084561
 30
0.0
  0
VERTEX
  5
384
330
373
100
AcDbEntity
  8
STANDARDEBENE
 62
     7
100
AcDbVertex
100
AcDb2dVertex
 10
-81.70807254512896
 20
-55.29295774084561
 30
0.0
  0
VERTEX
  5
385
330
373
100
AcDbEntity
  8
STANDARDEBENE
 62
     7
100
AcDbVertex
100
AcDb2dVertex
 10
-80.8230269311086
 20
-55.29295774084561
 30
0.0
  0
VERTEX
  5
386
330
373
100
AcDbEntity
  8
STANDARDEBENE
 62
     7
100
AcDbVertex
100
AcDb2dVertex
 10
-80.1129922831927
 20
-55.29295774084561
 30
0.0
  0
VERTEX
  5
387
330
373
100
AcDbEntity
  8
STANDARDEBENE
 62
     7
100
AcDbVertex
100
AcDb2dVertex
 10
-79.59467732550736
 20
-55.29295774084561
 30
0.0
  0
VERTEX
  5
388
330
373
100
AcDbEntity
  8
STANDARDEBENE
 62
     7
100
AcDbVertex
100
AcDb2dVertex
 10
-79.27807284155068
 20
-55.29295774084561
 30
0.0
  0
VERTEX
  5
389
330
373
100
AcDbEntity
  8
STANDARDEBENE
 62
     7
100
AcDbVertex
100
AcDb2dVertex
 10
-79.17213608549336
 20
-55.29295774084561
 30
0.0
  0
SEQEND
  5
38A
330
373
100
AcDbEntity
  8
STANDARDEBENE
  0
POLYLINE
  5
38B
330
1F
100
AcDbEntity
  8
STANDARDEBENE
 62
     7
100
AcDb2dPolyline
 66
     1
 10
0.0
 20
0.0
 30
0.0
  0
VERTEX
  5
38C
330
38B
100
AcDbEntity
  8
STANDARDEBENE
 62
     7
100
AcDbVertex
100
AcDb2dVertex
 10
-80.7155398810602
 20
-63.05269593087851
 30
0.0
  0
VERTEX
  5
38D
330
38B
100
AcDbEntity
  8
STANDARDEBENE
 62
     7
100
AcDbVertex
100
AcDb2dVertex
 10
-80.71278380285382
 20
-63.04890632334476
 30
0.0
  0
VERTEX
  5
38E
330
38B
100
AcDbEntity
  8
STANDARDEBENE
 62
     7
100
AcDbVertex
100
AcDb2dVertex
 10
-80.60564126258122
 20
-62.87630692567087
 30
0.0
  0
VERTEX
  5
38F
330
38B
100
AcDbEntity
  8
STANDARDEBENE
 62
     7
100
AcDbVertex
100
AcDb2dVertex
 10
-80.4991877418602
 20
-62.71438733104668
 30
0.0
  0
VERTEX
  5
390
330
38B
100
AcDbEntity
  8
STANDARDEBENE
 62
     7
100
AcDbVertex
100
AcDb2dVertex
 10
-80.35828324355957
 20
-62.52301215059191
 30
0.0
  0
VERTEX
  5
391
330
38B
100
AcDbEntity
  8
STANDARDEBENE
 62
     7
100
AcDbVertex
100
AcDb2dVertex
 10
-80.21634521593154
 20
-62.37642324099064
 30
0.0
  0
VERTEX
  5
392
330
38B
100
AcDbEntity
  8
STANDARDEBENE
 62
     7
100
AcDbVertex
100
AcDb2dVertex
 10
-80.03409954453538
 20
-62.29287962036007
 30
0.0
  0
VERTEX
  5
393
330
38B
100
AcDbEntity
  8
STANDARDEBENE
 62
     7
100
AcDbVertex
100
AcDb2dVertex
 10
-79.63257340084493
 20
-62.29287962036007
 30
0.0
  0
VERTEX
  5
394
330
38B
100
AcDbEntity
  8
STANDARDEBENE
 62
     7
100
AcDbVertex
100
AcDb2dVertex
 10
-79.49787007850864
 20
-62.29287962036007
 30
0.0
  0
SEQEND
  5
395
330
38B
100
AcDbEntity
  8
STANDARDEBENE
  0
POLYLINE
  5
396
330
1F
100
AcDbEntity
  8
STANDARDEBENE
 62
     7
100
AcDb2dPolyline
 66
     1
 10
0.0
 20
0.0
 30
0.0
  0
VERTEX
  5
397
330
396
100
AcDbEntity
  8
STANDARDEBENE
 62
     7
100
AcDbVertex
100
AcDb2dVertex
 10
-97.7462083926559
 20
-64.29344788840842
 30
0.0
  0
VERTEX
  5
398
330
396
100
AcDbEntity
  8
STANDARDEBENE
 62
     7
100
AcDbVertex
100
AcDb2dVertex
 10
-97.60840448233743
 20
-64.29344788840842
 30
0.0
  0
VERTEX
  5
399
330
396
100
AcDbEntity
  8
STANDARDEBENE
 62
     7
100
AcDbVertex
100
AcDb2dVertex
 10
-97.19964363335528
 20
-64.29344788840842
 30
0.0
  0
SEQEND
  5
39A
330
396
100
AcDbEntity
  8
STANDARDEBENE
  0
POLYLINE
  5
39B
330
1F
100
AcDbEntity
  8
STANDARDEBENE
 62
     7
100
AcDb2dPolyline
 66
     1
 10
0.0
 20
0.0
 30
0.0
  0
VERTEX
  5
39C
330
39B
100
AcDbEntity
  8
STANDARDEBENE
 62
     7
100
AcDbVertex
100
AcDb2dVertex
 10
-79.32320362217997
 20
-58.78508108320347
 30
0.0
  0
VERTEX
  5
39D
330
39B
100
AcDbEntity
  8
STANDARDEBENE
 62
     7
100
AcDbVertex
100
AcDb2dVertex
 10
-79.32285911240419
 20
-58.7919712787194
 30
0.0
  0
VERTEX
  5
39E
330
39B
100
AcDbEntity
  8
STANDARDEBENE
 62
     7
100
AcDbVertex
100
AcDb2dVertex
 10
-79.33319440567807
 20
-58.6930969730659
 30
0.0
  0
VERTEX
  5
39F
330
39B
100
AcDbEntity
  8
STANDARDEBENE
 62
     7
100
AcDbVertex
100
AcDb2dVertex
 10
-79.35541528621692
 20
-58.43747071942514
 30
0.0
  0
VERTEX
  5
3A0
330
39B
100
AcDbEntity
  8
STANDARDEBENE
 62
     7
100
AcDbVertex
100
AcDb2dVertex
 10
-79.3748800885494
 20
-58.05196428030923
 30
0.0
  0
VERTEX
  5
3A1
330
39B
100
AcDbEntity
  8
STANDARDEBENE
 62
     7
100
AcDbVertex
100
AcDb2dVertex
 10
-79.37763616675578
 20
-57.58119167168376
 30
0.0
  0
VERTEX
  5
3A2
330
39B
100
AcDbEntity
  8
STANDARDEBENE
 62
     7
100
AcDbVertex
100
AcDb2dVertex
 10
-79.35420950200164
 20
-57.08199700655511
 30
0.0
  0
VERTEX
  5
3A3
330
39B
100
AcDbEntity
  8
STANDARDEBENE
 62
     7
100
AcDbVertex
100
AcDb2dVertex
 10
-79.30804519204494
 20
-56.60881282949908
 30
0.0
  0
VERTEX
  5
3A4
330
39B
100
AcDbEntity
  8
STANDARDEBENE
 62
     7
100
AcDbVertex
100
AcDb2dVertex
 10
-79.2498230399354
 20
-56.20763119558444
 30
0.0
  0
VERTEX
  5
3A5
330
39B
100
AcDbEntity
  8
STANDARDEBENE
 62
     7
100
AcDbVertex
100
AcDb2dVertex
 10
-79.19849108334176
 20
-55.92409965010419
 30
0.0
  0
VERTEX
  5
3A6
330
39B
100
AcDbEntity
  8
STANDARDEBENE
 62
     7
100
AcDbVertex
100
AcDb2dVertex
 10
-79.17213608549336
 20
-55.79318593530164
 30
0.0
  0
SEQEND
  5
3A7
330
39B
100
AcDbEntity
  8
STANDARDEBENE
  0
POLYLINE
  5
3A8
330
1F
100
AcDbEntity
  8
STANDARDEBENE
 62
     7
100
AcDb2dPolyline
 66
     1
 10
0.0
 20
0.0
 30
0.0
  0
VERTEX
  5
3A9
330
3A8
100
AcDbEntity
  8
STANDARDEBENE
 62
     7
100
AcDbVertex
100
AcDb2dVertex
 10
-98.17253924020366
 20
-55.79318593530164
 30
0.0
  0
VERTEX
  5
3AA
330
3A8
100
AcDbEntity
  8
STANDARDEBENE
 62
     7
100
AcDbVertex
100
AcDb2dVertex
 10
-98.1696109071094
 20
-55.80386573835133
 30
0.0
  0
VERTEX
  5
3AB
330
3A8
100
AcDbEntity
  8
STANDARDEBENE
 62
     7
100
AcDbVertex
100
AcDb2dVertex
 10
-98.16651031912723
 20
-55.82005769781374
 30
0.0
  0
VERTEX
  5
3AC
330
3A8
100
AcDbEntity
  8
STANDARDEBENE
 62
     7
100
AcDbVertex
100
AcDb2dVertex
 10
-98.1327483610992
 20
-55.99300160526342
 30
0.0
  0
VERTEX
  5
3AD
330
3A8
100
AcDbEntity
  8
STANDARDEBENE
 62
     7
100
AcDbVertex
100
AcDb2dVertex
 10
-98.07814356163551
 20
-56.30719452078953
 30
0.0
  0
VERTEX
  5
3AE
330
3A8
100
AcDbEntity
  8
STANDARDEBENE
 62
     7
100
AcDbVertex
100
AcDb2dVertex
 10
-98.02112719374125
 20
-56.73869301497423
 30
0.0
  0
VERTEX
  5
3AF
330
3A8
100
AcDbEntity
  8
STANDARDEBENE
 62
     7
100
AcDbVertex
100
AcDb2dVertex
 10
-97.9797860206457
 20
-57.235992876336
 30
0.0
  0
VERTEX
  5
3B0
330
3A8
100
AcDbEntity
  8
STANDARDEBENE
 62
     7
100
AcDbVertex
100
AcDb2dVertex
 10
-97.96445533562277
 20
-57.73380950236147
 30
0.0
  0
VERTEX
  5
3B1
330
3A8
100
AcDbEntity
  8
STANDARDEBENE
 62
     7
100
AcDbVertex
100
AcDb2dVertex
 10
-97.97427386423297
 20
-58.17908838757801
 30
0.0
  0
VERTEX
  5
3B2
330
3A8
100
AcDbEntity
  8
STANDARDEBENE
 62
     7
100
AcDbVertex
100
AcDb2dVertex
 10
-97.99649474477182
 20
-58.52738777090794
 30
0.0
  0
VERTEX
  5
3B3
330
3A8
100
AcDbEntity
  8
STANDARDEBENE
 62
     7
100
AcDbVertex
100
AcDb2dVertex
 10
-98.02061042907755
 20
-58.77853539746335
 30
0.0
  0
SEQEND
  5
3B4
330
3A8
100
AcDbEntity
  8
STANDARDEBENE
  0
POLYLINE
  5
3B5
330
1F
100
AcDbEntity
  8
STANDARDEBENE
 62
     7
100
AcDb2dPolyline
 66
     1
 10
0.0
 20
0.0
 30
0.0
  0
VERTEX
  5
3B6
330
3B5
100
AcDbEntity
  8
STANDARDEBENE
 62
     7
100
AcDbVertex
100
AcDb2dVertex
 10
-100.1725907435883
 20
-11.29268594082262
 30
0.0
  0
VERTEX
  5
3B7
330
3B5
100
AcDbEntity
  8
STANDARDEBENE
 62
     7
100
AcDbVertex
100
AcDb2dVertex
 10
-100.0647591837641
 20
-11.29268594082262
 30
0.0
  0
VERTEX
  5
3B8
330
3B5
100
AcDbEntity
  8
STANDARDEBENE
 62
     7
100
AcDbVertex
100
AcDb2dVertex
 10
-99.74557087648897
 20
-11.29268594082262
 30
0.0
  0
VERTEX
  5
3B9
330
3B5
100
AcDbEntity
  8
STANDARDEBENE
 62
     7
100
AcDbVertex
100
AcDb2dVertex
 10
-99.21984895862401
 20
-11.29268594082262
 30
0.0
  0
VERTEX
  5
3BA
330
3B5
100
AcDbEntity
  8
STANDARDEBENE
 62
     7
100
AcDbVertex
100
AcDb2dVertex
 10
-98.49792872344314
 20
-11.29268594082262
 30
0.0
  0
VERTEX
  5
3BB
330
3B5
100
AcDbEntity
  8
STANDARDEBENE
 62
     7
100
AcDbVertex
100
AcDb2dVertex
 10
-97.59272928753872
 20
-11.29268594082262
 30
0.0
  0
VERTEX
  5
3BC
330
3B5
100
AcDbEntity
  8
STANDARDEBENE
 62
     7
100
AcDbVertex
100
AcDb2dVertex
 10
-96.52130388481262
 20
-11.29268594082262
 30
0.0
  0
VERTEX
  5
3BD
330
3B5
100
AcDbEntity
  8
STANDARDEBENE
 62
     7
100
AcDbVertex
100
AcDb2dVertex
 10
-95.30363408226107
 20
-11.29268594082262
 30
0.0
  0
VERTEX
  5
3BE
330
3B5
100
AcDbEntity
  8
STANDARDEBENE
 62
     7
100
AcDbVertex
100
AcDb2dVertex
 10
-93.96314654463818
 20
-11.29268594082262
 30
0.0
  0
VERTEX
  5
3BF
330
3B5
100
AcDbEntity
  8
STANDARDEBENE
 62
     7
100
AcDbVertex
100
AcDb2dVertex
 10
-92.52344019158599
 20
-11.29268594082262
 30
0.0
  0
VERTEX
  5
3C0
330
3B5
100
AcDbEntity
  8
STANDARDEBENE
 62
     7
100
AcDbVertex
100
AcDb2dVertex
 10
-91.0120758051682
 20
-11.29268594082262
 30
0.0
  0
VERTEX
  5
3C1
330
3B5
100
AcDbEntity
  8
STANDARDEBENE
 62
     7
100
AcDbVertex
100
AcDb2dVertex
 10
-89.45695867722428
 20
-11.29268594082262
 30
0.0
  0
VERTEX
  5
3C2
330
3B5
100
AcDbEntity
  8
STANDARDEBENE
 62
     7
100
AcDbVertex
100
AcDb2dVertex
 10
-87.88737213869695
 20
-11.29268594082262
 30
0.0
  0
VERTEX
  5
3C3
330
3B5
100
AcDbEntity
  8
STANDARDEBENE
 62
     7
100
AcDbVertex
100
AcDb2dVertex
 10
-86.33225501075303
 20
-11.29268594082262
 30
0.0
  0
VERTEX
  5
3C4
330
3B5
100
AcDbEntity
  8
STANDARDEBENE
 62
     7
100
AcDbVertex
100
AcDb2dVertex
 10
-84.82123513411103
 20
-11.29268594082262
 30
0.0
  0
VERTEX
  5
3C5
330
3B5
100
AcDbEntity
  8
STANDARDEBENE
 62
     7
100
AcDbVertex
100
AcDb2dVertex
 10
-83.38135652617095
 20
-11.29268594082262
 30
0.0
  0
VERTEX
  5
3C6
330
3B5
100
AcDbEntity
  8
STANDARDEBENE
 62
     7
100
AcDbVertex
100
AcDb2dVertex
 10
-82.04035222388437
 20
-11.29268594082262
 30
0.0
  0
VERTEX
  5
3C7
330
3B5
100
AcDbEntity
  8
STANDARDEBENE
 62
     7
100
AcDbVertex
100
AcDb2dVertex
 10
-80.8226824213328
 20
-11.29268594082262
 30
0.0
  0
VERTEX
  5
3C8
330
3B5
100
AcDbEntity
  8
STANDARDEBENE
 62
     7
100
AcDbVertex
100
AcDb2dVertex
 10
-79.75125701860672
 20
-11.29268594082262
 30
0.0
  0
VERTEX
  5
3C9
330
3B5
100
AcDbEntity
  8
STANDARDEBENE
 62
     7
100
AcDbVertex
100
AcDb2dVertex
 10
-78.84674660225387
 20
-11.29268594082262
 30
0.0
  0
VERTEX
  5
3CA
330
3B5
100
AcDbEntity
  8
STANDARDEBENE
 62
     7
100
AcDbVertex
100
AcDb2dVertex
 10
-78.12430960240931
 20
-11.29268594082262
 30
0.0
  0
VERTEX
  5
3CB
330
3B5
100
AcDbEntity
  8
STANDARDEBENE
 62
     7
100
AcDbVertex
100
AcDb2dVertex
 10
-77.59841542965646
 20
-11.29268594082262
 30
0.0
  0
VERTEX
  5
3CC
330
3B5
100
AcDbEntity
  8
STANDARDEBENE
 62
     7
100
AcDbVertex
100
AcDb2dVertex
 10
-77.2795716321571
 20
-11.29268594082262
 30
0.0
  0
VERTEX
  5
3CD
330
3B5
100
AcDbEntity
  8
STANDARDEBENE
 62
     7
100
AcDbVertex
100
AcDb2dVertex
 10
-77.1724290918845
 20
-11.29268594082262
 30
0.0
  0
SEQEND
  5
3CE
330
3B5
100
AcDbEntity
  8
STANDARDEBENE
  0
POLYLINE
  5
3CF
330
1F
100
AcDbEntity
  8
STANDARDEBENE
 62
     7
100
AcDb2dPolyline
 66
     1
 10
0.0
 20
0.0
 30
0.0
  0
VERTEX
  5
3D0
330
3CF
100
AcDbEntity
  8
STANDARDEBENE
 62
     7
100
AcDbVertex
100
AcDb2dVertex
 10
-97.19964363335528
 20
-64.29344788840842
 30
0.0
  0
VERTEX
  5
3D1
330
3CF
100
AcDbEntity
  8
STANDARDEBENE
 62
     7
100
AcDbVertex
100
AcDb2dVertex
 10
-97.01515864841643
 20
-64.37716376392689
 30
0.0
  0
VERTEX
  5
3D2
330
3CF
100
AcDbEntity
  8
STANDARDEBENE
 62
     7
100
AcDbVertex
100
AcDb2dVertex
 10
-96.8745986598916
 20
-64.5192740464428
 30
0.0
  0
VERTEX
  5
3D3
330
3CF
100
AcDbEntity
  8
STANDARDEBENE
 62
     7
100
AcDbVertex
100
AcDb2dVertex
 10
-96.72921553450561
 20
-64.71443883443133
 30
0.0
  0
VERTEX
  5
3D4
330
3CF
100
AcDbEntity
  8
STANDARDEBENE
 62
     7
100
AcDbVertex
100
AcDb2dVertex
 10
-96.62121171979352
 20
-64.87704744860713
 30
0.0
  0
VERTEX
  5
3D5
330
3CF
100
AcDbEntity
  8
STANDARDEBENE
 62
     7
100
AcDbVertex
100
AcDb2dVertex
 10
-96.51251888552983
 20
-65.04861331695362
 30
0.0
  0
VERTEX
  5
3D6
330
3CF
100
AcDbEntity
  8
STANDARDEBENE
 62
     7
100
AcDbVertex
100
AcDb2dVertex
 10
-96.50941829754765
 20
-65.05326419892687
 30
0.0
  0
SEQEND
  5
3D7
330
3CF
100
AcDbEntity
  8
STANDARDEBENE
  0
POLYLINE
  5
3D8
330
1F
100
AcDbEntity
  8
STANDARDEBENE
 62
     7
100
AcDb2dPolyline
 66
     1
 10
0.0
 20
0.0
 30
0.0
  0
VERTEX
  5
3D9
330
3D8
100
AcDbEntity
  8
STANDARDEBENE
 62
     7
100
AcDbVertex
100
AcDb2dVertex
 10
-76.17180044808453
 20
-12.29297007484679
 30
0.0
  0
VERTEX
  5
3DA
330
3D8
100
AcDbEntity
  8
STANDARDEBENE
 62
     7
100
AcDbVertex
100
AcDb2dVertex
 10
-76.27894298835713
 20
-12.29297007484679
 30
0.0
  0
VERTEX
  5
3DB
330
3D8
100
AcDbEntity
  8
STANDARDEBENE
 62
     7
100
AcDbVertex
100
AcDb2dVertex
 10
-76.59813129563229
 20
-12.29297007484679
 30
0.0
  0
VERTEX
  5
3DC
330
3D8
100
AcDbEntity
  8
STANDARDEBENE
 62
     7
100
AcDbVertex
100
AcDb2dVertex
 10
-77.12350870372144
 20
-12.29297007484679
 30
0.0
  0
VERTEX
  5
3DD
330
3D8
100
AcDbEntity
  8
STANDARDEBENE
 62
     7
100
AcDbVertex
100
AcDb2dVertex
 10
-77.84697923289339
 20
-12.29297007484679
 30
0.0
  0
VERTEX
  5
3DE
330
3D8
100
AcDbEntity
  8
STANDARDEBENE
 62
     7
100
AcDbVertex
100
AcDb2dVertex
 10
-78.75527925678
 20
-12.29297007484679
 30
0.0
  0
VERTEX
  5
3DF
330
3D8
100
AcDbEntity
  8
STANDARDEBENE
 62
     7
100
AcDbVertex
100
AcDb2dVertex
 10
-79.833594855022
 20
-12.29297007484679
 30
0.0
  0
VERTEX
  5
3E0
330
3D8
100
AcDbEntity
  8
STANDARDEBENE
 62
     7
100
AcDbVertex
100
AcDb2dVertex
 10
-81.06263348017484
 20
-12.29297007484679
 30
0.0
  0
VERTEX
  5
3E1
330
3D8
100
AcDbEntity
  8
STANDARDEBENE
 62
     7
100
AcDbVertex
100
AcDb2dVertex
 10
-82.42189680057862
 20
-12.29297007484679
 30
0.0
  0
VERTEX
  5
3E2
330
3D8
100
AcDbEntity
  8
STANDARDEBENE
 62
     7
100
AcDbVertex
100
AcDb2dVertex
 10
-83.88881942591871
 20
-12.29297007484679
 30
0.0
  0
VERTEX
  5
3E3
330
3D8
100
AcDbEntity
  8
STANDARDEBENE
 62
     7
100
AcDbVertex
100
AcDb2dVertex
 10
-85.43721861323459
 20
-12.29297007484679
 30
0.0
  0
VERTEX
  5
3E4
330
3D8
100
AcDbEntity
  8
STANDARDEBENE
 62
     7
100
AcDbVertex
100
AcDb2dVertex
 10
-87.04039485490206
 20
-12.29297007484679
 30
0.0
  0
VERTEX
  5
3E5
330
3D8
100
AcDbEntity
  8
STANDARDEBENE
 62
     7
100
AcDbVertex
100
AcDb2dVertex
 10
-88.67182089818482
 20
-12.29297007484679
 30
0.0
  0
VERTEX
  5
3E6
330
3D8
100
AcDbEntity
  8
STANDARDEBENE
 62
     7
100
AcDbVertex
100
AcDb2dVertex
 10
-90.30359145124336
 20
-12.29297007484679
 30
0.0
  0
VERTEX
  5
3E7
330
3D8
100
AcDbEntity
  8
STANDARDEBENE
 62
     7
100
AcDbVertex
100
AcDb2dVertex
 10
-91.90745671246243
 20
-12.29297007484679
 30
0.0
  0
VERTEX
  5
3E8
330
3D8
100
AcDbEntity
  8
STANDARDEBENE
 62
     7
100
AcDbVertex
100
AcDb2dVertex
 10
-93.45585589977831
 20
-12.29297007484679
 30
0.0
  0
VERTEX
  5
3E9
330
3D8
100
AcDbEntity
  8
STANDARDEBENE
 62
     7
100
AcDbVertex
100
AcDb2dVertex
 10
-94.92191725067892
 20
-12.29297007484679
 30
0.0
  0
VERTEX
  5
3EA
330
3D8
100
AcDbEntity
  8
STANDARDEBENE
 62
     7
100
AcDbVertex
100
AcDb2dVertex
 10
-96.28169733574639
 20
-12.29297007484679
 30
0.0
  0
VERTEX
  5
3EB
330
3D8
100
AcDbEntity
  8
STANDARDEBENE
 62
     7
100
AcDbVertex
100
AcDb2dVertex
 10
-97.51108047067503
 20
-12.29297007484679
 30
0.0
  0
VERTEX
  5
3EC
330
3D8
100
AcDbEntity
  8
STANDARDEBENE
 62
     7
100
AcDbVertex
100
AcDb2dVertex
 10
-98.58870704936544
 20
-12.29297007484679
 30
0.0
  0
VERTEX
  5
3ED
330
3D8
100
AcDbEntity
  8
STANDARDEBENE
 62
     7
100
AcDbVertex
100
AcDb2dVertex
 10
-99.49752383791572
 20
-12.29297007484679
 30
0.0
  0
VERTEX
  5
3EE
330
3D8
100
AcDbEntity
  8
STANDARDEBENE
 62
     7
100
AcDbVertex
100
AcDb2dVertex
 10
-100.220477602424
 20
-12.29297007484679
 30
0.0
  0
VERTEX
  5
3EF
330
3D8
100
AcDbEntity
  8
STANDARDEBENE
 62
     7
100
AcDbVertex
100
AcDb2dVertex
 10
-100.746027265401
 20
-12.29297007484679
 30
0.0
  0
VERTEX
  5
3F0
330
3D8
100
AcDbEntity
  8
STANDARDEBENE
 62
     7
100
AcDbVertex
100
AcDb2dVertex
 10
-101.0648710629004
 20
-12.29297007484679
 30
0.0
  0
VERTEX
  5
3F1
330
3D8
100
AcDbEntity
  8
STANDARDEBENE
 62
     7
100
AcDbVertex
100
AcDb2dVertex
 10
-101.1721858580609
 20
-12.29297007484679
 30
0.0
  0
SEQEND
  5
3F2
330
3D8
100
AcDbEntity
  8
STANDARDEBENE
  0
POLYLINE
  5
3F3
330
1F
100
AcDbEntity
  8
STANDARDEBENE
 62
     7
100
AcDb2dPolyline
 66
     1
 10
0.0
 20
0.0
 30
0.0
  0
VERTEX
  5
3F4
330
3F3
100
AcDbEntity
  8
STANDARDEBENE
 62
     7
100
AcDbVertex
100
AcDb2dVertex
 10
-76.17180044808453
 20
-53.29273398257305
 30
0.0
  0
VERTEX
  5
3F5
330
3F3
100
AcDbEntity
  8
STANDARDEBENE
 62
     7
100
AcDbVertex
100
AcDb2dVertex
 10
-76.27894298835713
 20
-53.29273398257305
 30
0.0
  0
VERTEX
  5
3F6
330
3F3
100
AcDbEntity
  8
STANDARDEBENE
 62
     7
100
AcDbVertex
100
AcDb2dVertex
 10
-76.59813129563229
 20
-53.29273398257305
 30
0.0
  0
VERTEX
  5
3F7
330
3F3
100
AcDbEntity
  8
STANDARDEBENE
 62
     7
100
AcDbVertex
100
AcDb2dVertex
 10
-77.12350870372144
 20
-53.29273398257305
 30
0.0
  0
VERTEX
  5
3F8
330
3F3
100
AcDbEntity
  8
STANDARDEBENE
 62
     7
100
AcDbVertex
100
AcDb2dVertex
 10
-77.84697923289339
 20
-53.29273398257305
 30
0.0
  0
VERTEX
  5
3F9
330
3F3
100
AcDbEntity
  8
STANDARDEBENE
 62
     7
100
AcDbVertex
100
AcDb2dVertex
 10
-78.75527925678
 20
-53.29273398257305
 30
0.0
  0
VERTEX
  5
3FA
330
3F3
100
AcDbEntity
  8
STANDARDEBENE
 62
     7
100
AcDbVertex
100
AcDb2dVertex
 10
-79.833594855022
 20
-53.29273398257305
 30
0.0
  0
VERTEX
  5
3FB
330
3F3
100
AcDbEntity
  8
STANDARDEBENE
 62
     7
100
AcDbVertex
100
AcDb2dVertex
 10
-81.06263348017484
 20
-53.29273398257305
 30
0.0
  0
VERTEX
  5
3FC
330
3F3
100
AcDbEntity
  8
STANDARDEBENE
 62
     7
100
AcDbVertex
100
AcDb2dVertex
 10
-82.42189680057862
 20
-53.29273398257305
 30
0.0
  0
VERTEX
  5
3FD
330
3F3
100
AcDbEntity
  8
STANDARDEBENE
 62
     7
100
AcDbVertex
100
AcDb2dVertex
 10
-83.88881942591871
 20
-53.29273398257305
 30
0.0
  0
VERTEX
  5
3FE
330
3F3
100
AcDbEntity
  8
STANDARDEBENE
 62
     7
100
AcDbVertex
100
AcDb2dVertex
 10
-85.43721861323459
 20
-53.29273398257305
 30
0.0
  0
VERTEX
  5
3FF
330
3F3
100
AcDbEntity
  8
STANDARDEBENE
 62
     7
100
AcDbVertex
100
AcDb2dVertex
 10
-87.04039485490206
 20
-53.29273398257305
 30
0.0
  0
VERTEX
  5
400
330
3F3
100
AcDbEntity
  8
STANDARDEBENE
 62
     7
100
AcDbVertex
100
AcDb2dVertex
 10
-88.67182089818482
 20
-53.29273398257305
 30
0.0
  0
VERTEX
  5
401
330
3F3
100
AcDbEntity
  8
STANDARDEBENE
 62
     7
100
AcDbVertex
100
AcDb2dVertex
 10
-90.30359145124336
 20
-53.29273398257305
 30
0.0
  0
VERTEX
  5
402
330
3F3
100
AcDbEntity
  8
STANDARDEBENE
 62
     7
100
AcDbVertex
100
AcDb2dVertex
 10
-91.90745671246243
 20
-53.29273398257305
 30
0.0
  0
VERTEX
  5
403
330
3F3
100
AcDbEntity
  8
STANDARDEBENE
 62
     7
100
AcDbVertex
100
AcDb2dVertex
 10
-93.45585589977831
 20
-53.29273398257305
 30
0.0
  0
VERTEX
  5
404
330
3F3
100
AcDbEntity
  8
STANDARDEBENE
 62
     7
100
AcDbVertex
100
AcDb2dVertex
 10
-94.92191725067892
 20
-53.29273398257305
 30
0.0
  0
VERTEX
  5
405
330
3F3
100
AcDbEntity
  8
STANDARDEBENE
 62
     7
100
AcDbVertex
100
AcDb2dVertex
 10
-96.28169733574639
 20
-53.29273398257305
 30
0.0
  0
VERTEX
  5
406
330
3F3
100
AcDbEntity
  8
STANDARDEBENE
 62
     7
100
AcDbVertex
100
AcDb2dVertex
 10
-97.51108047067503
 20
-53.29273398257305
 30
0.0
  0
VERTEX
  5
407
330
3F3
100
AcDbEntity
  8
STANDARDEBENE
 62
     7
100
AcDbVertex
100
AcDb2dVertex
 10
-98.58870704936544
 20
-53.29273398257305
 30
0.0
  0
VERTEX
  5
408
330
3F3
100
AcDbEntity
  8
STANDARDEBENE
 62
     7
100
AcDbVertex
100
AcDb2dVertex
 10
-99.49752383791572
 20
-53.29273398257305
 30
0.0
  0
VERTEX
  5
409
330
3F3
100
AcDbEntity
  8
STANDARDEBENE
 62
     7
100
AcDbVertex
100
AcDb2dVertex
 10
-100.220477602424
 20
-53.29273398257305
 30
0.0
  0
VERTEX
  5
40A
330
3F3
100
AcDbEntity
  8
STANDARDEBENE
 62
     7
100
AcDbVertex
100
AcDb2dVertex
 10
-100.746027265401
 20
-53.29273398257305
 30
0.0
  0
VERTEX
  5
40B
330
3F3
100
AcDbEntity
  8
STANDARDEBENE
 62
     7
100
AcDbVertex
100
AcDb2dVertex
 10
-101.0648710629004
 20
-53.29273398257305
 30
0.0
  0
VERTEX
  5
40C
330
3F3
100
AcDbEntity
  8
STANDARDEBENE
 62
     7
100
AcDbVertex
100
AcDb2dVertex
 10
-101.1721858580609
 20
-53.29273398257305
 30
0.0
  0
SEQEND
  5
40D
330
3F3
100
AcDbEntity
  8
STANDARDEBENE
  0
POLYLINE
  5
40E
330
1F
100
AcDbEntity
  8
STANDARDEBENE
 62
     7
100
AcDb2dPolyline
 66
     1
 10
0.0
 20
0.0
 30
0.0
  0
VERTEX
  5
40F
330
40E
100
AcDbEntity
  8
STANDARDEBENE
 62
     7
100
AcDbVertex
100
AcDb2dVertex
 10
-91.17210059602552
 20
-26.34483481002093
 30
0.0
  0
VERTEX
  5
410
330
40E
100
AcDbEntity
  8
STANDARDEBENE
 62
     7
100
AcDbVertex
100
AcDb2dVertex
 10
-91.07064246705355
 20
-25.64134584784515
 30
0.0
  0
VERTEX
  5
411
330
40E
100
AcDbEntity
  8
STANDARDEBENE
 62
     7
100
AcDbVertex
100
AcDb2dVertex
 10
-90.77488082453253
 20
-24.99470099867574
 30
0.0
  0
VERTEX
  5
412
330
40E
100
AcDbEntity
  8
STANDARDEBENE
 62
     7
100
AcDbVertex
100
AcDb2dVertex
 10
-90.30927586254401
 20
-24.45726574843372
 30
0.0
  0
VERTEX
  5
413
330
40E
100
AcDbEntity
  8
STANDARDEBENE
 62
     7
100
AcDbVertex
100
AcDb2dVertex
 10
-89.71034561732237
 20
-24.0726205837573
 30
0.0
  0
VERTEX
  5
414
330
40E
100
AcDbEntity
  8
STANDARDEBENE
 62
     7
100
AcDbVertex
100
AcDb2dVertex
 10
-89.02787175147016
 20
-23.87228814913183
 30
0.0
  0
VERTEX
  5
415
330
40E
100
AcDbEntity
  8
STANDARDEBENE
 62
     7
100
AcDbVertex
100
AcDb2dVertex
 10
-88.31611455467527
 20
-23.87228814913183
 30
0.0
  0
VERTEX
  5
416
330
40E
100
AcDbEntity
  8
STANDARDEBENE
 62
     7
100
AcDbVertex
100
AcDb2dVertex
 10
-87.63398519859886
 20
-24.0726205837573
 30
0.0
  0
VERTEX
  5
417
330
40E
100
AcDbEntity
  8
STANDARDEBENE
 62
     7
100
AcDbVertex
100
AcDb2dVertex
 10
-87.03505495337721
 20
-24.45726574843372
 30
0.0
  0
VERTEX
  5
418
330
40E
100
AcDbEntity
  8
STANDARDEBENE
 62
     7
100
AcDbVertex
100
AcDb2dVertex
 10
-86.5691054816129
 20
-24.99470099867574
 30
0.0
  0
VERTEX
  5
419
330
40E
100
AcDbEntity
  8
STANDARDEBENE
 62
     7
100
AcDbVertex
100
AcDb2dVertex
 10
-86.2735160939798
 20
-25.64134584784515
 30
0.0
  0
VERTEX
  5
41A
330
40E
100
AcDbEntity
  8
STANDARDEBENE
 62
     7
100
AcDbVertex
100
AcDb2dVertex
 10
-86.17188571011992
 20
-26.34483481002093
 30
0.0
  0
VERTEX
  5
41B
330
40E
100
AcDbEntity
  8
STANDARDEBENE
 62
     7
100
AcDbVertex
100
AcDb2dVertex
 10
-86.2735160939798
 20
-27.0491850466362
 30
0.0
  0
VERTEX
  5
41C
330
40E
100
AcDbEntity
  8
STANDARDEBENE
 62
     7
100
AcDbVertex
100
AcDb2dVertex
 10
-86.5691054816129
 20
-27.6963466604693
 30
0.0
  0
VERTEX
  5
41D
330
40E
100
AcDbEntity
  8
STANDARDEBENE
 62
     7
100
AcDbVertex
100
AcDb2dVertex
 10
-87.03505495337721
 20
-28.23395416559922
 30
0.0
  0
VERTEX
  5
41E
330
40E
100
AcDbEntity
  8
STANDARDEBENE
 62
     7
100
AcDbVertex
100
AcDb2dVertex
 10
-87.63398519859886
 20
-28.61825482049985
 30
0.0
  0
VERTEX
  5
41F
330
40E
100
AcDbEntity
  8
STANDARDEBENE
 62
     7
100
AcDbVertex
100
AcDb2dVertex
 10
-88.31611455467527
 20
-28.81875951001322
 30
0.0
  0
VERTEX
  5
420
330
40E
100
AcDbEntity
  8
STANDARDEBENE
 62
     7
100
AcDbVertex
100
AcDb2dVertex
 10
-89.02787175147016
 20
-28.81875951001322
 30
0.0
  0
VERTEX
  5
421
330
40E
100
AcDbEntity
  8
STANDARDEBENE
 62
     7
100
AcDbVertex
100
AcDb2dVertex
 10
-89.71034561732237
 20
-28.61825482049985
 30
0.0
  0
VERTEX
  5
422
330
40E
100
AcDbEntity
  8
STANDARDEBENE
 62
     7
100
AcDbVertex
100
AcDb2dVertex
 10
-90.30927586254401
 20
-28.23395416559922
 30
0.0
  0
VERTEX
  5
423
330
40E
100
AcDbEntity
  8
STANDARDEBENE
 62
     7
100
AcDbVertex
100
AcDb2dVertex
 10
-90.77488082453253
 20
-27.6963466604693
 30
0.0
  0
VERTEX
  5
424
330
40E
100
AcDbEntity
  8
STANDARDEBENE
 62
     7
100
AcDbVertex
100
AcDb2dVertex
 10
-91.07064246705355
 20
-27.0491850466362
 30
0.0
  0
VERTEX
  5
425
330
40E
100
AcDbEntity
  8
STANDARDEBENE
 62
     7
100
AcDbVertex
100
AcDb2dVertex
 10
-91.17210059602552
 20
-26.34483481002093
 30
0.0
  0
SEQEND
  5
426
330
40E
100
AcDbEntity
  8
STANDARDEBENE
  0
POLYLINE
  5
427
330
1F
100
AcDbEntity
  8
STANDARDEBENE
 62
     7
100
AcDb2dPolyline
 66
     1
 10
0.0
 20
0.0
 30
0.0
  0
VERTEX
  5
428
330
427
100
AcDbEntity
  8
STANDARDEBENE
 62
     7
100
AcDbVertex
100
AcDb2dVertex
 10
-92.17238473004969
 20
-26.34483481002093
 30
0.0
  0
VERTEX
  5
429
330
427
100
AcDbEntity
  8
STANDARDEBENE
 62
     7
100
AcDbVertex
100
AcDb2dVertex
 10
-92.07023758152613
 20
-25.50836507438783
 30
0.0
  0
VERTEX
  5
42A
330
427
100
AcDbEntity
  8
STANDARDEBENE
 62
     7
100
AcDbVertex
100
AcDb2dVertex
 10
-91.77085858635925
 20
-24.7199544524783
 30
0.0
  0
VERTEX
  5
42B
330
427
100
AcDbEntity
  8
STANDARDEBENE
 62
     7
100
AcDbVertex
100
AcDb2dVertex
 10
-91.29233450777838
 20
-24.02559499936112
 30
0.0
  0
VERTEX
  5
42C
330
427
100
AcDbEntity
  8
STANDARDEBENE
 62
     7
100
AcDbVertex
100
AcDb2dVertex
 10
-90.6599868143045
 20
-23.46662788813184
 30
0.0
  0
VERTEX
  5
42D
330
427
100
AcDbEntity
  8
STANDARDEBENE
 62
     7
100
AcDbVertex
100
AcDb2dVertex
 10
-89.91326187526631
 20
-23.07509252793949
 30
0.0
  0
VERTEX
  5
42E
330
427
100
AcDbEntity
  8
STANDARDEBENE
 62
     7
100
AcDbVertex
100
AcDb2dVertex
 10
-89.09401762842302
 20
-22.87286528954714
 30
0.0
  0
VERTEX
  5
42F
330
427
100
AcDbEntity
  8
STANDARDEBENE
 62
     7
100
AcDbVertex
100
AcDb2dVertex
 10
-88.250657697274
 20
-22.87286528954714
 30
0.0
  0
VERTEX
  5
430
330
427
100
AcDbEntity
  8
STANDARDEBENE
 62
     7
100
AcDbVertex
100
AcDb2dVertex
 10
-87.43072443087912
 20
-23.07509252793949
 30
0.0
  0
VERTEX
  5
431
330
427
100
AcDbEntity
  8
STANDARDEBENE
 62
     7
100
AcDbVertex
100
AcDb2dVertex
 10
-86.68434400161672
 20
-23.46662788813184
 30
0.0
  0
VERTEX
  5
432
330
427
100
AcDbEntity
  8
STANDARDEBENE
 62
     7
100
AcDbVertex
100
AcDb2dVertex
 10
-86.05199630814285
 20
-24.02559499936112
 30
0.0
  0
VERTEX
  5
433
330
427
100
AcDbEntity
  8
STANDARDEBENE
 62
     7
100
AcDbVertex
100
AcDb2dVertex
 10
-85.57347222956197
 20
-24.7199544524783
 30
0.0
  0
VERTEX
  5
434
330
427
100
AcDbEntity
  8
STANDARDEBENE
 62
     7
100
AcDbVertex
100
AcDb2dVertex
 10
-85.2740932343951
 20
-25.50836507438783
 30
0.0
  0
VERTEX
  5
435
330
427
100
AcDbEntity
  8
STANDARDEBENE
 62
     7
100
AcDbVertex
100
AcDb2dVertex
 10
-85.17194608587154
 20
-26.34483481002093
 30
0.0
  0
SEQEND
  5
436
330
427
100
AcDbEntity
  8
STANDARDEBENE
  0
POLYLINE
  5
437
330
1F
100
AcDbEntity
  8
STANDARDEBENE
 62
     7
100
AcDb2dPolyline
 66
     1
 10
0.0
 20
0.0
 30
0.0
  0
VERTEX
  5
438
330
437
100
AcDbEntity
  8
STANDARDEBENE
 62
     7
100
AcDbVertex
100
AcDb2dVertex
 10
-88.67182089818482
 20
-29.79458344995587
 30
0.0
  0
VERTEX
  5
439
330
437
100
AcDbEntity
  8
STANDARDEBENE
 62
     7
100
AcDbVertex
100
AcDb2dVertex
 10
-88.10027918013897
 20
-29.74893590466288
 30
0.0
  0
VERTEX
  5
43A
330
437
100
AcDbEntity
  8
STANDARDEBENE
 62
     7
100
AcDbVertex
100
AcDb2dVertex
 10
-87.67274254837592
 20
-29.65023385389727
 30
0.0
  0
VERTEX
  5
43B
330
437
100
AcDbEntity
  8
STANDARDEBENE
 62
     7
100
AcDbVertex
100
AcDb2dVertex
 10
-87.5321825598511
 20
-29.60579209281957
 30
0.0
  0
VERTEX
  5
43C
330
437
100
AcDbEntity
  8
STANDARDEBENE
 62
     7
100
AcDbVertex
100
AcDb2dVertex
 10
-87.00904446530461
 20
-29.3784156407941
 30
0.0
  0
VERTEX
  5
43D
330
437
100
AcDbEntity
  8
STANDARDEBENE
 62
     7
100
AcDbVertex
100
AcDb2dVertex
 10
-86.63869645632373
 20
-29.14983340455334
 30
0.0
  0
VERTEX
  5
43E
330
437
100
AcDbEntity
  8
STANDARDEBENE
 62
     7
100
AcDbVertex
100
AcDb2dVertex
 10
-86.52121862277723
 20
-29.06215566661321
 30
0.0
  0
VERTEX
  5
43F
330
437
100
AcDbEntity
  8
STANDARDEBENE
 62
     7
100
AcDbVertex
100
AcDb2dVertex
 10
-86.09437101056578
 20
-28.67182609063615
 30
0.0
  0
VERTEX
  5
440
330
437
100
AcDbEntity
  8
STANDARDEBENE
 62
     7
100
AcDbVertex
100
AcDb2dVertex
 10
-85.81549034705878
 20
-28.32852209905527
 30
0.0
  0
VERTEX
  5
441
330
437
100
AcDbEntity
  8
STANDARDEBENE
 62
     7
100
AcDbVertex
100
AcDb2dVertex
 10
-85.732291236204
 20
-28.20518759932024
 30
0.0
  0
VERTEX
  5
442
330
437
100
AcDbEntity
  8
STANDARDEBENE
 62
     7
100
AcDbVertex
100
AcDb2dVertex
 10
-85.45564988623968
 20
-27.68807842585019
 30
0.0
  0
VERTEX
  5
443
330
437
100
AcDbEntity
  8
STANDARDEBENE
 62
     7
100
AcDbVertex
100
AcDb2dVertex
 10
-85.30509911421676
 20
-27.2643314016209
 30
0.0
  0
VERTEX
  5
444
330
437
100
AcDbEntity
  8
STANDARDEBENE
 62
     7
100
AcDbVertex
100
AcDb2dVertex
 10
-85.26616950955179
 20
-27.11688121758014
 30
0.0
  0
VERTEX
  5
445
330
437
100
AcDbEntity
  8
STANDARDEBENE
 62
     7
100
AcDbVertex
100
AcDb2dVertex
 10
-85.18004206560275
 20
-26.54999038150755
 30
0.0
  0
VERTEX
  5
446
330
437
100
AcDbEntity
  8
STANDARDEBENE
 62
     7
100
AcDbVertex
100
AcDb2dVertex
 10
-85.17797500694797
 20
-26.11022365270374
 30
0.0
  0
VERTEX
  5
447
330
437
100
AcDbEntity
  8
STANDARDEBENE
 62
     7
100
AcDbVertex
100
AcDb2dVertex
 10
-85.18951608443714
 20
-25.96242895888718
 30
0.0
  0
VERTEX
  5
448
330
437
100
AcDbEntity
  8
STANDARDEBENE
 62
     7
100
AcDbVertex
100
AcDb2dVertex
 10
-85.28942391941803
 20
-25.41086880783752
 30
0.0
  0
VERTEX
  5
449
330
437
100
AcDbEntity
  8
STANDARDEBENE
 62
     7
100
AcDbVertex
100
AcDb2dVertex
 10
-85.47942106076962
 20
-24.87222777338021
 30
0.0
  0
VERTEX
  5
44A
330
437
100
AcDbEntity
  8
STANDARDEBENE
 62
     7
100
AcDbVertex
100
AcDb2dVertex
 10
-85.75296182275177
 20
-24.37303310825156
 30
0.0
  0
VERTEX
  5
44B
330
437
100
AcDbEntity
  8
STANDARDEBENE
 62
     7
100
AcDbVertex
100
AcDb2dVertex
 10
-86.01289444858999
 20
-24.02559499936112
 30
0.0
  0
VERTEX
  5
44C
330
437
100
AcDbEntity
  8
STANDARDEBENE
 62
     7
100
AcDbVertex
100
AcDb2dVertex
 10
-86.1102184602524
 20
-23.91604089065794
 30
0.0
  0
VERTEX
  5
44D
330
437
100
AcDbEntity
  8
STANDARDEBENE
 62
     7
100
AcDbVertex
100
AcDb2dVertex
 10
-86.21150433433648
 20
-23.81079315415221
 30
0.0
  0
VERTEX
  5
44E
330
437
100
AcDbEntity
  8
STANDARDEBENE
 62
     7
100
AcDbVertex
100
AcDb2dVertex
 10
-86.42820098331227
 20
-23.61252777818152
 30
0.0
  0
VERTEX
  5
44F
330
437
100
AcDbEntity
  8
STANDARDEBENE
 62
     7
100
AcDbVertex
100
AcDb2dVertex
 10
-86.66436243462054
 20
-23.42959308723375
 30
0.0
  0
VERTEX
  5
450
330
437
100
AcDbEntity
  8
STANDARDEBENE
 62
     7
100
AcDbVertex
100
AcDb2dVertex
 10
-86.9194719235976
 20
-23.26612319861847
 30
0.0
  0
VERTEX
  5
451
330
437
100
AcDbEntity
  8
STANDARDEBENE
 62
     7
100
AcDbVertex
100
AcDb2dVertex
 10
-87.05228044216703
 20
-23.19222585171019
 30
0.0
  0
VERTEX
  5
452
330
437
100
AcDbEntity
  8
STANDARDEBENE
 62
     7
100
AcDbVertex
100
AcDb2dVertex
 10
-87.18388317652116
 20
-23.12625222964522
 30
0.0
  0
VERTEX
  5
453
330
437
100
AcDbEntity
  8
STANDARDEBENE
 62
     7
100
AcDbVertex
100
AcDb2dVertex
 10
-87.59660588792498
 20
-22.96140430192676
 30
0.0
  0
VERTEX
  5
454
330
437
100
AcDbEntity
  8
STANDARDEBENE
 62
     7
100
AcDbVertex
100
AcDb2dVertex
 10
-88.03706163628037
 20
-22.8492663699051
 30
0.0
  0
VERTEX
  5
455
330
437
100
AcDbEntity
  8
STANDARDEBENE
 62
     7
100
AcDbVertex
100
AcDb2dVertex
 10
-88.1886459376307
 20
-22.82497843071147
 30
0.0
  0
VERTEX
  5
456
330
437
100
AcDbEntity
  8
STANDARDEBENE
 62
     7
100
AcDbVertex
100
AcDb2dVertex
 10
-88.75708706769437
 20
-22.79207774712294
 30
0.0
  0
VERTEX
  5
457
330
437
100
AcDbEntity
  8
STANDARDEBENE
 62
     7
100
AcDbVertex
100
AcDb2dVertex
 10
-89.19151389497334
 20
-22.83014607734842
 30
0.0
  0
VERTEX
  5
458
330
437
100
AcDbEntity
  8
STANDARDEBENE
 62
     7
100
AcDbVertex
100
AcDb2dVertex
 10
-89.33672476547142
 20
-22.85495078120574
 30
0.0
  0
VERTEX
  5
459
330
437
100
AcDbEntity
  8
STANDARDEBENE
 62
     7
100
AcDbVertex
100
AcDb2dVertex
 10
-89.87226521194657
 20
-23.00498478856497
 30
0.0
  0
VERTEX
  5
45A
330
437
100
AcDbEntity
  8
STANDARDEBENE
 62
     7
100
AcDbVertex
100
AcDb2dVertex
 10
-90.38524026810707
 20
-23.24269653386433
 30
0.0
  0
VERTEX
  5
45B
330
437
100
AcDbEntity
  8
STANDARDEBENE
 62
     7
100
AcDbVertex
100
AcDb2dVertex
 10
-90.85480709251723
 20
-23.56222935091527
 30
0.0
  0
VERTEX
  5
45C
330
437
100
AcDbEntity
  8
STANDARDEBENE
 62
     7
100
AcDbVertex
100
AcDb2dVertex
 10
-91.17451216445609
 20
-23.85334011146304
 30
0.0
  0
VERTEX
  5
45D
330
437
100
AcDbEntity
  8
STANDARDEBENE
 62
     7
100
AcDbVertex
100
AcDb2dVertex
 10
-91.27390323477329
 20
-23.96048265173565
 30
0.0
  0
VERTEX
  5
45E
330
437
100
AcDbEntity
  8
STANDARDEBENE
 62
     7
100
AcDbVertex
100
AcDb2dVertex
 10
-91.36881567800512
 20
-24.07072577999042
 30
0.0
  0
VERTEX
  5
45F
330
437
100
AcDbEntity
  8
STANDARDEBENE
 62
     7
100
AcDbVertex
100
AcDb2dVertex
 10
-91.54623821254015
 20
-24.3056814470834
 30
0.0
  0
VERTEX
  5
460
330
437
100
AcDbEntity
  8
STANDARDEBENE
 62
     7
100
AcDbVertex
100
AcDb2dVertex
 10
-91.7047127094064
 20
-24.5583793676299
 30
0.0
  0
VERTEX
  5
461
330
437
100
AcDbEntity
  8
STANDARDEBENE
 62
     7
100
AcDbVertex
100
AcDb2dVertex
 10
-91.84389465882803
 20
-24.82675248297511
 30
0.0
  0
VERTEX
  5
462
330
437
100
AcDbEntity
  8
STANDARDEBENE
 62
     7
100
AcDbVertex
100
AcDb2dVertex
 10
-91.90590641847135
 20
-24.96714021661205
 30
0.0
  0
VERTEX
  5
463
330
437
100
AcDbEntity
  8
STANDARDEBENE
 62
     7
100
AcDbVertex
100
AcDb2dVertex
 10
-91.95878866905606
 20
-25.10373834271523
 30
0.0
  0
VERTEX
  5
464
330
437
100
AcDbEntity
  8
STANDARDEBENE
 62
     7
100
AcDbVertex
100
AcDb2dVertex
 10
-92.08470699210956
 20
-25.53179173914197
 30
0.0
  0
VERTEX
  5
465
330
437
100
AcDbEntity
  8
STANDARDEBENE
 62
     7
100
AcDbVertex
100
AcDb2dVertex
 10
-92.15705404502675
 20
-25.98120474166807
 30
0.0
  0
VERTEX
  5
466
330
437
100
AcDbEntity
  8
STANDARDEBENE
 62
     7
100
AcDbVertex
100
AcDb2dVertex
 10
-92.16738933830064
 20
-26.13468384678527
 30
0.0
  0
VERTEX
  5
467
330
437
100
AcDbEntity
  8
STANDARDEBENE
 62
     7
100
AcDbVertex
100
AcDb2dVertex
 10
-92.14981933973505
 20
-26.70588105505531
 30
0.0
  0
VERTEX
  5
468
330
437
100
AcDbEntity
  8
STANDARDEBENE
 62
     7
100
AcDbVertex
100
AcDb2dVertex
 10
-92.07316591462039
 20
-27.13600151013683
 30
0.0
  0
VERTEX
  5
469
330
437
100
AcDbEntity
  8
STANDARDEBENE
 62
     7
100
AcDbVertex
100
AcDb2dVertex
 10
-92.03526983928282
 20
-27.27811179265275
 30
0.0
  0
VERTEX
  5
46A
330
437
100
AcDbEntity
  8
STANDARDEBENE
 62
     7
100
AcDbVertex
100
AcDb2dVertex
 10
-91.83734897308791
 20
-27.80142214208713
 30
0.0
  0
VERTEX
  5
46B
330
437
100
AcDbEntity
  8
STANDARDEBENE
 62
     7
100
AcDbVertex
100
AcDb2dVertex
 10
-91.55295615316818
 20
-28.29355435681196
 30
0.0
  0
VERTEX
  5
46C
330
437
100
AcDbEntity
  8
STANDARDEBENE
 62
     7
100
AcDbVertex
100
AcDb2dVertex
 10
-91.19018735925481
 20
-28.73418236005526
 30
0.0
  0
VERTEX
  5
46D
330
437
100
AcDbEntity
  8
STANDARDEBENE
 62
     7
100
AcDbVertex
100
AcDb2dVertex
 10
-90.86789846399749
 20
-29.02770468903359
 30
0.0
  0
VERTEX
  5
46E
330
437
100
AcDbEntity
  8
STANDARDEBENE
 62
     7
100
AcDbVertex
100
AcDb2dVertex
 10
-90.75110965000259
 20
-29.11624370141321
 30
0.0
  0
VERTEX
  5
46F
330
437
100
AcDbEntity
  8
STANDARDEBENE
 62
     7
100
AcDbVertex
100
AcDb2dVertex
 10
-90.25088145554656
 20
-29.42165161765652
 30
0.0
  0
VERTEX
  5
470
330
437
100
AcDbEntity
  8
STANDARDEBENE
 62
     7
100
AcDbVertex
100
AcDb2dVertex
 10
-89.83695295992746
 20
-29.59735160331256
 30
0.0
  0
VERTEX
  5
471
330
437
100
AcDbEntity
  8
STANDARDEBENE
 62
     7
100
AcDbVertex
100
AcDb2dVertex
 10
-89.69277561875677
 20
-29.64437718770874
 30
0.0
  0
VERTEX
  5
472
330
437
100
AcDbEntity
  8
STANDARDEBENE
 62
     7
100
AcDbVertex
100
AcDb2dVertex
 10
-89.19306418896441
 20
-29.75703188439408
 30
0.0
  0
VERTEX
  5
473
330
437
100
AcDbEntity
  8
STANDARDEBENE
 62
     7
100
AcDbVertex
100
AcDb2dVertex
 10
-88.67182089818482
 20
-29.79458344995587
 30
0.0
  0
SEQEND
  5
474
330
437
100
AcDbEntity
  8
STANDARDEBENE
  0
SPLINE
  5
475
330
1F
100
AcDbEntity
  8
STANDARDEBENE
 62
     7
100
AcDbSpline
210
0.0
220
0.0
230
1.0
 70
    11
 71
     3
 72
    17
 73
    13
 74
     0
 42
0.0000000001
 43
0.0000000001
 40
0.0
 40
0.0
 40
0.0
 40
0.0
 40
1.0
 40
1.0
 40
1.0
 40
2.0
 40
2.0
 40
2.0
 40
3.0
 40
3.0
 40
3.0
 40
4.0
 40
4.0
 40
4.0
 40
4.0
 10
-85.38295832354669
 20
-108.8812811110518
 30
0.0
 10
-85.38295832354669
 20
-107.0646810632786
 30
0.0
 10
-86.85573761507531
 20
-105.5925907913015
 30
0.0
 10
-88.67182089818482
 20
-105.5925907913015
 30
0.0
 10
-90.48842094595801
 20
-105.5925907913015
 30
0.0
 10
-91.96068347282294
 20
-107.0646810632786
 30
0.0
 10
-91.96068347282294
 20
-108.8812811110518
 30
0.0
 10
-91.96068347282294
 20
-110.697881158825
 30
0.0
 10
-90.48842094595801
 20
-112.1696269210262
 30
0.0
 10
-88.67182089818482
 20
-112.1696269210262
 30
0.0
 10
-86.85573761507531
 20
-112.1696269210262
 30
0.0
 10
-85.38295832354669
 20
-110.697881158825
 30
0.0
 10
-85.38295832354669
 20
-108.8812811110518
 30
0.0
  0
SPLINE
  5
476
330
1F
100
AcDbEntity
  8
STANDARDEBENE
 62
     7
100
AcDbSpline
210
0.0
220
0.0
230
1.0
 70
    11
 71
     3
 72
    17
 73
    13
 74
     0
 42
0.0000000001
 43
0.0000000001
 40
0.0
 40
0.0
 40
0.0
 40
0.0
 40
1.0
 40
1.0
 40
1.0
 40
2.0
 40
2.0
 40
2.0
 40
3.0
 40
3.0
 40
3.0
 40
4.0
 40
4.0
 40
4.0
 40
4.0
 10
-77.1724290918845
 20
-108.8812811110518
 30
0.0
 10
-77.1724290918845
 20
-102.5302433942494
 30
0.0
 10
-82.32061092649455
 20
-97.38120028519987
 30
0.0
 10
-88.67182089818482
 20
-97.38120028519987
 30
0.0
 10
-95.02371988942669
 20
-97.38120028519987
 30
0.0
 10
-100.1725907435883
 20
-102.5302433942494
 30
0.0
 10
-100.1725907435883
 20
-108.8812811110518
 30
0.0
 10
-100.1725907435883
 20
-115.2316298083026
 30
0.0
 10
-95.02371988942669
 20
-120.3810174271279
 30
0.0
 10
-88.67182089818482
 20
-120.3810174271279
 30
0.0
 10
-82.32061092649455
 20
-120.3810174271279
 30
0.0
 10
-77.1724290918845
 20
-115.2316298083026
 30
0.0
 10
-77.1724290918845
 20
-108.8812811110518
 30
0.0
  0
SPLINE
  5
477
330
1F
100
AcDbEntity
  8
STANDARDEBENE
 62
     7
100
AcDbSpline
210
0.0
220
0.0
230
1.0
 70
    11
 71
     3
 72
    17
 73
    13
 74
     0
 42
0.0000000001
 43
0.0000000001
 40
0.0
 40
0.0
 40
0.0
 40
0.0
 40
1.0
 40
1.0
 40
1.0
 40
2.0
 40
2.0
 40
2.0
 40
3.0
 40
3.0
 40
3.0
 40
4.0
 40
4.0
 40
4.0
 40
4.0
 10
-76.17180044808453
 20
-108.8812811110518
 30
0.0
 10
-76.17180044808453
 20
-101.9776497138724
 30
0.0
 10
-81.76905077544488
 20
-96.38143291583938
 30
0.0
 10
-88.67182089818482
 20
-96.38143291583938
 30
0.0
 10
-95.57528004047634
 20
-96.38143291583938
 30
0.0
 10
-101.1721858580609
 20
-101.9776497138724
 30
0.0
 10
-101.1721858580609
 20
-108.8812811110518
 30
0.0
 10
-101.1721858580609
 20
-115.7845679984554
 30
0.0
 10
-95.57528004047634
 20
-121.3811293062642
 30
0.0
 10
-88.67182089818482
 20
-121.3811293062642
 30
0.0
 10
-81.76905077544488
 20
-121.3811293062642
 30
0.0
 10
-76.17180044808453
 20
-115.7845679984554
 30
0.0
 10
-76.17180044808453
 20
-108.8812811110518
 30
0.0
  0
SPLINE
  5
478
330
1F
100
AcDbEntity
  8
STANDARDEBENE
 62
     7
100
AcDbSpline
210
0.0
220
0.0
230
1.0
 70
    11
 71
     3
 72
    17
 73
    13
 74
     0
 42
0.0000000001
 43
0.0000000001
 40
0.0
 40
0.0
 40
0.0
 40
0.0
 40
1.0
 40
1.0
 40
1.0
 40
2.0
 40
2.0
 40
2.0
 40
3.0
 40
3.0
 40
3.0
 40
4.0
 40
4.0
 40
4.0
 40
4.0
 10
-87.172342099032
 20
-108.8812811110518
 30
0.0
 10
-87.172342099032
 20
-108.0523905904862
 30
0.0
 10
-87.84379165205873
 20
-107.3812855472353
 30
0.0
 10
-88.67182089818482
 20
-107.3812855472353
 30
0.0
 10
-89.5008836736383
 20
-107.3812855472353
 30
0.0
 10
-90.17164420711343
 20
-108.0523905904862
 30
0.0
 10
-90.17164420711343
 20
-108.8812811110518
 30
0.0
 10
-90.17164420711343
 20
-109.7094826120658
 30
0.0
 10
-89.5008836736383
 20
-110.3809321650925
 30
0.0
 10
-88.67182089818482
 20
-110.3809321650925
 30
0.0
 10
-87.84379165205873
 20
-110.3809321650925
 30
0.0
 10
-87.172342099032
 20
-109.7094826120658
 30
0.0
 10
-87.172342099032
 20
-108.8812811110518
 30
0.0
  0
SPLINE
  5
479
330
1F
100
AcDbEntity
  8
STANDARDEBENE
 62
     7
100
AcDbSpline
210
0.0
220
0.0
230
1.0
 70
    11
 71
     3
 72
    17
 73
    13
 74
     0
 42
0.0000000001
 43
0.0000000001
 40
0.0
 40
0.0
 40
0.0
 40
0.0
 40
1.0
 40
1.0
 40
1.0
 40
2.0
 40
2.0
 40
2.0
 40
3.0
 40
3.0
 40
3.0
 40
4.0
 40
4.0
 40
4.0
 40
4.0
 10
-85.67217428032758
 20
-108.8812811110518
 30
0.0
 10
-85.67217428032758
 20
-107.2241890894722
 30
0.0
 10
-87.01507338638105
 20
-105.8806009638671
 30
0.0
 10
-88.67182089818482
 20
-105.8806009638671
 30
0.0
 10
-90.32856840998859
 20
-105.8806009638671
 30
0.0
 10
-91.67215653559366
 20
-107.2241890894722
 30
0.0
 10
-91.67215653559366
 20
-108.8812811110518
 30
0.0
 10
-91.67215653559366
 20
-110.5380286228555
 30
0.0
 10
-90.32856840998859
 20
-111.880927728909
 30
0.0
 10
-88.67182089818482
 20
-111.880927728909
 30
0.0
 10
-87.01507338638105
 20
-111.880927728909
 30
0.0
 10
-85.67217428032758
 20
-110.5380286228555
 30
0.0
 10
-85.67217428032758
 20
-108.8812811110518
 30
0.0
  0
POLYLINE
  5
47A
330
1F
100
AcDbEntity
  8
STANDARDEBENE
  6
AI-LINETYPE-1
 62
     7
100
AcDb2dPolyline
 66
     1
 10
0.0
 20
0.0
 30
0.0
  0
VERTEX
  5
47B
330
47A
100
AcDbEntity
  8
STANDARDEBENE
  6
AI-LINETYPE-1
 62
     7
100
AcDbVertex
100
AcDb2dVertex
 10
-88.67182089818482
 20
-10.30635445271819
 30
0.0
  0
VERTEX
  5
47C
330
47A
100
AcDbEntity
  8
STANDARDEBENE
  6
AI-LINETYPE-1
 62
     7
100
AcDbVertex
100
AcDb2dVertex
 10
-88.67182089818482
 20
-67.91338435758666
 30
0.0
  0
SEQEND
  5
47D
330
47A
100
AcDbEntity
  8
STANDARDEBENE
  6
AI-LINETYPE-1
  0
POLYLINE
  5
47F
330
1F
100
AcDbEntity
  8
STANDARDEBENE
  6
AI-LINETYPE-2
 62
     7
100
AcDb2dPolyline
 66
     1
 10
0.0
 20
0.0
 30
0.0
  0
VERTEX
  5
480
330
47F
100
AcDbEntity
  8
STANDARDEBENE
  6
AI-LINETYPE-2
 62
     7
100
AcDbVertex
100
AcDb2dVertex
 10
-23.55172180275349
 20
-9.716381461667249
 30
0.0
  0
VERTEX
  5
481
330
47F
100
AcDbEntity
  8
STANDARDEBENE
  6
AI-LINETYPE-2
 62
     7
100
AcDbVertex
100
AcDb2dVertex
 10
-23.55172180275349
 20
-66.60114662157906
 30
0.0
  0
SEQEND
  5
482
330
47F
100
AcDbEntity
  8
STANDARDEBENE
  6
AI-LINETYPE-2
  0
POLYLINE
  5
484
330
1F
100
AcDbEntity
  8
STANDARDEBENE
  6
AI-LINETYPE-3
 62
     7
100
AcDb2dPolyline
 66
     1
 10
0.0
 20
0.0
 30
0.0
  0
VERTEX
  5
485
330
484
100
AcDbEntity
  8
STANDARDEBENE
  6
AI-LINETYPE-3
 62
     7
100
AcDbVertex
100
AcDb2dVertex
 10
-88.67182089818482
 20
-123.2528509181648
 30
0.0
  0
VERTEX
  5
486
330
484
100
AcDbEntity
  8
STANDARDEBENE
  6
AI-LINETYPE-3
 62
     7
100
AcDbVertex
100
AcDb2dVertex
 10
-88.67182089818482
 20
-94.88160960691076
 30
0.0
  0
SEQEND
  5
487
330
484
100
AcDbEntity
  8
STANDARDEBENE
  6
AI-LINETYPE-3
  0
POLYLINE
  5
489
330
1F
100
AcDbEntity
  8
STANDARDEBENE
  6
AI-LINETYPE-4
 62
     7
100
AcDb2dPolyline
 66
     1
 10
0.0
 20
0.0
 30
0.0
  0
VERTEX
  5
48A
330
489
100
AcDbEntity
  8
STANDARDEBENE
  6
AI-LINETYPE-4
 62
     7
100
AcDbVertex
100
AcDb2dVertex
 10
-74.56207852067692
 20
-108.8812811110518
 30
0.0
  0
VERTEX
  5
48B
330
489
100
AcDbEntity
  8
STANDARDEBENE
  6
AI-LINETYPE-4
 62
     7
100
AcDbVertex
100
AcDb2dVertex
 10
-102.6720091669895
 20
-108.8812811110518
 30
0.0
  0
SEQEND
  5
48C
330
489
100
AcDbEntity
  8
STANDARDEBENE
  6
AI-LINETYPE-4
  0
MTEXT
  5
48F
330
1F
100
AcDbEntity
  8
TEXT
 62
     7
100
AcDbMText
 10
-71.38948799537
 20
-29.62508464026415
 30
0.0
 40
2.398890470823883
 41
0.0
 71
     7
 72
     1
  1
\fINDEX Univers 45 Light|b0|i0|c0|p34;\W1;\U+00F86H5
  0
MTEXT
  5
490
330
1F
100
AcDbEntity
  8
TEXT
 62
     7
100
AcDbMText
 10
-18.89188257533451
 20
-52.49881120425079
 30
0.0
 40
2.398890470823883
 41
0.0
 71
     7
 72
     1
  1
\fINDEX Univers 45 Light|b0|i0|c0|p34;\W1;55
 11
-4.371139000186241E-8
 21
0.999999999999999
 31
0.0
  0
MTEXT
  5
491
330
1F
100
AcDbEntity
  8
TEXT
 62
     7
100
AcDbMText
 10
-40.73276883148423
 20
-29.69123051721702
 30
0.0
 40
2.398890470823883
 41
0.0
 71
     7
 72
     1
  1
\fINDEX Univers 45 Light|b0|i0|c0|p34;\W1;\U+00F825
  0
MTEXT
  5
492
330
1F
100
AcDbEntity
  8
TEXT
 62
     7
100
AcDbMText
 10
-103.0085952179424
 20
-75.54272559748073
 30
0.0
 40
2.398890470823883
 41
0.0
 71
     7
 72
     1
  1
\fINDEX Univers 45 Light|b0|i0|c0|p34;\W1;HSK 25 C
  0
MTEXT
  5
493
330
1F
100
AcDbEntity
  8
TEXT
 62
     7
100
AcDbMText
 10
-103.0085952179424
 20
-71.22980771428848
 30
0.0
 40
2.398890470823883
 41
0.0
 71
     7
 72
     1
  1
\fINDEX Univers 45 Light|b0|i0|c0|p34;\W1;DIN 69893
  0
MTEXT
  5
494
330
1F
100
AcDbEntity
  8
TEXT
 62
     7
100
AcDbMText
 10
-24.24969860851653
 20
-49.3944336145515
 30
0.0
 40
2.398890470823883
 41
0.0
 71
     7
 72
     1
  1
\fINDEX Univers 45 Light|b0|i0|c0|p34;\W1;42
 11
-4.371139000186241E-8
 21
0.999999999999999
 31
0.0
  0
MTEXT
  5
495
330
1F
100
AcDbEntity
  8
TEXT
 62
     7
100
AcDbMText
 10
-60.11023793580344
 20
-42.19004518310202
 30
0.0
 40
2.398890470823883
 41
0.0
 71
     7
 72
     1
  1
\fINDEX Univers 45 Light|b0|i0|c0|p34;\W1;15
 11
-4.371139000186241E-8
 21
0.999999999999999
 31
0.0
  0
MTEXT
  5
496
330
1F
100
AcDbEntity
  8
TEXT
 62
     7
100
AcDbMText
 10
-87.60177353456191
 20
-47.73045139745601
 30
0.0
 40
2.398890470823883
 41
0.0
 71
     7
 72
     1
  1
\fINDEX Univers 45 Light|b0|i0|c0|p34;\W1;32
 11
-4.371139000186241E-8
 21
0.999999999999999
 31
0.0
  0
POLYLINE
  5
498
330
1F
100
AcDbEntity
  8
BEMA_UNG
 62
     7
100
AcDb2dPolyline
 66
     1
 10
0.0
 20
0.0
 30
0.0
  0
VERTEX
  5
499
330
498
100
AcDbEntity
  8
BEMA_UNG
 62
     7
100
AcDbVertex
100
AcDb2dVertex
 10
-76.00764153991766
 20
-36.12891244263213
 30
0.0
  0
VERTEX
  5
49A
330
498
100
AcDbEntity
  8
BEMA_UNG
 62
     7
100
AcDbVertex
100
AcDb2dVertex
 10
-76.00764153991766
 20
-29.33500740904378
 30
0.0
  0
SEQEND
  5
49B
330
498
100
AcDbEntity
  8
BEMA_UNG
  0
POLYLINE
  5
49C
330
1F
100
AcDbEntity
  8
BEMA_UNG
 62
     7
100
AcDb2dPolyline
 66
     1
 10
0.0
 20
0.0
 30
0.0
  0
VERTEX
  5
49D
330
49C
100
AcDbEntity
  8
BEMA_UNG
 62
     7
100
AcDbVertex
100
AcDb2dVertex
 10
-72.70758239756614
 20
-36.12891244263213
 30
0.0
  0
VERTEX
  5
49E
330
49C
100
AcDbEntity
  8
BEMA_UNG
 62
     7
100
AcDbVertex
100
AcDb2dVertex
 10
-72.70758239756614
 20
-29.33500740904378
 30
0.0
  0
SEQEND
  5
49F
330
49C
100
AcDbEntity
  8
BEMA_UNG
  0
POLYLINE
  5
4A0
330
1F
100
AcDbEntity
  8
BEMA_UNG
 62
     7
100
AcDb2dPolyline
 66
     1
 10
0.0
 20
0.0
 30
0.0
  0
VERTEX
  5
4A1
330
4A0
100
AcDbEntity
  8
BEMA_UNG
 62
     7
100
AcDbVertex
100
AcDb2dVertex
 10
-76.00764153991766
 20
-30.43588839760044
 30
0.0
  0
VERTEX
  5
4A2
330
4A0
100
AcDbEntity
  8
BEMA_UNG
 62
     7
100
AcDbVertex
100
AcDb2dVertex
 10
-80.82009859801433
 20
-30.43588839760044
 30
0.0
  0
SEQEND
  5
4A3
330
4A0
100
AcDbEntity
  8
BEMA_UNG
  0
POLYLINE
  5
4A4
330
1F
100
AcDbEntity
  8
BEMA_UNG
 62
     7
100
AcDb2dPolyline
 66
     1
 10
0.0
 20
0.0
 30
0.0
  0
VERTEX
  5
4A5
330
4A4
100
AcDbEntity
  8
BEMA_UNG
 62
     7
100
AcDbVertex
100
AcDb2dVertex
 10
-72.70758239756614
 20
-30.43588839760044
 30
0.0
  0
VERTEX
  5
4A6
330
4A4
100
AcDbEntity
  8
BEMA_UNG
 62
     7
100
AcDbVertex
100
AcDb2dVertex
 10
-63.48781177770908
 20
-30.43588839760044
 30
0.0
  0
SEQEND
  5
4A7
330
4A4
100
AcDbEntity
  8
BEMA_UNG
  0
POLYLINE
  5
4A8
330
1F
100
AcDbEntity
  8
BEMA_UNG
 62
     7
100
AcDb2dPolyline
 66
     1
 10
0.0
 20
0.0
 30
0.0
  0
VERTEX
  5
4A9
330
4A8
100
AcDbEntity
  8
BEMA_UNG
 62
     7
100
AcDbVertex
100
AcDb2dVertex
 10
-76.00764153991766
 20
-30.43588839760044
 30
0.0
  0
VERTEX
  5
4AA
330
4A8
100
AcDbEntity
  8
BEMA_UNG
 62
     7
100
AcDbVertex
100
AcDb2dVertex
 10
-77.38344132955964
 20
-30.25484851041955
 30
0.0
  0
VERTEX
  5
4AB
330
4A8
100
AcDbEntity
  8
BEMA_UNG
 62
     7
100
AcDbVertex
100
AcDb2dVertex
 10
-77.38344132955964
 20
-30.61692828478132
 30
0.0
  0
VERTEX
  5
4AC
330
4A8
100
AcDbEntity
  8
BEMA_UNG
 62
     7
100
AcDbVertex
100
AcDb2dVertex
 10
-76.00764153991766
 20
-30.43588839760044
 30
0.0
  0
SEQEND
  5
4AD
330
4A8
100
AcDbEntity
  8
BEMA_UNG
  0
POLYLINE
  5
4AE
330
1F
100
AcDbEntity
  8
BEMA_UNG
 62
     7
100
AcDb2dPolyline
 66
     1
 10
0.0
 20
0.0
 30
0.0
  0
VERTEX
  5
4AF
330
4AE
100
AcDbEntity
  8
BEMA_UNG
 62
     7
100
AcDbVertex
100
AcDb2dVertex
 10
-77.38344132955964
 20
-30.2684566465635
 30
0.0
  0
VERTEX
  5
4B0
330
4AE
100
AcDbEntity
  8
BEMA_UNG
 62
     7
100
AcDbVertex
100
AcDb2dVertex
 10
-77.28077741637239
 20
-30.2684566465635
 30
0.0
  0
SEQEND
  5
4B1
330
4AE
100
AcDbEntity
  8
BEMA_UNG
  0
POLYLINE
  5
4B2
330
1F
100
AcDbEntity
  8
BEMA_UNG
 62
     7
100
AcDb2dPolyline
 66
     1
 10
0.0
 20
0.0
 30
0.0
  0
VERTEX
  5
4B3
330
4B2
100
AcDbEntity
  8
BEMA_UNG
 62
     7
100
AcDbVertex
100
AcDb2dVertex
 10
-77.38344132955964
 20
-30.2684566465635
 30
0.0
  0
VERTEX
  5
4B4
330
4B2
100
AcDbEntity
  8
BEMA_UNG
 62
     7
100
AcDbVertex
100
AcDb2dVertex
 10
-77.28077741637239
 20
-30.2684566465635
 30
0.0
  0
SEQEND
  5
4B5
330
4B2
100
AcDbEntity
  8
BEMA_UNG
  0
POLYLINE
  5
4B6
330
1F
100
AcDbEntity
  8
BEMA_UNG
 62
     7
100
AcDb2dPolyline
 66
     1
 10
0.0
 20
0.0
 30
0.0
  0
VERTEX
  5
4B7
330
4B6
100
AcDbEntity
  8
BEMA_UNG
 62
     7
100
AcDbVertex
100
AcDb2dVertex
 10
-77.38344132955964
 20
-30.29636193840298
 30
0.0
  0
VERTEX
  5
4B8
330
4B6
100
AcDbEntity
  8
BEMA_UNG
 62
     7
100
AcDbVertex
100
AcDb2dVertex
 10
-77.06855939448195
 20
-30.29636193840298
 30
0.0
  0
SEQEND
  5
4B9
330
4B6
100
AcDbEntity
  8
BEMA_UNG
  0
POLYLINE
  5
4BA
330
1F
100
AcDbEntity
  8
BEMA_UNG
 62
     7
100
AcDb2dPolyline
 66
     1
 10
0.0
 20
0.0
 30
0.0
  0
VERTEX
  5
4BB
330
4BA
100
AcDbEntity
  8
BEMA_UNG
 62
     7
100
AcDbVertex
100
AcDb2dVertex
 10
-77.38344132955964
 20
-30.32426723024248
 30
0.0
  0
VERTEX
  5
4BC
330
4BA
100
AcDbEntity
  8
BEMA_UNG
 62
     7
100
AcDbVertex
100
AcDb2dVertex
 10
-76.85651362747942
 20
-30.32426723024248
 30
0.0
  0
SEQEND
  5
4BD
330
4BA
100
AcDbEntity
  8
BEMA_UNG
  0
POLYLINE
  5
4BE
330
1F
100
AcDbEntity
  8
BEMA_UNG
 62
     7
100
AcDb2dPolyline
 66
     1
 10
0.0
 20
0.0
 30
0.0
  0
VERTEX
  5
4BF
330
4BE
100
AcDbEntity
  8
BEMA_UNG
 62
     7
100
AcDbVertex
100
AcDb2dVertex
 10
-77.38344132955964
 20
-30.35234477696986
 30
0.0
  0
VERTEX
  5
4C0
330
4BE
100
AcDbEntity
  8
BEMA_UNG
 62
     7
100
AcDbVertex
100
AcDb2dVertex
 10
-76.64429560558897
 20
-30.35234477696986
 30
0.0
  0
SEQEND
  5
4C1
330
4BE
100
AcDbEntity
  8
BEMA_UNG
  0
POLYLINE
  5
4C2
330
1F
100
AcDbEntity
  8
BEMA_UNG
 62
     7
100
AcDb2dPolyline
 66
     1
 10
0.0
 20
0.0
 30
0.0
  0
VERTEX
  5
4C3
330
4C2
100
AcDbEntity
  8
BEMA_UNG
 62
     7
100
AcDbVertex
100
AcDb2dVertex
 10
-77.38344132955964
 20
-30.38007781392146
 30
0.0
  0
VERTEX
  5
4C4
330
4C2
100
AcDbEntity
  8
BEMA_UNG
 62
     7
100
AcDbVertex
100
AcDb2dVertex
 10
-76.43190532881063
 20
-30.38007781392146
 30
0.0
  0
SEQEND
  5
4C5
330
4C2
100
AcDbEntity
  8
BEMA_UNG
  0
POLYLINE
  5
4C6
330
1F
100
AcDbEntity
  8
BEMA_UNG
 62
     7
100
AcDb2dPolyline
 66
     1
 10
0.0
 20
0.0
 30
0.0
  0
VERTEX
  5
4C7
330
4C6
100
AcDbEntity
  8
BEMA_UNG
 62
     7
100
AcDbVertex
100
AcDb2dVertex
 10
-77.38344132955964
 20
-30.40798310576094
 30
0.0
  0
VERTEX
  5
4C8
330
4C6
100
AcDbEntity
  8
BEMA_UNG
 62
     7
100
AcDbVertex
100
AcDb2dVertex
 10
-76.21968730692019
 20
-30.40798310576094
 30
0.0
  0
SEQEND
  5
4C9
330
4C6
100
AcDbEntity
  8
BEMA_UNG
  0
POLYLINE
  5
4CA
330
1F
100
AcDbEntity
  8
BEMA_UNG
 62
     7
100
AcDb2dPolyline
 66
     1
 10
0.0
 20
0.0
 30
0.0
  0
VERTEX
  5
4CB
330
4CA
100
AcDbEntity
  8
BEMA_UNG
 62
     7
100
AcDbVertex
100
AcDb2dVertex
 10
-77.38344132955964
 20
-30.43588839760044
 30
0.0
  0
VERTEX
  5
4CC
330
4CA
100
AcDbEntity
  8
BEMA_UNG
 62
     7
100
AcDbVertex
100
AcDb2dVertex
 10
-76.00764153991766
 20
-30.43588839760044
 30
0.0
  0
SEQEND
  5
4CD
330
4CA
100
AcDbEntity
  8
BEMA_UNG
  0
POLYLINE
  5
4CE
330
1F
100
AcDbEntity
  8
BEMA_UNG
 62
     7
100
AcDb2dPolyline
 66
     1
 10
0.0
 20
0.0
 30
0.0
  0
VERTEX
  5
4CF
330
4CE
100
AcDbEntity
  8
BEMA_UNG
 62
     7
100
AcDbVertex
100
AcDb2dVertex
 10
-77.38344132955964
 20
-30.60349240352527
 30
0.0
  0
VERTEX
  5
4D0
330
4CE
100
AcDbEntity
  8
BEMA_UNG
 62
     7
100
AcDbVertex
100
AcDb2dVertex
 10
-77.28077741637239
 20
-30.60349240352527
 30
0.0
  0
SEQEND
  5
4D1
330
4CE
100
AcDbEntity
  8
BEMA_UNG
  0
POLYLINE
  5
4D2
330
1F
100
AcDbEntity
  8
BEMA_UNG
 62
     7
100
AcDb2dPolyline
 66
     1
 10
0.0
 20
0.0
 30
0.0
  0
VERTEX
  5
4D3
330
4D2
100
AcDbEntity
  8
BEMA_UNG
 62
     7
100
AcDbVertex
100
AcDb2dVertex
 10
-77.38344132955964
 20
-30.60349240352527
 30
0.0
  0
VERTEX
  5
4D4
330
4D2
100
AcDbEntity
  8
BEMA_UNG
 62
     7
100
AcDbVertex
100
AcDb2dVertex
 10
-77.28077741637239
 20
-30.60349240352527
 30
0.0
  0
SEQEND
  5
4D5
330
4D2
100
AcDbEntity
  8
BEMA_UNG
  0
POLYLINE
  5
4D6
330
1F
100
AcDbEntity
  8
BEMA_UNG
 62
     7
100
AcDb2dPolyline
 66
     1
 10
0.0
 20
0.0
 30
0.0
  0
VERTEX
  5
4D7
330
4D6
100
AcDbEntity
  8
BEMA_UNG
 62
     7
100
AcDbVertex
100
AcDb2dVertex
 10
-77.38344132955964
 20
-30.57558711168578
 30
0.0
  0
VERTEX
  5
4D8
330
4D6
100
AcDbEntity
  8
BEMA_UNG
 62
     7
100
AcDbVertex
100
AcDb2dVertex
 10
-77.06855939448195
 20
-30.57558711168578
 30
0.0
  0
SEQEND
  5
4D9
330
4D6
100
AcDbEntity
  8
BEMA_UNG
  0
POLYLINE
  5
4DA
330
1F
100
AcDbEntity
  8
BEMA_UNG
 62
     7
100
AcDb2dPolyline
 66
     1
 10
0.0
 20
0.0
 30
0.0
  0
VERTEX
  5
4DB
330
4DA
100
AcDbEntity
  8
BEMA_UNG
 62
     7
100
AcDbVertex
100
AcDb2dVertex
 10
-77.38344132955964
 20
-30.54768181984629
 30
0.0
  0
VERTEX
  5
4DC
330
4DA
100
AcDbEntity
  8
BEMA_UNG
 62
     7
100
AcDbVertex
100
AcDb2dVertex
 10
-76.85651362747942
 20
-30.54768181984629
 30
0.0
  0
SEQEND
  5
4DD
330
4DA
100
AcDbEntity
  8
BEMA_UNG
  0
POLYLINE
  5
4DE
330
1F
100
AcDbEntity
  8
BEMA_UNG
 62
     7
100
AcDb2dPolyline
 66
     1
 10
0.0
 20
0.0
 30
0.0
  0
VERTEX
  5
4DF
330
4DE
100
AcDbEntity
  8
BEMA_UNG
 62
     7
100
AcDbVertex
100
AcDb2dVertex
 10
-77.38344132955964
 20
-30.5197765280068
 30
0.0
  0
VERTEX
  5
4E0
330
4DE
100
AcDbEntity
  8
BEMA_UNG
 62
     7
100
AcDbVertex
100
AcDb2dVertex
 10
-76.64429560558897
 20
-30.5197765280068
 30
0.0
  0
SEQEND
  5
4E1
330
4DE
100
AcDbEntity
  8
BEMA_UNG
  0
POLYLINE
  5
4E2
330
1F
100
AcDbEntity
  8
BEMA_UNG
 62
     7
100
AcDb2dPolyline
 66
     1
 10
0.0
 20
0.0
 30
0.0
  0
VERTEX
  5
4E3
330
4E2
100
AcDbEntity
  8
BEMA_UNG
 62
     7
100
AcDbVertex
100
AcDb2dVertex
 10
-77.38344132955964
 20
-30.49169898127941
 30
0.0
  0
VERTEX
  5
4E4
330
4E2
100
AcDbEntity
  8
BEMA_UNG
 62
     7
100
AcDbVertex
100
AcDb2dVertex
 10
-76.43190532881063
 20
-30.49169898127941
 30
0.0
  0
SEQEND
  5
4E5
330
4E2
100
AcDbEntity
  8
BEMA_UNG
  0
POLYLINE
  5
4E6
330
1F
100
AcDbEntity
  8
BEMA_UNG
 62
     7
100
AcDb2dPolyline
 66
     1
 10
0.0
 20
0.0
 30
0.0
  0
VERTEX
  5
4E7
330
4E6
100
AcDbEntity
  8
BEMA_UNG
 62
     7
100
AcDbVertex
100
AcDb2dVertex
 10
-77.38344132955964
 20
-30.46379368943992
 30
0.0
  0
VERTEX
  5
4E8
330
4E6
100
AcDbEntity
  8
BEMA_UNG
 62
     7
100
AcDbVertex
100
AcDb2dVertex
 10
-76.21968730692019
 20
-30.46379368943992
 30
0.0
  0
SEQEND
  5
4E9
330
4E6
100
AcDbEntity
  8
BEMA_UNG
  0
POLYLINE
  5
4EA
330
1F
100
AcDbEntity
  8
BEMA_UNG
 62
     7
100
AcDb2dPolyline
 66
     1
 10
0.0
 20
0.0
 30
0.0
  0
VERTEX
  5
4EB
330
4EA
100
AcDbEntity
  8
BEMA_UNG
 62
     7
100
AcDbVertex
100
AcDb2dVertex
 10
-77.38344132955964
 20
-30.43588839760044
 30
0.0
  0
VERTEX
  5
4EC
330
4EA
100
AcDbEntity
  8
BEMA_UNG
 62
     7
100
AcDbVertex
100
AcDb2dVertex
 10
-76.00764153991766
 20
-30.43588839760044
 30
0.0
  0
SEQEND
  5
4ED
330
4EA
100
AcDbEntity
  8
BEMA_UNG
  0
POLYLINE
  5
4EE
330
1F
100
AcDbEntity
  8
BEMA_UNG
 62
     7
100
AcDb2dPolyline
 66
     1
 10
0.0
 20
0.0
 30
0.0
  0
VERTEX
  5
4EF
330
4EE
100
AcDbEntity
  8
BEMA_UNG
 62
     7
100
AcDbVertex
100
AcDb2dVertex
 10
-72.70758239756614
 20
-30.43588839760044
 30
0.0
  0
VERTEX
  5
4F0
330
4EE
100
AcDbEntity
  8
BEMA_UNG
 62
     7
100
AcDbVertex
100
AcDb2dVertex
 10
-71.33161035303625
 20
-30.61692828478132
 30
0.0
  0
VERTEX
  5
4F1
330
4EE
100
AcDbEntity
  8
BEMA_UNG
 62
     7
100
AcDbVertex
100
AcDb2dVertex
 10
-71.33161035303625
 20
-30.25484851041955
 30
0.0
  0
VERTEX
  5
4F2
330
4EE
100
AcDbEntity
  8
BEMA_UNG
 62
     7
100
AcDbVertex
100
AcDb2dVertex
 10
-72.70758239756614
 20
-30.43588839760044
 30
0.0
  0
SEQEND
  5
4F3
330
4EE
100
AcDbEntity
  8
BEMA_UNG
  0
POLYLINE
  5
4F4
330
1F
100
AcDbEntity
  8
BEMA_UNG
 62
     7
100
AcDb2dPolyline
 66
     1
 10
0.0
 20
0.0
 30
0.0
  0
VERTEX
  5
4F5
330
4F4
100
AcDbEntity
  8
BEMA_UNG
 62
     7
100
AcDbVertex
100
AcDb2dVertex
 10
-71.33161035303625
 20
-30.60349240352527
 30
0.0
  0
VERTEX
  5
4F6
330
4F4
100
AcDbEntity
  8
BEMA_UNG
 62
     7
100
AcDbVertex
100
AcDb2dVertex
 10
-71.43427426622351
 20
-30.60349240352527
 30
0.0
  0
SEQEND
  5
4F7
330
4F4
100
AcDbEntity
  8
BEMA_UNG
  0
POLYLINE
  5
4F8
330
1F
100
AcDbEntity
  8
BEMA_UNG
 62
     7
100
AcDb2dPolyline
 66
     1
 10
0.0
 20
0.0
 30
0.0
  0
VERTEX
  5
4F9
330
4F8
100
AcDbEntity
  8
BEMA_UNG
 62
     7
100
AcDbVertex
100
AcDb2dVertex
 10
-71.33161035303625
 20
-30.60349240352527
 30
0.0
  0
VERTEX
  5
4FA
330
4F8
100
AcDbEntity
  8
BEMA_UNG
 62
     7
100
AcDbVertex
100
AcDb2dVertex
 10
-71.43427426622351
 20
-30.60349240352527
 30
0.0
  0
SEQEND
  5
4FB
330
4F8
100
AcDbEntity
  8
BEMA_UNG
  0
POLYLINE
  5
4FC
330
1F
100
AcDbEntity
  8
BEMA_UNG
 62
     7
100
AcDb2dPolyline
 66
     1
 10
0.0
 20
0.0
 30
0.0
  0
VERTEX
  5
4FD
330
4FC
100
AcDbEntity
  8
BEMA_UNG
 62
     7
100
AcDbVertex
100
AcDb2dVertex
 10
-71.33161035303625
 20
-30.57558711168578
 30
0.0
  0
VERTEX
  5
4FE
330
4FC
100
AcDbEntity
  8
BEMA_UNG
 62
     7
100
AcDbVertex
100
AcDb2dVertex
 10
-71.64666454300185
 20
-30.57558711168578
 30
0.0
  0
SEQEND
  5
4FF
330
4FC
100
AcDbEntity
  8
BEMA_UNG
  0
POLYLINE
  5
500
330
1F
100
AcDbEntity
  8
BEMA_UNG
 62
     7
100
AcDb2dPolyline
 66
     1
 10
0.0
 20
0.0
 30
0.0
  0
VERTEX
  5
501
330
500
100
AcDbEntity
  8
BEMA_UNG
 62
     7
100
AcDbVertex
100
AcDb2dVertex
 10
-71.33161035303625
 20
-30.54768181984629
 30
0.0
  0
VERTEX
  5
502
330
500
100
AcDbEntity
  8
BEMA_UNG
 62
     7
100
AcDbVertex
100
AcDb2dVertex
 10
-71.8585380551165
 20
-30.54768181984629
 30
0.0
  0
SEQEND
  5
503
330
500
100
AcDbEntity
  8
BEMA_UNG
  0
POLYLINE
  5
504
330
1F
100
AcDbEntity
  8
BEMA_UNG
 62
     7
100
AcDb2dPolyline
 66
     1
 10
0.0
 20
0.0
 30
0.0
  0
VERTEX
  5
505
330
504
100
AcDbEntity
  8
BEMA_UNG
 62
     7
100
AcDbVertex
100
AcDb2dVertex
 10
-71.33161035303625
 20
-30.5197765280068
 30
0.0
  0
VERTEX
  5
506
330
504
100
AcDbEntity
  8
BEMA_UNG
 62
     7
100
AcDbVertex
100
AcDb2dVertex
 10
-72.07092833189483
 20
-30.5197765280068
 30
0.0
  0
SEQEND
  5
507
330
504
100
AcDbEntity
  8
BEMA_UNG
  0
POLYLINE
  5
508
330
1F
100
AcDbEntity
  8
BEMA_UNG
 62
     7
100
AcDb2dPolyline
 66
     1
 10
0.0
 20
0.0
 30
0.0
  0
VERTEX
  5
509
330
508
100
AcDbEntity
  8
BEMA_UNG
 62
     7
100
AcDbVertex
100
AcDb2dVertex
 10
-71.33161035303625
 20
-30.49169898127941
 30
0.0
  0
VERTEX
  5
50A
330
508
100
AcDbEntity
  8
BEMA_UNG
 62
     7
100
AcDbVertex
100
AcDb2dVertex
 10
-72.28314635378527
 20
-30.49169898127941
 30
0.0
  0
SEQEND
  5
50B
330
508
100
AcDbEntity
  8
BEMA_UNG
  0
POLYLINE
  5
50C
330
1F
100
AcDbEntity
  8
BEMA_UNG
 62
     7
100
AcDb2dPolyline
 66
     1
 10
0.0
 20
0.0
 30
0.0
  0
VERTEX
  5
50D
330
50C
100
AcDbEntity
  8
BEMA_UNG
 62
     7
100
AcDbVertex
100
AcDb2dVertex
 10
-71.33161035303625
 20
-30.46379368943992
 30
0.0
  0
VERTEX
  5
50E
330
50C
100
AcDbEntity
  8
BEMA_UNG
 62
     7
100
AcDbVertex
100
AcDb2dVertex
 10
-72.4955366305636
 20
-30.46379368943992
 30
0.0
  0
SEQEND
  5
50F
330
50C
100
AcDbEntity
  8
BEMA_UNG
  0
POLYLINE
  5
510
330
1F
100
AcDbEntity
  8
BEMA_UNG
 62
     7
100
AcDb2dPolyline
 66
     1
 10
0.0
 20
0.0
 30
0.0
  0
VERTEX
  5
511
330
510
100
AcDbEntity
  8
BEMA_UNG
 62
     7
100
AcDbVertex
100
AcDb2dVertex
 10
-71.33161035303625
 20
-30.43588839760044
 30
0.0
  0
VERTEX
  5
512
330
510
100
AcDbEntity
  8
BEMA_UNG
 62
     7
100
AcDbVertex
100
AcDb2dVertex
 10
-72.70758239756614
 20
-30.43588839760044
 30
0.0
  0
SEQEND
  5
513
330
510
100
AcDbEntity
  8
BEMA_UNG
  0
POLYLINE
  5
514
330
1F
100
AcDbEntity
  8
BEMA_UNG
 62
     7
100
AcDb2dPolyline
 66
     1
 10
0.0
 20
0.0
 30
0.0
  0
VERTEX
  5
515
330
514
100
AcDbEntity
  8
BEMA_UNG
 62
     7
100
AcDbVertex
100
AcDb2dVertex
 10
-71.33161035303625
 20
-30.2684566465635
 30
0.0
  0
VERTEX
  5
516
330
514
100
AcDbEntity
  8
BEMA_UNG
 62
     7
100
AcDbVertex
100
AcDb2dVertex
 10
-71.43427426622351
 20
-30.2684566465635
 30
0.0
  0
SEQEND
  5
517
330
514
100
AcDbEntity
  8
BEMA_UNG
  0
POLYLINE
  5
518
330
1F
100
AcDbEntity
  8
BEMA_UNG
 62
     7
100
AcDb2dPolyline
 66
     1
 10
0.0
 20
0.0
 30
0.0
  0
VERTEX
  5
519
330
518
100
AcDbEntity
  8
BEMA_UNG
 62
     7
100
AcDbVertex
100
AcDb2dVertex
 10
-71.33161035303625
 20
-30.2684566465635
 30
0.0
  0
VERTEX
  5
51A
330
518
100
AcDbEntity
  8
BEMA_UNG
 62
     7
100
AcDbVertex
100
AcDb2dVertex
 10
-71.43427426622351
 20
-30.2684566465635
 30
0.0
  0
SEQEND
  5
51B
330
518
100
AcDbEntity
  8
BEMA_UNG
  0
POLYLINE
  5
51C
330
1F
100
AcDbEntity
  8
BEMA_UNG
 62
     7
100
AcDb2dPolyline
 66
     1
 10
0.0
 20
0.0
 30
0.0
  0
VERTEX
  5
51D
330
51C
100
AcDbEntity
  8
BEMA_UNG
 62
     7
100
AcDbVertex
100
AcDb2dVertex
 10
-71.33161035303625
 20
-30.29636193840298
 30
0.0
  0
VERTEX
  5
51E
330
51C
100
AcDbEntity
  8
BEMA_UNG
 62
     7
100
AcDbVertex
100
AcDb2dVertex
 10
-71.64666454300185
 20
-30.29636193840298
 30
0.0
  0
SEQEND
  5
51F
330
51C
100
AcDbEntity
  8
BEMA_UNG
  0
POLYLINE
  5
520
330
1F
100
AcDbEntity
  8
BEMA_UNG
 62
     7
100
AcDb2dPolyline
 66
     1
 10
0.0
 20
0.0
 30
0.0
  0
VERTEX
  5
521
330
520
100
AcDbEntity
  8
BEMA_UNG
 62
     7
100
AcDbVertex
100
AcDb2dVertex
 10
-71.33161035303625
 20
-30.32426723024248
 30
0.0
  0
VERTEX
  5
522
330
520
100
AcDbEntity
  8
BEMA_UNG
 62
     7
100
AcDbVertex
100
AcDb2dVertex
 10
-71.8585380551165
 20
-30.32426723024248
 30
0.0
  0
SEQEND
  5
523
330
520
100
AcDbEntity
  8
BEMA_UNG
  0
POLYLINE
  5
524
330
1F
100
AcDbEntity
  8
BEMA_UNG
 62
     7
100
AcDb2dPolyline
 66
     1
 10
0.0
 20
0.0
 30
0.0
  0
VERTEX
  5
525
330
524
100
AcDbEntity
  8
BEMA_UNG
 62
     7
100
AcDbVertex
100
AcDb2dVertex
 10
-71.33161035303625
 20
-30.35234477696986
 30
0.0
  0
VERTEX
  5
526
330
524
100
AcDbEntity
  8
BEMA_UNG
 62
     7
100
AcDbVertex
100
AcDb2dVertex
 10
-72.07092833189483
 20
-30.35234477696986
 30
0.0
  0
SEQEND
  5
527
330
524
100
AcDbEntity
  8
BEMA_UNG
  0
POLYLINE
  5
528
330
1F
100
AcDbEntity
  8
BEMA_UNG
 62
     7
100
AcDb2dPolyline
 66
     1
 10
0.0
 20
0.0
 30
0.0
  0
VERTEX
  5
529
330
528
100
AcDbEntity
  8
BEMA_UNG
 62
     7
100
AcDbVertex
100
AcDb2dVertex
 10
-71.33161035303625
 20
-30.38007781392146
 30
0.0
  0
VERTEX
  5
52A
330
528
100
AcDbEntity
  8
BEMA_UNG
 62
     7
100
AcDbVertex
100
AcDb2dVertex
 10
-72.28314635378527
 20
-30.38007781392146
 30
0.0
  0
SEQEND
  5
52B
330
528
100
AcDbEntity
  8
BEMA_UNG
  0
POLYLINE
  5
52C
330
1F
100
AcDbEntity
  8
BEMA_UNG
 62
     7
100
AcDb2dPolyline
 66
     1
 10
0.0
 20
0.0
 30
0.0
  0
VERTEX
  5
52D
330
52C
100
AcDbEntity
  8
BEMA_UNG
 62
     7
100
AcDbVertex
100
AcDb2dVertex
 10
-71.33161035303625
 20
-30.40798310576094
 30
0.0
  0
VERTEX
  5
52E
330
52C
100
AcDbEntity
  8
BEMA_UNG
 62
     7
100
AcDbVertex
100
AcDb2dVertex
 10
-72.4955366305636
 20
-30.40798310576094
 30
0.0
  0
SEQEND
  5
52F
330
52C
100
AcDbEntity
  8
BEMA_UNG
  0
POLYLINE
  5
530
330
1F
100
AcDbEntity
  8
BEMA_UNG
 62
     7
100
AcDb2dPolyline
 66
     1
 10
0.0
 20
0.0
 30
0.0
  0
VERTEX
  5
531
330
530
100
AcDbEntity
  8
BEMA_UNG
 62
     7
100
AcDbVertex
100
AcDb2dVertex
 10
-71.33161035303625
 20
-30.43588839760044
 30
0.0
  0
VERTEX
  5
532
330
530
100
AcDbEntity
  8
BEMA_UNG
 62
     7
100
AcDbVertex
100
AcDb2dVertex
 10
-72.70758239756614
 20
-30.43588839760044
 30
0.0
  0
SEQEND
  5
533
330
530
100
AcDbEntity
  8
BEMA_UNG
  0
POLYLINE
  5
534
330
1F
100
AcDbEntity
  8
BEMA_UNG
 62
     7
100
AcDb2dPolyline
 66
     1
 10
0.0
 20
0.0
 30
0.0
  0
VERTEX
  5
535
330
534
100
AcDbEntity
  8
BEMA_UNG
 62
     7
100
AcDbVertex
100
AcDb2dVertex
 10
-33.86703350964238
 20
-66.37928232596633
 30
0.0
  0
VERTEX
  5
536
330
534
100
AcDbEntity
  8
BEMA_UNG
 62
     7
100
AcDbVertex
100
AcDb2dVertex
 10
-16.99053312271545
 20
-66.37928232596633
 30
0.0
  0
SEQEND
  5
537
330
534
100
AcDbEntity
  8
BEMA_UNG
  0
POLYLINE
  5
538
330
1F
100
AcDbEntity
  8
BEMA_UNG
 62
     7
100
AcDb2dPolyline
 66
     1
 10
0.0
 20
0.0
 30
0.0
  0
VERTEX
  5
539
330
538
100
AcDbEntity
  8
BEMA_UNG
 62
     7
100
AcDbVertex
100
AcDb2dVertex
 10
-32.21648717380293
 20
-36.12891244263213
 30
0.0
  0
VERTEX
  5
53A
330
538
100
AcDbEntity
  8
BEMA_UNG
 62
     7
100
AcDbVertex
100
AcDb2dVertex
 10
-16.99053312271545
 20
-36.12891244263213
 30
0.0
  0
SEQEND
  5
53B
330
538
100
AcDbEntity
  8
BEMA_UNG
  0
POLYLINE
  5
53C
330
1F
100
AcDbEntity
  8
BEMA_UNG
 62
     7
100
AcDb2dPolyline
 66
     1
 10
0.0
 20
0.0
 30
0.0
  0
VERTEX
  5
53D
330
53C
100
AcDbEntity
  8
BEMA_UNG
 62
     7
100
AcDbVertex
100
AcDb2dVertex
 10
-18.09055283683262
 20
-66.37928232596633
 30
0.0
  0
VERTEX
  5
53E
330
53C
100
AcDbEntity
  8
BEMA_UNG
 62
     7
100
AcDbVertex
100
AcDb2dVertex
 10
-18.09055283683262
 20
-36.12891244263213
 30
0.0
  0
SEQEND
  5
53F
330
53C
100
AcDbEntity
  8
BEMA_UNG
  0
POLYLINE
  5
540
330
1F
100
AcDbEntity
  8
BEMA_UNG
 62
     7
100
AcDb2dPolyline
 66
     1
 10
0.0
 20
0.0
 30
0.0
  0
VERTEX
  5
541
330
540
100
AcDbEntity
  8
BEMA_UNG
 62
     7
100
AcDbVertex
100
AcDb2dVertex
 10
-18.09055283683262
 20
-66.37928232596633
 30
0.0
  0
VERTEX
  5
542
330
540
100
AcDbEntity
  8
BEMA_UNG
 62
     7
100
AcDbVertex
100
AcDb2dVertex
 10
-17.90968520453963
 20
-65.00417155587591
 30
0.0
  0
VERTEX
  5
543
330
540
100
AcDbEntity
  8
BEMA_UNG
 62
     7
100
AcDbVertex
100
AcDb2dVertex
 10
-18.27176497890141
 20
-65.00417155587591
 30
0.0
  0
VERTEX
  5
544
330
540
100
AcDbEntity
  8
BEMA_UNG
 62
     7
100
AcDbVertex
100
AcDb2dVertex
 10
-18.09055283683262
 20
-66.37928232596633
 30
0.0
  0
SEQEND
  5
545
330
540
100
AcDbEntity
  8
BEMA_UNG
  0
POLYLINE
  5
546
330
1F
100
AcDbEntity
  8
BEMA_UNG
 62
     7
100
AcDb2dPolyline
 66
     1
 10
0.0
 20
0.0
 30
0.0
  0
VERTEX
  5
547
330
546
100
AcDbEntity
  8
BEMA_UNG
 62
     7
100
AcDbVertex
100
AcDb2dVertex
 10
-17.92312108579569
 20
-65.00417155587591
 30
0.0
  0
VERTEX
  5
548
330
546
100
AcDbEntity
  8
BEMA_UNG
 62
     7
100
AcDbVertex
100
AcDb2dVertex
 10
-17.92312108579569
 20
-65.10580193973578
 30
0.0
  0
SEQEND
  5
549
330
546
100
AcDbEntity
  8
BEMA_UNG
  0
POLYLINE
  5
54A
330
1F
100
AcDbEntity
  8
BEMA_UNG
 62
     7
100
AcDb2dPolyline
 66
     1
 10
0.0
 20
0.0
 30
0.0
  0
VERTEX
  5
54B
330
54A
100
AcDbEntity
  8
BEMA_UNG
 62
     7
100
AcDbVertex
100
AcDb2dVertex
 10
-17.92312108579569
 20
-65.00417155587591
 30
0.0
  0
VERTEX
  5
54C
330
54A
100
AcDbEntity
  8
BEMA_UNG
 62
     7
100
AcDbVertex
100
AcDb2dVertex
 10
-17.92312108579569
 20
-65.10580193973578
 30
0.0
  0
SEQEND
  5
54D
330
54A
100
AcDbEntity
  8
BEMA_UNG
  0
POLYLINE
  5
54E
330
1F
100
AcDbEntity
  8
BEMA_UNG
 62
     7
100
AcDb2dPolyline
 66
     1
 10
0.0
 20
0.0
 30
0.0
  0
VERTEX
  5
54F
330
54E
100
AcDbEntity
  8
BEMA_UNG
 62
     7
100
AcDbVertex
100
AcDb2dVertex
 10
-17.95102637763517
 20
-65.00417155587591
 30
0.0
  0
VERTEX
  5
550
330
54E
100
AcDbEntity
  8
BEMA_UNG
 62
     7
100
AcDbVertex
100
AcDb2dVertex
 10
-17.95102637763517
 20
-65.31801996162622
 30
0.0
  0
SEQEND
  5
551
330
54E
100
AcDbEntity
  8
BEMA_UNG
  0
POLYLINE
  5
552
330
1F
100
AcDbEntity
  8
BEMA_UNG
 62
     7
100
AcDb2dPolyline
 66
     1
 10
0.0
 20
0.0
 30
0.0
  0
VERTEX
  5
553
330
552
100
AcDbEntity
  8
BEMA_UNG
 62
     7
100
AcDbVertex
100
AcDb2dVertex
 10
-17.97893166947467
 20
-65.00417155587591
 30
0.0
  0
VERTEX
  5
554
330
552
100
AcDbEntity
  8
BEMA_UNG
 62
     7
100
AcDbVertex
100
AcDb2dVertex
 10
-17.97893166947467
 20
-65.53023798351667
 30
0.0
  0
SEQEND
  5
555
330
552
100
AcDbEntity
  8
BEMA_UNG
  0
POLYLINE
  5
556
330
1F
100
AcDbEntity
  8
BEMA_UNG
 62
     7
100
AcDb2dPolyline
 66
     1
 10
0.0
 20
0.0
 30
0.0
  0
VERTEX
  5
557
330
556
100
AcDbEntity
  8
BEMA_UNG
 62
     7
100
AcDbVertex
100
AcDb2dVertex
 10
-18.00683696131415
 20
-65.00417155587591
 30
0.0
  0
VERTEX
  5
558
330
556
100
AcDbEntity
  8
BEMA_UNG
 62
     7
100
AcDbVertex
100
AcDb2dVertex
 10
-18.00683696131415
 20
-65.7421114956313
 30
0.0
  0
SEQEND
  5
559
330
556
100
AcDbEntity
  8
BEMA_UNG
  0
POLYLINE
  5
55A
330
1F
100
AcDbEntity
  8
BEMA_UNG
 62
     7
100
AcDb2dPolyline
 66
     1
 10
0.0
 20
0.0
 30
0.0
  0
VERTEX
  5
55B
330
55A
100
AcDbEntity
  8
BEMA_UNG
 62
     7
100
AcDbVertex
100
AcDb2dVertex
 10
-18.03474225315364
 20
-65.00417155587591
 30
0.0
  0
VERTEX
  5
55C
330
55A
100
AcDbEntity
  8
BEMA_UNG
 62
     7
100
AcDbVertex
100
AcDb2dVertex
 10
-18.03474225315364
 20
-65.95484628218544
 30
0.0
  0
SEQEND
  5
55D
330
55A
100
AcDbEntity
  8
BEMA_UNG
  0
POLYLINE
  5
55E
330
1F
100
AcDbEntity
  8
BEMA_UNG
 62
     7
100
AcDb2dPolyline
 66
     1
 10
0.0
 20
0.0
 30
0.0
  0
VERTEX
  5
55F
330
55E
100
AcDbEntity
  8
BEMA_UNG
 62
     7
100
AcDbVertex
100
AcDb2dVertex
 10
-18.06264754499313
 20
-65.00417155587591
 30
0.0
  0
VERTEX
  5
560
330
55E
100
AcDbEntity
  8
BEMA_UNG
 62
     7
100
AcDbVertex
100
AcDb2dVertex
 10
-18.06264754499313
 20
-66.16671979430009
 30
0.0
  0
SEQEND
  5
561
330
55E
100
AcDbEntity
  8
BEMA_UNG
  0
POLYLINE
  5
562
330
1F
100
AcDbEntity
  8
BEMA_UNG
 62
     7
100
AcDb2dPolyline
 66
     1
 10
0.0
 20
0.0
 30
0.0
  0
VERTEX
  5
563
330
562
100
AcDbEntity
  8
BEMA_UNG
 62
     7
100
AcDbVertex
100
AcDb2dVertex
 10
-18.09055283683262
 20
-65.00417155587591
 30
0.0
  0
VERTEX
  5
564
330
562
100
AcDbEntity
  8
BEMA_UNG
 62
     7
100
AcDbVertex
100
AcDb2dVertex
 10
-18.09055283683262
 20
-66.37928232596633
 30
0.0
  0
SEQEND
  5
565
330
562
100
AcDbEntity
  8
BEMA_UNG
  0
POLYLINE
  5
566
330
1F
100
AcDbEntity
  8
BEMA_UNG
 62
     7
100
AcDb2dPolyline
 66
     1
 10
0.0
 20
0.0
 30
0.0
  0
VERTEX
  5
567
330
566
100
AcDbEntity
  8
BEMA_UNG
 62
     7
100
AcDbVertex
100
AcDb2dVertex
 10
-18.25832909764536
 20
-65.00417155587591
 30
0.0
  0
VERTEX
  5
568
330
566
100
AcDbEntity
  8
BEMA_UNG
 62
     7
100
AcDbVertex
100
AcDb2dVertex
 10
-18.25832909764536
 20
-65.10580193973578
 30
0.0
  0
SEQEND
  5
569
330
566
100
AcDbEntity
  8
BEMA_UNG
  0
POLYLINE
  5
56A
330
1F
100
AcDbEntity
  8
BEMA_UNG
 62
     7
100
AcDb2dPolyline
 66
     1
 10
0.0
 20
0.0
 30
0.0
  0
VERTEX
  5
56B
330
56A
100
AcDbEntity
  8
BEMA_UNG
 62
     7
100
AcDbVertex
100
AcDb2dVertex
 10
-18.25832909764536
 20
-65.00417155587591
 30
0.0
  0
VERTEX
  5
56C
330
56A
100
AcDbEntity
  8
BEMA_UNG
 62
     7
100
AcDbVertex
100
AcDb2dVertex
 10
-18.25832909764536
 20
-65.10580193973578
 30
0.0
  0
SEQEND
  5
56D
330
56A
100
AcDbEntity
  8
BEMA_UNG
  0
POLYLINE
  5
56E
330
1F
100
AcDbEntity
  8
BEMA_UNG
 62
     7
100
AcDb2dPolyline
 66
     1
 10
0.0
 20
0.0
 30
0.0
  0
VERTEX
  5
56F
330
56E
100
AcDbEntity
  8
BEMA_UNG
 62
     7
100
AcDbVertex
100
AcDb2dVertex
 10
-18.23042380580587
 20
-65.00417155587591
 30
0.0
  0
VERTEX
  5
570
330
56E
100
AcDbEntity
  8
BEMA_UNG
 62
     7
100
AcDbVertex
100
AcDb2dVertex
 10
-18.23042380580587
 20
-65.31801996162622
 30
0.0
  0
SEQEND
  5
571
330
56E
100
AcDbEntity
  8
BEMA_UNG
  0
POLYLINE
  5
572
330
1F
100
AcDbEntity
  8
BEMA_UNG
 62
     7
100
AcDb2dPolyline
 66
     1
 10
0.0
 20
0.0
 30
0.0
  0
VERTEX
  5
573
330
572
100
AcDbEntity
  8
BEMA_UNG
 62
     7
100
AcDbVertex
100
AcDb2dVertex
 10
-18.20251851396638
 20
-65.00417155587591
 30
0.0
  0
VERTEX
  5
574
330
572
100
AcDbEntity
  8
BEMA_UNG
 62
     7
100
AcDbVertex
100
AcDb2dVertex
 10
-18.20251851396638
 20
-65.53023798351667
 30
0.0
  0
SEQEND
  5
575
330
572
100
AcDbEntity
  8
BEMA_UNG
  0
POLYLINE
  5
576
330
1F
100
AcDbEntity
  8
BEMA_UNG
 62
     7
100
AcDb2dPolyline
 66
     1
 10
0.0
 20
0.0
 30
0.0
  0
VERTEX
  5
577
330
576
100
AcDbEntity
  8
BEMA_UNG
 62
     7
100
AcDbVertex
100
AcDb2dVertex
 10
-18.17426871235109
 20
-65.00417155587591
 30
0.0
  0
VERTEX
  5
578
330
576
100
AcDbEntity
  8
BEMA_UNG
 62
     7
100
AcDbVertex
100
AcDb2dVertex
 10
-18.17426871235109
 20
-65.7421114956313
 30
0.0
  0
SEQEND
  5
579
330
576
100
AcDbEntity
  8
BEMA_UNG
  0
POLYLINE
  5
57A
330
1F
100
AcDbEntity
  8
BEMA_UNG
 62
     7
100
AcDb2dPolyline
 66
     1
 10
0.0
 20
0.0
 30
0.0
  0
VERTEX
  5
57B
330
57A
100
AcDbEntity
  8
BEMA_UNG
 62
     7
100
AcDbVertex
100
AcDb2dVertex
 10
-18.1463634205116
 20
-65.00417155587591
 30
0.0
  0
VERTEX
  5
57C
330
57A
100
AcDbEntity
  8
BEMA_UNG
 62
     7
100
AcDbVertex
100
AcDb2dVertex
 10
-18.1463634205116
 20
-65.95484628218544
 30
0.0
  0
SEQEND
  5
57D
330
57A
100
AcDbEntity
  8
BEMA_UNG
  0
POLYLINE
  5
57E
330
1F
100
AcDbEntity
  8
BEMA_UNG
 62
     7
100
AcDb2dPolyline
 66
     1
 10
0.0
 20
0.0
 30
0.0
  0
VERTEX
  5
57F
330
57E
100
AcDbEntity
  8
BEMA_UNG
 62
     7
100
AcDbVertex
100
AcDb2dVertex
 10
-18.11845812867211
 20
-65.00417155587591
 30
0.0
  0
VERTEX
  5
580
330
57E
100
AcDbEntity
  8
BEMA_UNG
 62
     7
100
AcDbVertex
100
AcDb2dVertex
 10
-18.11845812867211
 20
-66.16671979430009
 30
0.0
  0
SEQEND
  5
581
330
57E
100
AcDbEntity
  8
BEMA_UNG
  0
POLYLINE
  5
582
330
1F
100
AcDbEntity
  8
BEMA_UNG
 62
     7
100
AcDb2dPolyline
 66
     1
 10
0.0
 20
0.0
 30
0.0
  0
VERTEX
  5
583
330
582
100
AcDbEntity
  8
BEMA_UNG
 62
     7
100
AcDbVertex
100
AcDb2dVertex
 10
-18.09055283683262
 20
-65.00417155587591
 30
0.0
  0
VERTEX
  5
584
330
582
100
AcDbEntity
  8
BEMA_UNG
 62
     7
100
AcDbVertex
100
AcDb2dVertex
 10
-18.09055283683262
 20
-66.37928232596633
 30
0.0
  0
SEQEND
  5
585
330
582
100
AcDbEntity
  8
BEMA_UNG
  0
POLYLINE
  5
586
330
1F
100
AcDbEntity
  8
BEMA_UNG
 62
     7
100
AcDb2dPolyline
 66
     1
 10
0.0
 20
0.0
 30
0.0
  0
VERTEX
  5
587
330
586
100
AcDbEntity
  8
BEMA_UNG
 62
     7
100
AcDbVertex
100
AcDb2dVertex
 10
-18.09055283683262
 20
-36.12891244263213
 30
0.0
  0
VERTEX
  5
588
330
586
100
AcDbEntity
  8
BEMA_UNG
 62
     7
100
AcDbVertex
100
AcDb2dVertex
 10
-18.27176497890141
 20
-37.50385095783464
 30
0.0
  0
VERTEX
  5
589
330
586
100
AcDbEntity
  8
BEMA_UNG
 62
     7
100
AcDbVertex
100
AcDb2dVertex
 10
-17.90968520453963
 20
-37.50385095783464
 30
0.0
  0
VERTEX
  5
58A
330
586
100
AcDbEntity
  8
BEMA_UNG
 62
     7
100
AcDbVertex
100
AcDb2dVertex
 10
-18.09055283683262
 20
-36.12891244263213
 30
0.0
  0
SEQEND
  5
58B
330
586
100
AcDbEntity
  8
BEMA_UNG
  0
POLYLINE
  5
58C
330
1F
100
AcDbEntity
  8
BEMA_UNG
 62
     7
100
AcDb2dPolyline
 66
     1
 10
0.0
 20
0.0
 30
0.0
  0
VERTEX
  5
58D
330
58C
100
AcDbEntity
  8
BEMA_UNG
 62
     7
100
AcDbVertex
100
AcDb2dVertex
 10
-18.25832909764536
 20
-37.50385095783464
 30
0.0
  0
VERTEX
  5
58E
330
58C
100
AcDbEntity
  8
BEMA_UNG
 62
     7
100
AcDbVertex
100
AcDb2dVertex
 10
-18.25832909764536
 20
-37.40222057397477
 30
0.0
  0
SEQEND
  5
58F
330
58C
100
AcDbEntity
  8
BEMA_UNG
  0
POLYLINE
  5
590
330
1F
100
AcDbEntity
  8
BEMA_UNG
 62
     7
100
AcDb2dPolyline
 66
     1
 10
0.0
 20
0.0
 30
0.0
  0
VERTEX
  5
591
330
590
100
AcDbEntity
  8
BEMA_UNG
 62
     7
100
AcDbVertex
100
AcDb2dVertex
 10
-18.25832909764536
 20
-37.50385095783464
 30
0.0
  0
VERTEX
  5
592
330
590
100
AcDbEntity
  8
BEMA_UNG
 62
     7
100
AcDbVertex
100
AcDb2dVertex
 10
-18.25832909764536
 20
-37.40222057397477
 30
0.0
  0
SEQEND
  5
593
330
590
100
AcDbEntity
  8
BEMA_UNG
  0
POLYLINE
  5
594
330
1F
100
AcDbEntity
  8
BEMA_UNG
 62
     7
100
AcDb2dPolyline
 66
     1
 10
0.0
 20
0.0
 30
0.0
  0
VERTEX
  5
595
330
594
100
AcDbEntity
  8
BEMA_UNG
 62
     7
100
AcDbVertex
100
AcDb2dVertex
 10
-18.23042380580587
 20
-37.50385095783464
 30
0.0
  0
VERTEX
  5
596
330
594
100
AcDbEntity
  8
BEMA_UNG
 62
     7
100
AcDbVertex
100
AcDb2dVertex
 10
-18.23042380580587
 20
-37.19017480697222
 30
0.0
  0
SEQEND
  5
597
330
594
100
AcDbEntity
  8
BEMA_UNG
  0
POLYLINE
  5
598
330
1F
100
AcDbEntity
  8
BEMA_UNG
 62
     7
100
AcDb2dPolyline
 66
     1
 10
0.0
 20
0.0
 30
0.0
  0
VERTEX
  5
599
330
598
100
AcDbEntity
  8
BEMA_UNG
 62
     7
100
AcDbVertex
100
AcDb2dVertex
 10
-18.20251851396638
 20
-37.50385095783464
 30
0.0
  0
VERTEX
  5
59A
330
598
100
AcDbEntity
  8
BEMA_UNG
 62
     7
100
AcDbVertex
100
AcDb2dVertex
 10
-18.20251851396638
 20
-36.97812903996968
 30
0.0
  0
SEQEND
  5
59B
330
598
100
AcDbEntity
  8
BEMA_UNG
  0
POLYLINE
  5
59C
330
1F
100
AcDbEntity
  8
BEMA_UNG
 62
     7
100
AcDb2dPolyline
 66
     1
 10
0.0
 20
0.0
 30
0.0
  0
VERTEX
  5
59D
330
59C
100
AcDbEntity
  8
BEMA_UNG
 62
     7
100
AcDbVertex
100
AcDb2dVertex
 10
-18.17426871235109
 20
-37.50385095783464
 30
0.0
  0
VERTEX
  5
59E
330
59C
100
AcDbEntity
  8
BEMA_UNG
 62
     7
100
AcDbVertex
100
AcDb2dVertex
 10
-18.17426871235109
 20
-36.76591101807924
 30
0.0
  0
SEQEND
  5
59F
330
59C
100
AcDbEntity
  8
BEMA_UNG
  0
POLYLINE
  5
5A0
330
1F
100
AcDbEntity
  8
BEMA_UNG
 62
     7
100
AcDb2dPolyline
 66
     1
 10
0.0
 20
0.0
 30
0.0
  0
VERTEX
  5
5A1
330
5A0
100
AcDbEntity
  8
BEMA_UNG
 62
     7
100
AcDbVertex
100
AcDb2dVertex
 10
-18.1463634205116
 20
-37.50385095783464
 30
0.0
  0
VERTEX
  5
5A2
330
5A0
100
AcDbEntity
  8
BEMA_UNG
 62
     7
100
AcDbVertex
100
AcDb2dVertex
 10
-18.1463634205116
 20
-36.5535207413009
 30
0.0
  0
SEQEND
  5
5A3
330
5A0
100
AcDbEntity
  8
BEMA_UNG
  0
POLYLINE
  5
5A4
330
1F
100
AcDbEntity
  8
BEMA_UNG
 62
     7
100
AcDb2dPolyline
 66
     1
 10
0.0
 20
0.0
 30
0.0
  0
VERTEX
  5
5A5
330
5A4
100
AcDbEntity
  8
BEMA_UNG
 62
     7
100
AcDbVertex
100
AcDb2dVertex
 10
-18.11845812867211
 20
-37.50385095783464
 30
0.0
  0
VERTEX
  5
5A6
330
5A4
100
AcDbEntity
  8
BEMA_UNG
 62
     7
100
AcDbVertex
100
AcDb2dVertex
 10
-18.11845812867211
 20
-36.34147497429836
 30
0.0
  0
SEQEND
  5
5A7
330
5A4
100
AcDbEntity
  8
BEMA_UNG
  0
POLYLINE
  5
5A8
330
1F
100
AcDbEntity
  8
BEMA_UNG
 62
     7
100
AcDb2dPolyline
 66
     1
 10
0.0
 20
0.0
 30
0.0
  0
VERTEX
  5
5A9
330
5A8
100
AcDbEntity
  8
BEMA_UNG
 62
     7
100
AcDbVertex
100
AcDb2dVertex
 10
-18.09055283683262
 20
-37.50385095783464
 30
0.0
  0
VERTEX
  5
5AA
330
5A8
100
AcDbEntity
  8
BEMA_UNG
 62
     7
100
AcDbVertex
100
AcDb2dVertex
 10
-18.09055283683262
 20
-36.12891244263213
 30
0.0
  0
SEQEND
  5
5AB
330
5A8
100
AcDbEntity
  8
BEMA_UNG
  0
POLYLINE
  5
5AC
330
1F
100
AcDbEntity
  8
BEMA_UNG
 62
     7
100
AcDb2dPolyline
 66
     1
 10
0.0
 20
0.0
 30
0.0
  0
VERTEX
  5
5AD
330
5AC
100
AcDbEntity
  8
BEMA_UNG
 62
     7
100
AcDbVertex
100
AcDb2dVertex
 10
-17.92312108579569
 20
-37.50385095783464
 30
0.0
  0
VERTEX
  5
5AE
330
5AC
100
AcDbEntity
  8
BEMA_UNG
 62
     7
100
AcDbVertex
100
AcDb2dVertex
 10
-17.92312108579569
 20
-37.40222057397477
 30
0.0
  0
SEQEND
  5
5AF
330
5AC
100
AcDbEntity
  8
BEMA_UNG
  0
POLYLINE
  5
5B0
330
1F
100
AcDbEntity
  8
BEMA_UNG
 62
     7
100
AcDb2dPolyline
 66
     1
 10
0.0
 20
0.0
 30
0.0
  0
VERTEX
  5
5B1
330
5B0
100
AcDbEntity
  8
BEMA_UNG
 62
     7
100
AcDbVertex
100
AcDb2dVertex
 10
-17.92312108579569
 20
-37.50385095783464
 30
0.0
  0
VERTEX
  5
5B2
330
5B0
100
AcDbEntity
  8
BEMA_UNG
 62
     7
100
AcDbVertex
100
AcDb2dVertex
 10
-17.92312108579569
 20
-37.40222057397477
 30
0.0
  0
SEQEND
  5
5B3
330
5B0
100
AcDbEntity
  8
BEMA_UNG
  0
POLYLINE
  5
5B4
330
1F
100
AcDbEntity
  8
BEMA_UNG
 62
     7
100
AcDb2dPolyline
 66
     1
 10
0.0
 20
0.0
 30
0.0
  0
VERTEX
  5
5B5
330
5B4
100
AcDbEntity
  8
BEMA_UNG
 62
     7
100
AcDbVertex
100
AcDb2dVertex
 10
-17.95102637763517
 20
-37.50385095783464
 30
0.0
  0
VERTEX
  5
5B6
330
5B4
100
AcDbEntity
  8
BEMA_UNG
 62
     7
100
AcDbVertex
100
AcDb2dVertex
 10
-17.95102637763517
 20
-37.19017480697222
 30
0.0
  0
SEQEND
  5
5B7
330
5B4
100
AcDbEntity
  8
BEMA_UNG
  0
POLYLINE
  5
5B8
330
1F
100
AcDbEntity
  8
BEMA_UNG
 62
     7
100
AcDb2dPolyline
 66
     1
 10
0.0
 20
0.0
 30
0.0
  0
VERTEX
  5
5B9
330
5B8
100
AcDbEntity
  8
BEMA_UNG
 62
     7
100
AcDbVertex
100
AcDb2dVertex
 10
-17.97893166947467
 20
-37.50385095783464
 30
0.0
  0
VERTEX
  5
5BA
330
5B8
100
AcDbEntity
  8
BEMA_UNG
 62
     7
100
AcDbVertex
100
AcDb2dVertex
 10
-17.97893166947467
 20
-36.97812903996968
 30
0.0
  0
SEQEND
  5
5BB
330
5B8
100
AcDbEntity
  8
BEMA_UNG
  0
POLYLINE
  5
5BC
330
1F
100
AcDbEntity
  8
BEMA_UNG
 62
     7
100
AcDb2dPolyline
 66
     1
 10
0.0
 20
0.0
 30
0.0
  0
VERTEX
  5
5BD
330
5BC
100
AcDbEntity
  8
BEMA_UNG
 62
     7
100
AcDbVertex
100
AcDb2dVertex
 10
-18.00683696131415
 20
-37.50385095783464
 30
0.0
  0
VERTEX
  5
5BE
330
5BC
100
AcDbEntity
  8
BEMA_UNG
 62
     7
100
AcDbVertex
100
AcDb2dVertex
 10
-18.00683696131415
 20
-36.76591101807924
 30
0.0
  0
SEQEND
  5
5BF
330
5BC
100
AcDbEntity
  8
BEMA_UNG
  0
POLYLINE
  5
5C0
330
1F
100
AcDbEntity
  8
BEMA_UNG
 62
     7
100
AcDb2dPolyline
 66
     1
 10
0.0
 20
0.0
 30
0.0
  0
VERTEX
  5
5C1
330
5C0
100
AcDbEntity
  8
BEMA_UNG
 62
     7
100
AcDbVertex
100
AcDb2dVertex
 10
-18.03474225315364
 20
-37.50385095783464
 30
0.0
  0
VERTEX
  5
5C2
330
5C0
100
AcDbEntity
  8
BEMA_UNG
 62
     7
100
AcDbVertex
100
AcDb2dVertex
 10
-18.03474225315364
 20
-36.5535207413009
 30
0.0
  0
SEQEND
  5
5C3
330
5C0
100
AcDbEntity
  8
BEMA_UNG
  0
POLYLINE
  5
5C4
330
1F
100
AcDbEntity
  8
BEMA_UNG
 62
     7
100
AcDb2dPolyline
 66
     1
 10
0.0
 20
0.0
 30
0.0
  0
VERTEX
  5
5C5
330
5C4
100
AcDbEntity
  8
BEMA_UNG
 62
     7
100
AcDbVertex
100
AcDb2dVertex
 10
-18.06264754499313
 20
-37.50385095783464
 30
0.0
  0
VERTEX
  5
5C6
330
5C4
100
AcDbEntity
  8
BEMA_UNG
 62
     7
100
AcDbVertex
100
AcDb2dVertex
 10
-18.06264754499313
 20
-36.34147497429836
 30
0.0
  0
SEQEND
  5
5C7
330
5C4
100
AcDbEntity
  8
BEMA_UNG
  0
POLYLINE
  5
5C8
330
1F
100
AcDbEntity
  8
BEMA_UNG
 62
     7
100
AcDb2dPolyline
 66
     1
 10
0.0
 20
0.0
 30
0.0
  0
VERTEX
  5
5C9
330
5C8
100
AcDbEntity
  8
BEMA_UNG
 62
     7
100
AcDbVertex
100
AcDb2dVertex
 10
-18.09055283683262
 20
-37.50385095783464
 30
0.0
  0
VERTEX
  5
5CA
330
5C8
100
AcDbEntity
  8
BEMA_UNG
 62
     7
100
AcDbVertex
100
AcDb2dVertex
 10
-18.09055283683262
 20
-36.12891244263213
 30
0.0
  0
SEQEND
  5
5CB
330
5C8
100
AcDbEntity
  8
BEMA_UNG
  0
POLYLINE
  5
5CC
330
1F
100
AcDbEntity
  8
BEMA_UNG
 62
     7
100
AcDb2dPolyline
 66
     1
 10
0.0
 20
0.0
 30
0.0
  0
VERTEX
  5
5CD
330
5CC
100
AcDbEntity
  8
BEMA_UNG
 62
     7
100
AcDbVertex
100
AcDb2dVertex
 10
-45.41637923343314
 20
-36.6790945545786
 30
0.0
  0
VERTEX
  5
5CE
330
5CC
100
AcDbEntity
  8
BEMA_UNG
 62
     7
100
AcDbVertex
100
AcDb2dVertex
 10
-45.41637923343314
 20
-29.29159917729346
 30
0.0
  0
SEQEND
  5
5CF
330
5CC
100
AcDbEntity
  8
BEMA_UNG
  0
POLYLINE
  5
5D0
330
1F
100
AcDbEntity
  8
BEMA_UNG
 62
     7
100
AcDb2dPolyline
 66
     1
 10
0.0
 20
0.0
 30
0.0
  0
VERTEX
  5
5D1
330
5D0
100
AcDbEntity
  8
BEMA_UNG
 62
     7
100
AcDbVertex
100
AcDb2dVertex
 10
-31.66664957163225
 20
-36.6790945545786
 30
0.0
  0
VERTEX
  5
5D2
330
5D0
100
AcDbEntity
  8
BEMA_UNG
 62
     7
100
AcDbVertex
100
AcDb2dVertex
 10
-31.66664957163225
 20
-29.29159917729346
 30
0.0
  0
SEQEND
  5
5D3
330
5D0
100
AcDbEntity
  8
BEMA_UNG
  0
POLYLINE
  5
5D4
330
1F
100
AcDbEntity
  8
BEMA_UNG
 62
     7
100
AcDb2dPolyline
 66
     1
 10
0.0
 20
0.0
 30
0.0
  0
VERTEX
  5
5D5
330
5D4
100
AcDbEntity
  8
BEMA_UNG
 62
     7
100
AcDbVertex
100
AcDb2dVertex
 10
-45.41637923343314
 20
-30.39179114629853
 30
0.0
  0
VERTEX
  5
5D6
330
5D4
100
AcDbEntity
  8
BEMA_UNG
 62
     7
100
AcDbVertex
100
AcDb2dVertex
 10
-31.66664957163225
 20
-30.39179114629853
 30
0.0
  0
SEQEND
  5
5D7
330
5D4
100
AcDbEntity
  8
BEMA_UNG
  0
POLYLINE
  5
5D8
330
1F
100
AcDbEntity
  8
BEMA_UNG
 62
     7
100
AcDb2dPolyline
 66
     1
 10
0.0
 20
0.0
 30
0.0
  0
VERTEX
  5
5D9
330
5D8
100
AcDbEntity
  8
BEMA_UNG
 62
     7
100
AcDbVertex
100
AcDb2dVertex
 10
-45.41637923343314
 20
-30.39179114629853
 30
0.0
  0
VERTEX
  5
5DA
330
5D8
100
AcDbEntity
  8
BEMA_UNG
 62
     7
100
AcDbVertex
100
AcDb2dVertex
 10
-44.04144071823063
 20
-30.57265877859151
 30
0.0
  0
VERTEX
  5
5DB
330
5D8
100
AcDbEntity
  8
BEMA_UNG
 62
     7
100
AcDbVertex
100
AcDb2dVertex
 10
-44.04144071823063
 20
-30.21092351400554
 30
0.0
  0
VERTEX
  5
5DC
330
5D8
100
AcDbEntity
  8
BEMA_UNG
 62
     7
100
AcDbVertex
100
AcDb2dVertex
 10
-45.41637923343314
 20
-30.39179114629853
 30
0.0
  0
SEQEND
  5
5DD
330
5D8
100
AcDbEntity
  8
BEMA_UNG
  0
POLYLINE
  5
5DE
330
1F
100
AcDbEntity
  8
BEMA_UNG
 62
     7
100
AcDb2dPolyline
 66
     1
 10
0.0
 20
0.0
 30
0.0
  0
VERTEX
  5
5DF
330
5DE
100
AcDbEntity
  8
BEMA_UNG
 62
     7
100
AcDbVertex
100
AcDb2dVertex
 10
-44.04144071823063
 20
-30.55939515222336
 30
0.0
  0
VERTEX
  5
5E0
330
5DE
100
AcDbEntity
  8
BEMA_UNG
 62
     7
100
AcDbVertex
100
AcDb2dVertex
 10
-44.1434156118663
 20
-30.55939515222336
 30
0.0
  0
SEQEND
  5
5E1
330
5DE
100
AcDbEntity
  8
BEMA_UNG
  0
POLYLINE
  5
5E2
330
1F
100
AcDbEntity
  8
BEMA_UNG
 62
     7
100
AcDb2dPolyline
 66
     1
 10
0.0
 20
0.0
 30
0.0
  0
VERTEX
  5
5E3
330
5E2
100
AcDbEntity
  8
BEMA_UNG
 62
     7
100
AcDbVertex
100
AcDb2dVertex
 10
-44.04144071823063
 20
-30.55939515222336
 30
0.0
  0
VERTEX
  5
5E4
330
5E2
100
AcDbEntity
  8
BEMA_UNG
 62
     7
100
AcDbVertex
100
AcDb2dVertex
 10
-44.1434156118663
 20
-30.55939515222336
 30
0.0
  0
SEQEND
  5
5E5
330
5E2
100
AcDbEntity
  8
BEMA_UNG
  0
POLYLINE
  5
5E6
330
1F
100
AcDbEntity
  8
BEMA_UNG
 62
     7
100
AcDb2dPolyline
 66
     1
 10
0.0
 20
0.0
 30
0.0
  0
VERTEX
  5
5E7
330
5E6
100
AcDbEntity
  8
BEMA_UNG
 62
     7
100
AcDbVertex
100
AcDb2dVertex
 10
-44.04144071823063
 20
-30.53148986038387
 30
0.0
  0
VERTEX
  5
5E8
330
5E6
100
AcDbEntity
  8
BEMA_UNG
 62
     7
100
AcDbVertex
100
AcDb2dVertex
 10
-44.35494461420515
 20
-30.53148986038387
 30
0.0
  0
SEQEND
  5
5E9
330
5E6
100
AcDbEntity
  8
BEMA_UNG
  0
POLYLINE
  5
5EA
330
1F
100
AcDbEntity
  8
BEMA_UNG
 62
     7
100
AcDb2dPolyline
 66
     1
 10
0.0
 20
0.0
 30
0.0
  0
VERTEX
  5
5EB
330
5EA
100
AcDbEntity
  8
BEMA_UNG
 62
     7
100
AcDbVertex
100
AcDb2dVertex
 10
-44.04144071823063
 20
-30.50358456854438
 30
0.0
  0
VERTEX
  5
5EC
330
5EA
100
AcDbEntity
  8
BEMA_UNG
 62
     7
100
AcDbVertex
100
AcDb2dVertex
 10
-44.56750714587138
 20
-30.50358456854438
 30
0.0
  0
SEQEND
  5
5ED
330
5EA
100
AcDbEntity
  8
BEMA_UNG
  0
POLYLINE
  5
5EE
330
1F
100
AcDbEntity
  8
BEMA_UNG
 62
     7
100
AcDb2dPolyline
 66
     1
 10
0.0
 20
0.0
 30
0.0
  0
VERTEX
  5
5EF
330
5EE
100
AcDbEntity
  8
BEMA_UNG
 62
     7
100
AcDbVertex
100
AcDb2dVertex
 10
-44.04144071823063
 20
-30.47567927670489
 30
0.0
  0
VERTEX
  5
5F0
330
5EE
100
AcDbEntity
  8
BEMA_UNG
 62
     7
100
AcDbVertex
100
AcDb2dVertex
 10
-44.77972516776182
 20
-30.47567927670489
 30
0.0
  0
SEQEND
  5
5F1
330
5EE
100
AcDbEntity
  8
BEMA_UNG
  0
POLYLINE
  5
5F2
330
1F
100
AcDbEntity
  8
BEMA_UNG
 62
     7
100
AcDb2dPolyline
 66
     1
 10
0.0
 20
0.0
 30
0.0
  0
VERTEX
  5
5F3
330
5F2
100
AcDbEntity
  8
BEMA_UNG
 62
     7
100
AcDbVertex
100
AcDb2dVertex
 10
-44.04144071823063
 20
-30.4476017299775
 30
0.0
  0
VERTEX
  5
5F4
330
5F2
100
AcDbEntity
  8
BEMA_UNG
 62
     7
100
AcDbVertex
100
AcDb2dVertex
 10
-44.99194318965226
 20
-30.4476017299775
 30
0.0
  0
SEQEND
  5
5F5
330
5F2
100
AcDbEntity
  8
BEMA_UNG
  0
POLYLINE
  5
5F6
330
1F
100
AcDbEntity
  8
BEMA_UNG
 62
     7
100
AcDb2dPolyline
 66
     1
 10
0.0
 20
0.0
 30
0.0
  0
VERTEX
  5
5F7
330
5F6
100
AcDbEntity
  8
BEMA_UNG
 62
     7
100
AcDbVertex
100
AcDb2dVertex
 10
-44.04144071823063
 20
-30.41969643813801
 30
0.0
  0
VERTEX
  5
5F8
330
5F6
100
AcDbEntity
  8
BEMA_UNG
 62
     7
100
AcDbVertex
100
AcDb2dVertex
 10
-45.2038167017669
 20
-30.41969643813801
 30
0.0
  0
SEQEND
  5
5F9
330
5F6
100
AcDbEntity
  8
BEMA_UNG
  0
POLYLINE
  5
5FA
330
1F
100
AcDbEntity
  8
BEMA_UNG
 62
     7
100
AcDb2dPolyline
 66
     1
 10
0.0
 20
0.0
 30
0.0
  0
VERTEX
  5
5FB
330
5FA
100
AcDbEntity
  8
BEMA_UNG
 62
     7
100
AcDbVertex
100
AcDb2dVertex
 10
-44.04144071823063
 20
-30.39179114629853
 30
0.0
  0
VERTEX
  5
5FC
330
5FA
100
AcDbEntity
  8
BEMA_UNG
 62
     7
100
AcDbVertex
100
AcDb2dVertex
 10
-45.41637923343314
 20
-30.39179114629853
 30
0.0
  0
SEQEND
  5
5FD
330
5FA
100
AcDbEntity
  8
BEMA_UNG
  0
POLYLINE
  5
5FE
330
1F
100
AcDbEntity
  8
BEMA_UNG
 62
     7
100
AcDb2dPolyline
 66
     1
 10
0.0
 20
0.0
 30
0.0
  0
VERTEX
  5
5FF
330
5FE
100
AcDbEntity
  8
BEMA_UNG
 62
     7
100
AcDbVertex
100
AcDb2dVertex
 10
-44.04144071823063
 20
-30.22418714037369
 30
0.0
  0
VERTEX
  5
600
330
5FE
100
AcDbEntity
  8
BEMA_UNG
 62
     7
100
AcDbVertex
100
AcDb2dVertex
 10
-44.1434156118663
 20
-30.22418714037369
 30
0.0
  0
SEQEND
  5
601
330
5FE
100
AcDbEntity
  8
BEMA_UNG
  0
POLYLINE
  5
602
330
1F
100
AcDbEntity
  8
BEMA_UNG
 62
     7
100
AcDb2dPolyline
 66
     1
 10
0.0
 20
0.0
 30
0.0
  0
VERTEX
  5
603
330
602
100
AcDbEntity
  8
BEMA_UNG
 62
     7
100
AcDbVertex
100
AcDb2dVertex
 10
-44.04144071823063
 20
-30.22418714037369
 30
0.0
  0
VERTEX
  5
604
330
602
100
AcDbEntity
  8
BEMA_UNG
 62
     7
100
AcDbVertex
100
AcDb2dVertex
 10
-44.1434156118663
 20
-30.22418714037369
 30
0.0
  0
SEQEND
  5
605
330
602
100
AcDbEntity
  8
BEMA_UNG
  0
POLYLINE
  5
606
330
1F
100
AcDbEntity
  8
BEMA_UNG
 62
     7
100
AcDb2dPolyline
 66
     1
 10
0.0
 20
0.0
 30
0.0
  0
VERTEX
  5
607
330
606
100
AcDbEntity
  8
BEMA_UNG
 62
     7
100
AcDbVertex
100
AcDb2dVertex
 10
-44.04144071823063
 20
-30.25226468710108
 30
0.0
  0
VERTEX
  5
608
330
606
100
AcDbEntity
  8
BEMA_UNG
 62
     7
100
AcDbVertex
100
AcDb2dVertex
 10
-44.35494461420515
 20
-30.25226468710108
 30
0.0
  0
SEQEND
  5
609
330
606
100
AcDbEntity
  8
BEMA_UNG
  0
POLYLINE
  5
60A
330
1F
100
AcDbEntity
  8
BEMA_UNG
 62
     7
100
AcDb2dPolyline
 66
     1
 10
0.0
 20
0.0
 30
0.0
  0
VERTEX
  5
60B
330
60A
100
AcDbEntity
  8
BEMA_UNG
 62
     7
100
AcDbVertex
100
AcDb2dVertex
 10
-44.04144071823063
 20
-30.28016997894057
 30
0.0
  0
VERTEX
  5
60C
330
60A
100
AcDbEntity
  8
BEMA_UNG
 62
     7
100
AcDbVertex
100
AcDb2dVertex
 10
-44.56750714587138
 20
-30.28016997894057
 30
0.0
  0
SEQEND
  5
60D
330
60A
100
AcDbEntity
  8
BEMA_UNG
  0
POLYLINE
  5
60E
330
1F
100
AcDbEntity
  8
BEMA_UNG
 62
     7
100
AcDb2dPolyline
 66
     1
 10
0.0
 20
0.0
 30
0.0
  0
VERTEX
  5
60F
330
60E
100
AcDbEntity
  8
BEMA_UNG
 62
     7
100
AcDbVertex
100
AcDb2dVertex
 10
-44.04144071823063
 20
-30.30807527078005
 30
0.0
  0
VERTEX
  5
610
330
60E
100
AcDbEntity
  8
BEMA_UNG
 62
     7
100
AcDbVertex
100
AcDb2dVertex
 10
-44.77972516776182
 20
-30.30807527078005
 30
0.0
  0
SEQEND
  5
611
330
60E
100
AcDbEntity
  8
BEMA_UNG
  0
POLYLINE
  5
612
330
1F
100
AcDbEntity
  8
BEMA_UNG
 62
     7
100
AcDb2dPolyline
 66
     1
 10
0.0
 20
0.0
 30
0.0
  0
VERTEX
  5
613
330
612
100
AcDbEntity
  8
BEMA_UNG
 62
     7
100
AcDbVertex
100
AcDb2dVertex
 10
-44.04144071823063
 20
-30.33598056261955
 30
0.0
  0
VERTEX
  5
614
330
612
100
AcDbEntity
  8
BEMA_UNG
 62
     7
100
AcDbVertex
100
AcDb2dVertex
 10
-44.99194318965226
 20
-30.33598056261955
 30
0.0
  0
SEQEND
  5
615
330
612
100
AcDbEntity
  8
BEMA_UNG
  0
POLYLINE
  5
616
330
1F
100
AcDbEntity
  8
BEMA_UNG
 62
     7
100
AcDb2dPolyline
 66
     1
 10
0.0
 20
0.0
 30
0.0
  0
VERTEX
  5
617
330
616
100
AcDbEntity
  8
BEMA_UNG
 62
     7
100
AcDbVertex
100
AcDb2dVertex
 10
-44.04144071823063
 20
-30.36388585445903
 30
0.0
  0
VERTEX
  5
618
330
616
100
AcDbEntity
  8
BEMA_UNG
 62
     7
100
AcDbVertex
100
AcDb2dVertex
 10
-45.2038167017669
 20
-30.36388585445903
 30
0.0
  0
SEQEND
  5
619
330
616
100
AcDbEntity
  8
BEMA_UNG
  0
POLYLINE
  5
61A
330
1F
100
AcDbEntity
  8
BEMA_UNG
 62
     7
100
AcDb2dPolyline
 66
     1
 10
0.0
 20
0.0
 30
0.0
  0
VERTEX
  5
61B
330
61A
100
AcDbEntity
  8
BEMA_UNG
 62
     7
100
AcDbVertex
100
AcDb2dVertex
 10
-44.04144071823063
 20
-30.39179114629853
 30
0.0
  0
VERTEX
  5
61C
330
61A
100
AcDbEntity
  8
BEMA_UNG
 62
     7
100
AcDbVertex
100
AcDb2dVertex
 10
-45.41637923343314
 20
-30.39179114629853
 30
0.0
  0
SEQEND
  5
61D
330
61A
100
AcDbEntity
  8
BEMA_UNG
  0
POLYLINE
  5
61E
330
1F
100
AcDbEntity
  8
BEMA_UNG
 62
     7
100
AcDb2dPolyline
 66
     1
 10
0.0
 20
0.0
 30
0.0
  0
VERTEX
  5
61F
330
61E
100
AcDbEntity
  8
BEMA_UNG
 62
     7
100
AcDbVertex
100
AcDb2dVertex
 10
-31.66664957163225
 20
-30.39179114629853
 30
0.0
  0
VERTEX
  5
620
330
61E
100
AcDbEntity
  8
BEMA_UNG
 62
     7
100
AcDbVertex
100
AcDb2dVertex
 10
-33.04158808683476
 20
-30.21092351400554
 30
0.0
  0
VERTEX
  5
621
330
61E
100
AcDbEntity
  8
BEMA_UNG
 62
     7
100
AcDbVertex
100
AcDb2dVertex
 10
-33.04158808683476
 20
-30.57265877859151
 30
0.0
  0
VERTEX
  5
622
330
61E
100
AcDbEntity
  8
BEMA_UNG
 62
     7
100
AcDbVertex
100
AcDb2dVertex
 10
-31.66664957163225
 20
-30.39179114629853
 30
0.0
  0
SEQEND
  5
623
330
61E
100
AcDbEntity
  8
BEMA_UNG
  0
POLYLINE
  5
624
330
1F
100
AcDbEntity
  8
BEMA_UNG
 62
     7
100
AcDb2dPolyline
 66
     1
 10
0.0
 20
0.0
 30
0.0
  0
VERTEX
  5
625
330
624
100
AcDbEntity
  8
BEMA_UNG
 62
     7
100
AcDbVertex
100
AcDb2dVertex
 10
-33.04158808683476
 20
-30.22418714037369
 30
0.0
  0
VERTEX
  5
626
330
624
100
AcDbEntity
  8
BEMA_UNG
 62
     7
100
AcDbVertex
100
AcDb2dVertex
 10
-32.93995770297489
 20
-30.22418714037369
 30
0.0
  0
SEQEND
  5
627
330
624
100
AcDbEntity
  8
BEMA_UNG
  0
POLYLINE
  5
628
330
1F
100
AcDbEntity
  8
BEMA_UNG
 62
     7
100
AcDb2dPolyline
 66
     1
 10
0.0
 20
0.0
 30
0.0
  0
VERTEX
  5
629
330
628
100
AcDbEntity
  8
BEMA_UNG
 62
     7
100
AcDbVertex
100
AcDb2dVertex
 10
-33.04158808683476
 20
-30.22418714037369
 30
0.0
  0
VERTEX
  5
62A
330
628
100
AcDbEntity
  8
BEMA_UNG
 62
     7
100
AcDbVertex
100
AcDb2dVertex
 10
-32.93995770297489
 20
-30.22418714037369
 30
0.0
  0
SEQEND
  5
62B
330
628
100
AcDbEntity
  8
BEMA_UNG
  0
POLYLINE
  5
62C
330
1F
100
AcDbEntity
  8
BEMA_UNG
 62
     7
100
AcDb2dPolyline
 66
     1
 10
0.0
 20
0.0
 30
0.0
  0
VERTEX
  5
62D
330
62C
100
AcDbEntity
  8
BEMA_UNG
 62
     7
100
AcDbVertex
100
AcDb2dVertex
 10
-33.04158808683476
 20
-30.25226468710108
 30
0.0
  0
VERTEX
  5
62E
330
62C
100
AcDbEntity
  8
BEMA_UNG
 62
     7
100
AcDbVertex
100
AcDb2dVertex
 10
-32.72739517130865
 20
-30.25226468710108
 30
0.0
  0
SEQEND
  5
62F
330
62C
100
AcDbEntity
  8
BEMA_UNG
  0
POLYLINE
  5
630
330
1F
100
AcDbEntity
  8
BEMA_UNG
 62
     7
100
AcDb2dPolyline
 66
     1
 10
0.0
 20
0.0
 30
0.0
  0
VERTEX
  5
631
330
630
100
AcDbEntity
  8
BEMA_UNG
 62
     7
100
AcDbVertex
100
AcDb2dVertex
 10
-33.04158808683476
 20
-30.28016997894057
 30
0.0
  0
VERTEX
  5
632
330
630
100
AcDbEntity
  8
BEMA_UNG
 62
     7
100
AcDbVertex
100
AcDb2dVertex
 10
-32.51517714941821
 20
-30.28016997894057
 30
0.0
  0
SEQEND
  5
633
330
630
100
AcDbEntity
  8
BEMA_UNG
  0
POLYLINE
  5
634
330
1F
100
AcDbEntity
  8
BEMA_UNG
 62
     7
100
AcDb2dPolyline
 66
     1
 10
0.0
 20
0.0
 30
0.0
  0
VERTEX
  5
635
330
634
100
AcDbEntity
  8
BEMA_UNG
 62
     7
100
AcDbVertex
100
AcDb2dVertex
 10
-33.04158808683476
 20
-30.30807527078005
 30
0.0
  0
VERTEX
  5
636
330
634
100
AcDbEntity
  8
BEMA_UNG
 62
     7
100
AcDbVertex
100
AcDb2dVertex
 10
-32.30295912752777
 20
-30.30807527078005
 30
0.0
  0
SEQEND
  5
637
330
634
100
AcDbEntity
  8
BEMA_UNG
  0
POLYLINE
  5
638
330
1F
100
AcDbEntity
  8
BEMA_UNG
 62
     7
100
AcDb2dPolyline
 66
     1
 10
0.0
 20
0.0
 30
0.0
  0
VERTEX
  5
639
330
638
100
AcDbEntity
  8
BEMA_UNG
 62
     7
100
AcDbVertex
100
AcDb2dVertex
 10
-33.04158808683476
 20
-30.33598056261955
 30
0.0
  0
VERTEX
  5
63A
330
638
100
AcDbEntity
  8
BEMA_UNG
 62
     7
100
AcDbVertex
100
AcDb2dVertex
 10
-32.09074110563733
 20
-30.33598056261955
 30
0.0
  0
SEQEND
  5
63B
330
638
100
AcDbEntity
  8
BEMA_UNG
  0
POLYLINE
  5
63C
330
1F
100
AcDbEntity
  8
BEMA_UNG
 62
     7
100
AcDb2dPolyline
 66
     1
 10
0.0
 20
0.0
 30
0.0
  0
VERTEX
  5
63D
330
63C
100
AcDbEntity
  8
BEMA_UNG
 62
     7
100
AcDbVertex
100
AcDb2dVertex
 10
-33.04158808683476
 20
-30.36388585445903
 30
0.0
  0
VERTEX
  5
63E
330
63C
100
AcDbEntity
  8
BEMA_UNG
 62
     7
100
AcDbVertex
100
AcDb2dVertex
 10
-31.87852308374689
 20
-30.36388585445903
 30
0.0
  0
SEQEND
  5
63F
330
63C
100
AcDbEntity
  8
BEMA_UNG
  0
POLYLINE
  5
640
330
1F
100
AcDbEntity
  8
BEMA_UNG
 62
     7
100
AcDb2dPolyline
 66
     1
 10
0.0
 20
0.0
 30
0.0
  0
VERTEX
  5
641
330
640
100
AcDbEntity
  8
BEMA_UNG
 62
     7
100
AcDbVertex
100
AcDb2dVertex
 10
-33.04158808683476
 20
-30.39179114629853
 30
0.0
  0
VERTEX
  5
642
330
640
100
AcDbEntity
  8
BEMA_UNG
 62
     7
100
AcDbVertex
100
AcDb2dVertex
 10
-31.66664957163225
 20
-30.39179114629853
 30
0.0
  0
SEQEND
  5
643
330
640
100
AcDbEntity
  8
BEMA_UNG
  0
POLYLINE
  5
644
330
1F
100
AcDbEntity
  8
BEMA_UNG
 62
     7
100
AcDb2dPolyline
 66
     1
 10
0.0
 20
0.0
 30
0.0
  0
VERTEX
  5
645
330
644
100
AcDbEntity
  8
BEMA_UNG
 62
     7
100
AcDbVertex
100
AcDb2dVertex
 10
-33.04158808683476
 20
-30.55939515222336
 30
0.0
  0
VERTEX
  5
646
330
644
100
AcDbEntity
  8
BEMA_UNG
 62
     7
100
AcDbVertex
100
AcDb2dVertex
 10
-32.93995770297489
 20
-30.55939515222336
 30
0.0
  0
SEQEND
  5
647
330
644
100
AcDbEntity
  8
BEMA_UNG
  0
POLYLINE
  5
648
330
1F
100
AcDbEntity
  8
BEMA_UNG
 62
     7
100
AcDb2dPolyline
 66
     1
 10
0.0
 20
0.0
 30
0.0
  0
VERTEX
  5
649
330
648
100
AcDbEntity
  8
BEMA_UNG
 62
     7
100
AcDbVertex
100
AcDb2dVertex
 10
-33.04158808683476
 20
-30.55939515222336
 30
0.0
  0
VERTEX
  5
64A
330
648
100
AcDbEntity
  8
BEMA_UNG
 62
     7
100
AcDbVertex
100
AcDb2dVertex
 10
-32.93995770297489
 20
-30.55939515222336
 30
0.0
  0
SEQEND
  5
64B
330
648
100
AcDbEntity
  8
BEMA_UNG
  0
POLYLINE
  5
64C
330
1F
100
AcDbEntity
  8
BEMA_UNG
 62
     7
100
AcDb2dPolyline
 66
     1
 10
0.0
 20
0.0
 30
0.0
  0
VERTEX
  5
64D
330
64C
100
AcDbEntity
  8
BEMA_UNG
 62
     7
100
AcDbVertex
100
AcDb2dVertex
 10
-33.04158808683476
 20
-30.53148986038387
 30
0.0
  0
VERTEX
  5
64E
330
64C
100
AcDbEntity
  8
BEMA_UNG
 62
     7
100
AcDbVertex
100
AcDb2dVertex
 10
-32.72739517130865
 20
-30.53148986038387
 30
0.0
  0
SEQEND
  5
64F
330
64C
100
AcDbEntity
  8
BEMA_UNG
  0
POLYLINE
  5
650
330
1F
100
AcDbEntity
  8
BEMA_UNG
 62
     7
100
AcDb2dPolyline
 66
     1
 10
0.0
 20
0.0
 30
0.0
  0
VERTEX
  5
651
330
650
100
AcDbEntity
  8
BEMA_UNG
 62
     7
100
AcDbVertex
100
AcDb2dVertex
 10
-33.04158808683476
 20
-30.50358456854438
 30
0.0
  0
VERTEX
  5
652
330
650
100
AcDbEntity
  8
BEMA_UNG
 62
     7
100
AcDbVertex
100
AcDb2dVertex
 10
-32.51517714941821
 20
-30.50358456854438
 30
0.0
  0
SEQEND
  5
653
330
650
100
AcDbEntity
  8
BEMA_UNG
  0
POLYLINE
  5
654
330
1F
100
AcDbEntity
  8
BEMA_UNG
 62
     7
100
AcDb2dPolyline
 66
     1
 10
0.0
 20
0.0
 30
0.0
  0
VERTEX
  5
655
330
654
100
AcDbEntity
  8
BEMA_UNG
 62
     7
100
AcDbVertex
100
AcDb2dVertex
 10
-33.04158808683476
 20
-30.47567927670489
 30
0.0
  0
VERTEX
  5
656
330
654
100
AcDbEntity
  8
BEMA_UNG
 62
     7
100
AcDbVertex
100
AcDb2dVertex
 10
-32.30295912752777
 20
-30.47567927670489
 30
0.0
  0
SEQEND
  5
657
330
654
100
AcDbEntity
  8
BEMA_UNG
  0
POLYLINE
  5
658
330
1F
100
AcDbEntity
  8
BEMA_UNG
 62
     7
100
AcDb2dPolyline
 66
     1
 10
0.0
 20
0.0
 30
0.0
  0
VERTEX
  5
659
330
658
100
AcDbEntity
  8
BEMA_UNG
 62
     7
100
AcDbVertex
100
AcDb2dVertex
 10
-33.04158808683476
 20
-30.4476017299775
 30
0.0
  0
VERTEX
  5
65A
330
658
100
AcDbEntity
  8
BEMA_UNG
 62
     7
100
AcDbVertex
100
AcDb2dVertex
 10
-32.09074110563733
 20
-30.4476017299775
 30
0.0
  0
SEQEND
  5
65B
330
658
100
AcDbEntity
  8
BEMA_UNG
  0
POLYLINE
  5
65C
330
1F
100
AcDbEntity
  8
BEMA_UNG
 62
     7
100
AcDb2dPolyline
 66
     1
 10
0.0
 20
0.0
 30
0.0
  0
VERTEX
  5
65D
330
65C
100
AcDbEntity
  8
BEMA_UNG
 62
     7
100
AcDbVertex
100
AcDb2dVertex
 10
-33.04158808683476
 20
-30.41969643813801
 30
0.0
  0
VERTEX
  5
65E
330
65C
100
AcDbEntity
  8
BEMA_UNG
 62
     7
100
AcDbVertex
100
AcDb2dVertex
 10
-31.87852308374689
 20
-30.41969643813801
 30
0.0
  0
SEQEND
  5
65F
330
65C
100
AcDbEntity
  8
BEMA_UNG
  0
POLYLINE
  5
660
330
1F
100
AcDbEntity
  8
BEMA_UNG
 62
     7
100
AcDb2dPolyline
 66
     1
 10
0.0
 20
0.0
 30
0.0
  0
VERTEX
  5
661
330
660
100
AcDbEntity
  8
BEMA_UNG
 62
     7
100
AcDbVertex
100
AcDb2dVertex
 10
-33.04158808683476
 20
-30.39179114629853
 30
0.0
  0
VERTEX
  5
662
330
660
100
AcDbEntity
  8
BEMA_UNG
 62
     7
100
AcDbVertex
100
AcDb2dVertex
 10
-31.66664957163225
 20
-30.39179114629853
 30
0.0
  0
SEQEND
  5
663
330
660
100
AcDbEntity
  8
BEMA_UNG
  0
POLYLINE
  5
664
330
1F
100
AcDbEntity
  8
BEMA_UNG
 62
     7
100
AcDb2dPolyline
 66
     1
 10
0.0
 20
0.0
 30
0.0
  0
VERTEX
  5
665
330
664
100
AcDbEntity
  8
BEMA_UNG
 62
     7
100
AcDbVertex
100
AcDb2dVertex
 10
-102.9894749253857
 20
-71.98583441727318
 30
0.0
  0
VERTEX
  5
666
330
664
100
AcDbEntity
  8
BEMA_UNG
 62
     7
100
AcDbVertex
100
AcDb2dVertex
 10
-85.46667419906515
 20
-71.98583441727318
 30
0.0
  0
SEQEND
  5
667
330
664
100
AcDbEntity
  8
BEMA_UNG
  0
POLYLINE
  5
668
330
1F
100
AcDbEntity
  8
BEMA_UNG
 62
     7
100
AcDb2dPolyline
 66
     1
 10
0.0
 20
0.0
 30
0.0
  0
VERTEX
  5
669
330
668
100
AcDbEntity
  8
BEMA_UNG
 62
     7
100
AcDbVertex
100
AcDb2dVertex
 10
-76.93540636613673
 20
-63.33743326057405
 30
0.0
  0
VERTEX
  5
66A
330
668
100
AcDbEntity
  8
BEMA_UNG
 62
     7
100
AcDbVertex
100
AcDb2dVertex
 10
-85.46667419906515
 20
-71.98583441727318
 30
0.0
  0
SEQEND
  5
66B
330
668
100
AcDbEntity
  8
BEMA_UNG
  0
SPLINE
  5
66C
330
1F
100
AcDbEntity
  8
BEMA_UNG
 62
     7
100
AcDbSpline
210
0.0
220
0.0
230
1.0
 70
    11
 71
     3
 72
    17
 73
    13
 74
     0
 42
0.0000000001
 43
0.0000000001
 40
0.0
 40
0.0
 40
0.0
 40
0.0
 40
1.0
 40
1.0
 40
1.0
 40
2.0
 40
2.0
 40
2.0
 40
3.0
 40
3.0
 40
3.0
 40
4.0
 40
4.0
 40
4.0
 40
4.0
 10
-76.52251139984503
 20
-63.33743326057405
 30
0.0
 10
-76.52251139984503
 20
-63.10936778899698
 30
0.0
 10
-76.70734089455966
 20
-62.92505505894604
 30
0.0
 10
-76.93540636613673
 20
-62.92505505894604
 30
0.0
 10
-77.1632995828259
 20
-62.92505505894604
 30
0.0
 10
-77.34795682265265
 20
-63.10936778899698
 30
0.0
 10
-77.34795682265265
 20
-63.33743326057405
 30
0.0
 10
-77.34795682265265
 20
-63.56498196748742
 30
0.0
 10
-77.1632995828259
 20
-63.74998371708996
 30
0.0
 10
-76.93540636613673
 20
-63.74998371708996
 30
0.0
 10
-76.70734089455966
 20
-63.74998371708996
 30
0.0
 10
-76.52251139984503
 20
-63.56498196748742
 30
0.0
 10
-76.52251139984503
 20
-63.33743326057405
 30
0.0
  0
SPLINE
  5
66D
330
1F
100
AcDbEntity
  8
BEMA_UNG
 62
     7
100
AcDbSpline
210
0.0
220
0.0
230
1.0
 70
    11
 71
     3
 72
    17
 73
    13
 74
     0
 42
0.0000000001
 43
0.0000000001
 40
0.0
 40
0.0
 40
0.0
 40
0.0
 40
1.0
 40
1.0
 40
1.0
 40
2.0
 40
2.0
 40
2.0
 40
3.0
 40
3.0
 40
3.0
 40
4.0
 40
4.0
 40
4.0
 40
4.0
 10
-76.55041669168452
 20
-63.33743326057405
 30
0.0
 10
-76.55041669168452
 20
-63.12487072890782
 30
0.0
 10
-76.7230160893584
 20
-62.95296035078552
 30
0.0
 10
-76.93540636613673
 20
-62.95296035078552
 30
0.0
 10
-77.14745213313927
 20
-62.95296035078552
 30
0.0
 10
-77.32005153081316
 20
-63.12487072890782
 30
0.0
 10
-77.32005153081316
 20
-63.33743326057405
 30
0.0
 10
-77.32005153081316
 20
-63.54965128246449
 30
0.0
 10
-77.14745213313927
 20
-63.72190617036257
 30
0.0
 10
-76.93540636613673
 20
-63.72190617036257
 30
0.0
 10
-76.7230160893584
 20
-63.72190617036257
 30
0.0
 10
-76.55041669168452
 20
-63.54965128246449
 30
0.0
 10
-76.55041669168452
 20
-63.33743326057405
 30
0.0
  0
SPLINE
  5
66E
330
1F
100
AcDbEntity
  8
BEMA_UNG
 62
     7
100
AcDbSpline
210
0.0
220
0.0
230
1.0
 70
    11
 71
     3
 72
    17
 73
    13
 74
     0
 42
0.0000000001
 43
0.0000000001
 40
0.0
 40
0.0
 40
0.0
 40
0.0
 40
1.0
 40
1.0
 40
1.0
 40
2.0
 40
2.0
 40
2.0
 40
3.0
 40
3.0
 40
3.0
 40
4.0
 40
4.0
 40
4.0
 40
4.0
 10
-76.5784942384119
 20
-63.33743326057405
 30
0.0
 10
-76.5784942384119
 20
-63.14037366881864
 30
0.0
 10
-76.73817451949343
 20
-62.98086564262501
 30
0.0
 10
-76.93540636613673
 20
-62.98086564262501
 30
0.0
 10
-77.13229370300424
 20
-62.98086564262501
 30
0.0
 10
-77.29214623897367
 20
-63.14037366881864
 30
0.0
 10
-77.29214623897367
 20
-63.33743326057405
 30
0.0
 10
-77.29214623897367
 20
-63.53414834255366
 30
0.0
 10
-77.13229370300424
 20
-63.69400087852308
 30
0.0
 10
-76.93540636613673
 20
-63.69400087852308
 30
0.0
 10
-76.73817451949343
 20
-63.69400087852308
 30
0.0
 10
-76.5784942384119
 20
-63.53414834255366
 30
0.0
 10
-76.5784942384119
 20
-63.33743326057405
 30
0.0
  0
SPLINE
  5
66F
330
1F
100
AcDbEntity
  8
BEMA_UNG
 62
     7
100
AcDbSpline
210
0.0
220
0.0
230
1.0
 70
    11
 71
     3
 72
    17
 73
    13
 74
     0
 42
0.0000000001
 43
0.0000000001
 40
0.0
 40
0.0
 40
0.0
 40
0.0
 40
1.0
 40
1.0
 40
1.0
 40
2.0
 40
2.0
 40
2.0
 40
3.0
 40
3.0
 40
3.0
 40
4.0
 40
4.0
 40
4.0
 40
4.0
 10
-76.6065717851393
 20
-63.33743326057405
 30
0.0
 10
-76.6065717851393
 20
-63.15570435384157
 30
0.0
 10
-76.75384971429216
 20
-63.0089431893524
 30
0.0
 10
-76.93540636613673
 20
-63.0089431893524
 30
0.0
 10
-77.11661850820552
 20
-63.0089431893524
 30
0.0
 10
-77.26424094713417
 20
-63.15570435384157
 30
0.0
 10
-77.26424094713417
 20
-63.33743326057405
 30
0.0
 10
-77.26424094713417
 20
-63.51881765753073
 30
0.0
 10
-77.11661850820552
 20
-63.6660955866836
 30
0.0
 10
-76.93540636613673
 20
-63.6660955866836
 30
0.0
 10
-76.75384971429216
 20
-63.6660955866836
 30
0.0
 10
-76.6065717851393
 20
-63.51881765753073
 30
0.0
 10
-76.6065717851393
 20
-63.33743326057405
 30
0.0
  0
SPLINE
  5
670
330
1F
100
AcDbEntity
  8
BEMA_UNG
 62
     7
100
AcDbSpline
210
0.0
220
0.0
230
1.0
 70
    11
 71
     3
 72
    17
 73
    13
 74
     0
 42
0.0000000001
 43
0.0000000001
 40
0.0
 40
0.0
 40
0.0
 40
0.0
 40
1.0
 40
1.0
 40
1.0
 40
2.0
 40
2.0
 40
2.0
 40
3.0
 40
3.0
 40
3.0
 40
4.0
 40
4.0
 40
4.0
 40
4.0
 10
-76.63447707697878
 20
-63.33743326057405
 30
0.0
 10
-76.63447707697878
 20
-63.1710350388645
 30
0.0
 10
-76.76900814442719
 20
-63.0368484811919
 30
0.0
 10
-76.93540636613673
 20
-63.0368484811919
 30
0.0
 10
-77.10163233295839
 20
-63.0368484811919
 30
0.0
 10
-77.23616340040678
 20
-63.1710350388645
 30
0.0
 10
-77.23616340040678
 20
-63.33743326057405
 30
0.0
 10
-77.23616340040678
 20
-63.5034869725078
 30
0.0
 10
-77.10163233295839
 20
-63.63819029484411
 30
0.0
 10
-76.93540636613673
 20
-63.63819029484411
 30
0.0
 10
-76.76900814442719
 20
-63.63819029484411
 30
0.0
 10
-76.63447707697878
 20
-63.5034869725078
 30
0.0
 10
-76.63447707697878
 20
-63.33743326057405
 30
0.0
  0
SPLINE
  5
671
330
1F
100
AcDbEntity
  8
BEMA_UNG
 62
     7
100
AcDbSpline
210
0.0
220
0.0
230
1.0
 70
    11
 71
     3
 72
    17
 73
    13
 74
     0
 42
0.0000000001
 43
0.0000000001
 40
0.0
 40
0.0
 40
0.0
 40
0.0
 40
1.0
 40
1.0
 40
1.0
 40
2.0
 40
2.0
 40
2.0
 40
3.0
 40
3.0
 40
3.0
 40
4.0
 40
4.0
 40
4.0
 40
4.0
 10
-76.66238236881827
 20
-63.33743326057405
 30
0.0
 10
-76.66238236881827
 20
-63.18653797877533
 30
0.0
 10
-76.78468333922591
 20
-63.06423700836769
 30
0.0
 10
-76.93540636613673
 20
-63.06423700836769
 30
0.0
 10
-77.08612939304756
 20
-63.06423700836769
 30
0.0
 10
-77.2080858536794
 20
-63.18653797877533
 30
0.0
 10
-77.2080858536794
 20
-63.33743326057405
 30
0.0
 10
-77.2080858536794
 20
-63.48798403259698
 30
0.0
 10
-77.08612939304756
 20
-63.61011274811672
 30
0.0
 10
-76.93540636613673
 20
-63.61011274811672
 30
0.0
 10
-76.78468333922591
 20
-63.61011274811672
 30
0.0
 10
-76.66238236881827
 20
-63.48798403259698
 30
0.0
 10
-76.66238236881827
 20
-63.33743326057405
 30
0.0
  0
SPLINE
  5
672
330
1F
100
AcDbEntity
  8
BEMA_UNG
 62
     7
100
AcDbSpline
210
0.0
220
0.0
230
1.0
 70
    11
 71
     3
 72
    17
 73
    13
 74
     0
 42
0.0000000001
 43
0.0000000001
 40
0.0
 40
0.0
 40
0.0
 40
0.0
 40
1.0
 40
1.0
 40
1.0
 40
2.0
 40
2.0
 40
2.0
 40
3.0
 40
3.0
 40
3.0
 40
4.0
 40
4.0
 40
4.0
 40
4.0
 10
-76.69045991554566
 20
-63.33743326057405
 30
0.0
 10
-76.69045991554566
 20
-63.20238542846195
 30
0.0
 10
-76.80018627913674
 20
-63.09248680998297
 30
0.0
 10
-76.93540636613673
 20
-63.09248680998297
 30
0.0
 10
-77.07062645313673
 20
-63.09248680998297
 30
0.0
 10
-77.1801805618399
 20
-63.20238542846195
 30
0.0
 10
-77.1801805618399
 20
-63.33743326057405
 30
0.0
 10
-77.1801805618399
 20
-63.47265334757405
 30
0.0
 10
-77.07062645313673
 20
-63.58220745627723
 30
0.0
 10
-76.93540636613673
 20
-63.58220745627723
 30
0.0
 10
-76.80018627913674
 20
-63.58220745627723
 30
0.0
 10
-76.69045991554566
 20
-63.47265334757405
 30
0.0
 10
-76.69045991554566
 20
-63.33743326057405
 30
0.0
  0
SPLINE
  5
673
330
1F
100
AcDbEntity
  8
BEMA_UNG
 62
     7
100
AcDbSpline
210
0.0
220
0.0
230
1.0
 70
    11
 71
     3
 72
    17
 73
    13
 74
     0
 42
0.0000000001
 43
0.0000000001
 40
0.0
 40
0.0
 40
0.0
 40
0.0
 40
1.0
 40
1.0
 40
1.0
 40
2.0
 40
2.0
 40
2.0
 40
3.0
 40
3.0
 40
3.0
 40
4.0
 40
4.0
 40
4.0
 40
4.0
 10
-76.71836520738515
 20
-63.33743326057405
 30
0.0
 10
-76.71836520738515
 20
-63.21754385859698
 30
0.0
 10
-76.81534470927177
 20
-63.12056435671036
 30
0.0
 10
-76.93540636613673
 20
-63.12056435671036
 30
0.0
 10
-77.05512351322591
 20
-63.12056435671036
 30
0.0
 10
-77.15210301511252
 20
-63.21754385859698
 30
0.0
 10
-77.15210301511252
 20
-63.33743326057405
 30
0.0
 10
-77.15210301511252
 20
-63.45715040766322
 30
0.0
 10
-77.05512351322591
 20
-63.55430216443774
 30
0.0
 10
-76.93540636613673
 20
-63.55430216443774
 30
0.0
 10
-76.81534470927177
 20
-63.55430216443774
 30
0.0
 10
-76.71836520738515
 20
-63.45715040766322
 30
0.0
 10
-76.71836520738515
 20
-63.33743326057405
 30
0.0
  0
SPLINE
  5
674
330
1F
100
AcDbEntity
  8
BEMA_UNG
 62
     7
100
AcDbSpline
210
0.0
220
0.0
230
1.0
 70
    11
 71
     3
 72
    17
 73
    13
 74
     0
 42
0.0000000001
 43
0.0000000001
 40
0.0
 40
0.0
 40
0.0
 40
0.0
 40
1.0
 40
1.0
 40
1.0
 40
2.0
 40
2.0
 40
2.0
 40
3.0
 40
3.0
 40
3.0
 40
4.0
 40
4.0
 40
4.0
 40
4.0
 10
-76.74644275411254
 20
-63.33743326057405
 30
0.0
 10
-76.74644275411254
 20
-63.23287454361991
 30
0.0
 10
-76.83101990407049
 20
-63.14846964854985
 30
0.0
 10
-76.93540636613673
 20
-63.14846964854985
 30
0.0
 10
-77.03944831842718
 20
-63.14846964854985
 30
0.0
 10
-77.12419772327303
 20
-63.23287454361991
 30
0.0
 10
-77.12419772327303
 20
-63.33743326057405
 30
0.0
 10
-77.12419772327303
 20
-63.44164746775239
 30
0.0
 10
-77.03944831842718
 20
-63.52656912748615
 30
0.0
 10
-76.93540636613673
 20
-63.52656912748615
 30
0.0
 10
-76.83101990407049
 20
-63.52656912748615
 30
0.0
 10
-76.74644275411254
 20
-63.44164746775239
 30
0.0
 10
-76.74644275411254
 20
-63.33743326057405
 30
0.0
  0
SPLINE
  5
675
330
1F
100
AcDbEntity
  8
BEMA_UNG
 62
     7
100
AcDbSpline
210
0.0
220
0.0
230
1.0
 70
    11
 71
     3
 72
    17
 73
    13
 74
     0
 42
0.0000000001
 43
0.0000000001
 40
0.0
 40
0.0
 40
0.0
 40
0.0
 40
1.0
 40
1.0
 40
1.0
 40
2.0
 40
2.0
 40
2.0
 40
3.0
 40
3.0
 40
3.0
 40
4.0
 40
4.0
 40
4.0
 40
4.0
 10
-76.77417579106412
 20
-63.33743326057405
 30
0.0
 10
-76.77417579106412
 20
-63.24820522864285
 30
0.0
 10
-76.84617833420552
 20
-63.17620268550144
 30
0.0
 10
-76.93540636613673
 20
-63.17620268550144
 30
0.0
 10
-77.02428988829215
 20
-63.17620268550144
 30
0.0
 10
-77.09629243143354
 20
-63.24820522864285
 30
0.0
 10
-77.09629243143354
 20
-63.33743326057405
 30
0.0
 10
-77.09629243143354
 20
-63.42631678272947
 30
0.0
 10
-77.02428988829215
 20
-63.49849158075876
 30
0.0
 10
-76.93540636613673
 20
-63.49849158075876
 30
0.0
 10
-76.84617833420552
 20
-63.49849158075876
 30
0.0
 10
-76.77417579106412
 20
-63.42631678272947
 30
0.0
 10
-76.77417579106412
 20
-63.33743326057405
 30
0.0
  0
SPLINE
  5
676
330
1F
100
AcDbEntity
  8
BEMA_UNG
 62
     7
100
AcDbSpline
210
0.0
220
0.0
230
1.0
 70
    11
 71
     3
 72
    17
 73
    13
 74
     0
 42
0.0000000001
 43
0.0000000001
 40
0.0
 40
0.0
 40
0.0
 40
0.0
 40
1.0
 40
1.0
 40
1.0
 40
2.0
 40
2.0
 40
2.0
 40
3.0
 40
3.0
 40
3.0
 40
4.0
 40
4.0
 40
4.0
 40
4.0
 10
-76.80242559267941
 20
-63.33743326057405
 30
0.0
 10
-76.80242559267941
 20
-63.26370816855367
 30
0.0
 10
-76.86185352900425
 20
-63.20428023222883
 30
0.0
 10
-76.93540636613673
 20
-63.20428023222883
 30
0.0
 10
-77.00861469349341
 20
-63.20428023222883
 30
0.0
 10
-77.06838713959405
 20
-63.26370816855367
 30
0.0
 10
-77.06838713959405
 20
-63.33743326057405
 30
0.0
 10
-77.06838713959405
 20
-63.41081384281863
 30
0.0
 10
-77.00861469349341
 20
-63.47058628891927
 30
0.0
 10
-76.93540636613673
 20
-63.47058628891927
 30
0.0
 10
-76.86185352900425
 20
-63.47058628891927
 30
0.0
 10
-76.80242559267941
 20
-63.41081384281863
 30
0.0
 10
-76.80242559267941
 20
-63.33743326057405
 30
0.0
  0
SPLINE
  5
677
330
1F
100
AcDbEntity
  8
BEMA_UNG
 62
     7
100
AcDbSpline
210
0.0
220
0.0
230
1.0
 70
    11
 71
     3
 72
    17
 73
    13
 74
     0
 42
0.0000000001
 43
0.0000000001
 40
0.0
 40
0.0
 40
0.0
 40
0.0
 40
1.0
 40
1.0
 40
1.0
 40
2.0
 40
2.0
 40
2.0
 40
3.0
 40
3.0
 40
3.0
 40
4.0
 40
4.0
 40
4.0
 40
4.0
 10
-76.8303308845189
 20
-63.33743326057405
 30
0.0
 10
-76.8303308845189
 20
-63.27938336335239
 30
0.0
 10
-76.87701195913928
 20
-63.23235777895622
 30
0.0
 10
-76.93540636613673
 20
-63.23235777895622
 30
0.0
 10
-76.99345626335838
 20
-63.23235777895622
 30
0.0
 10
-77.04013733797876
 20
-63.27938336335239
 30
0.0
 10
-77.04013733797876
 20
-63.33743326057405
 30
0.0
 10
-77.04013733797876
 20
-63.3954831577957
 30
0.0
 10
-76.99345626335838
 20
-63.44268099707978
 30
0.0
 10
-76.93540636613673
 20
-63.44268099707978
 30
0.0
 10
-76.87701195913928
 20
-63.44268099707978
 30
0.0
 10
-76.8303308845189
 20
-63.3954831577957
 30
0.0
 10
-76.8303308845189
 20
-63.33743326057405
 30
0.0
  0
SPLINE
  5
678
330
1F
100
AcDbEntity
  8
BEMA_UNG
 62
     7
100
AcDbSpline
210
0.0
220
0.0
230
1.0
 70
    11
 71
     3
 72
    17
 73
    13
 74
     0
 42
0.0000000001
 43
0.0000000001
 40
0.0
 40
0.0
 40
0.0
 40
0.0
 40
1.0
 40
1.0
 40
1.0
 40
2.0
 40
2.0
 40
2.0
 40
3.0
 40
3.0
 40
3.0
 40
4.0
 40
4.0
 40
4.0
 40
4.0
 10
-76.85806392147049
 20
-63.33743326057405
 30
0.0
 10
-76.85806392147049
 20
-63.29454179348743
 30
0.0
 10
-76.8928594088259
 20
-63.26009081590781
 30
0.0
 10
-76.93540636613673
 20
-63.26009081590781
 30
0.0
 10
-76.97778106855966
 20
-63.26009081590781
 30
0.0
 10
-77.01257655591508
 20
-63.29454179348743
 30
0.0
 10
-77.01257655591508
 20
-63.33743326057405
 30
0.0
 10
-77.01257655591508
 20
-63.37963570810908
 30
0.0
 10
-76.97778106855966
 20
-63.41477570524029
 30
0.0
 10
-76.93540636613673
 20
-63.41477570524029
 30
0.0
 10
-76.8928594088259
 20
-63.41477570524029
 30
0.0
 10
-76.85806392147049
 20
-63.37963570810908
 30
0.0
 10
-76.85806392147049
 20
-63.33743326057405
 30
0.0
  0
SPLINE
  5
679
330
1F
100
AcDbEntity
  8
BEMA_UNG
 62
     7
100
AcDbSpline
210
0.0
220
0.0
230
1.0
 70
    11
 71
     3
 72
    17
 73
    13
 74
     0
 42
0.0000000001
 43
0.0000000001
 40
0.0
 40
0.0
 40
0.0
 40
0.0
 40
1.0
 40
1.0
 40
1.0
 40
2.0
 40
2.0
 40
2.0
 40
3.0
 40
3.0
 40
3.0
 40
4.0
 40
4.0
 40
4.0
 40
4.0
 10
-76.88596921330998
 20
-63.33743326057405
 30
0.0
 10
-76.88596921330998
 20
-63.31021698828615
 30
0.0
 10
-76.90801783896093
 20
-63.2879961077473
 30
0.0
 10
-76.93540636613673
 20
-63.2879961077473
 30
0.0
 10
-76.96262263842463
 20
-63.2879961077473
 30
0.0
 10
-76.98449900918769
 20
-63.31021698828615
 30
0.0
 10
-76.98449900918769
 20
-63.33743326057405
 30
0.0
 10
-76.98449900918769
 20
-63.36447727797405
 30
0.0
 10
-76.96262263842463
 20
-63.3868704134008
 30
0.0
 10
-76.93540636613673
 20
-63.3868704134008
 30
0.0
 10
-76.90801783896093
 20
-63.3868704134008
 30
0.0
 10
-76.88596921330998
 20
-63.36447727797405
 30
0.0
 10
-76.88596921330998
 20
-63.33743326057405
 30
0.0
  0
SPLINE
  5
67A
330
1F
100
AcDbEntity
  8
BEMA_UNG
 62
     7
100
AcDbSpline
210
0.0
220
0.0
230
1.0
 70
    11
 71
     3
 72
    17
 73
    13
 74
     0
 42
0.0000000001
 43
0.0000000001
 40
0.0
 40
0.0
 40
0.0
 40
0.0
 40
1.0
 40
1.0
 40
1.0
 40
2.0
 40
2.0
 40
2.0
 40
3.0
 40
3.0
 40
3.0
 40
4.0
 40
4.0
 40
4.0
 40
4.0
 10
-76.91370225026158
 20
-63.33743326057405
 30
0.0
 10
-76.91370225026158
 20
-63.32537541842118
 30
0.0
 10
-76.92369303375966
 20
-63.31607365447469
 30
0.0
 10
-76.93540636613673
 20
-63.31607365447469
 30
0.0
 10
-76.9469474436259
 20
-63.31607365447469
 30
0.0
 10
-76.9565937173482
 20
-63.32537541842118
 30
0.0
 10
-76.9565937173482
 20
-63.33743326057405
 30
0.0
 10
-76.9565937173482
 20
-63.34880208317532
 30
0.0
 10
-76.9469474436259
 20
-63.35896512156131
 30
0.0
 10
-76.93540636613673
 20
-63.35896512156131
 30
0.0
 10
-76.92369303375966
 20
-63.35896512156131
 30
0.0
 10
-76.91370225026158
 20
-63.34880208317532
 30
0.0
 10
-76.91370225026158
 20
-63.33743326057405
 30
0.0
  0
POLYLINE
  5
67B
330
1F
100
AcDbEntity
  8
BEMA_UNG
 62
     7
100
AcDb2dPolyline
 66
     1
 10
0.0
 20
0.0
 30
0.0
  0
VERTEX
  5
67C
330
67B
100
AcDbEntity
  8
BEMA_UNG
 62
     7
100
AcDbVertex
100
AcDb2dVertex
 10
-31.66664957163225
 20
-59.22898192931684
 30
0.0
  0
VERTEX
  5
67D
330
67B
100
AcDbEntity
  8
BEMA_UNG
 62
     7
100
AcDbVertex
100
AcDb2dVertex
 10
-22.34834915589747
 20
-59.22898192931684
 30
0.0
  0
SEQEND
  5
67E
330
67B
100
AcDbEntity
  8
BEMA_UNG
  0
POLYLINE
  5
67F
330
1F
100
AcDbEntity
  8
BEMA_UNG
 62
     7
100
AcDb2dPolyline
 66
     1
 10
0.0
 20
0.0
 30
0.0
  0
VERTEX
  5
680
330
67F
100
AcDbEntity
  8
BEMA_UNG
 62
     7
100
AcDbVertex
100
AcDb2dVertex
 10
-23.44836887001464
 20
-59.22898192931684
 30
0.0
  0
VERTEX
  5
681
330
67F
100
AcDbEntity
  8
BEMA_UNG
 62
     7
100
AcDbVertex
100
AcDb2dVertex
 10
-23.44836887001464
 20
-36.12891244263213
 30
0.0
  0
SEQEND
  5
682
330
67F
100
AcDbEntity
  8
BEMA_UNG
  0
POLYLINE
  5
683
330
1F
100
AcDbEntity
  8
BEMA_UNG
 62
     7
100
AcDb2dPolyline
 66
     1
 10
0.0
 20
0.0
 30
0.0
  0
VERTEX
  5
684
330
683
100
AcDbEntity
  8
BEMA_UNG
 62
     7
100
AcDbVertex
100
AcDb2dVertex
 10
-23.44836887001464
 20
-59.22898192931684
 30
0.0
  0
VERTEX
  5
685
330
683
100
AcDbEntity
  8
BEMA_UNG
 62
     7
100
AcDbVertex
100
AcDb2dVertex
 10
-23.26750123772165
 20
-57.85421566900223
 30
0.0
  0
VERTEX
  5
686
330
683
100
AcDbEntity
  8
BEMA_UNG
 62
     7
100
AcDbVertex
100
AcDb2dVertex
 10
-23.62958101208342
 20
-57.85421566900223
 30
0.0
  0
VERTEX
  5
687
330
683
100
AcDbEntity
  8
BEMA_UNG
 62
     7
100
AcDbVertex
100
AcDb2dVertex
 10
-23.44836887001464
 20
-59.22898192931684
 30
0.0
  0
SEQEND
  5
688
330
683
100
AcDbEntity
  8
BEMA_UNG
  0
POLYLINE
  5
689
330
1F
100
AcDbEntity
  8
BEMA_UNG
 62
     7
100
AcDb2dPolyline
 66
     1
 10
0.0
 20
0.0
 30
0.0
  0
VERTEX
  5
68A
330
689
100
AcDbEntity
  8
BEMA_UNG
 62
     7
100
AcDbVertex
100
AcDb2dVertex
 10
-23.2809371189777
 20
-57.85421566900223
 30
0.0
  0
VERTEX
  5
68B
330
689
100
AcDbEntity
  8
BEMA_UNG
 62
     7
100
AcDbVertex
100
AcDb2dVertex
 10
-23.2809371189777
 20
-57.9558460528621
 30
0.0
  0
SEQEND
  5
68C
330
689
100
AcDbEntity
  8
BEMA_UNG
  0
POLYLINE
  5
68D
330
1F
100
AcDbEntity
  8
BEMA_UNG
 62
     7
100
AcDb2dPolyline
 66
     1
 10
0.0
 20
0.0
 30
0.0
  0
VERTEX
  5
68E
330
68D
100
AcDbEntity
  8
BEMA_UNG
 62
     7
100
AcDbVertex
100
AcDb2dVertex
 10
-23.2809371189777
 20
-57.85421566900223
 30
0.0
  0
VERTEX
  5
68F
330
68D
100
AcDbEntity
  8
BEMA_UNG
 62
     7
100
AcDbVertex
100
AcDb2dVertex
 10
-23.2809371189777
 20
-57.9558460528621
 30
0.0
  0
SEQEND
  5
690
330
68D
100
AcDbEntity
  8
BEMA_UNG
  0
POLYLINE
  5
691
330
1F
100
AcDbEntity
  8
BEMA_UNG
 62
     7
100
AcDb2dPolyline
 66
     1
 10
0.0
 20
0.0
 30
0.0
  0
VERTEX
  5
692
330
691
100
AcDbEntity
  8
BEMA_UNG
 62
     7
100
AcDbVertex
100
AcDb2dVertex
 10
-23.30884241081719
 20
-57.85421566900223
 30
0.0
  0
VERTEX
  5
693
330
691
100
AcDbEntity
  8
BEMA_UNG
 62
     7
100
AcDbVertex
100
AcDb2dVertex
 10
-23.30884241081719
 20
-58.16806407475254
 30
0.0
  0
SEQEND
  5
694
330
691
100
AcDbEntity
  8
BEMA_UNG
  0
POLYLINE
  5
695
330
1F
100
AcDbEntity
  8
BEMA_UNG
 62
     7
100
AcDb2dPolyline
 66
     1
 10
0.0
 20
0.0
 30
0.0
  0
VERTEX
  5
696
330
695
100
AcDbEntity
  8
BEMA_UNG
 62
     7
100
AcDbVertex
100
AcDb2dVertex
 10
-23.33674770265668
 20
-57.85421566900223
 30
0.0
  0
VERTEX
  5
697
330
695
100
AcDbEntity
  8
BEMA_UNG
 62
     7
100
AcDbVertex
100
AcDb2dVertex
 10
-23.33674770265668
 20
-58.38028209664298
 30
0.0
  0
SEQEND
  5
698
330
695
100
AcDbEntity
  8
BEMA_UNG
  0
POLYLINE
  5
699
330
1F
100
AcDbEntity
  8
BEMA_UNG
 62
     7
100
AcDb2dPolyline
 66
     1
 10
0.0
 20
0.0
 30
0.0
  0
VERTEX
  5
69A
330
699
100
AcDbEntity
  8
BEMA_UNG
 62
     7
100
AcDbVertex
100
AcDb2dVertex
 10
-23.36465299449617
 20
-57.85421566900223
 30
0.0
  0
VERTEX
  5
69B
330
699
100
AcDbEntity
  8
BEMA_UNG
 62
     7
100
AcDbVertex
100
AcDb2dVertex
 10
-23.36465299449617
 20
-58.59232786364552
 30
0.0
  0
SEQEND
  5
69C
330
699
100
AcDbEntity
  8
BEMA_UNG
  0
POLYLINE
  5
69D
330
1F
100
AcDbEntity
  8
BEMA_UNG
 62
     7
100
AcDb2dPolyline
 66
     1
 10
0.0
 20
0.0
 30
0.0
  0
VERTEX
  5
69E
330
69D
100
AcDbEntity
  8
BEMA_UNG
 62
     7
100
AcDbVertex
100
AcDb2dVertex
 10
-23.39255828633566
 20
-57.85421566900223
 30
0.0
  0
VERTEX
  5
69F
330
69D
100
AcDbEntity
  8
BEMA_UNG
 62
     7
100
AcDbVertex
100
AcDb2dVertex
 10
-23.39255828633566
 20
-58.80489039531175
 30
0.0
  0
SEQEND
  5
6A0
330
69D
100
AcDbEntity
  8
BEMA_UNG
  0
POLYLINE
  5
6A1
330
1F
100
AcDbEntity
  8
BEMA_UNG
 62
     7
100
AcDb2dPolyline
 66
     1
 10
0.0
 20
0.0
 30
0.0
  0
VERTEX
  5
6A2
330
6A1
100
AcDbEntity
  8
BEMA_UNG
 62
     7
100
AcDbVertex
100
AcDb2dVertex
 10
-23.42046357817515
 20
-57.85421566900223
 30
0.0
  0
VERTEX
  5
6A3
330
6A1
100
AcDbEntity
  8
BEMA_UNG
 62
     7
100
AcDbVertex
100
AcDb2dVertex
 10
-23.42046357817515
 20
-59.0167639074264
 30
0.0
  0
SEQEND
  5
6A4
330
6A1
100
AcDbEntity
  8
BEMA_UNG
  0
POLYLINE
  5
6A5
330
1F
100
AcDbEntity
  8
BEMA_UNG
 62
     7
100
AcDb2dPolyline
 66
     1
 10
0.0
 20
0.0
 30
0.0
  0
VERTEX
  5
6A6
330
6A5
100
AcDbEntity
  8
BEMA_UNG
 62
     7
100
AcDbVertex
100
AcDb2dVertex
 10
-23.44836887001464
 20
-57.85421566900223
 30
0.0
  0
VERTEX
  5
6A7
330
6A5
100
AcDbEntity
  8
BEMA_UNG
 62
     7
100
AcDbVertex
100
AcDb2dVertex
 10
-23.44836887001464
 20
-59.22898192931684
 30
0.0
  0
SEQEND
  5
6A8
330
6A5
100
AcDbEntity
  8
BEMA_UNG
  0
POLYLINE
  5
6A9
330
1F
100
AcDbEntity
  8
BEMA_UNG
 62
     7
100
AcDb2dPolyline
 66
     1
 10
0.0
 20
0.0
 30
0.0
  0
VERTEX
  5
6AA
330
6A9
100
AcDbEntity
  8
BEMA_UNG
 62
     7
100
AcDbVertex
100
AcDb2dVertex
 10
-23.61614513082737
 20
-57.85421566900223
 30
0.0
  0
VERTEX
  5
6AB
330
6A9
100
AcDbEntity
  8
BEMA_UNG
 62
     7
100
AcDbVertex
100
AcDb2dVertex
 10
-23.61614513082737
 20
-57.9558460528621
 30
0.0
  0
SEQEND
  5
6AC
330
6A9
100
AcDbEntity
  8
BEMA_UNG
  0
POLYLINE
  5
6AD
330
1F
100
AcDbEntity
  8
BEMA_UNG
 62
     7
100
AcDb2dPolyline
 66
     1
 10
0.0
 20
0.0
 30
0.0
  0
VERTEX
  5
6AE
330
6AD
100
AcDbEntity
  8
BEMA_UNG
 62
     7
100
AcDbVertex
100
AcDb2dVertex
 10
-23.61614513082737
 20
-57.85421566900223
 30
0.0
  0
VERTEX
  5
6AF
330
6AD
100
AcDbEntity
  8
BEMA_UNG
 62
     7
100
AcDbVertex
100
AcDb2dVertex
 10
-23.61614513082737
 20
-57.9558460528621
 30
0.0
  0
SEQEND
  5
6B0
330
6AD
100
AcDbEntity
  8
BEMA_UNG
  0
POLYLINE
  5
6B1
330
1F
100
AcDbEntity
  8
BEMA_UNG
 62
     7
100
AcDb2dPolyline
 66
     1
 10
0.0
 20
0.0
 30
0.0
  0
VERTEX
  5
6B2
330
6B1
100
AcDbEntity
  8
BEMA_UNG
 62
     7
100
AcDbVertex
100
AcDb2dVertex
 10
-23.58823983898789
 20
-57.85421566900223
 30
0.0
  0
VERTEX
  5
6B3
330
6B1
100
AcDbEntity
  8
BEMA_UNG
 62
     7
100
AcDbVertex
100
AcDb2dVertex
 10
-23.58823983898789
 20
-58.16806407475254
 30
0.0
  0
SEQEND
  5
6B4
330
6B1
100
AcDbEntity
  8
BEMA_UNG
  0
POLYLINE
  5
6B5
330
1F
100
AcDbEntity
  8
BEMA_UNG
 62
     7
100
AcDb2dPolyline
 66
     1
 10
0.0
 20
0.0
 30
0.0
  0
VERTEX
  5
6B6
330
6B5
100
AcDbEntity
  8
BEMA_UNG
 62
     7
100
AcDbVertex
100
AcDb2dVertex
 10
-23.56033454714839
 20
-57.85421566900223
 30
0.0
  0
VERTEX
  5
6B7
330
6B5
100
AcDbEntity
  8
BEMA_UNG
 62
     7
100
AcDbVertex
100
AcDb2dVertex
 10
-23.56033454714839
 20
-58.38028209664298
 30
0.0
  0
SEQEND
  5
6B8
330
6B5
100
AcDbEntity
  8
BEMA_UNG
  0
POLYLINE
  5
6B9
330
1F
100
AcDbEntity
  8
BEMA_UNG
 62
     7
100
AcDb2dPolyline
 66
     1
 10
0.0
 20
0.0
 30
0.0
  0
VERTEX
  5
6BA
330
6B9
100
AcDbEntity
  8
BEMA_UNG
 62
     7
100
AcDbVertex
100
AcDb2dVertex
 10
-23.53242925530891
 20
-57.85421566900223
 30
0.0
  0
VERTEX
  5
6BB
330
6B9
100
AcDbEntity
  8
BEMA_UNG
 62
     7
100
AcDbVertex
100
AcDb2dVertex
 10
-23.53242925530891
 20
-58.59232786364552
 30
0.0
  0
SEQEND
  5
6BC
330
6B9
100
AcDbEntity
  8
BEMA_UNG
  0
POLYLINE
  5
6BD
330
1F
100
AcDbEntity
  8
BEMA_UNG
 62
     7
100
AcDb2dPolyline
 66
     1
 10
0.0
 20
0.0
 30
0.0
  0
VERTEX
  5
6BE
330
6BD
100
AcDbEntity
  8
BEMA_UNG
 62
     7
100
AcDbVertex
100
AcDb2dVertex
 10
-23.50452396346942
 20
-57.85421566900223
 30
0.0
  0
VERTEX
  5
6BF
330
6BD
100
AcDbEntity
  8
BEMA_UNG
 62
     7
100
AcDbVertex
100
AcDb2dVertex
 10
-23.50452396346942
 20
-58.80489039531175
 30
0.0
  0
SEQEND
  5
6C0
330
6BD
100
AcDbEntity
  8
BEMA_UNG
  0
POLYLINE
  5
6C1
330
1F
100
AcDbEntity
  8
BEMA_UNG
 62
     7
100
AcDb2dPolyline
 66
     1
 10
0.0
 20
0.0
 30
0.0
  0
VERTEX
  5
6C2
330
6C1
100
AcDbEntity
  8
BEMA_UNG
 62
     7
100
AcDbVertex
100
AcDb2dVertex
 10
-23.47661867162993
 20
-57.85421566900223
 30
0.0
  0
VERTEX
  5
6C3
330
6C1
100
AcDbEntity
  8
BEMA_UNG
 62
     7
100
AcDbVertex
100
AcDb2dVertex
 10
-23.47661867162993
 20
-59.0167639074264
 30
0.0
  0
SEQEND
  5
6C4
330
6C1
100
AcDbEntity
  8
BEMA_UNG
  0
POLYLINE
  5
6C5
330
1F
100
AcDbEntity
  8
BEMA_UNG
 62
     7
100
AcDb2dPolyline
 66
     1
 10
0.0
 20
0.0
 30
0.0
  0
VERTEX
  5
6C6
330
6C5
100
AcDbEntity
  8
BEMA_UNG
 62
     7
100
AcDbVertex
100
AcDb2dVertex
 10
-23.44836887001464
 20
-57.85421566900223
 30
0.0
  0
VERTEX
  5
6C7
330
6C5
100
AcDbEntity
  8
BEMA_UNG
 62
     7
100
AcDbVertex
100
AcDb2dVertex
 10
-23.44836887001464
 20
-59.22898192931684
 30
0.0
  0
SEQEND
  5
6C8
330
6C5
100
AcDbEntity
  8
BEMA_UNG
  0
POLYLINE
  5
6C9
330
1F
100
AcDbEntity
  8
BEMA_UNG
 62
     7
100
AcDb2dPolyline
 66
     1
 10
0.0
 20
0.0
 30
0.0
  0
VERTEX
  5
6CA
330
6C9
100
AcDbEntity
  8
BEMA_UNG
 62
     7
100
AcDbVertex
100
AcDb2dVertex
 10
-23.44836887001464
 20
-36.12891244263213
 30
0.0
  0
VERTEX
  5
6CB
330
6C9
100
AcDbEntity
  8
BEMA_UNG
 62
     7
100
AcDbVertex
100
AcDb2dVertex
 10
-23.62958101208342
 20
-37.50385095783464
 30
0.0
  0
VERTEX
  5
6CC
330
6C9
100
AcDbEntity
  8
BEMA_UNG
 62
     7
100
AcDbVertex
100
AcDb2dVertex
 10
-23.26750123772165
 20
-37.50385095783464
 30
0.0
  0
VERTEX
  5
6CD
330
6C9
100
AcDbEntity
  8
BEMA_UNG
 62
     7
100
AcDbVertex
100
AcDb2dVertex
 10
-23.44836887001464
 20
-36.12891244263213
 30
0.0
  0
SEQEND
  5
6CE
330
6C9
100
AcDbEntity
  8
BEMA_UNG
  0
POLYLINE
  5
6CF
330
1F
100
AcDbEntity
  8
BEMA_UNG
 62
     7
100
AcDb2dPolyline
 66
     1
 10
0.0
 20
0.0
 30
0.0
  0
VERTEX
  5
6D0
330
6CF
100
AcDbEntity
  8
BEMA_UNG
 62
     7
100
AcDbVertex
100
AcDb2dVertex
 10
-23.61614513082737
 20
-37.50385095783464
 30
0.0
  0
VERTEX
  5
6D1
330
6CF
100
AcDbEntity
  8
BEMA_UNG
 62
     7
100
AcDbVertex
100
AcDb2dVertex
 10
-23.61614513082737
 20
-37.40222057397477
 30
0.0
  0
SEQEND
  5
6D2
330
6CF
100
AcDbEntity
  8
BEMA_UNG
  0
POLYLINE
  5
6D3
330
1F
100
AcDbEntity
  8
BEMA_UNG
 62
     7
100
AcDb2dPolyline
 66
     1
 10
0.0
 20
0.0
 30
0.0
  0
VERTEX
  5
6D4
330
6D3
100
AcDbEntity
  8
BEMA_UNG
 62
     7
100
AcDbVertex
100
AcDb2dVertex
 10
-23.61614513082737
 20
-37.50385095783464
 30
0.0
  0
VERTEX
  5
6D5
330
6D3
100
AcDbEntity
  8
BEMA_UNG
 62
     7
100
AcDbVertex
100
AcDb2dVertex
 10
-23.61614513082737
 20
-37.40222057397477
 30
0.0
  0
SEQEND
  5
6D6
330
6D3
100
AcDbEntity
  8
BEMA_UNG
  0
POLYLINE
  5
6D7
330
1F
100
AcDbEntity
  8
BEMA_UNG
 62
     7
100
AcDb2dPolyline
 66
     1
 10
0.0
 20
0.0
 30
0.0
  0
VERTEX
  5
6D8
330
6D7
100
AcDbEntity
  8
BEMA_UNG
 62
     7
100
AcDbVertex
100
AcDb2dVertex
 10
-23.58823983898789
 20
-37.50385095783464
 30
0.0
  0
VERTEX
  5
6D9
330
6D7
100
AcDbEntity
  8
BEMA_UNG
 62
     7
100
AcDbVertex
100
AcDb2dVertex
 10
-23.58823983898789
 20
-37.19017480697222
 30
0.0
  0
SEQEND
  5
6DA
330
6D7
100
AcDbEntity
  8
BEMA_UNG
  0
POLYLINE
  5
6DB
330
1F
100
AcDbEntity
  8
BEMA_UNG
 62
     7
100
AcDb2dPolyline
 66
     1
 10
0.0
 20
0.0
 30
0.0
  0
VERTEX
  5
6DC
330
6DB
100
AcDbEntity
  8
BEMA_UNG
 62
     7
100
AcDbVertex
100
AcDb2dVertex
 10
-23.56033454714839
 20
-37.50385095783464
 30
0.0
  0
VERTEX
  5
6DD
330
6DB
100
AcDbEntity
  8
BEMA_UNG
 62
     7
100
AcDbVertex
100
AcDb2dVertex
 10
-23.56033454714839
 20
-36.97812903996968
 30
0.0
  0
SEQEND
  5
6DE
330
6DB
100
AcDbEntity
  8
BEMA_UNG
  0
POLYLINE
  5
6DF
330
1F
100
AcDbEntity
  8
BEMA_UNG
 62
     7
100
AcDb2dPolyline
 66
     1
 10
0.0
 20
0.0
 30
0.0
  0
VERTEX
  5
6E0
330
6DF
100
AcDbEntity
  8
BEMA_UNG
 62
     7
100
AcDbVertex
100
AcDb2dVertex
 10
-23.53242925530891
 20
-37.50385095783464
 30
0.0
  0
VERTEX
  5
6E1
330
6DF
100
AcDbEntity
  8
BEMA_UNG
 62
     7
100
AcDbVertex
100
AcDb2dVertex
 10
-23.53242925530891
 20
-36.76591101807924
 30
0.0
  0
SEQEND
  5
6E2
330
6DF
100
AcDbEntity
  8
BEMA_UNG
  0
POLYLINE
  5
6E3
330
1F
100
AcDbEntity
  8
BEMA_UNG
 62
     7
100
AcDb2dPolyline
 66
     1
 10
0.0
 20
0.0
 30
0.0
  0
VERTEX
  5
6E4
330
6E3
100
AcDbEntity
  8
BEMA_UNG
 62
     7
100
AcDbVertex
100
AcDb2dVertex
 10
-23.50452396346942
 20
-37.50385095783464
 30
0.0
  0
VERTEX
  5
6E5
330
6E3
100
AcDbEntity
  8
BEMA_UNG
 62
     7
100
AcDbVertex
100
AcDb2dVertex
 10
-23.50452396346942
 20
-36.5535207413009
 30
0.0
  0
SEQEND
  5
6E6
330
6E3
100
AcDbEntity
  8
BEMA_UNG
  0
POLYLINE
  5
6E7
330
1F
100
AcDbEntity
  8
BEMA_UNG
 62
     7
100
AcDb2dPolyline
 66
     1
 10
0.0
 20
0.0
 30
0.0
  0
VERTEX
  5
6E8
330
6E7
100
AcDbEntity
  8
BEMA_UNG
 62
     7
100
AcDbVertex
100
AcDb2dVertex
 10
-23.47661867162993
 20
-37.50385095783464
 30
0.0
  0
VERTEX
  5
6E9
330
6E7
100
AcDbEntity
  8
BEMA_UNG
 62
     7
100
AcDbVertex
100
AcDb2dVertex
 10
-23.47661867162993
 20
-36.34147497429836
 30
0.0
  0
SEQEND
  5
6EA
330
6E7
100
AcDbEntity
  8
BEMA_UNG
  0
POLYLINE
  5
6EB
330
1F
100
AcDbEntity
  8
BEMA_UNG
 62
     7
100
AcDb2dPolyline
 66
     1
 10
0.0
 20
0.0
 30
0.0
  0
VERTEX
  5
6EC
330
6EB
100
AcDbEntity
  8
BEMA_UNG
 62
     7
100
AcDbVertex
100
AcDb2dVertex
 10
-23.44836887001464
 20
-37.50385095783464
 30
0.0
  0
VERTEX
  5
6ED
330
6EB
100
AcDbEntity
  8
BEMA_UNG
 62
     7
100
AcDbVertex
100
AcDb2dVertex
 10
-23.44836887001464
 20
-36.12891244263213
 30
0.0
  0
SEQEND
  5
6EE
330
6EB
100
AcDbEntity
  8
BEMA_UNG
  0
POLYLINE
  5
6EF
330
1F
100
AcDbEntity
  8
BEMA_UNG
 62
     7
100
AcDb2dPolyline
 66
     1
 10
0.0
 20
0.0
 30
0.0
  0
VERTEX
  5
6F0
330
6EF
100
AcDbEntity
  8
BEMA_UNG
 62
     7
100
AcDbVertex
100
AcDb2dVertex
 10
-23.2809371189777
 20
-37.50385095783464
 30
0.0
  0
VERTEX
  5
6F1
330
6EF
100
AcDbEntity
  8
BEMA_UNG
 62
     7
100
AcDbVertex
100
AcDb2dVertex
 10
-23.2809371189777
 20
-37.40222057397477
 30
0.0
  0
SEQEND
  5
6F2
330
6EF
100
AcDbEntity
  8
BEMA_UNG
  0
POLYLINE
  5
6F3
330
1F
100
AcDbEntity
  8
BEMA_UNG
 62
     7
100
AcDb2dPolyline
 66
     1
 10
0.0
 20
0.0
 30
0.0
  0
VERTEX
  5
6F4
330
6F3
100
AcDbEntity
  8
BEMA_UNG
 62
     7
100
AcDbVertex
100
AcDb2dVertex
 10
-23.2809371189777
 20
-37.50385095783464
 30
0.0
  0
VERTEX
  5
6F5
330
6F3
100
AcDbEntity
  8
BEMA_UNG
 62
     7
100
AcDbVertex
100
AcDb2dVertex
 10
-23.2809371189777
 20
-37.40222057397477
 30
0.0
  0
SEQEND
  5
6F6
330
6F3
100
AcDbEntity
  8
BEMA_UNG
  0
POLYLINE
  5
6F7
330
1F
100
AcDbEntity
  8
BEMA_UNG
 62
     7
100
AcDb2dPolyline
 66
     1
 10
0.0
 20
0.0
 30
0.0
  0
VERTEX
  5
6F8
330
6F7
100
AcDbEntity
  8
BEMA_UNG
 62
     7
100
AcDbVertex
100
AcDb2dVertex
 10
-23.30884241081719
 20
-37.50385095783464
 30
0.0
  0
VERTEX
  5
6F9
330
6F7
100
AcDbEntity
  8
BEMA_UNG
 62
     7
100
AcDbVertex
100
AcDb2dVertex
 10
-23.30884241081719
 20
-37.19017480697222
 30
0.0
  0
SEQEND
  5
6FA
330
6F7
100
AcDbEntity
  8
BEMA_UNG
  0
POLYLINE
  5
6FB
330
1F
100
AcDbEntity
  8
BEMA_UNG
 62
     7
100
AcDb2dPolyline
 66
     1
 10
0.0
 20
0.0
 30
0.0
  0
VERTEX
  5
6FC
330
6FB
100
AcDbEntity
  8
BEMA_UNG
 62
     7
100
AcDbVertex
100
AcDb2dVertex
 10
-23.33674770265668
 20
-37.50385095783464
 30
0.0
  0
VERTEX
  5
6FD
330
6FB
100
AcDbEntity
  8
BEMA_UNG
 62
     7
100
AcDbVertex
100
AcDb2dVertex
 10
-23.33674770265668
 20
-36.97812903996968
 30
0.0
  0
SEQEND
  5
6FE
330
6FB
100
AcDbEntity
  8
BEMA_UNG
  0
POLYLINE
  5
6FF
330
1F
100
AcDbEntity
  8
BEMA_UNG
 62
     7
100
AcDb2dPolyline
 66
     1
 10
0.0
 20
0.0
 30
0.0
  0
VERTEX
  5
700
330
6FF
100
AcDbEntity
  8
BEMA_UNG
 62
     7
100
AcDbVertex
100
AcDb2dVertex
 10
-23.36465299449617
 20
-37.50385095783464
 30
0.0
  0
VERTEX
  5
701
330
6FF
100
AcDbEntity
  8
BEMA_UNG
 62
     7
100
AcDbVertex
100
AcDb2dVertex
 10
-23.36465299449617
 20
-36.76591101807924
 30
0.0
  0
SEQEND
  5
702
330
6FF
100
AcDbEntity
  8
BEMA_UNG
  0
POLYLINE
  5
703
330
1F
100
AcDbEntity
  8
BEMA_UNG
 62
     7
100
AcDb2dPolyline
 66
     1
 10
0.0
 20
0.0
 30
0.0
  0
VERTEX
  5
704
330
703
100
AcDbEntity
  8
BEMA_UNG
 62
     7
100
AcDbVertex
100
AcDb2dVertex
 10
-23.39255828633566
 20
-37.50385095783464
 30
0.0
  0
VERTEX
  5
705
330
703
100
AcDbEntity
  8
BEMA_UNG
 62
     7
100
AcDbVertex
100
AcDb2dVertex
 10
-23.39255828633566
 20
-36.5535207413009
 30
0.0
  0
SEQEND
  5
706
330
703
100
AcDbEntity
  8
BEMA_UNG
  0
POLYLINE
  5
707
330
1F
100
AcDbEntity
  8
BEMA_UNG
 62
     7
100
AcDb2dPolyline
 66
     1
 10
0.0
 20
0.0
 30
0.0
  0
VERTEX
  5
708
330
707
100
AcDbEntity
  8
BEMA_UNG
 62
     7
100
AcDbVertex
100
AcDb2dVertex
 10
-23.42046357817515
 20
-37.50385095783464
 30
0.0
  0
VERTEX
  5
709
330
707
100
AcDbEntity
  8
BEMA_UNG
 62
     7
100
AcDbVertex
100
AcDb2dVertex
 10
-23.42046357817515
 20
-36.34147497429836
 30
0.0
  0
SEQEND
  5
70A
330
707
100
AcDbEntity
  8
BEMA_UNG
  0
POLYLINE
  5
70B
330
1F
100
AcDbEntity
  8
BEMA_UNG
 62
     7
100
AcDb2dPolyline
 66
     1
 10
0.0
 20
0.0
 30
0.0
  0
VERTEX
  5
70C
330
70B
100
AcDbEntity
  8
BEMA_UNG
 62
     7
100
AcDbVertex
100
AcDb2dVertex
 10
-23.44836887001464
 20
-37.50385095783464
 30
0.0
  0
VERTEX
  5
70D
330
70B
100
AcDbEntity
  8
BEMA_UNG
 62
     7
100
AcDbVertex
100
AcDb2dVertex
 10
-23.44836887001464
 20
-36.12891244263213
 30
0.0
  0
SEQEND
  5
70E
330
70B
100
AcDbEntity
  8
BEMA_UNG
  0
POLYLINE
  5
70F
330
1F
100
AcDbEntity
  8
BEMA_UNG
 62
     7
100
AcDb2dPolyline
 66
     1
 10
0.0
 20
0.0
 30
0.0
  0
VERTEX
  5
710
330
70F
100
AcDbEntity
  8
BEMA_UNG
 62
     7
100
AcDbVertex
100
AcDb2dVertex
 10
-68.03275699490004
 20
-36.12891244263213
 30
0.0
  0
VERTEX
  5
711
330
70F
100
AcDbEntity
  8
BEMA_UNG
 62
     7
100
AcDbVertex
100
AcDb2dVertex
 10
-58.3062124948468
 20
-36.12891244263213
 30
0.0
  0
SEQEND
  5
712
330
70F
100
AcDbEntity
  8
BEMA_UNG
  0
POLYLINE
  5
713
330
1F
100
AcDbEntity
  8
BEMA_UNG
 62
     7
100
AcDb2dPolyline
 66
     1
 10
0.0
 20
0.0
 30
0.0
  0
VERTEX
  5
714
330
713
100
AcDbEntity
  8
BEMA_UNG
 62
     7
100
AcDbVertex
100
AcDb2dVertex
 10
-74.357439713854
 20
-44.40765460990196
 30
0.0
  0
VERTEX
  5
715
330
713
100
AcDbEntity
  8
BEMA_UNG
 62
     7
100
AcDbVertex
100
AcDb2dVertex
 10
-58.3062124948468
 20
-44.40765460990196
 30
0.0
  0
SEQEND
  5
716
330
713
100
AcDbEntity
  8
BEMA_UNG
  0
POLYLINE
  5
717
330
1F
100
AcDbEntity
  8
BEMA_UNG
 62
     7
100
AcDb2dPolyline
 66
     1
 10
0.0
 20
0.0
 30
0.0
  0
VERTEX
  5
718
330
717
100
AcDbEntity
  8
BEMA_UNG
 62
     7
100
AcDbVertex
100
AcDb2dVertex
 10
-59.40605995407607
 20
-36.12891244263213
 30
0.0
  0
VERTEX
  5
719
330
717
100
AcDbEntity
  8
BEMA_UNG
 62
     7
100
AcDbVertex
100
AcDb2dVertex
 10
-59.40605995407607
 20
-44.40765460990196
 30
0.0
  0
SEQEND
  5
71A
330
717
100
AcDbEntity
  8
BEMA_UNG
  0
POLYLINE
  5
71B
330
1F
100
AcDbEntity
  8
BEMA_UNG
 62
     7
100
AcDb2dPolyline
 66
     1
 10
0.0
 20
0.0
 30
0.0
  0
VERTEX
  5
71C
330
71B
100
AcDbEntity
  8
BEMA_UNG
 62
     7
100
AcDbVertex
100
AcDb2dVertex
 10
-59.40605995407607
 20
-36.12891244263213
 30
0.0
  0
VERTEX
  5
71D
330
71B
100
AcDbEntity
  8
BEMA_UNG
 62
     7
100
AcDbVertex
100
AcDb2dVertex
 10
-59.58709984125696
 20
-37.50385095783464
 30
0.0
  0
VERTEX
  5
71E
330
71B
100
AcDbEntity
  8
BEMA_UNG
 62
     7
100
AcDbVertex
100
AcDb2dVertex
 10
-59.22519232178308
 20
-37.50385095783464
 30
0.0
  0
VERTEX
  5
71F
330
71B
100
AcDbEntity
  8
BEMA_UNG
 62
     7
100
AcDbVertex
100
AcDb2dVertex
 10
-59.40605995407607
 20
-36.12891244263213
 30
0.0
  0
SEQEND
  5
720
330
71B
100
AcDbEntity
  8
BEMA_UNG
  0
POLYLINE
  5
721
330
1F
100
AcDbEntity
  8
BEMA_UNG
 62
     7
100
AcDb2dPolyline
 66
     1
 10
0.0
 20
0.0
 30
0.0
  0
VERTEX
  5
722
330
721
100
AcDbEntity
  8
BEMA_UNG
 62
     7
100
AcDbVertex
100
AcDb2dVertex
 10
-59.5738362148888
 20
-37.50385095783464
 30
0.0
  0
VERTEX
  5
723
330
721
100
AcDbEntity
  8
BEMA_UNG
 62
     7
100
AcDbVertex
100
AcDb2dVertex
 10
-59.5738362148888
 20
-37.40222057397477
 30
0.0
  0
SEQEND
  5
724
330
721
100
AcDbEntity
  8
BEMA_UNG
  0
POLYLINE
  5
725
330
1F
100
AcDbEntity
  8
BEMA_UNG
 62
     7
100
AcDb2dPolyline
 66
     1
 10
0.0
 20
0.0
 30
0.0
  0
VERTEX
  5
726
330
725
100
AcDbEntity
  8
BEMA_UNG
 62
     7
100
AcDbVertex
100
AcDb2dVertex
 10
-59.5738362148888
 20
-37.50385095783464
 30
0.0
  0
VERTEX
  5
727
330
725
100
AcDbEntity
  8
BEMA_UNG
 62
     7
100
AcDbVertex
100
AcDb2dVertex
 10
-59.5738362148888
 20
-37.40222057397477
 30
0.0
  0
SEQEND
  5
728
330
725
100
AcDbEntity
  8
BEMA_UNG
  0
POLYLINE
  5
729
330
1F
100
AcDbEntity
  8
BEMA_UNG
 62
     7
100
AcDb2dPolyline
 66
     1
 10
0.0
 20
0.0
 30
0.0
  0
VERTEX
  5
72A
330
729
100
AcDbEntity
  8
BEMA_UNG
 62
     7
100
AcDbVertex
100
AcDb2dVertex
 10
-59.54593092304931
 20
-37.50385095783464
 30
0.0
  0
VERTEX
  5
72B
330
729
100
AcDbEntity
  8
BEMA_UNG
 62
     7
100
AcDbVertex
100
AcDb2dVertex
 10
-59.54593092304931
 20
-37.19017480697222
 30
0.0
  0
SEQEND
  5
72C
330
729
100
AcDbEntity
  8
BEMA_UNG
  0
POLYLINE
  5
72D
330
1F
100
AcDbEntity
  8
BEMA_UNG
 62
     7
100
AcDb2dPolyline
 66
     1
 10
0.0
 20
0.0
 30
0.0
  0
VERTEX
  5
72E
330
72D
100
AcDbEntity
  8
BEMA_UNG
 62
     7
100
AcDbVertex
100
AcDb2dVertex
 10
-59.51802563120982
 20
-37.50385095783464
 30
0.0
  0
VERTEX
  5
72F
330
72D
100
AcDbEntity
  8
BEMA_UNG
 62
     7
100
AcDbVertex
100
AcDb2dVertex
 10
-59.51802563120982
 20
-36.97812903996968
 30
0.0
  0
SEQEND
  5
730
330
72D
100
AcDbEntity
  8
BEMA_UNG
  0
POLYLINE
  5
731
330
1F
100
AcDbEntity
  8
BEMA_UNG
 62
     7
100
AcDb2dPolyline
 66
     1
 10
0.0
 20
0.0
 30
0.0
  0
VERTEX
  5
732
330
731
100
AcDbEntity
  8
BEMA_UNG
 62
     7
100
AcDbVertex
100
AcDb2dVertex
 10
-59.49012033937034
 20
-37.50385095783464
 30
0.0
  0
VERTEX
  5
733
330
731
100
AcDbEntity
  8
BEMA_UNG
 62
     7
100
AcDbVertex
100
AcDb2dVertex
 10
-59.49012033937034
 20
-36.76591101807924
 30
0.0
  0
SEQEND
  5
734
330
731
100
AcDbEntity
  8
BEMA_UNG
  0
POLYLINE
  5
735
330
1F
100
AcDbEntity
  8
BEMA_UNG
 62
     7
100
AcDb2dPolyline
 66
     1
 10
0.0
 20
0.0
 30
0.0
  0
VERTEX
  5
736
330
735
100
AcDbEntity
  8
BEMA_UNG
 62
     7
100
AcDbVertex
100
AcDb2dVertex
 10
-59.46204279264295
 20
-37.50385095783464
 30
0.0
  0
VERTEX
  5
737
330
735
100
AcDbEntity
  8
BEMA_UNG
 62
     7
100
AcDbVertex
100
AcDb2dVertex
 10
-59.46204279264295
 20
-36.5535207413009
 30
0.0
  0
SEQEND
  5
738
330
735
100
AcDbEntity
  8
BEMA_UNG
  0
POLYLINE
  5
739
330
1F
100
AcDbEntity
  8
BEMA_UNG
 62
     7
100
AcDb2dPolyline
 66
     1
 10
0.0
 20
0.0
 30
0.0
  0
VERTEX
  5
73A
330
739
100
AcDbEntity
  8
BEMA_UNG
 62
     7
100
AcDbVertex
100
AcDb2dVertex
 10
-59.43413750080346
 20
-37.50385095783464
 30
0.0
  0
VERTEX
  5
73B
330
739
100
AcDbEntity
  8
BEMA_UNG
 62
     7
100
AcDbVertex
100
AcDb2dVertex
 10
-59.43413750080346
 20
-36.34147497429836
 30
0.0
  0
SEQEND
  5
73C
330
739
100
AcDbEntity
  8
BEMA_UNG
  0
POLYLINE
  5
73D
330
1F
100
AcDbEntity
  8
BEMA_UNG
 62
     7
100
AcDb2dPolyline
 66
     1
 10
0.0
 20
0.0
 30
0.0
  0
VERTEX
  5
73E
330
73D
100
AcDbEntity
  8
BEMA_UNG
 62
     7
100
AcDbVertex
100
AcDb2dVertex
 10
-59.40605995407607
 20
-37.50385095783464
 30
0.0
  0
VERTEX
  5
73F
330
73D
100
AcDbEntity
  8
BEMA_UNG
 62
     7
100
AcDbVertex
100
AcDb2dVertex
 10
-59.40605995407607
 20
-36.12891244263213
 30
0.0
  0
SEQEND
  5
740
330
73D
100
AcDbEntity
  8
BEMA_UNG
  0
POLYLINE
  5
741
330
1F
100
AcDbEntity
  8
BEMA_UNG
 62
     7
100
AcDb2dPolyline
 66
     1
 10
0.0
 20
0.0
 30
0.0
  0
VERTEX
  5
742
330
741
100
AcDbEntity
  8
BEMA_UNG
 62
     7
100
AcDbVertex
100
AcDb2dVertex
 10
-59.23828369326333
 20
-37.50385095783464
 30
0.0
  0
VERTEX
  5
743
330
741
100
AcDbEntity
  8
BEMA_UNG
 62
     7
100
AcDbVertex
100
AcDb2dVertex
 10
-59.23828369326333
 20
-37.40222057397477
 30
0.0
  0
SEQEND
  5
744
330
741
100
AcDbEntity
  8
BEMA_UNG
  0
POLYLINE
  5
745
330
1F
100
AcDbEntity
  8
BEMA_UNG
 62
     7
100
AcDb2dPolyline
 66
     1
 10
0.0
 20
0.0
 30
0.0
  0
VERTEX
  5
746
330
745
100
AcDbEntity
  8
BEMA_UNG
 62
     7
100
AcDbVertex
100
AcDb2dVertex
 10
-59.23828369326333
 20
-37.50385095783464
 30
0.0
  0
VERTEX
  5
747
330
745
100
AcDbEntity
  8
BEMA_UNG
 62
     7
100
AcDbVertex
100
AcDb2dVertex
 10
-59.23828369326333
 20
-37.40222057397477
 30
0.0
  0
SEQEND
  5
748
330
745
100
AcDbEntity
  8
BEMA_UNG
  0
POLYLINE
  5
749
330
1F
100
AcDbEntity
  8
BEMA_UNG
 62
     7
100
AcDb2dPolyline
 66
     1
 10
0.0
 20
0.0
 30
0.0
  0
VERTEX
  5
74A
330
749
100
AcDbEntity
  8
BEMA_UNG
 62
     7
100
AcDbVertex
100
AcDb2dVertex
 10
-59.26636123999072
 20
-37.50385095783464
 30
0.0
  0
VERTEX
  5
74B
330
749
100
AcDbEntity
  8
BEMA_UNG
 62
     7
100
AcDbVertex
100
AcDb2dVertex
 10
-59.26636123999072
 20
-37.19017480697222
 30
0.0
  0
SEQEND
  5
74C
330
749
100
AcDbEntity
  8
BEMA_UNG
  0
POLYLINE
  5
74D
330
1F
100
AcDbEntity
  8
BEMA_UNG
 62
     7
100
AcDb2dPolyline
 66
     1
 10
0.0
 20
0.0
 30
0.0
  0
VERTEX
  5
74E
330
74D
100
AcDbEntity
  8
BEMA_UNG
 62
     7
100
AcDbVertex
100
AcDb2dVertex
 10
-59.29426653183021
 20
-37.50385095783464
 30
0.0
  0
VERTEX
  5
74F
330
74D
100
AcDbEntity
  8
BEMA_UNG
 62
     7
100
AcDbVertex
100
AcDb2dVertex
 10
-59.29426653183021
 20
-36.97812903996968
 30
0.0
  0
SEQEND
  5
750
330
74D
100
AcDbEntity
  8
BEMA_UNG
  0
POLYLINE
  5
751
330
1F
100
AcDbEntity
  8
BEMA_UNG
 62
     7
100
AcDb2dPolyline
 66
     1
 10
0.0
 20
0.0
 30
0.0
  0
VERTEX
  5
752
330
751
100
AcDbEntity
  8
BEMA_UNG
 62
     7
100
AcDbVertex
100
AcDb2dVertex
 10
-59.32217182366971
 20
-37.50385095783464
 30
0.0
  0
VERTEX
  5
753
330
751
100
AcDbEntity
  8
BEMA_UNG
 62
     7
100
AcDbVertex
100
AcDb2dVertex
 10
-59.32217182366971
 20
-36.76591101807924
 30
0.0
  0
SEQEND
  5
754
330
751
100
AcDbEntity
  8
BEMA_UNG
  0
POLYLINE
  5
755
330
1F
100
AcDbEntity
  8
BEMA_UNG
 62
     7
100
AcDb2dPolyline
 66
     1
 10
0.0
 20
0.0
 30
0.0
  0
VERTEX
  5
756
330
755
100
AcDbEntity
  8
BEMA_UNG
 62
     7
100
AcDbVertex
100
AcDb2dVertex
 10
-59.35007711550919
 20
-37.50385095783464
 30
0.0
  0
VERTEX
  5
757
330
755
100
AcDbEntity
  8
BEMA_UNG
 62
     7
100
AcDbVertex
100
AcDb2dVertex
 10
-59.35007711550919
 20
-36.5535207413009
 30
0.0
  0
SEQEND
  5
758
330
755
100
AcDbEntity
  8
BEMA_UNG
  0
POLYLINE
  5
759
330
1F
100
AcDbEntity
  8
BEMA_UNG
 62
     7
100
AcDb2dPolyline
 66
     1
 10
0.0
 20
0.0
 30
0.0
  0
VERTEX
  5
75A
330
759
100
AcDbEntity
  8
BEMA_UNG
 62
     7
100
AcDbVertex
100
AcDb2dVertex
 10
-59.37798240734868
 20
-37.50385095783464
 30
0.0
  0
VERTEX
  5
75B
330
759
100
AcDbEntity
  8
BEMA_UNG
 62
     7
100
AcDbVertex
100
AcDb2dVertex
 10
-59.37798240734868
 20
-36.34147497429836
 30
0.0
  0
SEQEND
  5
75C
330
759
100
AcDbEntity
  8
BEMA_UNG
  0
POLYLINE
  5
75D
330
1F
100
AcDbEntity
  8
BEMA_UNG
 62
     7
100
AcDb2dPolyline
 66
     1
 10
0.0
 20
0.0
 30
0.0
  0
VERTEX
  5
75E
330
75D
100
AcDbEntity
  8
BEMA_UNG
 62
     7
100
AcDbVertex
100
AcDb2dVertex
 10
-59.40605995407607
 20
-37.50385095783464
 30
0.0
  0
VERTEX
  5
75F
330
75D
100
AcDbEntity
  8
BEMA_UNG
 62
     7
100
AcDbVertex
100
AcDb2dVertex
 10
-59.40605995407607
 20
-36.12891244263213
 30
0.0
  0
SEQEND
  5
760
330
75D
100
AcDbEntity
  8
BEMA_UNG
  0
POLYLINE
  5
761
330
1F
100
AcDbEntity
  8
BEMA_UNG
 62
     7
100
AcDb2dPolyline
 66
     1
 10
0.0
 20
0.0
 30
0.0
  0
VERTEX
  5
762
330
761
100
AcDbEntity
  8
BEMA_UNG
 62
     7
100
AcDbVertex
100
AcDb2dVertex
 10
-59.40605995407607
 20
-44.40765460990196
 30
0.0
  0
VERTEX
  5
763
330
761
100
AcDbEntity
  8
BEMA_UNG
 62
     7
100
AcDbVertex
100
AcDb2dVertex
 10
-59.22519232178308
 20
-43.03288834958735
 30
0.0
  0
VERTEX
  5
764
330
761
100
AcDbEntity
  8
BEMA_UNG
 62
     7
100
AcDbVertex
100
AcDb2dVertex
 10
-59.58709984125696
 20
-43.03288834958735
 30
0.0
  0
VERTEX
  5
765
330
761
100
AcDbEntity
  8
BEMA_UNG
 62
     7
100
AcDbVertex
100
AcDb2dVertex
 10
-59.40605995407607
 20
-44.40765460990196
 30
0.0
  0
SEQEND
  5
766
330
761
100
AcDbEntity
  8
BEMA_UNG
  0
POLYLINE
  5
767
330
1F
100
AcDbEntity
  8
BEMA_UNG
 62
     7
100
AcDb2dPolyline
 66
     1
 10
0.0
 20
0.0
 30
0.0
  0
VERTEX
  5
768
330
767
100
AcDbEntity
  8
BEMA_UNG
 62
     7
100
AcDbVertex
100
AcDb2dVertex
 10
-59.23828369326333
 20
-43.03288834958735
 30
0.0
  0
VERTEX
  5
769
330
767
100
AcDbEntity
  8
BEMA_UNG
 62
     7
100
AcDbVertex
100
AcDb2dVertex
 10
-59.23828369326333
 20
-43.13451873344722
 30
0.0
  0
SEQEND
  5
76A
330
767
100
AcDbEntity
  8
BEMA_UNG
  0
POLYLINE
  5
76B
330
1F
100
AcDbEntity
  8
BEMA_UNG
 62
     7
100
AcDb2dPolyline
 66
     1
 10
0.0
 20
0.0
 30
0.0
  0
VERTEX
  5
76C
330
76B
100
AcDbEntity
  8
BEMA_UNG
 62
     7
100
AcDbVertex
100
AcDb2dVertex
 10
-59.23828369326333
 20
-43.03288834958735
 30
0.0
  0
VERTEX
  5
76D
330
76B
100
AcDbEntity
  8
BEMA_UNG
 62
     7
100
AcDbVertex
100
AcDb2dVertex
 10
-59.23828369326333
 20
-43.13451873344722
 30
0.0
  0
SEQEND
  5
76E
330
76B
100
AcDbEntity
  8
BEMA_UNG
  0
POLYLINE
  5
76F
330
1F
100
AcDbEntity
  8
BEMA_UNG
 62
     7
100
AcDb2dPolyline
 66
     1
 10
0.0
 20
0.0
 30
0.0
  0
VERTEX
  5
770
330
76F
100
AcDbEntity
  8
BEMA_UNG
 62
     7
100
AcDbVertex
100
AcDb2dVertex
 10
-59.26636123999072
 20
-43.03288834958735
 30
0.0
  0
VERTEX
  5
771
330
76F
100
AcDbEntity
  8
BEMA_UNG
 62
     7
100
AcDbVertex
100
AcDb2dVertex
 10
-59.26636123999072
 20
-43.34673675533766
 30
0.0
  0
SEQEND
  5
772
330
76F
100
AcDbEntity
  8
BEMA_UNG
  0
POLYLINE
  5
773
330
1F
100
AcDbEntity
  8
BEMA_UNG
 62
     7
100
AcDb2dPolyline
 66
     1
 10
0.0
 20
0.0
 30
0.0
  0
VERTEX
  5
774
330
773
100
AcDbEntity
  8
BEMA_UNG
 62
     7
100
AcDbVertex
100
AcDb2dVertex
 10
-59.29426653183021
 20
-43.03288834958735
 30
0.0
  0
VERTEX
  5
775
330
773
100
AcDbEntity
  8
BEMA_UNG
 62
     7
100
AcDbVertex
100
AcDb2dVertex
 10
-59.29426653183021
 20
-43.5589547772281
 30
0.0
  0
SEQEND
  5
776
330
773
100
AcDbEntity
  8
BEMA_UNG
  0
POLYLINE
  5
777
330
1F
100
AcDbEntity
  8
BEMA_UNG
 62
     7
100
AcDb2dPolyline
 66
     1
 10
0.0
 20
0.0
 30
0.0
  0
VERTEX
  5
778
330
777
100
AcDbEntity
  8
BEMA_UNG
 62
     7
100
AcDbVertex
100
AcDb2dVertex
 10
-59.32217182366971
 20
-43.03288834958735
 30
0.0
  0
VERTEX
  5
779
330
777
100
AcDbEntity
  8
BEMA_UNG
 62
     7
100
AcDbVertex
100
AcDb2dVertex
 10
-59.32217182366971
 20
-43.77117279911854
 30
0.0
  0
SEQEND
  5
77A
330
777
100
AcDbEntity
  8
BEMA_UNG
  0
POLYLINE
  5
77B
330
1F
100
AcDbEntity
  8
BEMA_UNG
 62
     7
100
AcDb2dPolyline
 66
     1
 10
0.0
 20
0.0
 30
0.0
  0
VERTEX
  5
77C
330
77B
100
AcDbEntity
  8
BEMA_UNG
 62
     7
100
AcDbVertex
100
AcDb2dVertex
 10
-59.35007711550919
 20
-43.03288834958735
 30
0.0
  0
VERTEX
  5
77D
330
77B
100
AcDbEntity
  8
BEMA_UNG
 62
     7
100
AcDbVertex
100
AcDb2dVertex
 10
-59.35007711550919
 20
-43.98356307589687
 30
0.0
  0
SEQEND
  5
77E
330
77B
100
AcDbEntity
  8
BEMA_UNG
  0
POLYLINE
  5
77F
330
1F
100
AcDbEntity
  8
BEMA_UNG
 62
     7
100
AcDb2dPolyline
 66
     1
 10
0.0
 20
0.0
 30
0.0
  0
VERTEX
  5
780
330
77F
100
AcDbEntity
  8
BEMA_UNG
 62
     7
100
AcDbVertex
100
AcDb2dVertex
 10
-59.37798240734868
 20
-43.03288834958735
 30
0.0
  0
VERTEX
  5
781
330
77F
100
AcDbEntity
  8
BEMA_UNG
 62
     7
100
AcDbVertex
100
AcDb2dVertex
 10
-59.37798240734868
 20
-44.19578109778732
 30
0.0
  0
SEQEND
  5
782
330
77F
100
AcDbEntity
  8
BEMA_UNG
  0
POLYLINE
  5
783
330
1F
100
AcDbEntity
  8
BEMA_UNG
 62
     7
100
AcDb2dPolyline
 66
     1
 10
0.0
 20
0.0
 30
0.0
  0
VERTEX
  5
784
330
783
100
AcDbEntity
  8
BEMA_UNG
 62
     7
100
AcDbVertex
100
AcDb2dVertex
 10
-59.40605995407607
 20
-43.03288834958735
 30
0.0
  0
VERTEX
  5
785
330
783
100
AcDbEntity
  8
BEMA_UNG
 62
     7
100
AcDbVertex
100
AcDb2dVertex
 10
-59.40605995407607
 20
-44.40765460990196
 30
0.0
  0
SEQEND
  5
786
330
783
100
AcDbEntity
  8
BEMA_UNG
  0
POLYLINE
  5
787
330
1F
100
AcDbEntity
  8
BEMA_UNG
 62
     7
100
AcDb2dPolyline
 66
     1
 10
0.0
 20
0.0
 30
0.0
  0
VERTEX
  5
788
330
787
100
AcDbEntity
  8
BEMA_UNG
 62
     7
100
AcDbVertex
100
AcDb2dVertex
 10
-59.5738362148888
 20
-43.03288834958735
 30
0.0
  0
VERTEX
  5
789
330
787
100
AcDbEntity
  8
BEMA_UNG
 62
     7
100
AcDbVertex
100
AcDb2dVertex
 10
-59.5738362148888
 20
-43.13451873344722
 30
0.0
  0
SEQEND
  5
78A
330
787
100
AcDbEntity
  8
BEMA_UNG
  0
POLYLINE
  5
78B
330
1F
100
AcDbEntity
  8
BEMA_UNG
 62
     7
100
AcDb2dPolyline
 66
     1
 10
0.0
 20
0.0
 30
0.0
  0
VERTEX
  5
78C
330
78B
100
AcDbEntity
  8
BEMA_UNG
 62
     7
100
AcDbVertex
100
AcDb2dVertex
 10
-59.5738362148888
 20
-43.03288834958735
 30
0.0
  0
VERTEX
  5
78D
330
78B
100
AcDbEntity
  8
BEMA_UNG
 62
     7
100
AcDbVertex
100
AcDb2dVertex
 10
-59.5738362148888
 20
-43.13451873344722
 30
0.0
  0
SEQEND
  5
78E
330
78B
100
AcDbEntity
  8
BEMA_UNG
  0
POLYLINE
  5
78F
330
1F
100
AcDbEntity
  8
BEMA_UNG
 62
     7
100
AcDb2dPolyline
 66
     1
 10
0.0
 20
0.0
 30
0.0
  0
VERTEX
  5
790
330
78F
100
AcDbEntity
  8
BEMA_UNG
 62
     7
100
AcDbVertex
100
AcDb2dVertex
 10
-59.54593092304931
 20
-43.03288834958735
 30
0.0
  0
VERTEX
  5
791
330
78F
100
AcDbEntity
  8
BEMA_UNG
 62
     7
100
AcDbVertex
100
AcDb2dVertex
 10
-59.54593092304931
 20
-43.34673675533766
 30
0.0
  0
SEQEND
  5
792
330
78F
100
AcDbEntity
  8
BEMA_UNG
  0
POLYLINE
  5
793
330
1F
100
AcDbEntity
  8
BEMA_UNG
 62
     7
100
AcDb2dPolyline
 66
     1
 10
0.0
 20
0.0
 30
0.0
  0
VERTEX
  5
794
330
793
100
AcDbEntity
  8
BEMA_UNG
 62
     7
100
AcDbVertex
100
AcDb2dVertex
 10
-59.51802563120982
 20
-43.03288834958735
 30
0.0
  0
VERTEX
  5
795
330
793
100
AcDbEntity
  8
BEMA_UNG
 62
     7
100
AcDbVertex
100
AcDb2dVertex
 10
-59.51802563120982
 20
-43.5589547772281
 30
0.0
  0
SEQEND
  5
796
330
793
100
AcDbEntity
  8
BEMA_UNG
  0
POLYLINE
  5
797
330
1F
100
AcDbEntity
  8
BEMA_UNG
 62
     7
100
AcDb2dPolyline
 66
     1
 10
0.0
 20
0.0
 30
0.0
  0
VERTEX
  5
798
330
797
100
AcDbEntity
  8
BEMA_UNG
 62
     7
100
AcDbVertex
100
AcDb2dVertex
 10
-59.49012033937034
 20
-43.03288834958735
 30
0.0
  0
VERTEX
  5
799
330
797
100
AcDbEntity
  8
BEMA_UNG
 62
     7
100
AcDbVertex
100
AcDb2dVertex
 10
-59.49012033937034
 20
-43.77117279911854
 30
0.0
  0
SEQEND
  5
79A
330
797
100
AcDbEntity
  8
BEMA_UNG
  0
POLYLINE
  5
79B
330
1F
100
AcDbEntity
  8
BEMA_UNG
 62
     7
100
AcDb2dPolyline
 66
     1
 10
0.0
 20
0.0
 30
0.0
  0
VERTEX
  5
79C
330
79B
100
AcDbEntity
  8
BEMA_UNG
 62
     7
100
AcDbVertex
100
AcDb2dVertex
 10
-59.46204279264295
 20
-43.03288834958735
 30
0.0
  0
VERTEX
  5
79D
330
79B
100
AcDbEntity
  8
BEMA_UNG
 62
     7
100
AcDbVertex
100
AcDb2dVertex
 10
-59.46204279264295
 20
-43.98356307589687
 30
0.0
  0
SEQEND
  5
79E
330
79B
100
AcDbEntity
  8
BEMA_UNG
  0
POLYLINE
  5
79F
330
1F
100
AcDbEntity
  8
BEMA_UNG
 62
     7
100
AcDb2dPolyline
 66
     1
 10
0.0
 20
0.0
 30
0.0
  0
VERTEX
  5
7A0
330
79F
100
AcDbEntity
  8
BEMA_UNG
 62
     7
100
AcDbVertex
100
AcDb2dVertex
 10
-59.43413750080346
 20
-43.03288834958735
 30
0.0
  0
VERTEX
  5
7A1
330
79F
100
AcDbEntity
  8
BEMA_UNG
 62
     7
100
AcDbVertex
100
AcDb2dVertex
 10
-59.43413750080346
 20
-44.19578109778732
 30
0.0
  0
SEQEND
  5
7A2
330
79F
100
AcDbEntity
  8
BEMA_UNG
  0
POLYLINE
  5
7A3
330
1F
100
AcDbEntity
  8
BEMA_UNG
 62
     7
100
AcDb2dPolyline
 66
     1
 10
0.0
 20
0.0
 30
0.0
  0
VERTEX
  5
7A4
330
7A3
100
AcDbEntity
  8
BEMA_UNG
 62
     7
100
AcDbVertex
100
AcDb2dVertex
 10
-59.40605995407607
 20
-43.03288834958735
 30
0.0
  0
VERTEX
  5
7A5
330
7A3
100
AcDbEntity
  8
BEMA_UNG
 62
     7
100
AcDbVertex
100
AcDb2dVertex
 10
-59.40605995407607
 20
-44.40765460990196
 30
0.0
  0
SEQEND
  5
7A6
330
7A3
100
AcDbEntity
  8
BEMA_UNG
  0
POLYLINE
  5
7A7
330
1F
100
AcDbEntity
  8
BEMA_UNG
 62
     7
100
AcDb2dPolyline
 66
     1
 10
0.0
 20
0.0
 30
0.0
  0
VERTEX
  5
7A8
330
7A7
100
AcDbEntity
  8
BEMA_UNG
 62
     7
100
AcDbVertex
100
AcDb2dVertex
 10
-80.68281145235956
 20
-36.12891244263213
 30
0.0
  0
VERTEX
  5
7A9
330
7A7
100
AcDbEntity
  8
BEMA_UNG
 62
     7
100
AcDbVertex
100
AcDb2dVertex
 10
-87.90063576506509
 20
-36.12891244263213
 30
0.0
  0
SEQEND
  5
7AA
330
7A7
100
AcDbEntity
  8
BEMA_UNG
  0
POLYLINE
  5
7AB
330
1F
100
AcDbEntity
  8
BEMA_UNG
 62
     7
100
AcDb2dPolyline
 66
     1
 10
0.0
 20
0.0
 30
0.0
  0
VERTEX
  5
7AC
330
7AB
100
AcDbEntity
  8
BEMA_UNG
 62
     7
100
AcDbVertex
100
AcDb2dVertex
 10
-76.00764153991766
 20
-53.7292278685068
 30
0.0
  0
VERTEX
  5
7AD
330
7AB
100
AcDbEntity
  8
BEMA_UNG
 62
     7
100
AcDbVertex
100
AcDb2dVertex
 10
-87.90063576506509
 20
-53.7292278685068
 30
0.0
  0
SEQEND
  5
7AE
330
7AB
100
AcDbEntity
  8
BEMA_UNG
  0
POLYLINE
  5
7AF
330
1F
100
AcDbEntity
  8
BEMA_UNG
 62
     7
100
AcDb2dPolyline
 66
     1
 10
0.0
 20
0.0
 30
0.0
  0
VERTEX
  5
7B0
330
7AF
100
AcDbEntity
  8
BEMA_UNG
 62
     7
100
AcDbVertex
100
AcDb2dVertex
 10
-86.80061605094792
 20
-36.12891244263213
 30
0.0
  0
VERTEX
  5
7B1
330
7AF
100
AcDbEntity
  8
BEMA_UNG
 62
     7
100
AcDbVertex
100
AcDb2dVertex
 10
-86.80061605094792
 20
-53.7292278685068
 30
0.0
  0
SEQEND
  5
7B2
330
7AF
100
AcDbEntity
  8
BEMA_UNG
  0
POLYLINE
  5
7B3
330
1F
100
AcDbEntity
  8
BEMA_UNG
 62
     7
100
AcDb2dPolyline
 66
     1
 10
0.0
 20
0.0
 30
0.0
  0
VERTEX
  5
7B4
330
7B3
100
AcDbEntity
  8
BEMA_UNG
 62
     7
100
AcDbVertex
100
AcDb2dVertex
 10
-86.80061605094792
 20
-36.12891244263213
 30
0.0
  0
VERTEX
  5
7B5
330
7B3
100
AcDbEntity
  8
BEMA_UNG
 62
     7
100
AcDbVertex
100
AcDb2dVertex
 10
-86.98165593812881
 20
-37.50385095783464
 30
0.0
  0
VERTEX
  5
7B6
330
7B3
100
AcDbEntity
  8
BEMA_UNG
 62
     7
100
AcDbVertex
100
AcDb2dVertex
 10
-86.61940390887914
 20
-37.50385095783464
 30
0.0
  0
VERTEX
  5
7B7
330
7B3
100
AcDbEntity
  8
BEMA_UNG
 62
     7
100
AcDbVertex
100
AcDb2dVertex
 10
-86.80061605094792
 20
-36.12891244263213
 30
0.0
  0
SEQEND
  5
7B8
330
7B3
100
AcDbEntity
  8
BEMA_UNG
  0
POLYLINE
  5
7B9
330
1F
100
AcDbEntity
  8
BEMA_UNG
 62
     7
100
AcDb2dPolyline
 66
     1
 10
0.0
 20
0.0
 30
0.0
  0
VERTEX
  5
7BA
330
7B9
100
AcDbEntity
  8
BEMA_UNG
 62
     7
100
AcDbVertex
100
AcDb2dVertex
 10
-86.96804780198487
 20
-37.50385095783464
 30
0.0
  0
VERTEX
  5
7BB
330
7B9
100
AcDbEntity
  8
BEMA_UNG
 62
     7
100
AcDbVertex
100
AcDb2dVertex
 10
-86.96804780198487
 20
-37.40222057397477
 30
0.0
  0
SEQEND
  5
7BC
330
7B9
100
AcDbEntity
  8
BEMA_UNG
  0
POLYLINE
  5
7BD
330
1F
100
AcDbEntity
  8
BEMA_UNG
 62
     7
100
AcDb2dPolyline
 66
     1
 10
0.0
 20
0.0
 30
0.0
  0
VERTEX
  5
7BE
330
7BD
100
AcDbEntity
  8
BEMA_UNG
 62
     7
100
AcDbVertex
100
AcDb2dVertex
 10
-86.96804780198487
 20
-37.50385095783464
 30
0.0
  0
VERTEX
  5
7BF
330
7BD
100
AcDbEntity
  8
BEMA_UNG
 62
     7
100
AcDbVertex
100
AcDb2dVertex
 10
-86.96804780198487
 20
-37.40222057397477
 30
0.0
  0
SEQEND
  5
7C0
330
7BD
100
AcDbEntity
  8
BEMA_UNG
  0
POLYLINE
  5
7C1
330
1F
100
AcDbEntity
  8
BEMA_UNG
 62
     7
100
AcDb2dPolyline
 66
     1
 10
0.0
 20
0.0
 30
0.0
  0
VERTEX
  5
7C2
330
7C1
100
AcDbEntity
  8
BEMA_UNG
 62
     7
100
AcDbVertex
100
AcDb2dVertex
 10
-86.94014251014538
 20
-37.50385095783464
 30
0.0
  0
VERTEX
  5
7C3
330
7C1
100
AcDbEntity
  8
BEMA_UNG
 62
     7
100
AcDbVertex
100
AcDb2dVertex
 10
-86.94014251014538
 20
-37.19017480697222
 30
0.0
  0
SEQEND
  5
7C4
330
7C1
100
AcDbEntity
  8
BEMA_UNG
  0
POLYLINE
  5
7C5
330
1F
100
AcDbEntity
  8
BEMA_UNG
 62
     7
100
AcDb2dPolyline
 66
     1
 10
0.0
 20
0.0
 30
0.0
  0
VERTEX
  5
7C6
330
7C5
100
AcDbEntity
  8
BEMA_UNG
 62
     7
100
AcDbVertex
100
AcDb2dVertex
 10
-86.91223721830589
 20
-37.50385095783464
 30
0.0
  0
VERTEX
  5
7C7
330
7C5
100
AcDbEntity
  8
BEMA_UNG
 62
     7
100
AcDbVertex
100
AcDb2dVertex
 10
-86.91223721830589
 20
-36.97812903996968
 30
0.0
  0
SEQEND
  5
7C8
330
7C5
100
AcDbEntity
  8
BEMA_UNG
  0
POLYLINE
  5
7C9
330
1F
100
AcDbEntity
  8
BEMA_UNG
 62
     7
100
AcDb2dPolyline
 66
     1
 10
0.0
 20
0.0
 30
0.0
  0
VERTEX
  5
7CA
330
7C9
100
AcDbEntity
  8
BEMA_UNG
 62
     7
100
AcDbVertex
100
AcDb2dVertex
 10
-86.88433192646639
 20
-37.50385095783464
 30
0.0
  0
VERTEX
  5
7CB
330
7C9
100
AcDbEntity
  8
BEMA_UNG
 62
     7
100
AcDbVertex
100
AcDb2dVertex
 10
-86.88433192646639
 20
-36.76591101807924
 30
0.0
  0
SEQEND
  5
7CC
330
7C9
100
AcDbEntity
  8
BEMA_UNG
  0
POLYLINE
  5
7CD
330
1F
100
AcDbEntity
  8
BEMA_UNG
 62
     7
100
AcDb2dPolyline
 66
     1
 10
0.0
 20
0.0
 30
0.0
  0
VERTEX
  5
7CE
330
7CD
100
AcDbEntity
  8
BEMA_UNG
 62
     7
100
AcDbVertex
100
AcDb2dVertex
 10
-86.85625437973901
 20
-37.50385095783464
 30
0.0
  0
VERTEX
  5
7CF
330
7CD
100
AcDbEntity
  8
BEMA_UNG
 62
     7
100
AcDbVertex
100
AcDb2dVertex
 10
-86.85625437973901
 20
-36.5535207413009
 30
0.0
  0
SEQEND
  5
7D0
330
7CD
100
AcDbEntity
  8
BEMA_UNG
  0
POLYLINE
  5
7D1
330
1F
100
AcDbEntity
  8
BEMA_UNG
 62
     7
100
AcDb2dPolyline
 66
     1
 10
0.0
 20
0.0
 30
0.0
  0
VERTEX
  5
7D2
330
7D1
100
AcDbEntity
  8
BEMA_UNG
 62
     7
100
AcDbVertex
100
AcDb2dVertex
 10
-86.82852134278741
 20
-37.50385095783464
 30
0.0
  0
VERTEX
  5
7D3
330
7D1
100
AcDbEntity
  8
BEMA_UNG
 62
     7
100
AcDbVertex
100
AcDb2dVertex
 10
-86.82852134278741
 20
-36.34147497429836
 30
0.0
  0
SEQEND
  5
7D4
330
7D1
100
AcDbEntity
  8
BEMA_UNG
  0
POLYLINE
  5
7D5
330
1F
100
AcDbEntity
  8
BEMA_UNG
 62
     7
100
AcDb2dPolyline
 66
     1
 10
0.0
 20
0.0
 30
0.0
  0
VERTEX
  5
7D6
330
7D5
100
AcDbEntity
  8
BEMA_UNG
 62
     7
100
AcDbVertex
100
AcDb2dVertex
 10
-86.80061605094792
 20
-37.50385095783464
 30
0.0
  0
VERTEX
  5
7D7
330
7D5
100
AcDbEntity
  8
BEMA_UNG
 62
     7
100
AcDbVertex
100
AcDb2dVertex
 10
-86.80061605094792
 20
-36.12891244263213
 30
0.0
  0
SEQEND
  5
7D8
330
7D5
100
AcDbEntity
  8
BEMA_UNG
  0
POLYLINE
  5
7D9
330
1F
100
AcDbEntity
  8
BEMA_UNG
 62
     7
100
AcDb2dPolyline
 66
     1
 10
0.0
 20
0.0
 30
0.0
  0
VERTEX
  5
7DA
330
7D9
100
AcDbEntity
  8
BEMA_UNG
 62
     7
100
AcDbVertex
100
AcDb2dVertex
 10
-86.6330120450231
 20
-37.50385095783464
 30
0.0
  0
VERTEX
  5
7DB
330
7D9
100
AcDbEntity
  8
BEMA_UNG
 62
     7
100
AcDbVertex
100
AcDb2dVertex
 10
-86.6330120450231
 20
-37.40222057397477
 30
0.0
  0
SEQEND
  5
7DC
330
7D9
100
AcDbEntity
  8
BEMA_UNG
  0
POLYLINE
  5
7DD
330
1F
100
AcDbEntity
  8
BEMA_UNG
 62
     7
100
AcDb2dPolyline
 66
     1
 10
0.0
 20
0.0
 30
0.0
  0
VERTEX
  5
7DE
330
7DD
100
AcDbEntity
  8
BEMA_UNG
 62
     7
100
AcDbVertex
100
AcDb2dVertex
 10
-86.6330120450231
 20
-37.50385095783464
 30
0.0
  0
VERTEX
  5
7DF
330
7DD
100
AcDbEntity
  8
BEMA_UNG
 62
     7
100
AcDbVertex
100
AcDb2dVertex
 10
-86.6330120450231
 20
-37.40222057397477
 30
0.0
  0
SEQEND
  5
7E0
330
7DD
100
AcDbEntity
  8
BEMA_UNG
  0
POLYLINE
  5
7E1
330
1F
100
AcDbEntity
  8
BEMA_UNG
 62
     7
100
AcDb2dPolyline
 66
     1
 10
0.0
 20
0.0
 30
0.0
  0
VERTEX
  5
7E2
330
7E1
100
AcDbEntity
  8
BEMA_UNG
 62
     7
100
AcDbVertex
100
AcDb2dVertex
 10
-86.66091733686258
 20
-37.50385095783464
 30
0.0
  0
VERTEX
  5
7E3
330
7E1
100
AcDbEntity
  8
BEMA_UNG
 62
     7
100
AcDbVertex
100
AcDb2dVertex
 10
-86.66091733686258
 20
-37.19017480697222
 30
0.0
  0
SEQEND
  5
7E4
330
7E1
100
AcDbEntity
  8
BEMA_UNG
  0
POLYLINE
  5
7E5
330
1F
100
AcDbEntity
  8
BEMA_UNG
 62
     7
100
AcDb2dPolyline
 66
     1
 10
0.0
 20
0.0
 30
0.0
  0
VERTEX
  5
7E6
330
7E5
100
AcDbEntity
  8
BEMA_UNG
 62
     7
100
AcDbVertex
100
AcDb2dVertex
 10
-86.68899488358997
 20
-37.50385095783464
 30
0.0
  0
VERTEX
  5
7E7
330
7E5
100
AcDbEntity
  8
BEMA_UNG
 62
     7
100
AcDbVertex
100
AcDb2dVertex
 10
-86.68899488358997
 20
-36.97812903996968
 30
0.0
  0
SEQEND
  5
7E8
330
7E5
100
AcDbEntity
  8
BEMA_UNG
  0
POLYLINE
  5
7E9
330
1F
100
AcDbEntity
  8
BEMA_UNG
 62
     7
100
AcDb2dPolyline
 66
     1
 10
0.0
 20
0.0
 30
0.0
  0
VERTEX
  5
7EA
330
7E9
100
AcDbEntity
  8
BEMA_UNG
 62
     7
100
AcDbVertex
100
AcDb2dVertex
 10
-86.71690017542946
 20
-37.50385095783464
 30
0.0
  0
VERTEX
  5
7EB
330
7E9
100
AcDbEntity
  8
BEMA_UNG
 62
     7
100
AcDbVertex
100
AcDb2dVertex
 10
-86.71690017542946
 20
-36.76591101807924
 30
0.0
  0
SEQEND
  5
7EC
330
7E9
100
AcDbEntity
  8
BEMA_UNG
  0
POLYLINE
  5
7ED
330
1F
100
AcDbEntity
  8
BEMA_UNG
 62
     7
100
AcDb2dPolyline
 66
     1
 10
0.0
 20
0.0
 30
0.0
  0
VERTEX
  5
7EE
330
7ED
100
AcDbEntity
  8
BEMA_UNG
 62
     7
100
AcDbVertex
100
AcDb2dVertex
 10
-86.74480546726895
 20
-37.50385095783464
 30
0.0
  0
VERTEX
  5
7EF
330
7ED
100
AcDbEntity
  8
BEMA_UNG
 62
     7
100
AcDbVertex
100
AcDb2dVertex
 10
-86.74480546726895
 20
-36.5535207413009
 30
0.0
  0
SEQEND
  5
7F0
330
7ED
100
AcDbEntity
  8
BEMA_UNG
  0
POLYLINE
  5
7F1
330
1F
100
AcDbEntity
  8
BEMA_UNG
 62
     7
100
AcDb2dPolyline
 66
     1
 10
0.0
 20
0.0
 30
0.0
  0
VERTEX
  5
7F2
330
7F1
100
AcDbEntity
  8
BEMA_UNG
 62
     7
100
AcDbVertex
100
AcDb2dVertex
 10
-86.77271075910843
 20
-37.50385095783464
 30
0.0
  0
VERTEX
  5
7F3
330
7F1
100
AcDbEntity
  8
BEMA_UNG
 62
     7
100
AcDbVertex
100
AcDb2dVertex
 10
-86.77271075910843
 20
-36.34147497429836
 30
0.0
  0
SEQEND
  5
7F4
330
7F1
100
AcDbEntity
  8
BEMA_UNG
  0
POLYLINE
  5
7F5
330
1F
100
AcDbEntity
  8
BEMA_UNG
 62
     7
100
AcDb2dPolyline
 66
     1
 10
0.0
 20
0.0
 30
0.0
  0
VERTEX
  5
7F6
330
7F5
100
AcDbEntity
  8
BEMA_UNG
 62
     7
100
AcDbVertex
100
AcDb2dVertex
 10
-86.80061605094792
 20
-37.50385095783464
 30
0.0
  0
VERTEX
  5
7F7
330
7F5
100
AcDbEntity
  8
BEMA_UNG
 62
     7
100
AcDbVertex
100
AcDb2dVertex
 10
-86.80061605094792
 20
-36.12891244263213
 30
0.0
  0
SEQEND
  5
7F8
330
7F5
100
AcDbEntity
  8
BEMA_UNG
  0
POLYLINE
  5
7F9
330
1F
100
AcDbEntity
  8
BEMA_UNG
 62
     7
100
AcDb2dPolyline
 66
     1
 10
0.0
 20
0.0
 30
0.0
  0
VERTEX
  5
7FA
330
7F9
100
AcDbEntity
  8
BEMA_UNG
 62
     7
100
AcDbVertex
100
AcDb2dVertex
 10
-86.80061605094792
 20
-53.7292278685068
 30
0.0
  0
VERTEX
  5
7FB
330
7F9
100
AcDbEntity
  8
BEMA_UNG
 62
     7
100
AcDbVertex
100
AcDb2dVertex
 10
-86.61940390887914
 20
-52.35411709841639
 30
0.0
  0
VERTEX
  5
7FC
330
7F9
100
AcDbEntity
  8
BEMA_UNG
 62
     7
100
AcDbVertex
100
AcDb2dVertex
 10
-86.98165593812881
 20
-52.35411709841639
 30
0.0
  0
VERTEX
  5
7FD
330
7F9
100
AcDbEntity
  8
BEMA_UNG
 62
     7
100
AcDbVertex
100
AcDb2dVertex
 10
-86.80061605094792
 20
-53.7292278685068
 30
0.0
  0
SEQEND
  5
7FE
330
7F9
100
AcDbEntity
  8
BEMA_UNG
  0
POLYLINE
  5
7FF
330
1F
100
AcDbEntity
  8
BEMA_UNG
 62
     7
100
AcDb2dPolyline
 66
     1
 10
0.0
 20
0.0
 30
0.0
  0
VERTEX
  5
800
330
7FF
100
AcDbEntity
  8
BEMA_UNG
 62
     7
100
AcDbVertex
100
AcDb2dVertex
 10
-86.6330120450231
 20
-52.35411709841639
 30
0.0
  0
VERTEX
  5
801
330
7FF
100
AcDbEntity
  8
BEMA_UNG
 62
     7
100
AcDbVertex
100
AcDb2dVertex
 10
-86.6330120450231
 20
-52.45574748227626
 30
0.0
  0
SEQEND
  5
802
330
7FF
100
AcDbEntity
  8
BEMA_UNG
  0
POLYLINE
  5
803
330
1F
100
AcDbEntity
  8
BEMA_UNG
 62
     7
100
AcDb2dPolyline
 66
     1
 10
0.0
 20
0.0
 30
0.0
  0
VERTEX
  5
804
330
803
100
AcDbEntity
  8
BEMA_UNG
 62
     7
100
AcDbVertex
100
AcDb2dVertex
 10
-86.6330120450231
 20
-52.35411709841639
 30
0.0
  0
VERTEX
  5
805
330
803
100
AcDbEntity
  8
BEMA_UNG
 62
     7
100
AcDbVertex
100
AcDb2dVertex
 10
-86.6330120450231
 20
-52.45574748227626
 30
0.0
  0
SEQEND
  5
806
330
803
100
AcDbEntity
  8
BEMA_UNG
  0
POLYLINE
  5
807
330
1F
100
AcDbEntity
  8
BEMA_UNG
 62
     7
100
AcDb2dPolyline
 66
     1
 10
0.0
 20
0.0
 30
0.0
  0
VERTEX
  5
808
330
807
100
AcDbEntity
  8
BEMA_UNG
 62
     7
100
AcDbVertex
100
AcDb2dVertex
 10
-86.66091733686258
 20
-52.35411709841639
 30
0.0
  0
VERTEX
  5
809
330
807
100
AcDbEntity
  8
BEMA_UNG
 62
     7
100
AcDbVertex
100
AcDb2dVertex
 10
-86.66091733686258
 20
-52.6679655041667
 30
0.0
  0
SEQEND
  5
80A
330
807
100
AcDbEntity
  8
BEMA_UNG
  0
POLYLINE
  5
80B
330
1F
100
AcDbEntity
  8
BEMA_UNG
 62
     7
100
AcDb2dPolyline
 66
     1
 10
0.0
 20
0.0
 30
0.0
  0
VERTEX
  5
80C
330
80B
100
AcDbEntity
  8
BEMA_UNG
 62
     7
100
AcDbVertex
100
AcDb2dVertex
 10
-86.68899488358997
 20
-52.35411709841639
 30
0.0
  0
VERTEX
  5
80D
330
80B
100
AcDbEntity
  8
BEMA_UNG
 62
     7
100
AcDbVertex
100
AcDb2dVertex
 10
-86.68899488358997
 20
-52.88018352605714
 30
0.0
  0
SEQEND
  5
80E
330
80B
100
AcDbEntity
  8
BEMA_UNG
  0
POLYLINE
  5
80F
330
1F
100
AcDbEntity
  8
BEMA_UNG
 62
     7
100
AcDb2dPolyline
 66
     1
 10
0.0
 20
0.0
 30
0.0
  0
VERTEX
  5
810
330
80F
100
AcDbEntity
  8
BEMA_UNG
 62
     7
100
AcDbVertex
100
AcDb2dVertex
 10
-86.71690017542946
 20
-52.35411709841639
 30
0.0
  0
VERTEX
  5
811
330
80F
100
AcDbEntity
  8
BEMA_UNG
 62
     7
100
AcDbVertex
100
AcDb2dVertex
 10
-86.71690017542946
 20
-53.09240154794758
 30
0.0
  0
SEQEND
  5
812
330
80F
100
AcDbEntity
  8
BEMA_UNG
  0
POLYLINE
  5
813
330
1F
100
AcDbEntity
  8
BEMA_UNG
 62
     7
100
AcDb2dPolyline
 66
     1
 10
0.0
 20
0.0
 30
0.0
  0
VERTEX
  5
814
330
813
100
AcDbEntity
  8
BEMA_UNG
 62
     7
100
AcDbVertex
100
AcDb2dVertex
 10
-86.74480546726895
 20
-52.35411709841639
 30
0.0
  0
VERTEX
  5
815
330
813
100
AcDbEntity
  8
BEMA_UNG
 62
     7
100
AcDbVertex
100
AcDb2dVertex
 10
-86.74480546726895
 20
-53.30479182472592
 30
0.0
  0
SEQEND
  5
816
330
813
100
AcDbEntity
  8
BEMA_UNG
  0
POLYLINE
  5
817
330
1F
100
AcDbEntity
  8
BEMA_UNG
 62
     7
100
AcDb2dPolyline
 66
     1
 10
0.0
 20
0.0
 30
0.0
  0
VERTEX
  5
818
330
817
100
AcDbEntity
  8
BEMA_UNG
 62
     7
100
AcDbVertex
100
AcDb2dVertex
 10
-86.77271075910843
 20
-52.35411709841639
 30
0.0
  0
VERTEX
  5
819
330
817
100
AcDbEntity
  8
BEMA_UNG
 62
     7
100
AcDbVertex
100
AcDb2dVertex
 10
-86.77271075910843
 20
-53.51666533684056
 30
0.0
  0
SEQEND
  5
81A
330
817
100
AcDbEntity
  8
BEMA_UNG
  0
POLYLINE
  5
81B
330
1F
100
AcDbEntity
  8
BEMA_UNG
 62
     7
100
AcDb2dPolyline
 66
     1
 10
0.0
 20
0.0
 30
0.0
  0
VERTEX
  5
81C
330
81B
100
AcDbEntity
  8
BEMA_UNG
 62
     7
100
AcDbVertex
100
AcDb2dVertex
 10
-86.80061605094792
 20
-52.35411709841639
 30
0.0
  0
VERTEX
  5
81D
330
81B
100
AcDbEntity
  8
BEMA_UNG
 62
     7
100
AcDbVertex
100
AcDb2dVertex
 10
-86.80061605094792
 20
-53.7292278685068
 30
0.0
  0
SEQEND
  5
81E
330
81B
100
AcDbEntity
  8
BEMA_UNG
  0
POLYLINE
  5
81F
330
1F
100
AcDbEntity
  8
BEMA_UNG
 62
     7
100
AcDb2dPolyline
 66
     1
 10
0.0
 20
0.0
 30
0.0
  0
VERTEX
  5
820
330
81F
100
AcDbEntity
  8
BEMA_UNG
 62
     7
100
AcDbVertex
100
AcDb2dVertex
 10
-86.96804780198487
 20
-52.35411709841639
 30
0.0
  0
VERTEX
  5
821
330
81F
100
AcDbEntity
  8
BEMA_UNG
 62
     7
100
AcDbVertex
100
AcDb2dVertex
 10
-86.96804780198487
 20
-52.45574748227626
 30
0.0
  0
SEQEND
  5
822
330
81F
100
AcDbEntity
  8
BEMA_UNG
  0
POLYLINE
  5
823
330
1F
100
AcDbEntity
  8
BEMA_UNG
 62
     7
100
AcDb2dPolyline
 66
     1
 10
0.0
 20
0.0
 30
0.0
  0
VERTEX
  5
824
330
823
100
AcDbEntity
  8
BEMA_UNG
 62
     7
100
AcDbVertex
100
AcDb2dVertex
 10
-86.96804780198487
 20
-52.35411709841639
 30
0.0
  0
VERTEX
  5
825
330
823
100
AcDbEntity
  8
BEMA_UNG
 62
     7
100
AcDbVertex
100
AcDb2dVertex
 10
-86.96804780198487
 20
-52.45574748227626
 30
0.0
  0
SEQEND
  5
826
330
823
100
AcDbEntity
  8
BEMA_UNG
  0
POLYLINE
  5
827
330
1F
100
AcDbEntity
  8
BEMA_UNG
 62
     7
100
AcDb2dPolyline
 66
     1
 10
0.0
 20
0.0
 30
0.0
  0
VERTEX
  5
828
330
827
100
AcDbEntity
  8
BEMA_UNG
 62
     7
100
AcDbVertex
100
AcDb2dVertex
 10
-86.94014251014538
 20
-52.35411709841639
 30
0.0
  0
VERTEX
  5
829
330
827
100
AcDbEntity
  8
BEMA_UNG
 62
     7
100
AcDbVertex
100
AcDb2dVertex
 10
-86.94014251014538
 20
-52.6679655041667
 30
0.0
  0
SEQEND
  5
82A
330
827
100
AcDbEntity
  8
BEMA_UNG
  0
POLYLINE
  5
82B
330
1F
100
AcDbEntity
  8
BEMA_UNG
 62
     7
100
AcDb2dPolyline
 66
     1
 10
0.0
 20
0.0
 30
0.0
  0
VERTEX
  5
82C
330
82B
100
AcDbEntity
  8
BEMA_UNG
 62
     7
100
AcDbVertex
100
AcDb2dVertex
 10
-86.91223721830589
 20
-52.35411709841639
 30
0.0
  0
VERTEX
  5
82D
330
82B
100
AcDbEntity
  8
BEMA_UNG
 62
     7
100
AcDbVertex
100
AcDb2dVertex
 10
-86.91223721830589
 20
-52.88018352605714
 30
0.0
  0
SEQEND
  5
82E
330
82B
100
AcDbEntity
  8
BEMA_UNG
  0
POLYLINE
  5
82F
330
1F
100
AcDbEntity
  8
BEMA_UNG
 62
     7
100
AcDb2dPolyline
 66
     1
 10
0.0
 20
0.0
 30
0.0
  0
VERTEX
  5
830
330
82F
100
AcDbEntity
  8
BEMA_UNG
 62
     7
100
AcDbVertex
100
AcDb2dVertex
 10
-86.88433192646639
 20
-52.35411709841639
 30
0.0
  0
VERTEX
  5
831
330
82F
100
AcDbEntity
  8
BEMA_UNG
 62
     7
100
AcDbVertex
100
AcDb2dVertex
 10
-86.88433192646639
 20
-53.09240154794758
 30
0.0
  0
SEQEND
  5
832
330
82F
100
AcDbEntity
  8
BEMA_UNG
  0
POLYLINE
  5
833
330
1F
100
AcDbEntity
  8
BEMA_UNG
 62
     7
100
AcDb2dPolyline
 66
     1
 10
0.0
 20
0.0
 30
0.0
  0
VERTEX
  5
834
330
833
100
AcDbEntity
  8
BEMA_UNG
 62
     7
100
AcDbVertex
100
AcDb2dVertex
 10
-86.85625437973901
 20
-52.35411709841639
 30
0.0
  0
VERTEX
  5
835
330
833
100
AcDbEntity
  8
BEMA_UNG
 62
     7
100
AcDbVertex
100
AcDb2dVertex
 10
-86.85625437973901
 20
-53.30479182472592
 30
0.0
  0
SEQEND
  5
836
330
833
100
AcDbEntity
  8
BEMA_UNG
  0
POLYLINE
  5
837
330
1F
100
AcDbEntity
  8
BEMA_UNG
 62
     7
100
AcDb2dPolyline
 66
     1
 10
0.0
 20
0.0
 30
0.0
  0
VERTEX
  5
838
330
837
100
AcDbEntity
  8
BEMA_UNG
 62
     7
100
AcDbVertex
100
AcDb2dVertex
 10
-86.82852134278741
 20
-52.35411709841639
 30
0.0
  0
VERTEX
  5
839
330
837
100
AcDbEntity
  8
BEMA_UNG
 62
     7
100
AcDbVertex
100
AcDb2dVertex
 10
-86.82852134278741
 20
-53.51666533684056
 30
0.0
  0
SEQEND
  5
83A
330
837
100
AcDbEntity
  8
BEMA_UNG
  0
POLYLINE
  5
83B
330
1F
100
AcDbEntity
  8
BEMA_UNG
 62
     7
100
AcDb2dPolyline
 66
     1
 10
0.0
 20
0.0
 30
0.0
  0
VERTEX
  5
83C
330
83B
100
AcDbEntity
  8
BEMA_UNG
 62
     7
100
AcDbVertex
100
AcDb2dVertex
 10
-86.80061605094792
 20
-52.35411709841639
 30
0.0
  0
VERTEX
  5
83D
330
83B
100
AcDbEntity
  8
BEMA_UNG
 62
     7
100
AcDbVertex
100
AcDb2dVertex
 10
-86.80061605094792
 20
-53.7292278685068
 30
0.0
  0
SEQEND
  5
83E
330
83B
100
AcDbEntity
  8
BEMA_UNG
  0
ENDSEC
  0
SECTION
  2
OBJECTS
  0
DICTIONARY
  5
C
330
0
100
AcDbDictionary
  3
ACAD_GROUP
350
D
  3
ACAD_LAYOUT
350
1A
  3
ACAD_MLINESTYLE
350
17
  3
ACAD_PLOTSETTINGS
350
19
  3
ACAD_TABLESTYLE
350
85F
  3
ACAD_VISUALSTYLE
350
2A
  3
ACDBHEADERROUNDTRIPXREC
350
83F
  0
DICTIONARY
  5
D
102
{ACAD_REACTORS
330
C
102
}
330
C
100
AcDbDictionary
  0
DICTIONARY
  5
1A
102
{ACAD_REACTORS
330
C
102
}
330
C
100
AcDbDictionary
  0
DICTIONARY
  5
17
102
{ACAD_REACTORS
330
C
102
}
330
C
100
AcDbDictionary
  3
STANDARD
350
18
  0
DICTIONARY
  5
19
102
{ACAD_REACTORS
330
C
102
}
330
C
100
AcDbDictionary
  0
DICTIONARY
  5
85F
102
{ACAD_REACTORS
330
C
102
}
330
C
100
AcDbDictionary
  0
DICTIONARY
  5
2A
102
{ACAD_REACTORS
330
C
102
}
330
C
100
AcDbDictionary
  3
2DWIREFRAME
350
2F
  3
3D_HIDDEN
350
31
  3
3DWIREFRAME
350
30
  3
BASIC
350
32
  3
BRIGHTEN
350
36
  3
COLORCHANGE
350
3A
  3
CONCEPTUAL
350
34
  3
DIM
350
35
  3
FACEPATTERN
350
39
  3
FLAT
350
2B
  3
FLATWITHEDGES
350
2C
  3
GOURAUD
350
2D
  3
GOURAUDWITHEDGES
350
2E
  3
LINEPATTERN
350
38
  3
REALISTIC
350
33
  3
THICKEN
350
37
  0
DICTIONARY
  5
83F
102
{ACAD_REACTORS
330
C
102
}
330
C
100
AcDbDictionary
  3
CEPSNTYPE
350
848
  3
DIMSTYLEDATA
350
85E
  3
FINGERPRINTGUID
350
849
  3
HYPERLINKBASE
350
842
  3
INSUNITS
350
847
  3
LAYOUTDICT
350
844
  3
LWETCUNION
350
846
  3
PLOTSETDICT
350
845
  3
PSVPSCALE
350
84B
  3
PUCSBASE
350
84E
  3
PUCSORGBACK
350
854
  3
PUCSORGBOTTOM
350
850
  3
PUCSORGFRONT
350
853
  3
PUCSORGLEFT
350
851
  3
PUCSORGRIGHT
350
852
  3
PUCSORGTOP
350
84F
  3
PUCSORTHOREF
350
84C
  3
PUCSORTHOVIEW
350
84D
  3
STYLESHEET
350
843
  3
TSTACKALIGN
350
840
  3
TSTACKSIZE
350
841
  3
UCSBASE
350
857
  3
UCSORGBACK
350
85D
  3
UCSORGBOTTOM
350
859
  3
UCSORGFRONT
350
85C
  3
UCSORGLEFT
350
85A
  3
UCSORGRIGHT
350
85B
  3
UCSORGTOP
350
858
  3
UCSORTHOREF
350
855
  3
UCSORTHOVIEW
350
856
  3
VERSIONGUID
350
84A
  0
MLINESTYLE
  5
18
102
{ACAD_REACTORS
330
17
102
}
330
17
100
AcDbMlineStyle
  2
Standard
 70
     0
  3

 62
   256
 51
90.0
 52
90.0
 71
     2
 49
0.5
 62
   256
  6
BYLAYER
 49
-0.5
 62
   256
  6
BYLAYER
  0
VISUALSTYLE
  5
2F
102
{ACAD_REACTORS
330
2A
102
}
330
2A
100
AcDbVisualStyle
  2
2dWireframe
 70
     4
 71
     0
 72
     2
 73
     0
 90
        0
 40
-0.6
 41
-30.0
 62
     5
 63
     7
 74
     1
 91
        4
 64
     7
 65
   257
 75
     1
175
     1
 42
1.0
 92
        0
 66
   257
 43
1.0
 76
     1
 77
     6
 78
     2
 67
     7
 79
     5
170
     0
171
     0
290
     0
174
     0
 93
        1
 44
0.0
173
     0
291
     0
 45
0.0
1001
ACAD
1000
AcDbSavedByObjectVersion
1070
     0
  0
VISUALSTYLE
  5
31
102
{ACAD_REACTORS
330
2A
102
}
330
2A
100
AcDbVisualStyle
  2
3D Hidden
 70
     6
 71
     1
 72
     2
 73
     2
 90
        0
 40
-0.6
 41
-30.0
 62
     5
 63
     7
 74
     2
 91
        2
 64
     7
 65
   257
 75
     2
175
     1
 42
40.0
 92
        0
 66
   257
 43
1.0
 76
     1
 77
     6
 78
     2
 67
     7
 79
     3
170
     0
171
     0
290
     0
174
     0
 93
        1
 44
0.0
173
     0
291
     0
 45
0.0
1001
ACAD
1000
AcDbSavedByObjectVersion
1070
     0
  0
VISUALSTYLE
  5
30
102
{ACAD_REACTORS
330
2A
102
}
330
2A
100
AcDbVisualStyle
  2
3dWireframe
 70
     5
 71
     0
 72
     2
 73
     0
 90
        0
 40
-0.6
 41
-30.0
 62
     5
 63
     7
 74
     1
 91
        4
 64
     7
 65
   257
 75
     1
175
     1
 42
1.0
 92
        0
 66
   257
 43
1.0
 76
     1
 77
     6
 78
     2
 67
     7
 79
     5
170
     0
171
     0
290
     0
174
     0
 93
        1
 44
0.0
173
     0
291
     0
 45
0.0
1001
ACAD
1000
AcDbSavedByObjectVersion
1070
     0
  0
VISUALSTYLE
  5
32
102
{ACAD_REACTORS
330
2A
102
}
330
2A
100
AcDbVisualStyle
  2
Basic
 70
     7
 71
     1
 72
     0
 73
     1
 90
        0
 40
-0.6
 41
-30.0
 62
     5
 63
     7
 74
     0
 91
        4
 64
     7
 65
   257
 75
     1
175
     1
 42
1.0
 92
        8
 66
     7
 43
1.0
 76
     1
 77
     6
 78
     2
 67
     7
 79
     5
170
     0
171
     0
290
     0
174
     0
 93
        1
 44
0.0
173
     0
291
     1
 45
0.0
1001
ACAD
1000
AcDbSavedByObjectVersion
1070
     0
  0
VISUALSTYLE
  5
36
102
{ACAD_REACTORS
330
2A
102
}
330
2A
100
AcDbVisualStyle
  2
Brighten
 70
    12
 71
     2
 72
     2
 73
     0
 90
        0
 40
-0.6
 41
-30.0
 62
     5
 63
     7
 74
     1
 91
        4
 64
     7
 65
   257
 75
     1
175
     1
 42
1.0
 92
        8
 66
     7
 43
1.0
 76
     1
 77
     6
 78
     2
 67
     7
 79
     5
170
     0
171
     0
290
     0
174
     0
 93
        1
 44
50.0
173
     0
291
     1
 45
0.0
1001
ACAD
1000
AcDbSavedByObjectVersion
1070
     0
  0
VISUALSTYLE
  5
3A
102
{ACAD_REACTORS
330
2A
102
}
330
2A
100
AcDbVisualStyle
  2
ColorChange
 70
    16
 71
     2
 72
     2
 73
     3
 90
        0
 40
-0.6
 41
-30.0
 62
     5
 63
     8
 74
     1
 91
        4
 64
     7
 65
   257
 75
     1
175
     1
 42
1.0
 92
        8
 66
     8
 43
1.0
 76
     1
 77
     6
 78
     2
 67
     7
 79
     5
170
     0
171
     0
290
     0
174
     0
 93
        1
 44
0.0
173
     0
291
     1
 45
0.0
1001
ACAD
1000
AcDbSavedByObjectVersion
1070
     0
  0
VISUALSTYLE
  5
34
102
{ACAD_REACTORS
330
2A
102
}
330
2A
100
AcDbVisualStyle
  2
Conceptual
 70
     9
 71
     3
 72
     2
 73
     0
 90
        0
 40
-0.6
 41
-30.0
 62
     5
 63
     7
 74
     2
 91
        2
 64
     7
 65
   257
 75
     1
175
     1
 42
40.0
 92
        8
 66
     7
 43
1.0
 76
     1
 77
     6
 78
     2
 67
     7
 79
     3
170
     0
171
     0
290
     0
174
     0
 93
        1
 44
0.0
173
     0
291
     0
 45
0.0
1001
ACAD
1000
AcDbSavedByObjectVersion
1070
     0
  0
VISUALSTYLE
  5
35
102
{ACAD_REACTORS
330
2A
102
}
330
2A
100
AcDbVisualStyle
  2
Dim
 70
    11
 71
     2
 72
     2
 73
     0
 90
        0
 40
-0.6
 41
-30.0
 62
     5
 63
     7
 74
     1
 91
        4
 64
     7
 65
   257
 75
     1
175
     1
 42
1.0
 92
        8
 66
     7
 43
1.0
 76
     1
 77
     6
 78
     2
 67
     7
 79
     5
170
     0
171
     0
290
     0
174
     0
 93
        1
 44
-50.0
173
     0
291
     1
 45
0.0
1001
ACAD
1000
AcDbSavedByObjectVersion
1070
     0
  0
VISUALSTYLE
  5
39
102
{ACAD_REACTORS
330
2A
102
}
330
2A
100
AcDbVisualStyle
  2
Facepattern
 70
    15
 71
     2
 72
     2
 73
     0
 90
        0
 40
-0.6
 41
-30.0
 62
     5
 63
     7
 74
     1
 91
        4
 64
     7
 65
   257
 75
     1
175
     1
 42
1.0
 92
        8
 66
     7
 43
1.0
 76
     1
 77
     6
 78
     2
 67
     7
 79
     5
170
     0
171
     0
290
     0
174
     0
 93
        1
 44
0.0
173
     0
291
     1
 45
0.0
1001
ACAD
1000
AcDbSavedByObjectVersion
1070
     0
  0
VISUALSTYLE
  5
2B
102
{ACAD_REACTORS
330
2A
102
}
330
2A
100
AcDbVisualStyle
  2
Flat
 70
     0
 71
     2
 72
     1
 73
     1
 90
        2
 40
-0.6
 41
30.0
 62
     5
 63
     7
 74
     0
 91
        4
 64
     7
 65
   257
 75
     1
175
     1
 42
1.0
 92
        8
 66
     7
 43
1.0
 76
     1
 77
     6
 78
     2
 67
     7
 79
     5
170
     0
171
     0
290
     0
174
     0
 93
       13
 44
0.0
173
     0
291
     1
 45
0.0
1001
ACAD
1000
AcDbSavedByObjectVersion
1070
     0
  0
VISUALSTYLE
  5
2C
102
{ACAD_REACTORS
330
2A
102
}
330
2A
100
AcDbVisualStyle
  2
FlatWithEdges
 70
     1
 71
     2
 72
     1
 73
     1
 90
        2
 40
-0.6
 41
30.0
 62
     5
 63
     7
 74
     1
 91
        4
 64
     7
 65
   257
 75
     1
175
     1
 42
1.0
 92
        0
 66
   257
 43
1.0
 76
     1
 77
     6
 78
     2
 67
     7
 79
     5
170
     0
171
     0
290
     0
174
     0
 93
       13
 44
0.0
173
     0
291
     1
 45
0.0
1001
ACAD
1000
AcDbSavedByObjectVersion
1070
     0
  0
VISUALSTYLE
  5
2D
102
{ACAD_REACTORS
330
2A
102
}
330
2A
100
AcDbVisualStyle
  2
Gouraud
 70
     2
 71
     2
 72
     2
 73
     1
 90
        2
 40
-0.6
 41
30.0
 62
     5
 63
     7
 74
     0
 91
        4
 64
     7
 65
   257
 75
     1
175
     1
 42
1.0
 92
        0
 66
     7
 43
1.0
 76
     1
 77
     6
 78
     2
 67
     7
 79
     5
170
     0
171
     0
290
     0
174
     0
 93
       13
 44
0.0
173
     0
291
     1
 45
0.0
1001
ACAD
1000
AcDbSavedByObjectVersion
1070
     0
  0
VISUALSTYLE
  5
2E
102
{ACAD_REACTORS
330
2A
102
}
330
2A
100
AcDbVisualStyle
  2
GouraudWithEdges
 70
     3
 71
     2
 72
     2
 73
     1
 90
        2
 40
-0.6
 41
30.0
 62
     5
 63
     7
 74
     1
 91
        4
 64
     7
 65
   257
 75
     1
175
     1
 42
1.0
 92
        0
 66
   257
 43
1.0
 76
     1
 77
     6
 78
     2
 67
     7
 79
     5
170
     0
171
     0
290
     0
174
     0
 93
       13
 44
0.0
173
     0
291
     1
 45
0.0
1001
ACAD
1000
AcDbSavedByObjectVersion
1070
     0
  0
VISUALSTYLE
  5
38
102
{ACAD_REACTORS
330
2A
102
}
330
2A
100
AcDbVisualStyle
  2
Linepattern
 70
    14
 71
     2
 72
     2
 73
     0
 90
        0
 40
-0.6
 41
-30.0
 62
     5
 63
     7
 74
     1
 91
        4
 64
     7
 65
   257
 75
     7
175
     7
 42
1.0
 92
        8
 66
     7
 43
1.0
 76
     1
 77
     6
 78
     2
 67
     7
 79
     5
170
     0
171
     0
290
     0
174
     0
 93
        1
 44
0.0
173
     0
291
     1
 45
0.0
1001
ACAD
1000
AcDbSavedByObjectVersion
1070
     0
  0
VISUALSTYLE
  5
33
102
{ACAD_REACTORS
330
2A
102
}
330
2A
100
AcDbVisualStyle
  2
Realistic
 70
     8
 71
     2
 72
     2
 73
     0
 90
        0
 40
-0.6
 41
-30.0
 62
     5
 63
     7
 74
     1
 91
        0
 64
     7
 65
   257
 75
     1
175
     1
 42
1.0
 92
        8
 66
     8
 43
1.0
 76
     1
 77
     6
 78
     2
 67
     7
 79
     5
170
     0
171
     0
290
     0
174
     0
 93
       13
 44
0.0
173
     0
291
     0
 45
0.0
1001
ACAD
1000
AcDbSavedByObjectVersion
1070
     0
  0
VISUALSTYLE
  5
37
102
{ACAD_REACTORS
330
2A
102
}
330
2A
100
AcDbVisualStyle
  2
Thicken
 70
    13
 71
     2
 72
     2
 73
     0
 90
        0
 40
-0.6
 41
-30.0
 62
     5
 63
     7
 74
     1
 91
        4
 64
     7
 65
   257
 75
     1
175
     1
 42
1.0
 92
       12
 66
     7
 43
1.0
 76
     1
 77
     6
 78
     2
 67
     7
 79
     5
170
     0
171
     0
290
     0
174
     0
 93
        1
 44
0.0
173
     0
291
     1
 45
0.0
1001
ACAD
1000
AcDbSavedByObjectVersion
1070
     0
  0
XRECORD
  5
848
102
{ACAD_REACTORS
330
83F
102
}
330
83F
100
AcDbXrecord
 90
        0
  0
XRECORD
  5
85E
102
{ACAD_REACTORS
330
83F
102
}
330
83F
100
AcDbXrecord
1000
DSTYLE
1002
{
1070
   340
340
11
1002
}
  0
XRECORD
  5
849
102
{ACAD_REACTORS
330
83F
102
}
330
83F
100
AcDbXrecord
  1
{61E112A8-FA80-4C9B-BA2C-9C7FA948D31C}
  0
XRECORD
  5
842
102
{ACAD_REACTORS
330
83F
102
}
330
83F
100
AcDbXrecord
  1

  0
XRECORD
  5
847
102
{ACAD_REACTORS
330
83F
102
}
330
83F
100
AcDbXrecord
 90
        1
  0
XRECORD
  5
844
102
{ACAD_REACTORS
330
83F
102
}
330
83F
100
AcDbXrecord
340
1A
  0
XRECORD
  5
846
102
{ACAD_REACTORS
330
83F
102
}
330
83F
100
AcDbXrecord
 90
    10269
  0
XRECORD
  5
845
102
{ACAD_REACTORS
330
83F
102
}
330
83F
100
AcDbXrecord
340
19
  0
XRECORD
  5
84B
102
{ACAD_REACTORS
330
83F
102
}
330
83F
100
AcDbXrecord
 40
0.0
  0
XRECORD
  5
84E
102
{ACAD_REACTORS
330
83F
102
}
330
83F
100
AcDbXrecord
340
0
  0
XRECORD
  5
854
102
{ACAD_REACTORS
330
83F
102
}
330
83F
100
AcDbXrecord
 10
0.0
 20
0.0
 30
0.0
  0
XRECORD
  5
850
102
{ACAD_REACTORS
330
83F
102
}
330
83F
100
AcDbXrecord
 10
0.0
 20
0.0
 30
0.0
  0
XRECORD
  5
853
102
{ACAD_REACTORS
330
83F
102
}
330
83F
100
AcDbXrecord
 10
0.0
 20
0.0
 30
0.0
  0
XRECORD
  5
851
102
{ACAD_REACTORS
330
83F
102
}
330
83F
100
AcDbXrecord
 10
0.0
 20
0.0
 30
0.0
  0
XRECORD
  5
852
102
{ACAD_REACTORS
330
83F
102
}
330
83F
100
AcDbXrecord
 10
0.0
 20
0.0
 30
0.0
  0
XRECORD
  5
84F
102
{ACAD_REACTORS
330
83F
102
}
330
83F
100
AcDbXrecord
 10
0.0
 20
0.0
 30
0.0
  0
XRECORD
  5
84C
102
{ACAD_REACTORS
330
83F
102
}
330
83F
100
AcDbXrecord
340
0
  0
XRECORD
  5
84D
102
{ACAD_REACTORS
330
83F
102
}
330
83F
100
AcDbXrecord
 70
     0
  0
XRECORD
  5
843
102
{ACAD_REACTORS
330
83F
102
}
330
83F
100
AcDbXrecord
  1

  0
XRECORD
  5
840
102
{ACAD_REACTORS
330
83F
102
}
330
83F
100
AcDbXrecord
 90
        1
  0
XRECORD
  5
841
102
{ACAD_REACTORS
330
83F
102
}
330
83F
100
AcDbXrecord
 90
       70
  0
XRECORD
  5
857
102
{ACAD_REACTORS
330
83F
102
}
330
83F
100
AcDbXrecord
340
0
  0
XRECORD
  5
85D
102
{ACAD_REACTORS
330
83F
102
}
330
83F
100
AcDbXrecord
 10
0.0
 20
0.0
 30
0.0
  0
XRECORD
  5
859
102
{ACAD_REACTORS
330
83F
102
}
330
83F
100
AcDbXrecord
 10
0.0
 20
0.0
 30
0.0
  0
XRECORD
  5
85C
102
{ACAD_REACTORS
330
83F
102
}
330
83F
100
AcDbXrecord
 10
0.0
 20
0.0
 30
0.0
  0
XRECORD
  5
85A
102
{ACAD_REACTORS
330
83F
102
}
330
83F
100
AcDbXrecord
 10
0.0
 20
0.0
 30
0.0
  0
XRECORD
  5
85B
102
{ACAD_REACTORS
330
83F
102
}
330
83F
100
AcDbXrecord
 10
0.0
 20
0.0
 30
0.0
  0
XRECORD
  5
858
102
{ACAD_REACTORS
330
83F
102
}
330
83F
100
AcDbXrecord
 10
0.0
 20
0.0
 30
0.0
  0
XRECORD
  5
855
102
{ACAD_REACTORS
330
83F
102
}
330
83F
100
AcDbXrecord
340
0
  0
XRECORD
  5
856
102
{ACAD_REACTORS
330
83F
102
}
330
83F
100
AcDbXrecord
 70
     0
  0
XRECORD
  5
84A
102
{ACAD_REACTORS
330
83F
102
}
330
83F
100
AcDbXrecord
  1
{FAEB1C32-E019-11D5-929B-00C0DF256EC4}
  0
ENDSEC
  0
EOF
