ISO-10303-21;
HEADER;
/* Generated by software containing ST-Developer
 * from STEP Tools, Inc. (www.steptools.com) 
 */
/* OPTION: using custom schema-name function */

FILE_DESCRIPTION(
/* description */ (''),
/* implementation_level */ '2;1');

FILE_NAME(
/* name */ '836274_stp.stp',
/* time_stamp */ '2017-05-15T07:45:22+02:00',
/* author */ (''),
/* organization */ (''),
/* preprocessor_version */ 'ST-DEVELOPER v15',
/* originating_system */ 'SIEMENS PLM Software NX 9.0',
/* authorisation */ '');

FILE_SCHEMA (('AUTOMOTIVE_DESIGN { 1 0 10303 214 3 1 1 1 }'));
ENDSEC;

DATA;
#10=PROPERTY_DEFINITION_REPRESENTATION(#14,#12);
#11=PROPERTY_DEFINITION_REPRESENTATION(#15,#13);
#12=REPRESENTATION('',(#16),#499);
#13=REPRESENTATION('',(#17),#499);
#14=PROPERTY_DEFINITION('pmi validation property','',#21);
#15=PROPERTY_DEFINITION('pmi validation property','',#21);
#16=VALUE_REPRESENTATION_ITEM('number of annotations',COUNT_MEASURE(0.));
#17=VALUE_REPRESENTATION_ITEM('number of views',COUNT_MEASURE(0.));
#18=SHAPE_REPRESENTATION_RELATIONSHIP('None',
'relationship between reic1F4CA23Dza1d-None and reic1F4CA23Dza1d-None',
#30,#19);
#19=ADVANCED_BREP_SHAPE_REPRESENTATION('reic1F4CA23Dza1d-None',(#40),#499);
#20=SHAPE_DEFINITION_REPRESENTATION(#21,#30);
#21=PRODUCT_DEFINITION_SHAPE('','',#22);
#22=PRODUCT_DEFINITION(' ','',#24,#23);
#23=PRODUCT_DEFINITION_CONTEXT('part definition',#29,'design');
#24=PRODUCT_DEFINITION_FORMATION_WITH_SPECIFIED_SOURCE(' ',' ',#26,
 .NOT_KNOWN.);
#25=PRODUCT_RELATED_PRODUCT_CATEGORY('part','',(#26));
#26=PRODUCT('reic1F4CA23Dza1d','reic1F4CA23Dza1d',' ',(#27));
#27=PRODUCT_CONTEXT(' ',#29,'mechanical');
#28=APPLICATION_PROTOCOL_DEFINITION('international standard',
'automotive_design',2010,#29);
#29=APPLICATION_CONTEXT(
'core data for automotive mechanical design processes');
#30=SHAPE_REPRESENTATION('reic1F4CA23Dza1d-None',(#273),#499);
#31=PRESENTATION_LAYER_ASSIGNMENT('10','Layer 10',(#40));
#32=STYLED_ITEM('',(#33),#40);
#33=PRESENTATION_STYLE_ASSIGNMENT((#34));
#34=SURFACE_STYLE_USAGE(.BOTH.,#35);
#35=SURFACE_SIDE_STYLE('',(#36));
#36=SURFACE_STYLE_FILL_AREA(#37);
#37=FILL_AREA_STYLE('',(#38));
#38=FILL_AREA_STYLE_COLOUR('',#39);
#39=COLOUR_RGB('RAL 7035',0.8,0.8,0.8);
#40=MANIFOLD_SOLID_BREP('',#41);
#41=CLOSED_SHELL('',(#94,#95,#96,#97,#98,#99,#100,#101,#102,#103,#104,#105,
#106,#107,#108,#109,#110,#111,#112,#113,#114));
#42=TOROIDAL_SURFACE('',#299,10.5,3.);
#43=TOROIDAL_SURFACE('',#300,16.5,3.);
#44=TOROIDAL_SURFACE('',#301,9.19485970037752,2.);
#45=B_SPLINE_CURVE_WITH_KNOTS('',3,(#421,#422,#423,#424,#425,#426,#427,
#428,#429,#430,#431,#432,#433,#434),.UNSPECIFIED.,.F.,.F.,(4,2,2,2,2,2,
4),(0.,0.25,0.375,0.5,0.625,0.75,1.),.UNSPECIFIED.);
#46=B_SPLINE_CURVE_WITH_KNOTS('',3,(#441,#442,#443,#444,#445,#446,#447,
#448,#449,#450,#451,#452,#453,#454),.UNSPECIFIED.,.F.,.F.,(4,2,2,2,2,2,
4),(0.,0.125,0.25,0.5,0.75,0.875,1.),.UNSPECIFIED.);
#47=B_SPLINE_CURVE_WITH_KNOTS('',3,(#467,#468,#469,#470,#471,#472),
 .UNSPECIFIED.,.F.,.F.,(4,2,4),(0.,0.5,1.),.UNSPECIFIED.);
#48=B_SPLINE_CURVE_WITH_KNOTS('',3,(#473,#474,#475,#476,#477,#478),
 .UNSPECIFIED.,.F.,.F.,(4,2,4),(0.,0.5,1.),.UNSPECIFIED.);
#49=CONICAL_SURFACE('',#279,10.0723145172501,8.00000000000004);
#50=CONICAL_SURFACE('',#289,13.5,75.);
#51=CONICAL_SURFACE('',#298,13.5,25.);
#52=CONICAL_SURFACE('',#310,6.,45.);
#53=CYLINDRICAL_SURFACE('',#277,8.);
#54=CYLINDRICAL_SURFACE('',#283,16.);
#55=CYLINDRICAL_SURFACE('',#287,25.);
#56=CYLINDRICAL_SURFACE('',#292,13.5);
#57=CYLINDRICAL_SURFACE('',#303,6.5);
#58=CYLINDRICAL_SURFACE('',#307,6.);
#59=CYLINDRICAL_SURFACE('',#313,6.);
#60=FACE_BOUND('',#127,.T.);
#61=FACE_BOUND('',#128,.T.);
#62=FACE_BOUND('',#129,.T.);
#63=FACE_BOUND('',#130,.T.);
#64=FACE_BOUND('',#131,.T.);
#65=FACE_BOUND('',#132,.T.);
#66=FACE_BOUND('',#133,.T.);
#67=FACE_BOUND('',#134,.T.);
#68=FACE_BOUND('',#135,.T.);
#69=FACE_BOUND('',#136,.T.);
#70=FACE_BOUND('',#137,.T.);
#71=FACE_BOUND('',#138,.T.);
#72=FACE_BOUND('',#139,.T.);
#73=FACE_BOUND('',#140,.T.);
#74=FACE_BOUND('',#141,.T.);
#75=FACE_BOUND('',#142,.T.);
#76=FACE_BOUND('',#143,.T.);
#77=FACE_BOUND('',#144,.T.);
#78=FACE_BOUND('',#145,.T.);
#79=FACE_BOUND('',#146,.T.);
#80=FACE_BOUND('',#147,.T.);
#81=FACE_BOUND('',#148,.T.);
#82=FACE_BOUND('',#150,.T.);
#83=FACE_BOUND('',#151,.T.);
#84=FACE_BOUND('',#152,.T.);
#85=FACE_BOUND('',#153,.T.);
#86=FACE_BOUND('',#154,.T.);
#87=FACE_BOUND('',#155,.T.);
#88=FACE_BOUND('',#156,.T.);
#89=FACE_BOUND('',#157,.T.);
#90=FACE_BOUND('',#159,.T.);
#91=FACE_BOUND('',#160,.T.);
#92=FACE_BOUND('',#162,.T.);
#93=FACE_BOUND('',#163,.T.);
#94=ADVANCED_FACE('',(#122),#115,.F.);
#95=ADVANCED_FACE('',(#60,#61),#53,.T.);
#96=ADVANCED_FACE('',(#62,#63),#49,.T.);
#97=ADVANCED_FACE('',(#64,#65),#116,.F.);
#98=ADVANCED_FACE('',(#66,#67),#54,.T.);
#99=ADVANCED_FACE('',(#68,#69),#117,.F.);
#100=ADVANCED_FACE('',(#70,#71),#55,.T.);
#101=ADVANCED_FACE('',(#72,#73),#50,.T.);
#102=ADVANCED_FACE('',(#74,#75),#56,.T.);
#103=ADVANCED_FACE('',(#76,#77),#118,.F.);
#104=ADVANCED_FACE('',(#78,#79),#51,.T.);
#105=ADVANCED_FACE('',(#80,#81),#42,.T.);
#106=ADVANCED_FACE('',(#123),#43,.F.);
#107=ADVANCED_FACE('',(#82,#83),#44,.T.);
#108=ADVANCED_FACE('',(#84,#85),#57,.F.);
#109=ADVANCED_FACE('',(#86,#87),#119,.F.);
#110=ADVANCED_FACE('',(#88,#89),#58,.T.);
#111=ADVANCED_FACE('',(#124),#120,.T.);
#112=ADVANCED_FACE('',(#90,#91),#52,.T.);
#113=ADVANCED_FACE('',(#125),#121,.F.);
#114=ADVANCED_FACE('',(#92,#93),#59,.F.);
#115=PLANE('',#275);
#116=PLANE('',#281);
#117=PLANE('',#285);
#118=PLANE('',#295);
#119=PLANE('',#305);
#120=PLANE('',#309);
#121=PLANE('',#312);
#122=FACE_OUTER_BOUND('',#126,.T.);
#123=FACE_OUTER_BOUND('',#149,.T.);
#124=FACE_OUTER_BOUND('',#158,.T.);
#125=FACE_OUTER_BOUND('',#161,.T.);
#126=EDGE_LOOP('',(#164));
#127=EDGE_LOOP('',(#165));
#128=EDGE_LOOP('',(#166));
#129=EDGE_LOOP('',(#167));
#130=EDGE_LOOP('',(#168));
#131=EDGE_LOOP('',(#169));
#132=EDGE_LOOP('',(#170));
#133=EDGE_LOOP('',(#171));
#134=EDGE_LOOP('',(#172));
#135=EDGE_LOOP('',(#173));
#136=EDGE_LOOP('',(#174));
#137=EDGE_LOOP('',(#175));
#138=EDGE_LOOP('',(#176));
#139=EDGE_LOOP('',(#177,#178));
#140=EDGE_LOOP('',(#179));
#141=EDGE_LOOP('',(#180));
#142=EDGE_LOOP('',(#181,#182));
#143=EDGE_LOOP('',(#183));
#144=EDGE_LOOP('',(#184));
#145=EDGE_LOOP('',(#185));
#146=EDGE_LOOP('',(#186));
#147=EDGE_LOOP('',(#187));
#148=EDGE_LOOP('',(#188));
#149=EDGE_LOOP('',(#189,#190,#191,#192));
#150=EDGE_LOOP('',(#193));
#151=EDGE_LOOP('',(#194));
#152=EDGE_LOOP('',(#195));
#153=EDGE_LOOP('',(#196,#197,#198,#199));
#154=EDGE_LOOP('',(#200));
#155=EDGE_LOOP('',(#201));
#156=EDGE_LOOP('',(#202));
#157=EDGE_LOOP('',(#203));
#158=EDGE_LOOP('',(#204));
#159=EDGE_LOOP('',(#205));
#160=EDGE_LOOP('',(#206));
#161=EDGE_LOOP('',(#207));
#162=EDGE_LOOP('',(#208));
#163=EDGE_LOOP('',(#209));
#164=ORIENTED_EDGE('',*,*,#231,.F.);
#165=ORIENTED_EDGE('',*,*,#232,.T.);
#166=ORIENTED_EDGE('',*,*,#231,.T.);
#167=ORIENTED_EDGE('',*,*,#232,.F.);
#168=ORIENTED_EDGE('',*,*,#233,.F.);
#169=ORIENTED_EDGE('',*,*,#234,.F.);
#170=ORIENTED_EDGE('',*,*,#233,.T.);
#171=ORIENTED_EDGE('',*,*,#234,.T.);
#172=ORIENTED_EDGE('',*,*,#235,.F.);
#173=ORIENTED_EDGE('',*,*,#235,.T.);
#174=ORIENTED_EDGE('',*,*,#236,.T.);
#175=ORIENTED_EDGE('',*,*,#236,.F.);
#176=ORIENTED_EDGE('',*,*,#237,.T.);
#177=ORIENTED_EDGE('',*,*,#238,.T.);
#178=ORIENTED_EDGE('',*,*,#239,.T.);
#179=ORIENTED_EDGE('',*,*,#237,.F.);
#180=ORIENTED_EDGE('',*,*,#240,.T.);
#181=ORIENTED_EDGE('',*,*,#241,.T.);
#182=ORIENTED_EDGE('',*,*,#242,.T.);
#183=ORIENTED_EDGE('',*,*,#243,.T.);
#184=ORIENTED_EDGE('',*,*,#244,.T.);
#185=ORIENTED_EDGE('',*,*,#245,.T.);
#186=ORIENTED_EDGE('',*,*,#246,.T.);
#187=ORIENTED_EDGE('',*,*,#246,.F.);
#188=ORIENTED_EDGE('',*,*,#240,.F.);
#189=ORIENTED_EDGE('',*,*,#241,.F.);
#190=ORIENTED_EDGE('',*,*,#247,.T.);
#191=ORIENTED_EDGE('',*,*,#238,.F.);
#192=ORIENTED_EDGE('',*,*,#248,.T.);
#193=ORIENTED_EDGE('',*,*,#245,.F.);
#194=ORIENTED_EDGE('',*,*,#244,.F.);
#195=ORIENTED_EDGE('',*,*,#249,.F.);
#196=ORIENTED_EDGE('',*,*,#242,.F.);
#197=ORIENTED_EDGE('',*,*,#248,.F.);
#198=ORIENTED_EDGE('',*,*,#239,.F.);
#199=ORIENTED_EDGE('',*,*,#247,.F.);
#200=ORIENTED_EDGE('',*,*,#250,.T.);
#201=ORIENTED_EDGE('',*,*,#249,.T.);
#202=ORIENTED_EDGE('',*,*,#251,.T.);
#203=ORIENTED_EDGE('',*,*,#250,.F.);
#204=ORIENTED_EDGE('',*,*,#252,.T.);
#205=ORIENTED_EDGE('',*,*,#252,.F.);
#206=ORIENTED_EDGE('',*,*,#251,.F.);
#207=ORIENTED_EDGE('',*,*,#253,.T.);
#208=ORIENTED_EDGE('',*,*,#253,.F.);
#209=ORIENTED_EDGE('',*,*,#243,.F.);
#210=VERTEX_POINT('',#398);
#211=VERTEX_POINT('',#401);
#212=VERTEX_POINT('',#404);
#213=VERTEX_POINT('',#407);
#214=VERTEX_POINT('',#410);
#215=VERTEX_POINT('',#413);
#216=VERTEX_POINT('',#416);
#217=VERTEX_POINT('',#419);
#218=VERTEX_POINT('',#420);
#219=VERTEX_POINT('',#437);
#220=VERTEX_POINT('',#439);
#221=VERTEX_POINT('',#440);
#222=VERTEX_POINT('',#457);
#223=VERTEX_POINT('',#459);
#224=VERTEX_POINT('',#462);
#225=VERTEX_POINT('',#464);
#226=VERTEX_POINT('',#482);
#227=VERTEX_POINT('',#485);
#228=VERTEX_POINT('',#488);
#229=VERTEX_POINT('',#491);
#230=VERTEX_POINT('',#495);
#231=EDGE_CURVE('',#210,#210,#254,.T.);
#232=EDGE_CURVE('',#211,#211,#255,.T.);
#233=EDGE_CURVE('',#212,#212,#256,.T.);
#234=EDGE_CURVE('',#213,#213,#257,.T.);
#235=EDGE_CURVE('',#214,#214,#258,.T.);
#236=EDGE_CURVE('',#215,#215,#259,.T.);
#237=EDGE_CURVE('',#216,#216,#260,.T.);
#238=EDGE_CURVE('',#217,#218,#261,.T.);
#239=EDGE_CURVE('',#218,#217,#45,.T.);
#240=EDGE_CURVE('',#219,#219,#262,.T.);
#241=EDGE_CURVE('',#220,#221,#263,.T.);
#242=EDGE_CURVE('',#221,#220,#46,.T.);
#243=EDGE_CURVE('',#222,#222,#264,.T.);
#244=EDGE_CURVE('',#223,#223,#265,.T.);
#245=EDGE_CURVE('',#224,#224,#266,.T.);
#246=EDGE_CURVE('',#225,#225,#267,.T.);
#247=EDGE_CURVE('',#220,#218,#47,.T.);
#248=EDGE_CURVE('',#217,#221,#48,.T.);
#249=EDGE_CURVE('',#226,#226,#268,.T.);
#250=EDGE_CURVE('',#227,#227,#269,.T.);
#251=EDGE_CURVE('',#228,#228,#270,.T.);
#252=EDGE_CURVE('',#229,#229,#271,.T.);
#253=EDGE_CURVE('',#230,#230,#272,.T.);
#254=CIRCLE('',#274,8.);
#255=CIRCLE('',#276,8.);
#256=CIRCLE('',#278,10.0723145172501);
#257=CIRCLE('',#280,16.);
#258=CIRCLE('',#282,16.);
#259=CIRCLE('',#284,25.);
#260=CIRCLE('',#286,25.);
#261=CIRCLE('',#288,15.7235428646924);
#262=CIRCLE('',#290,13.5);
#263=CIRCLE('',#291,13.5);
#264=CIRCLE('',#293,6.);
#265=CIRCLE('',#294,9.19485970037752);
#266=CIRCLE('',#296,11.0074752744508);
#267=CIRCLE('',#297,13.21892336111);
#268=CIRCLE('',#302,6.5);
#269=CIRCLE('',#304,6.);
#270=CIRCLE('',#306,6.);
#271=CIRCLE('',#308,4.9264625);
#272=CIRCLE('',#311,6.);
#273=AXIS2_PLACEMENT_3D('',#396,#314,#315);
#274=AXIS2_PLACEMENT_3D('',#397,#316,#317);
#275=AXIS2_PLACEMENT_3D('',#399,#318,#319);
#276=AXIS2_PLACEMENT_3D('',#400,#320,#321);
#277=AXIS2_PLACEMENT_3D('',#402,#322,#323);
#278=AXIS2_PLACEMENT_3D('',#403,#324,#325);
#279=AXIS2_PLACEMENT_3D('',#405,#326,#327);
#280=AXIS2_PLACEMENT_3D('',#406,#328,#329);
#281=AXIS2_PLACEMENT_3D('',#408,#330,#331);
#282=AXIS2_PLACEMENT_3D('',#409,#332,#333);
#283=AXIS2_PLACEMENT_3D('',#411,#334,#335);
#284=AXIS2_PLACEMENT_3D('',#412,#336,#337);
#285=AXIS2_PLACEMENT_3D('',#414,#338,#339);
#286=AXIS2_PLACEMENT_3D('',#415,#340,#341);
#287=AXIS2_PLACEMENT_3D('',#417,#342,#343);
#288=AXIS2_PLACEMENT_3D('',#418,#344,#345);
#289=AXIS2_PLACEMENT_3D('',#435,#346,#347);
#290=AXIS2_PLACEMENT_3D('',#436,#348,#349);
#291=AXIS2_PLACEMENT_3D('',#438,#350,#351);
#292=AXIS2_PLACEMENT_3D('',#455,#352,#353);
#293=AXIS2_PLACEMENT_3D('',#456,#354,#355);
#294=AXIS2_PLACEMENT_3D('',#458,#356,#357);
#295=AXIS2_PLACEMENT_3D('',#460,#358,#359);
#296=AXIS2_PLACEMENT_3D('',#461,#360,#361);
#297=AXIS2_PLACEMENT_3D('',#463,#362,#363);
#298=AXIS2_PLACEMENT_3D('',#465,#364,#365);
#299=AXIS2_PLACEMENT_3D('',#466,#366,#367);
#300=AXIS2_PLACEMENT_3D('',#479,#368,#369);
#301=AXIS2_PLACEMENT_3D('',#480,#370,#371);
#302=AXIS2_PLACEMENT_3D('',#481,#372,#373);
#303=AXIS2_PLACEMENT_3D('',#483,#374,#375);
#304=AXIS2_PLACEMENT_3D('',#484,#376,#377);
#305=AXIS2_PLACEMENT_3D('',#486,#378,#379);
#306=AXIS2_PLACEMENT_3D('',#487,#380,#381);
#307=AXIS2_PLACEMENT_3D('',#489,#382,#383);
#308=AXIS2_PLACEMENT_3D('',#490,#384,#385);
#309=AXIS2_PLACEMENT_3D('',#492,#386,#387);
#310=AXIS2_PLACEMENT_3D('',#493,#388,#389);
#311=AXIS2_PLACEMENT_3D('',#494,#390,#391);
#312=AXIS2_PLACEMENT_3D('',#496,#392,#393);
#313=AXIS2_PLACEMENT_3D('',#497,#394,#395);
#314=DIRECTION('',(0.,0.,1.));
#315=DIRECTION('',(1.,0.,0.));
#316=DIRECTION('',(0.,0.,1.));
#317=DIRECTION('',(1.,0.,0.));
#318=DIRECTION('',(0.,0.,1.));
#319=DIRECTION('',(-1.,0.,0.));
#320=DIRECTION('',(0.,0.,-1.));
#321=DIRECTION('',(1.,0.,0.));
#322=DIRECTION('',(0.,0.,-1.));
#323=DIRECTION('',(1.,0.,0.));
#324=DIRECTION('',(0.,0.,1.));
#325=DIRECTION('',(1.,0.,0.));
#326=DIRECTION('',(0.,0.,1.));
#327=DIRECTION('',(-1.,0.,2.53390335898458E-016));
#328=DIRECTION('',(0.,0.,1.));
#329=DIRECTION('',(1.,0.,0.));
#330=DIRECTION('',(0.,0.,1.));
#331=DIRECTION('',(-1.,0.,0.));
#332=DIRECTION('',(0.,0.,1.));
#333=DIRECTION('',(1.,0.,0.));
#334=DIRECTION('',(0.,0.,-1.));
#335=DIRECTION('',(1.,0.,0.));
#336=DIRECTION('',(0.,1.07731794520314E-016,-1.));
#337=DIRECTION('',(0.,1.,1.07731794520314E-016));
#338=DIRECTION('',(0.,-1.07731794520314E-016,1.));
#339=DIRECTION('',(0.,-1.,-1.07731794520314E-016));
#340=DIRECTION('',(0.,1.07731794520314E-016,-1.));
#341=DIRECTION('',(0.,1.,1.04083408558608E-016));
#342=DIRECTION('',(0.,1.07731794520314E-016,-1.));
#343=DIRECTION('',(0.,1.,1.07731794520314E-016));
#344=DIRECTION('',(0.,1.07731794520314E-016,-1.));
#345=DIRECTION('',(0.,1.,1.10326501533708E-016));
#346=DIRECTION('',(0.,1.07731794520314E-016,-1.));
#347=DIRECTION('',(0.,1.,1.29216735978992E-016));
#348=DIRECTION('',(0.,1.07731794520314E-016,-1.));
#349=DIRECTION('',(0.,-1.,0.));
#350=DIRECTION('',(0.,-1.07731794520314E-016,1.));
#351=DIRECTION('',(0.,1.,1.28498035257541E-016));
#352=DIRECTION('',(0.,1.07731794520314E-016,-1.));
#353=DIRECTION('',(0.,1.,1.07731794520314E-016));
#354=DIRECTION('',(0.,1.07731794520314E-016,-1.));
#355=DIRECTION('',(0.,1.,0.));
#356=DIRECTION('',(0.,-1.07731794520314E-016,1.));
#357=DIRECTION('',(0.,1.,0.));
#358=DIRECTION('',(0.,1.07731794520314E-016,-1.));
#359=DIRECTION('',(0.,1.,1.11022302462516E-016));
#360=DIRECTION('',(0.,1.07731794520314E-016,-1.));
#361=DIRECTION('',(0.,1.,0.));
#362=DIRECTION('',(0.,-1.07731794520314E-016,1.));
#363=DIRECTION('',(0.,1.,0.));
#364=DIRECTION('',(0.,1.07731794520314E-016,-1.));
#365=DIRECTION('',(0.,1.,-7.23091199772563E-017));
#366=DIRECTION('',(0.,-1.07731794520314E-016,1.));
#367=DIRECTION('',(0.,-1.,0.));
#368=DIRECTION('',(0.,1.07731794520314E-016,-1.));
#369=DIRECTION('',(0.,1.,8.89601782552209E-017));
#370=DIRECTION('',(0.,1.07731794520314E-016,-1.));
#371=DIRECTION('',(0.,1.,0.));
#372=DIRECTION('',(0.,-1.,0.));
#373=DIRECTION('',(0.,0.,1.));
#374=DIRECTION('',(0.,1.,0.));
#375=DIRECTION('',(0.,0.,1.));
#376=DIRECTION('',(0.,1.,0.));
#377=DIRECTION('',(0.,0.,1.));
#378=DIRECTION('',(0.,1.,0.));
#379=DIRECTION('',(0.,0.,1.));
#380=DIRECTION('',(0.,1.,0.));
#381=DIRECTION('',(0.,0.,1.));
#382=DIRECTION('',(0.,1.,0.));
#383=DIRECTION('',(0.,0.,-1.));
#384=DIRECTION('',(0.,-1.,0.));
#385=DIRECTION('',(0.,0.,1.));
#386=DIRECTION('',(0.,-1.,0.));
#387=DIRECTION('',(0.,0.,1.));
#388=DIRECTION('',(0.,1.,0.));
#389=DIRECTION('',(0.,-4.65581847429164E-017,-1.));
#390=DIRECTION('',(0.,-1.07731794520314E-016,1.));
#391=DIRECTION('',(0.,1.,0.));
#392=DIRECTION('',(0.,1.07731794520314E-016,-1.));
#393=DIRECTION('',(0.,1.,1.07552855510562E-016));
#394=DIRECTION('',(0.,1.07731794520314E-016,-1.));
#395=DIRECTION('',(0.,1.,0.));
#396=CARTESIAN_POINT('',(0.,0.,0.));
#397=CARTESIAN_POINT('',(0.,0.,-41.));
#398=CARTESIAN_POINT('',(8.,0.,-41.));
#399=CARTESIAN_POINT('',(0.,0.,-41.));
#400=CARTESIAN_POINT('',(0.,0.,-33.2452839712988));
#401=CARTESIAN_POINT('',(8.,0.,-33.2452839712988));
#402=CARTESIAN_POINT('',(0.,0.,-41.));
#403=CARTESIAN_POINT('',(0.,0.,-18.5));
#404=CARTESIAN_POINT('',(10.0723145172501,0.,-18.5));
#405=CARTESIAN_POINT('',(0.,0.,-18.5));
#406=CARTESIAN_POINT('',(0.,0.,-18.5));
#407=CARTESIAN_POINT('',(16.,0.,-18.5));
#408=CARTESIAN_POINT('',(0.,16.,-18.5));
#409=CARTESIAN_POINT('',(0.,0.,0.));
#410=CARTESIAN_POINT('',(16.,0.,0.));
#411=CARTESIAN_POINT('',(0.,0.,-41.));
#412=CARTESIAN_POINT('',(0.,2.36128519384091E-015,-2.69329486300786E-015));
#413=CARTESIAN_POINT('',(0.,25.,0.));
#414=CARTESIAN_POINT('',(0.,25.,1.34664743150393E-015));
#415=CARTESIAN_POINT('',(0.,1.82262622123933E-015,5.));
#416=CARTESIAN_POINT('',(0.,25.,5.));
#417=CARTESIAN_POINT('',(0.,2.36128519384091E-015,0.));
#418=CARTESIAN_POINT('',(0.,1.55484600454168E-015,7.48561919802759));
#419=CARTESIAN_POINT('',(-4.13593824576717,-15.1698324000307,7.48561919802759));
#420=CARTESIAN_POINT('',(4.13593824576768,-15.1698324000312,7.48561919802742));
#421=CARTESIAN_POINT('',(4.13593824576754,-15.1698324000312,7.48561919802743));
#422=CARTESIAN_POINT('',(3.78078816435739,-16.3998072259406,7.19268596006642));
#423=CARTESIAN_POINT('',(3.36450580313387,-17.6073173013401,6.89977349729257));
#424=CARTESIAN_POINT('',(2.47213059786142,-19.3246935431032,6.47947848169632));
#425=CARTESIAN_POINT('',(2.13669252466136,-19.8727095879015,6.34466815676588));
#426=CARTESIAN_POINT('',(1.26578398190469,-20.8300019998891,6.10849345174173));
#427=CARTESIAN_POINT('',(0.673108285544679,-21.2638107302393,6.00102496156265));
#428=CARTESIAN_POINT('',(-0.65316510917579,-21.2720258889754,5.99899033576666));
#429=CARTESIAN_POINT('',(-1.24338029888891,-20.8498502131523,6.10358766101761));
#430=CARTESIAN_POINT('',(-2.12870518282104,-19.8861055358678,6.34137193665813));
#431=CARTESIAN_POINT('',(-2.46577538989101,-19.3350425078557,6.47693475214282));
#432=CARTESIAN_POINT('',(-3.35558010882024,-17.6281902427123,6.89468688237015));
#433=CARTESIAN_POINT('',(-3.77949556496098,-16.4042838255536,7.19161980424599));
#434=CARTESIAN_POINT('',(-4.13593824576718,-15.1698324000307,7.48561919802759));
#435=CARTESIAN_POINT('',(0.,1.49065977681928E-015,8.08141571295791));
#436=CARTESIAN_POINT('',(0.,-6.37420258461754E-016,27.8349160120712));
#437=CARTESIAN_POINT('',(0.,-13.5,27.8349160120712));
#438=CARTESIAN_POINT('',(0.,1.24266323662276E-015,10.3833966768948));
#439=CARTESIAN_POINT('',(6.1457294418661,-12.0199837615273,10.3833966768948));
#440=CARTESIAN_POINT('',(-6.14572944186555,-12.0199837615276,10.3833966768948));
#441=CARTESIAN_POINT('',(-6.14572944186555,-12.0199837615276,10.3833966768948));
#442=CARTESIAN_POINT('',(-6.48458259825631,-11.8467306306569,11.3672843033414));
#443=CARTESIAN_POINT('',(-6.58199560807379,-11.7880437473815,12.4383013619117));
#444=CARTESIAN_POINT('',(-6.27413547439498,-11.9547423905253,14.4904012046788));
#445=CARTESIAN_POINT('',(-5.86872831393218,-12.1747121701493,15.4731605029244));
#446=CARTESIAN_POINT('',(-4.08851375893205,-12.9304450440789,17.9461616610801));
#447=CARTESIAN_POINT('',(-2.11303672912443,-13.4993495959802,18.9986491606703));
#448=CARTESIAN_POINT('',(2.10471779712593,-13.5006491224526,19.0013481776146));
#449=CARTESIAN_POINT('',(4.08545112954195,-12.9321351331636,17.9535892120853));
#450=CARTESIAN_POINT('',(5.87542717862296,-12.1716725628514,15.4622613026565));
#451=CARTESIAN_POINT('',(6.27383140942074,-11.9549016818816,14.4901208564079));
#452=CARTESIAN_POINT('',(6.58166187040584,-11.7882297992928,12.4428283235642));
#453=CARTESIAN_POINT('',(6.48495829422318,-11.8465385400675,11.3683751670551));
#454=CARTESIAN_POINT('',(6.1457294418661,-12.0199837615273,10.3833966768948));
#455=CARTESIAN_POINT('',(0.,2.36128519384091E-015,0.));
#456=CARTESIAN_POINT('',(0.,-1.4093276143701E-015,35.));
#457=CARTESIAN_POINT('',(0.,6.,35.));
#458=CARTESIAN_POINT('',(0.,-1.4093276143701E-015,35.));
#459=CARTESIAN_POINT('',(0.,9.19485970037752,35.));
#460=CARTESIAN_POINT('',(0.,-1.77635683940025E-015,35.));
#461=CARTESIAN_POINT('',(0.,-1.28492287279823E-015,33.8452365234814));
#462=CARTESIAN_POINT('',(0.,11.0074752744508,33.8452365234814));
#463=CARTESIAN_POINT('',(0.,-7.74008529664898E-016,29.1027707972933));
#464=CARTESIAN_POINT('',(0.,13.21892336111,29.1027707972933));
#465=CARTESIAN_POINT('',(0.,-7.09070949988052E-016,28.5));
#466=CARTESIAN_POINT('',(0.,-6.37420258461753E-016,27.8349160120712));
#467=CARTESIAN_POINT('',(6.1457294418661,-12.0199837615273,10.3833966768948));
#468=CARTESIAN_POINT('',(5.87769660556163,-12.1570269827283,9.60514159457456));
#469=CARTESIAN_POINT('',(5.50758865638249,-12.6334211174472,8.99496922304368));
#470=CARTESIAN_POINT('',(4.76302281701392,-13.7428879062542,8.03542978553066));
#471=CARTESIAN_POINT('',(4.3602706961154,-14.3929122161273,7.67065204611014));
#472=CARTESIAN_POINT('',(4.13593824576754,-15.1698324000312,7.48561919802743));
#473=CARTESIAN_POINT('',(-4.13593824576717,-15.1698324000307,7.48561919802759));
#474=CARTESIAN_POINT('',(-4.36113648233613,-14.3899137788122,7.67136615987348));
#475=CARTESIAN_POINT('',(-4.76320034880052,-13.7431596160848,8.03636547078467));
#476=CARTESIAN_POINT('',(-5.50169125886409,-12.6416766333271,8.98666766938332));
#477=CARTESIAN_POINT('',(-5.87801143970855,-12.1568660103405,9.60605574106007));
#478=CARTESIAN_POINT('',(-6.1457294418656,-12.0199837615274,10.3833966768947));
#479=CARTESIAN_POINT('',(0.,1.24266323662276E-015,10.3833966768948));
#480=CARTESIAN_POINT('',(0.,-1.19386402532947E-015,33.));
#481=CARTESIAN_POINT('',(2.77034971776333E-013,-11.7139625000013,12.5000000000009));
#482=CARTESIAN_POINT('',(2.77034971776333E-013,-11.7139625000013,19.0000000000009));
#483=CARTESIAN_POINT('',(2.77034971776333E-013,-32.9139625000013,12.5000000000009));
#484=CARTESIAN_POINT('',(2.77034971776333E-013,-11.7139625000013,12.5000000000009));
#485=CARTESIAN_POINT('',(2.77034971776333E-013,-11.7139625000013,18.5000000000009));
#486=CARTESIAN_POINT('',(2.77034971776333E-013,-11.7139625000013,12.5000000000009));
#487=CARTESIAN_POINT('',(2.77034971776333E-013,-12.9139625000013,12.5000000000009));
#488=CARTESIAN_POINT('',(2.77034971776333E-013,-12.9139625000013,18.5000000000009));
#489=CARTESIAN_POINT('',(2.77034971776333E-013,-13.9875000000013,12.5000000000009));
#490=CARTESIAN_POINT('',(2.77034971776333E-013,-13.9875000000013,12.5000000000009));
#491=CARTESIAN_POINT('',(2.77034971776333E-013,-13.9875000000013,17.4264625000009));
#492=CARTESIAN_POINT('',(2.77034971776333E-013,-13.9875000000013,12.5000000000009));
#493=CARTESIAN_POINT('',(2.77034971776333E-013,-12.9139625000013,12.5000000000009));
#494=CARTESIAN_POINT('',(0.,3.54633493356434E-015,-11.));
#495=CARTESIAN_POINT('',(0.,6.,-11.));
#496=CARTESIAN_POINT('',(0.,3.54633493356434E-015,-11.));
#497=CARTESIAN_POINT('',(0.,-1.4093276143701E-015,35.));
#498=MECHANICAL_DESIGN_GEOMETRIC_PRESENTATION_REPRESENTATION('',(#32),#499);
#499=(
GEOMETRIC_REPRESENTATION_CONTEXT(3)
GLOBAL_UNCERTAINTY_ASSIGNED_CONTEXT((#500))
GLOBAL_UNIT_ASSIGNED_CONTEXT((#506,#502,#501))
REPRESENTATION_CONTEXT('836274_stp','TOP_LEVEL_ASSEMBLY_PART')
);
#500=UNCERTAINTY_MEASURE_WITH_UNIT(LENGTH_MEASURE(0.0508),#506,
'DISTANCE_ACCURACY_VALUE','Maximum Tolerance applied to model');
#501=(
NAMED_UNIT(*)
SI_UNIT($,.STERADIAN.)
SOLID_ANGLE_UNIT()
);
#502=(
CONVERSION_BASED_UNIT('DEGREE',#504)
NAMED_UNIT(#503)
PLANE_ANGLE_UNIT()
);
#503=DIMENSIONAL_EXPONENTS(0.,0.,0.,0.,0.,0.,0.);
#504=PLANE_ANGLE_MEASURE_WITH_UNIT(PLANE_ANGLE_MEASURE(0.0174532925),#505);
#505=(
NAMED_UNIT(*)
PLANE_ANGLE_UNIT()
SI_UNIT($,.RADIAN.)
);
#506=(
LENGTH_UNIT()
NAMED_UNIT(*)
SI_UNIT(.MILLI.,.METRE.)
);
ENDSEC;
END-ISO-10303-21;
