  0
SECTION
  2
HEADER
  9
$ACADVER
  1
AC1014
  9
$ACADMAINTVER
 70
     9
  9
$DWGCODEPAGE
  3
ANSI_1252
  9
$INSBASE
 10
0.0
 20
0.0
 30
0.0
  9
$EXTMIN
 10
1.000000000000000E+20
 20
1.000000000000000E+20
 30
1.000000000000000E+20
  9
$EXTMAX
 10
-1.000000000000000E+20
 20
-1.000000000000000E+20
 30
-1.000000000000000E+20
  9
$LIMMIN
 10
0.0
 20
0.0
  9
$LIMMAX
 10
12.0
 20
9.0
  9
$ORTHOMODE
 70
     0
  9
$REGENMODE
 70
     1
  9
$FILLMODE
 70
     1
  9
$QTEXTMODE
 70
     0
  9
$MIRRTEXT
 70
     1
  9
$DRAGMODE
 70
     2
  9
$LTSCALE
 40
1.0
  9
$OSMODE
 70
    37
  9
$ATTMODE
 70
     1
  9
$TEXTSIZE
 40
0.2
  9
$TRACEWID
 40
0.05
  9
$TEXTSTYLE
  7
STANDARD
  9
$CLAYER
  8
0
  9
$CELTYPE
  6
BYLAYER
  9
$CECOLOR
 62
   256
  9
$CELTSCALE
 40
1.0
  9
$DELOBJ
 70
     1
  9
$DISPSILH
 70
     0
  9
$DIMSCALE
 40
1.0
  9
$DIMASZ
 40
0.18
  9
$DIMEXO
 40
0.0625
  9
$DIMDLI
 40
0.38
  9
$DIMRND
 40
0.0
  9
$DIMDLE
 40
0.0
  9
$DIMEXE
 40
0.18
  9
$DIMTP
 40
0.0
  9
$DIMTM
 40
0.0
  9
$DIMTXT
 40
0.18
  9
$DIMCEN
 40
0.09
  9
$DIMTSZ
 40
0.0
  9
$DIMTOL
 70
     0
  9
$DIMLIM
 70
     0
  9
$DIMTIH
 70
     1
  9
$DIMTOH
 70
     1
  9
$DIMSE1
 70
     0
  9
$DIMSE2
 70
     0
  9
$DIMTAD
 70
     0
  9
$DIMZIN
 70
     0
  9
$DIMBLK
  1

  9
$DIMASO
 70
     1
  9
$DIMSHO
 70
     1
  9
$DIMPOST
  1

  9
$DIMAPOST
  1

  9
$DIMALT
 70
     0
  9
$DIMALTD
 70
     2
  9
$DIMALTF
 40
25.4
  9
$DIMLFAC
 40
1.0
  9
$DIMTOFL
 70
     0
  9
$DIMTVP
 40
0.0
  9
$DIMTIX
 70
     0
  9
$DIMSOXD
 70
     0
  9
$DIMSAH
 70
     0
  9
$DIMBLK1
  1

  9
$DIMBLK2
  1

  9
$DIMSTYLE
  2
STANDARD
  9
$DIMCLRD
 70
     0
  9
$DIMCLRE
 70
     0
  9
$DIMCLRT
 70
     0
  9
$DIMTFAC
 40
1.0
  9
$DIMGAP
 40
0.09
  9
$DIMJUST
 70
     0
  9
$DIMSD1
 70
     0
  9
$DIMSD2
 70
     0
  9
$DIMTOLJ
 70
     1
  9
$DIMTZIN
 70
     0
  9
$DIMALTZ
 70
     0
  9
$DIMALTTZ
 70
     0
  9
$DIMFIT
 70
     3
  9
$DIMUPT
 70
     0
  9
$DIMUNIT
 70
     2
  9
$DIMDEC
 70
     4
  9
$DIMTDEC
 70
     4
  9
$DIMALTU
 70
     2
  9
$DIMALTTD
 70
     2
  9
$DIMTXSTY
  7
STANDARD
  9
$DIMAUNIT
 70
     0
  9
$LUNITS
 70
     2
  9
$LUPREC
 70
     4
  9
$SKETCHINC
 40
0.1
  9
$FILLETRAD
 40
0.5
  9
$AUNITS
 70
     0
  9
$AUPREC
 70
     0
  9
$MENU
  1
.
  9
$ELEVATION
 40
0.0
  9
$PELEVATION
 40
0.0
  9
$THICKNESS
 40
0.0
  9
$LIMCHECK
 70
     0
  9
$CHAMFERA
 40
0.5
  9
$CHAMFERB
 40
0.5
  9
$CHAMFERC
 40
1.0
  9
$CHAMFERD
 40
0.0
  9
$SKPOLY
 70
     0
  9
$TDCREATE
 40
2458269.492153669
  9
$TDUPDATE
 40
2458269.49215368
  9
$TDINDWG
 40
0.0000000116
  9
$TDUSRTIMER
 40
0.0000000116
  9
$USRTIMER
 70
     1
  9
$ANGBASE
 50
0.0
  9
$ANGDIR
 70
     0
  9
$PDMODE
 70
     0
  9
$PDSIZE
 40
0.0
  9
$PLINEWID
 40
0.0
  9
$COORDS
 70
     1
  9
$SPLFRAME
 70
     0
  9
$SPLINETYPE
 70
     6
  9
$SPLINESEGS
 70
     8
  9
$ATTDIA
 70
     0
  9
$ATTREQ
 70
     1
  9
$HANDLING
 70
     1
  9
$HANDSEED
  5
903
  9
$SURFTAB1
 70
     6
  9
$SURFTAB2
 70
     6
  9
$SURFTYPE
 70
     6
  9
$SURFU
 70
     6
  9
$SURFV
 70
     6
  9
$UCSNAME
  2

  9
$UCSORG
 10
0.0
 20
0.0
 30
0.0
  9
$UCSXDIR
 10
1.0
 20
0.0
 30
0.0
  9
$UCSYDIR
 10
0.0
 20
1.0
 30
0.0
  9
$PUCSNAME
  2

  9
$PUCSORG
 10
0.0
 20
0.0
 30
0.0
  9
$PUCSXDIR
 10
1.0
 20
0.0
 30
0.0
  9
$PUCSYDIR
 10
0.0
 20
1.0
 30
0.0
  9
$USERI1
 70
     0
  9
$USERI2
 70
     0
  9
$USERI3
 70
     0
  9
$USERI4
 70
     0
  9
$USERI5
 70
     0
  9
$USERR1
 40
0.0
  9
$USERR2
 40
0.0
  9
$USERR3
 40
0.0
  9
$USERR4
 40
0.0
  9
$USERR5
 40
0.0
  9
$WORLDVIEW
 70
     1
  9
$SHADEDGE
 70
     3
  9
$SHADEDIF
 70
    70
  9
$TILEMODE
 70
     1
  9
$MAXACTVP
 70
    64
  9
$PINSBASE
 10
0.0
 20
0.0
 30
0.0
  9
$PLIMCHECK
 70
     0
  9
$PEXTMIN
 10
1.000000000000000E+20
 20
1.000000000000000E+20
 30
1.000000000000000E+20
  9
$PEXTMAX
 10
-1.000000000000000E+20
 20
-1.000000000000000E+20
 30
-1.000000000000000E+20
  9
$PLIMMIN
 10
0.0
 20
0.0
  9
$PLIMMAX
 10
12.0
 20
9.0
  9
$UNITMODE
 70
     0
  9
$VISRETAIN
 70
     1
  9
$PLINEGEN
 70
     0
  9
$PSLTSCALE
 70
     1
  9
$TREEDEPTH
 70
  3020
  9
$PICKSTYLE
 70
     1
  9
$CMLSTYLE
  2
STANDARD
  9
$CMLJUST
 70
     0
  9
$CMLSCALE
 40
1.0
  9
$PROXYGRAPHICS
 70
     1
  9
$MEASUREMENT
 70
     0
  0
ENDSEC
  0
SECTION
  2
CLASSES
  0
CLASS
  1
ACDBDICTIONARYWDFLT
  2
AcDbDictionaryWithDefault
  3
ObjectDBX Classes
 90
        0
280
     0
281
     0
  0
CLASS
  1
VISUALSTYLE
  2
AcDbVisualStyle
  3
ObjectDBX Classes
 90
     4095
280
     0
281
     0
  0
CLASS
  1
XRECORD
  2
AcDbXrecord
  3
AutoCAD 2000
 90
        0
280
     0
281
     0
  0
CLASS
  1
LWPOLYLINE
  2
AcDbPolyline
  3
AutoCAD 2000
 90
        0
280
     0
281
     1
  0
CLASS
  1
HATCH
  2
AcDbHatch
  3
AutoCAD 2000
 90
        0
280
     0
281
     1
  0
CLASS
  1
ACDBPLACEHOLDER
  2
AcDbPlaceHolder
  3
ObjectDBX Classes
 90
        0
280
     0
281
     0
  0
CLASS
  1
LAYOUT
  2
AcDbLayout
  3
ObjectDBX Classes
 90
        0
280
     0
281
     0
  0
ENDSEC
  0
SECTION
  2
TABLES
  0
TABLE
  2
VPORT
  5
8
330
0
100
AcDbSymbolTable
 70
     1
  0
VPORT
  5
29
330
8
100
AcDbSymbolTableRecord
100
AcDbViewportTableRecord
  2
*ACTIVE
 70
     0
 10
0.0
 20
0.0
 11
1.0
 21
1.0
 12
0.0
 22
0.0
 13
0.0
 23
0.0
 14
0.5
 24
0.5
 15
0.5
 25
0.5
 16
0.0
 26
0.0
 36
1.0
 17
33.07980684936894
 27
160.0820461296844
 37
0.0
 40
71.48814288577381
 41
1.336181430024047
 42
50.0
 43
0.0
 44
0.0
 50
0.0
 51
0.0
 71
     0
 72
   100
 73
     1
 74
     3
 75
     0
 76
     0
 77
     0
 78
     0
  0
ENDTAB
  0
TABLE
  2
LTYPE
  5
5
330
0
100
AcDbSymbolTable
 70
    33
  0
LTYPE
  5
14
330
5
100
AcDbSymbolTableRecord
100
AcDbLinetypeTableRecord
  2
BYBLOCK
 70
     0
  3

 72
    65
 73
     0
 40
0.0
  0
LTYPE
  5
15
330
5
100
AcDbSymbolTableRecord
100
AcDbLinetypeTableRecord
  2
BYLAYER
 70
     0
  3

 72
    65
 73
     0
 40
0.0
  0
LTYPE
  5
16
330
5
100
AcDbSymbolTableRecord
100
AcDbLinetypeTableRecord
  2
CONTINUOUS
 70
     0
  3
Solid line
 72
    65
 73
     0
 40
0.0
  0
LTYPE
  5
57
330
5
100
AcDbSymbolTableRecord
100
AcDbLinetypeTableRecord
  2
AI-LINETYPE-1
 70
     0
  3
Adobe Illustrator Linetype No. 1
 72
    65
 73
     4
 40
8.819444442239584
 49
7.055555553791667
 74
     0
 49
-0.7055555553791667
 74
     0
 49
0.3527777776895833
 74
     0
 49
-0.7055555553791667
 74
     0
  0
LTYPE
  5
5C
330
5
100
AcDbSymbolTableRecord
100
AcDbLinetypeTableRecord
  2
AI-LINETYPE-2
 70
     0
  3
Adobe Illustrator Linetype No. 2
 72
    65
 73
     4
 40
8.819444442239584
 49
7.055555553791667
 74
     0
 49
-0.7055555553791667
 74
     0
 49
0.3527777776895833
 74
     0
 49
-0.7055555553791667
 74
     0
  0
LTYPE
  5
61
330
5
100
AcDbSymbolTableRecord
100
AcDbLinetypeTableRecord
  2
AI-LINETYPE-3
 70
     0
  3
Adobe Illustrator Linetype No. 3
 72
    65
 73
     4
 40
8.819444442239584
 49
7.055555553791667
 74
     0
 49
-0.7055555553791667
 74
     0
 49
0.3527777776895833
 74
     0
 49
-0.7055555553791667
 74
     0
  0
LTYPE
  5
66
330
5
100
AcDbSymbolTableRecord
100
AcDbLinetypeTableRecord
  2
AI-LINETYPE-4
 70
     0
  3
Adobe Illustrator Linetype No. 4
 72
    65
 73
     4
 40
8.819444442239584
 49
7.055555553791667
 74
     0
 49
-0.7055555553791667
 74
     0
 49
0.3527777776895833
 74
     0
 49
-0.7055555553791667
 74
     0
  0
LTYPE
  5
419
330
5
100
AcDbSymbolTableRecord
100
AcDbLinetypeTableRecord
  2
AI-LINETYPE-5
 70
     0
  3
Adobe Illustrator Linetype No. 5
 72
    65
 73
     4
 40
3.527777776895833
 49
1.763888888447917
 74
     0
 49
-0.7055555553791667
 74
     0
 49
0.3527777776895833
 74
     0
 49
-0.7055555553791667
 74
     0
  0
LTYPE
  5
41E
330
5
100
AcDbSymbolTableRecord
100
AcDbLinetypeTableRecord
  2
AI-LINETYPE-6
 70
     0
  3
Adobe Illustrator Linetype No. 6
 72
    65
 73
     4
 40
3.527777776895833
 49
1.763888888447917
 74
     0
 49
-0.7055555553791667
 74
     0
 49
0.3527777776895833
 74
     0
 49
-0.7055555553791667
 74
     0
  0
LTYPE
  5
423
330
5
100
AcDbSymbolTableRecord
100
AcDbLinetypeTableRecord
  2
AI-LINETYPE-7
 70
     0
  3
Adobe Illustrator Linetype No. 7
 72
    65
 73
     4
 40
3.527777776895833
 49
1.763888888447917
 74
     0
 49
-0.7055555553791667
 74
     0
 49
0.3527777776895833
 74
     0
 49
-0.7055555553791667
 74
     0
  0
LTYPE
  5
428
330
5
100
AcDbSymbolTableRecord
100
AcDbLinetypeTableRecord
  2
AI-LINETYPE-8
 70
     0
  3
Adobe Illustrator Linetype No. 8
 72
    65
 73
     4
 40
3.527777776895833
 49
1.763888888447917
 74
     0
 49
-0.7055555553791667
 74
     0
 49
0.3527777776895833
 74
     0
 49
-0.7055555553791667
 74
     0
  0
LTYPE
  5
42A
330
5
100
AcDbSymbolTableRecord
100
AcDbLinetypeTableRecord
  2
AI-LINETYPE-9
 70
     0
  3
Adobe Illustrator Linetype No. 9
 72
    65
 73
     4
 40
3.527777776895833
 49
1.763888888447917
 74
     0
 49
-0.7055555553791667
 74
     0
 49
0.3527777776895833
 74
     0
 49
-0.7055555553791667
 74
     0
  0
LTYPE
  5
42C
330
5
100
AcDbSymbolTableRecord
100
AcDbLinetypeTableRecord
  2
AI-LINETYPE-10
 70
     0
  3
Adobe Illustrator Linetype No. 10
 72
    65
 73
     4
 40
3.527777776895833
 49
1.763888888447917
 74
     0
 49
-0.7055555553791667
 74
     0
 49
0.3527777776895833
 74
     0
 49
-0.7055555553791667
 74
     0
  0
LTYPE
  5
42E
330
5
100
AcDbSymbolTableRecord
100
AcDbLinetypeTableRecord
  2
AI-LINETYPE-11
 70
     0
  3
Adobe Illustrator Linetype No. 11
 72
    65
 73
     4
 40
3.527777776895833
 49
1.763888888447917
 74
     0
 49
-0.7055555553791667
 74
     0
 49
0.3527777776895833
 74
     0
 49
-0.7055555553791667
 74
     0
  0
LTYPE
  5
430
330
5
100
AcDbSymbolTableRecord
100
AcDbLinetypeTableRecord
  2
AI-LINETYPE-12
 70
     0
  3
Adobe Illustrator Linetype No. 12
 72
    65
 73
     4
 40
3.527777776895833
 49
1.763888888447917
 74
     0
 49
-0.7055555553791667
 74
     0
 49
0.3527777776895833
 74
     0
 49
-0.7055555553791667
 74
     0
  0
LTYPE
  5
432
330
5
100
AcDbSymbolTableRecord
100
AcDbLinetypeTableRecord
  2
AI-LINETYPE-13
 70
     0
  3
Adobe Illustrator Linetype No. 13
 72
    65
 73
     4
 40
3.527777776895833
 49
1.763888888447917
 74
     0
 49
-0.7055555553791667
 74
     0
 49
0.3527777776895833
 74
     0
 49
-0.7055555553791667
 74
     0
  0
LTYPE
  5
434
330
5
100
AcDbSymbolTableRecord
100
AcDbLinetypeTableRecord
  2
AI-LINETYPE-14
 70
     0
  3
Adobe Illustrator Linetype No. 14
 72
    65
 73
     4
 40
3.527777776895833
 49
1.763888888447917
 74
     0
 49
-0.7055555553791667
 74
     0
 49
0.3527777776895833
 74
     0
 49
-0.7055555553791667
 74
     0
  0
LTYPE
  5
439
330
5
100
AcDbSymbolTableRecord
100
AcDbLinetypeTableRecord
  2
AI-LINETYPE-15
 70
     0
  3
Adobe Illustrator Linetype No. 15
 72
    65
 73
     4
 40
3.527777776895833
 49
1.763888888447917
 74
     0
 49
-0.7055555553791667
 74
     0
 49
0.3527777776895833
 74
     0
 49
-0.7055555553791667
 74
     0
  0
LTYPE
  5
43E
330
5
100
AcDbSymbolTableRecord
100
AcDbLinetypeTableRecord
  2
AI-LINETYPE-16
 70
     0
  3
Adobe Illustrator Linetype No. 16
 72
    65
 73
     4
 40
3.527777776895833
 49
1.763888888447917
 74
     0
 49
-0.7055555553791667
 74
     0
 49
0.3527777776895833
 74
     0
 49
-0.7055555553791667
 74
     0
  0
LTYPE
  5
443
330
5
100
AcDbSymbolTableRecord
100
AcDbLinetypeTableRecord
  2
AI-LINETYPE-17
 70
     0
  3
Adobe Illustrator Linetype No. 17
 72
    65
 73
     4
 40
3.527777776895833
 49
1.763888888447917
 74
     0
 49
-0.7055555553791667
 74
     0
 49
0.3527777776895833
 74
     0
 49
-0.7055555553791667
 74
     0
  0
LTYPE
  5
448
330
5
100
AcDbSymbolTableRecord
100
AcDbLinetypeTableRecord
  2
AI-LINETYPE-18
 70
     0
  3
Adobe Illustrator Linetype No. 18
 72
    65
 73
     4
 40
3.527777776895833
 49
1.763888888447917
 74
     0
 49
-0.7055555553791667
 74
     0
 49
0.3527777776895833
 74
     0
 49
-0.7055555553791667
 74
     0
  0
LTYPE
  5
44D
330
5
100
AcDbSymbolTableRecord
100
AcDbLinetypeTableRecord
  2
AI-LINETYPE-19
 70
     0
  3
Adobe Illustrator Linetype No. 19
 72
    65
 73
     4
 40
3.527777776895833
 49
1.763888888447917
 74
     0
 49
-0.7055555553791667
 74
     0
 49
0.3527777776895833
 74
     0
 49
-0.7055555553791667
 74
     0
  0
LTYPE
  5
453
330
5
100
AcDbSymbolTableRecord
100
AcDbLinetypeTableRecord
  2
AI-LINETYPE-20
 70
     0
  3
Adobe Illustrator Linetype No. 20
 72
    65
 73
     4
 40
3.527777776895833
 49
1.763888888447917
 74
     0
 49
-0.7055555553791667
 74
     0
 49
0.3527777776895833
 74
     0
 49
-0.7055555553791667
 74
     0
  0
LTYPE
  5
45B
330
5
100
AcDbSymbolTableRecord
100
AcDbLinetypeTableRecord
  2
AI-LINETYPE-21
 70
     0
  3
Adobe Illustrator Linetype No. 21
 72
    65
 73
     4
 40
3.527777776895833
 49
1.763888888447917
 74
     0
 49
-0.7055555553791667
 74
     0
 49
0.3527777776895833
 74
     0
 49
-0.7055555553791667
 74
     0
  0
LTYPE
  5
461
330
5
100
AcDbSymbolTableRecord
100
AcDbLinetypeTableRecord
  2
AI-LINETYPE-22
 70
     0
  3
Adobe Illustrator Linetype No. 22
 72
    65
 73
     4
 40
3.527777776895833
 49
1.763888888447917
 74
     0
 49
-0.7055555553791667
 74
     0
 49
0.3527777776895833
 74
     0
 49
-0.7055555553791667
 74
     0
  0
LTYPE
  5
467
330
5
100
AcDbSymbolTableRecord
100
AcDbLinetypeTableRecord
  2
AI-LINETYPE-23
 70
     0
  3
Adobe Illustrator Linetype No. 23
 72
    65
 73
     4
 40
3.527777776895833
 49
1.763888888447917
 74
     0
 49
-0.7055555553791667
 74
     0
 49
0.3527777776895833
 74
     0
 49
-0.7055555553791667
 74
     0
  0
LTYPE
  5
46C
330
5
100
AcDbSymbolTableRecord
100
AcDbLinetypeTableRecord
  2
AI-LINETYPE-24
 70
     0
  3
Adobe Illustrator Linetype No. 24
 72
    65
 73
     4
 40
3.527777776895833
 49
1.763888888447917
 74
     0
 49
-0.7055555553791667
 74
     0
 49
0.3527777776895833
 74
     0
 49
-0.7055555553791667
 74
     0
  0
LTYPE
  5
471
330
5
100
AcDbSymbolTableRecord
100
AcDbLinetypeTableRecord
  2
AI-LINETYPE-25
 70
     0
  3
Adobe Illustrator Linetype No. 25
 72
    65
 73
     4
 40
3.527777776895833
 49
1.763888888447917
 74
     0
 49
-0.7055555553791667
 74
     0
 49
0.3527777776895833
 74
     0
 49
-0.7055555553791667
 74
     0
  0
LTYPE
  5
476
330
5
100
AcDbSymbolTableRecord
100
AcDbLinetypeTableRecord
  2
AI-LINETYPE-26
 70
     0
  3
Adobe Illustrator Linetype No. 26
 72
    65
 73
     4
 40
3.527777776895833
 49
1.763888888447917
 74
     0
 49
-0.7055555553791667
 74
     0
 49
0.3527777776895833
 74
     0
 49
-0.7055555553791667
 74
     0
  0
LTYPE
  5
47B
330
5
100
AcDbSymbolTableRecord
100
AcDbLinetypeTableRecord
  2
AI-LINETYPE-27
 70
     0
  3
Adobe Illustrator Linetype No. 27
 72
    65
 73
     4
 40
3.527777776895833
 49
1.763888888447917
 74
     0
 49
-0.7055555553791667
 74
     0
 49
0.3527777776895833
 74
     0
 49
-0.7055555553791667
 74
     0
  0
LTYPE
  5
480
330
5
100
AcDbSymbolTableRecord
100
AcDbLinetypeTableRecord
  2
AI-LINETYPE-28
 70
     0
  3
Adobe Illustrator Linetype No. 28
 72
    65
 73
     4
 40
3.527777776895833
 49
1.763888888447917
 74
     0
 49
-0.7055555553791667
 74
     0
 49
0.3527777776895833
 74
     0
 49
-0.7055555553791667
 74
     0
  0
LTYPE
  5
487
330
5
100
AcDbSymbolTableRecord
100
AcDbLinetypeTableRecord
  2
AI-LINETYPE-29
 70
     0
  3
Adobe Illustrator Linetype No. 29
 72
    65
 73
     4
 40
3.527777776895833
 49
1.763888888447917
 74
     0
 49
-0.7055555553791667
 74
     0
 49
0.3527777776895833
 74
     0
 49
-0.7055555553791667
 74
     0
  0
LTYPE
  5
48D
330
5
100
AcDbSymbolTableRecord
100
AcDbLinetypeTableRecord
  2
AI-LINETYPE-30
 70
     0
  3
Adobe Illustrator Linetype No. 30
 72
    65
 73
     4
 40
3.527777776895833
 49
1.763888888447917
 74
     0
 49
-0.7055555553791667
 74
     0
 49
0.3527777776895833
 74
     0
 49
-0.7055555553791667
 74
     0
  0
LTYPE
  5
493
330
5
100
AcDbSymbolTableRecord
100
AcDbLinetypeTableRecord
  2
AI-LINETYPE-31
 70
     0
  3
Adobe Illustrator Linetype No. 31
 72
    65
 73
     4
 40
3.527777776895833
 49
1.763888888447917
 74
     0
 49
-0.7055555553791667
 74
     0
 49
0.3527777776895833
 74
     0
 49
-0.7055555553791667
 74
     0
  0
LTYPE
  5
499
330
5
100
AcDbSymbolTableRecord
100
AcDbLinetypeTableRecord
  2
AI-LINETYPE-32
 70
     0
  3
Adobe Illustrator Linetype No. 32
 72
    65
 73
     4
 40
3.527777776895833
 49
1.763888888447917
 74
     0
 49
-0.7055555553791667
 74
     0
 49
0.3527777776895833
 74
     0
 49
-0.7055555553791667
 74
     0
  0
ENDTAB
  0
TABLE
  2
LAYER
  5
2
330
0
100
AcDbSymbolTable
 70
     5
  0
LAYER
  5
10
330
2
100
AcDbSymbolTableRecord
100
AcDbLayerTableRecord
  2
0
 70
     0
 62
     7
  6
CONTINUOUS
  0
LAYER
  5
3B
330
2
100
AcDbSymbolTableRecord
100
AcDbLayerTableRecord
  2
GRAU_10_
 70
     1
 62
     7
  6
CONTINUOUS
  0
LAYER
  5
42
330
2
100
AcDbSymbolTableRecord
100
AcDbLayerTableRecord
  2
STANDARDEBENE
 70
     0
 62
     7
  6
CONTINUOUS
  0
LAYER
  5
49A
330
2
100
AcDbSymbolTableRecord
100
AcDbLayerTableRecord
  2
BEMAßUNG
 70
     1
 62
     7
  6
CONTINUOUS
  0
LAYER
  5
8DB
330
2
100
AcDbSymbolTableRecord
100
AcDbLayerTableRecord
  2
TEXT
 70
     1
 62
     7
  6
CONTINUOUS
  0
ENDTAB
  0
TABLE
  2
STYLE
  5
3
330
0
100
AcDbSymbolTable
 70
     1
  0
STYLE
  5
11
330
3
100
AcDbSymbolTableRecord
100
AcDbTextStyleTableRecord
  2
STANDARD
 70
     0
 40
0.0
 41
1.0
 50
0.0
 71
     0
 42
0.2
  3
txt
  4

  0
ENDTAB
  0
TABLE
  2
VIEW
  5
6
330
0
100
AcDbSymbolTable
 70
     0
  0
ENDTAB
  0
TABLE
  2
UCS
  5
7
330
0
100
AcDbSymbolTable
 70
     0
  0
ENDTAB
  0
TABLE
  2
APPID
  5
9
330
0
100
AcDbSymbolTable
 70
     1
  0
APPID
  5
12
330
9
100
AcDbSymbolTableRecord
100
AcDbRegAppTableRecord
  2
ACAD
 70
     0
  0
ENDTAB
  0
TABLE
  2
DIMSTYLE
  5
A
330
0
100
AcDbSymbolTable
 70
     1
  0
DIMSTYLE
105
27
330
A
100
AcDbSymbolTableRecord
100
AcDbDimStyleTableRecord
  2
STANDARD
 70
     0
  3

  4

  5

  6

  7

 40
1.0
 41
0.18
 42
0.0625
 43
0.38
 44
0.18
 45
0.0
 46
0.0
 47
0.0
 48
0.0
140
0.18
141
0.09
142
0.0
143
25.4
144
1.0
145
0.0
146
1.0
147
0.09
 71
     0
 72
     0
 73
     1
 74
     1
 75
     0
 76
     0
 77
     0
 78
     0
170
     0
171
     2
172
     0
173
     0
174
     0
175
     0
176
     0
177
     0
178
     0
270
     2
271
     4
272
     4
273
     2
274
     2
340
11
275
     0
280
     0
281
     0
282
     0
283
     1
284
     0
285
     0
286
     0
287
     3
288
     0
  0
ENDTAB
  0
TABLE
  2
BLOCK_RECORD
  5
1
330
0
100
AcDbSymbolTable
 70
     1
  0
BLOCK_RECORD
  5
1F
330
1
100
AcDbSymbolTableRecord
100
AcDbBlockTableRecord
  2
*MODEL_SPACE
  0
BLOCK_RECORD
  5
1B
330
1
100
AcDbSymbolTableRecord
100
AcDbBlockTableRecord
  2
*PAPER_SPACE
  0
ENDTAB
  0
ENDSEC
  0
SECTION
  2
BLOCKS
  0
BLOCK
  5
20
330
1F
100
AcDbEntity
  8
0
100
AcDbBlockBegin
  2
*MODEL_SPACE
 70
     0
 71
     0
 10
0.0
 20
0.0
 30
0.0
  3
*MODEL_SPACE
  1

  0
ENDBLK
  5
21
330
1F
100
AcDbEntity
  8
0
100
AcDbBlockEnd
  0
BLOCK
  5
1C
330
1B
100
AcDbEntity
 67
     1
  8
0
100
AcDbBlockBegin
  2
*PAPER_SPACE
 70
     0
 71
     0
 10
0.0
 20
0.0
 30
0.0
  3
*PAPER_SPACE
  1

  0
ENDBLK
  5
1D
330
1B
100
AcDbEntity
 67
     1
  8
0
100
AcDbBlockEnd
  0
ENDSEC
  0
SECTION
  2
ENTITIES
  0
SPLINE
  5
3C
330
1F
100
AcDbEntity
  8
GRAU_10_
100
AcDbSpline
210
0.0
220
0.0
230
1.0
 70
    11
 71
     3
 72
    56
 73
    52
 74
     0
 42
0.0000000001
 43
0.0000000001
 40
0.0
 40
0.0
 40
0.0
 40
0.0
 40
1.0
 40
1.0
 40
1.0
 40
2.0
 40
2.0
 40
2.0
 40
3.0
 40
3.0
 40
3.0
 40
4.0
 40
4.0
 40
4.0
 40
5.0
 40
5.0
 40
5.0
 40
6.0
 40
6.0
 40
6.0
 40
7.0
 40
7.0
 40
7.0
 40
8.0
 40
8.0
 40
8.0
 40
9.0
 40
9.0
 40
9.0
 40
10.0
 40
10.0
 40
10.0
 40
11.0
 40
11.0
 40
11.0
 40
12.0
 40
12.0
 40
12.0
 40
13.0
 40
13.0
 40
13.0
 40
14.0
 40
14.0
 40
14.0
 40
15.0
 40
15.0
 40
15.0
 40
16.0
 40
16.0
 40
16.0
 40
17.0
 40
17.0
 40
17.0
 40
17.0
 10
7.082944062899403
 20
184.1901353163657
 30
0.0
 10
7.082944062899403
 20
184.1901353163657
 30
0.0
 10
7.987798392100273
 20
184.2037434435324
 30
0.0
 10
7.987798392100273
 20
184.2037434435324
 30
0.0
 10
7.987798392100273
 20
184.2037434435324
 30
0.0
 10
8.109410262729591
 20
184.0011718289997
 30
0.0
 10
8.109410262729591
 20
184.0011718289997
 30
0.0
 10
8.109410262729591
 20
184.0011718289997
 30
0.0
 10
16.83514810777038
 20
184.0416517009514
 30
0.0
 10
16.83514810777038
 20
184.0416517009514
 30
0.0
 10
16.83514810777038
 20
184.0416517009514
 30
0.0
 10
16.97019585079217
 20
181.2321763327301
 30
0.0
 10
16.97019585079217
 20
181.2321763327301
 30
0.0
 10
16.97019585079217
 20
181.2321763327301
 30
0.0
 10
27.26310763207311
 20
180.9484727195198
 30
0.0
 10
27.26310763207311
 20
180.9484727195198
 30
0.0
 10
27.26310763207311
 20
180.9484727195198
 30
0.0
 10
27.29015163163232
 20
169.4804388682202
 30
0.0
 10
27.29015163163232
 20
169.4804388682202
 30
0.0
 10
27.29015163163232
 20
169.4804388682202
 30
0.0
 10
16.9030164888298
 20
169.2103433821766
 30
0.0
 10
16.9030164888298
 20
169.2103433821766
 30
0.0
 10
16.9030164888298
 20
169.2103433821766
 30
0.0
 10
16.84892848971138
 20
166.4277397587403
 30
0.0
 10
16.84892848971138
 20
166.4277397587403
 30
0.0
 10
16.84892848971138
 20
166.4277397587403
 30
0.0
 10
8.190714516181488
 20
166.4006957591811
 30
0.0
 10
8.190714516181488
 20
166.4006957591811
 30
0.0
 10
8.190714516181488
 20
166.4006957591811
 30
0.0
 10
7.407127548061413
 20
163.8206637502775
 30
0.0
 10
7.407127548061413
 20
163.8206637502775
 30
0.0
 10
7.407127548061413
 20
163.8206637502775
 30
0.0
 10
-4.722364636406215
 20
163.1318169080018
 30
0.0
 10
-4.722364636406215
 20
163.1318169080018
 30
0.0
 10
-4.722364636406215
 20
163.1318169080018
 30
0.0
 10
-5.032939994401487
 20
163.1995130342869
 30
0.0
 10
-5.059811739186436
 20
163.3479966497012
 30
0.0
 10
-5.08702799351991
 20
163.4964802651155
 30
0.0
 10
-5.127335610697333
 20
163.5910481361856
 30
0.0
 10
-5.073419866353173
 20
163.7260958792074
 30
0.0
 10
-5.019504122009013
 20
163.8611436222292
 30
0.0
 10
-2.209856499013508
 20
168.3187526705939
 30
0.0
 10
-2.209856499013508
 20
168.3187526705939
 30
0.0
 10
-2.209856499013508
 20
168.3187526705939
 30
0.0
 10
-2.06137288359924
 20
168.4267564140565
 30
0.0
 10
-2.06137288359924
 20
168.4267564140565
 30
0.0
 10
-2.06137288359924
 20
168.4267564140565
 30
0.0
 10
-2.047764756432503
 20
169.5209187401719
 30
0.0
 10
-2.047764756432503
 20
169.5209187401719
 30
0.0
 10
-2.047764756432503
 20
169.5209187401719
 30
0.0
 10
7.082944062899403
 20
184.1901353163657
 30
0.0
 10
7.082944062899403
 20
184.1901353163657
 30
0.0
  0
HATCH
  5
3D
330
1F
100
AcDbEntity
  8
GRAU_10_
 62
   255
100
AcDbHatch
 10
0.0
 20
0.0
 30
0.0
210
0.0
220
0.0
230
1.0
  2
SOLID
 70
     1
 71
     0
 91
        1
 92
        1
 93
        1
 72
     4
 94
        3
 73
     0
 74
     1
 95
       56
 96
       52
 40
0.0
 40
0.0
 40
0.0
 40
0.0
 40
1.0
 40
1.0
 40
1.0
 40
2.0
 40
2.0
 40
2.0
 40
3.0
 40
3.0
 40
3.0
 40
4.0
 40
4.0
 40
4.0
 40
5.0
 40
5.0
 40
5.0
 40
6.0
 40
6.0
 40
6.0
 40
7.0
 40
7.0
 40
7.0
 40
8.0
 40
8.0
 40
8.0
 40
9.0
 40
9.0
 40
9.0
 40
10.0
 40
10.0
 40
10.0
 40
11.0
 40
11.0
 40
11.0
 40
12.0
 40
12.0
 40
12.0
 40
13.0
 40
13.0
 40
13.0
 40
14.0
 40
14.0
 40
14.0
 40
15.0
 40
15.0
 40
15.0
 40
16.0
 40
16.0
 40
16.0
 40
17.0
 40
17.0
 40
17.0
 40
17.0
 10
7.082944062899403
 20
184.1901353163657
 10
7.082944062899403
 20
184.1901353163657
 10
7.987798392100273
 20
184.2037434435324
 10
7.987798392100273
 20
184.2037434435324
 10
7.987798392100273
 20
184.2037434435324
 10
8.109410262729591
 20
184.0011718289997
 10
8.109410262729591
 20
184.0011718289997
 10
8.109410262729591
 20
184.0011718289997
 10
16.83514810777038
 20
184.0416517009514
 10
16.83514810777038
 20
184.0416517009514
 10
16.83514810777038
 20
184.0416517009514
 10
16.97019585079217
 20
181.2321763327301
 10
16.97019585079217
 20
181.2321763327301
 10
16.97019585079217
 20
181.2321763327301
 10
27.26310763207311
 20
180.9484727195198
 10
27.26310763207311
 20
180.9484727195198
 10
27.26310763207311
 20
180.9484727195198
 10
27.29015163163232
 20
169.4804388682202
 10
27.29015163163232
 20
169.4804388682202
 10
27.29015163163232
 20
169.4804388682202
 10
16.9030164888298
 20
169.2103433821766
 10
16.9030164888298
 20
169.2103433821766
 10
16.9030164888298
 20
169.2103433821766
 10
16.84892848971138
 20
166.4277397587403
 10
16.84892848971138
 20
166.4277397587403
 10
16.84892848971138
 20
166.4277397587403
 10
8.190714516181488
 20
166.4006957591811
 10
8.190714516181488
 20
166.4006957591811
 10
8.190714516181488
 20
166.4006957591811
 10
7.407127548061413
 20
163.8206637502775
 10
7.407127548061413
 20
163.8206637502775
 10
7.407127548061413
 20
163.8206637502775
 10
-4.722364636406215
 20
163.1318169080018
 10
-4.722364636406215
 20
163.1318169080018
 10
-4.722364636406215
 20
163.1318169080018
 10
-5.032939994401487
 20
163.1995130342869
 10
-5.059811739186436
 20
163.3479966497012
 10
-5.08702799351991
 20
163.4964802651155
 10
-5.127335610697333
 20
163.5910481361856
 10
-5.073419866353173
 20
163.7260958792074
 10
-5.019504122009013
 20
163.8611436222292
 10
-2.209856499013508
 20
168.3187526705939
 10
-2.209856499013508
 20
168.3187526705939
 10
-2.209856499013508
 20
168.3187526705939
 10
-2.06137288359924
 20
168.4267564140565
 10
-2.06137288359924
 20
168.4267564140565
 10
-2.06137288359924
 20
168.4267564140565
 10
-2.047764756432503
 20
169.5209187401719
 10
-2.047764756432503
 20
169.5209187401719
 10
-2.047764756432503
 20
169.5209187401719
 10
7.082944062899403
 20
184.1901353163657
 10
7.082944062899403
 20
184.1901353163657
 97
        0
 75
     0
 76
     1
 98
        0
  0
SPLINE
  5
3E
330
1F
100
AcDbEntity
  8
GRAU_10_
100
AcDbSpline
210
0.0
220
0.0
230
1.0
 70
     8
 71
     3
 72
    89
 73
    85
 74
     0
 42
0.0000000001
 43
0.0000000001
 40
0.0
 40
0.0
 40
0.0
 40
0.0
 40
1.0
 40
1.0
 40
1.0
 40
2.0
 40
2.0
 40
2.0
 40
3.0
 40
3.0
 40
3.0
 40
4.0
 40
4.0
 40
4.0
 40
5.0
 40
5.0
 40
5.0
 40
6.0
 40
6.0
 40
6.0
 40
7.0
 40
7.0
 40
7.0
 40
8.0
 40
8.0
 40
8.0
 40
9.0
 40
9.0
 40
9.0
 40
10.0
 40
10.0
 40
10.0
 40
11.0
 40
11.0
 40
11.0
 40
12.0
 40
12.0
 40
12.0
 40
13.0
 40
13.0
 40
13.0
 40
14.0
 40
14.0
 40
14.0
 40
15.0
 40
15.0
 40
15.0
 40
16.0
 40
16.0
 40
16.0
 40
17.0
 40
17.0
 40
17.0
 40
18.0
 40
18.0
 40
18.0
 40
19.0
 40
19.0
 40
19.0
 40
20.0
 40
20.0
 40
20.0
 40
21.0
 40
21.0
 40
21.0
 40
22.0
 40
22.0
 40
22.0
 40
23.0
 40
23.0
 40
23.0
 40
24.0
 40
24.0
 40
24.0
 40
25.0
 40
25.0
 40
25.0
 40
26.0
 40
26.0
 40
26.0
 40
27.0
 40
27.0
 40
27.0
 40
28.0
 40
28.0
 40
28.0
 40
28.0
 10
-4.374926756718769
 20
135.5328124661168
 30
0.0
 10
-4.374926756718769
 20
135.605159471307
 30
0.0
 10
-4.447273761909015
 20
138.8127156228489
 30
0.0
 10
-4.447273761909015
 20
138.8127156228489
 30
0.0
 10
-4.447273761909015
 20
138.8127156228489
 30
0.0
 10
-3.386184352452065
 20
141.3448608045075
 30
0.0
 10
-2.85563964772359
 20
141.8030585040458
 30
0.0
 10
-2.325094942995115
 20
142.261256203584
 30
0.0
 10
-2.252747937804869
 20
142.4300658823612
 30
0.0
 10
-2.204516601011371
 20
142.5024128875515
 30
0.0
 10
-2.156285264217873
 20
142.5747598927417
 30
0.0
 10
-1.987475585440631
 20
143.3223456130409
 30
0.0
 10
-1.987475585440631
 20
143.3223456130409
 30
0.0
 10
-1.987475585440631
 20
143.3223456130409
 30
0.0
 10
7.77954237001692
 20
143.3946926182312
 30
0.0
 10
7.77954237001692
 20
143.3946926182312
 30
0.0
 10
7.77954237001692
 20
143.3946926182312
 30
0.0
 10
8.18950873276165
 20
142.0924465248067
 30
0.0
 10
8.18950873276165
 20
142.0924465248067
 30
0.0
 10
8.18950873276165
 20
142.0924465248067
 30
0.0
 10
16.79897460517526
 20
142.1165621932035
 30
0.0
 10
16.79897460517526
 20
142.1165621932035
 30
0.0
 10
16.79897460517526
 20
142.1165621932035
 30
0.0
 10
16.89543727876225
 20
139.0295843836454
 30
0.0
 10
16.89543727876225
 20
139.0295843836454
 30
0.0
 10
16.89543727876225
 20
139.0295843836454
 30
0.0
 10
25.31197780400187
 20
138.8607747048681
 30
0.0
 10
25.31197780400187
 20
138.8607747048681
 30
0.0
 10
25.31197780400187
 20
138.8607747048681
 30
0.0
 10
25.55313448796936
 20
138.7160806944877
 30
0.0
 10
25.55313448796936
 20
138.7160806944877
 30
0.0
 10
25.55313448796936
 20
138.7160806944877
 30
0.0
 10
27.31357828093202
 20
138.6678493576942
 30
0.0
 10
27.31357828093202
 20
138.6678493576942
 30
0.0
 10
27.31357828093202
 20
138.6678493576942
 30
0.0
 10
27.31357828093202
 20
127.1405598640482
 30
0.0
 10
27.31357828093202
 20
127.1405598640482
 30
0.0
 10
27.31357828093202
 20
127.1405598640482
 30
0.0
 10
16.919552947159
 20
126.875287511684
 30
0.0
 10
16.919552947159
 20
126.875287511684
 30
0.0
 10
16.919552947159
 20
126.875287511684
 30
0.0
 10
16.8713216103655
 20
124.4637206720091
 30
0.0
 10
16.8713216103655
 20
124.4637206720091
 30
0.0
 10
16.8713216103655
 20
124.4637206720091
 30
0.0
 10
10.26345621488205
 20
124.4637206720091
 30
0.0
 10
10.26345621488205
 20
124.5601833455961
 30
0.0
 10
10.26345621488205
 20
124.6566460191831
 30
0.0
 10
10.04641519931131
 20
127.0199815220645
 30
0.0
 10
10.04641519931131
 20
127.0199815220645
 30
0.0
 10
10.04641519931131
 20
127.0199815220645
 30
0.0
 10
9.178251137028354
 20
127.2370225376352
 30
0.0
 10
9.178251137028354
 20
127.2370225376352
 30
0.0
 10
9.178251137028354
 20
127.2370225376352
 30
0.0
 10
8.985325789854363
 20
127.7434515739669
 30
0.0
 10
9.03355712664786
 20
128.0569552631246
 30
0.0
 10
9.08178846344136
 20
128.3704589522824
 30
0.0
 10
9.636448836566583
 20
128.9974663305979
 30
0.0
 10
9.70879584175683
 20
129.0215819989946
 30
0.0
 10
9.781142846947075
 20
129.0456976673914
 30
0.0
 10
9.877605520534072
 20
129.0698133357881
 30
0.0
 10
9.877605520534072
 20
129.0698133357881
 30
0.0
 10
9.877605520534072
 20
129.0698133357881
 30
0.0
 10
9.660564504963332
 20
131.31274275146
 30
0.0
 10
9.660564504963332
 20
131.31274275146
 30
0.0
 10
9.660564504963332
 20
131.31274275146
 30
0.0
 10
9.516042749357101
 20
133.3384588967869
 30
0.0
 10
8.141277395968153
 20
133.4590372387707
 30
0.0
 10
6.766512042579206
 20
133.5796155807544
 30
0.0
 10
6.935321721356448
 20
133.5554999123576
 30
0.0
 10
6.935321721356448
 20
133.5554999123576
 30
0.0
 10
6.935321721356448
 20
133.5554999123576
 30
0.0
 10
-1.915300835024647
 20
133.4831529071674
 30
0.0
 10
-1.915300835024647
 20
133.4831529071674
 30
0.0
 10
-1.915300835024647
 20
133.4831529071674
 30
0.0
 10
-1.970594617562907
 20
133.3095200947108
 30
0.0
 10
-1.970594617562907
 20
133.3095200947108
 30
0.0
 10
-1.970594617562907
 20
133.3095200947108
 30
0.0
 10
-5.085994464874335
 20
133.3158935213585
 30
0.0
 10
-5.085994464874335
 20
133.3158935213585
 30
0.0
 10
-5.085994464874335
 20
133.3158935213585
 30
0.0
 10
-4.831918672837159
 20
135.4928493584879
 30
0.0
 10
-4.831918672837159
 20
135.4928493584879
 30
0.0
 10
-4.831918672837159
 20
135.4928493584879
 30
0.0
 10
-4.382161457237793
 20
135.5124864027538
 30
0.0
 10
-4.382161457237793
 20
135.5124864027538
 30
0.0
  0
HATCH
  5
3F
330
1F
100
AcDbEntity
  8
GRAU_10_
 62
   255
100
AcDbHatch
 10
0.0
 20
0.0
 30
0.0
210
0.0
220
0.0
230
1.0
  2
SOLID
 70
     1
 71
     0
 91
        1
 92
        1
 93
        2
 72
     4
 94
        3
 73
     0
 74
     0
 95
       89
 96
       85
 40
0.0
 40
0.0
 40
0.0
 40
0.0
 40
0.3527777776895833
 40
0.3527777776895833
 40
0.3527777776895833
 40
0.7055555553791667
 40
0.7055555553791667
 40
0.7055555553791667
 40
1.05833333306875
 40
1.05833333306875
 40
1.05833333306875
 40
1.411111110758333
 40
1.411111110758333
 40
1.411111110758333
 40
1.763888888447917
 40
1.763888888447917
 40
1.763888888447917
 40
2.1166666661375
 40
2.1166666661375
 40
2.1166666661375
 40
2.469444443827083
 40
2.469444443827083
 40
2.469444443827083
 40
2.822222221516667
 40
2.822222221516667
 40
2.822222221516667
 40
3.17499999920625
 40
3.17499999920625
 40
3.17499999920625
 40
3.527777776895833
 40
3.527777776895833
 40
3.527777776895833
 40
3.880555554585417
 40
3.880555554585417
 40
3.880555554585417
 40
4.233333332275
 40
4.233333332275
 40
4.233333332275
 40
4.586111109964584
 40
4.586111109964584
 40
4.586111109964584
 40
4.938888887654167
 40
4.938888887654167
 40
4.938888887654167
 40
5.29166666534375
 40
5.29166666534375
 40
5.29166666534375
 40
5.644444443033334
 40
5.644444443033334
 40
5.644444443033334
 40
5.997222220722917
 40
5.997222220722917
 40
5.997222220722917
 40
6.349999998412501
 40
6.349999998412501
 40
6.349999998412501
 40
6.702777776102083
 40
6.702777776102083
 40
6.702777776102083
 40
7.055555553791667
 40
7.055555553791667
 40
7.055555553791667
 40
7.40833333148125
 40
7.40833333148125
 40
7.40833333148125
 40
7.761111109170834
 40
7.761111109170834
 40
7.761111109170834
 40
8.113888886860417
 40
8.113888886860417
 40
8.113888886860417
 40
8.46666666455
 40
8.46666666455
 40
8.46666666455
 40
8.819444442239584
 40
8.819444442239584
 40
8.819444442239584
 40
9.172222219929168
 40
9.172222219929168
 40
9.172222219929168
 40
9.52499999761875
 40
9.52499999761875
 40
9.52499999761875
 40
9.877777775308333
 40
9.877777775308333
 40
9.877777775308333
 40
9.877777775308333
 10
-4.374926756718769
 20
135.5328124661168
 10
-4.374926756718769
 20
135.605159471307
 10
-4.447273761909015
 20
138.8127156228489
 10
-4.447273761909015
 20
138.8127156228489
 10
-4.447273761909015
 20
138.8127156228489
 10
-3.386184352452065
 20
141.3448608045075
 10
-2.85563964772359
 20
141.8030585040458
 10
-2.325094942995115
 20
142.261256203584
 10
-2.252747937804869
 20
142.4300658823612
 10
-2.204516601011371
 20
142.5024128875515
 10
-2.156285264217873
 20
142.5747598927417
 10
-1.987475585440631
 20
143.3223456130409
 10
-1.987475585440631
 20
143.3223456130409
 10
-1.987475585440631
 20
143.3223456130409
 10
7.77954237001692
 20
143.3946926182312
 10
7.77954237001692
 20
143.3946926182312
 10
7.77954237001692
 20
143.3946926182312
 10
8.18950873276165
 20
142.0924465248067
 10
8.18950873276165
 20
142.0924465248067
 10
8.18950873276165
 20
142.0924465248067
 10
16.79897460517526
 20
142.1165621932035
 10
16.79897460517526
 20
142.1165621932035
 10
16.79897460517526
 20
142.1165621932035
 10
16.89543727876225
 20
139.0295843836454
 10
16.89543727876225
 20
139.0295843836454
 10
16.89543727876225
 20
139.0295843836454
 10
25.31197780400187
 20
138.8607747048681
 10
25.31197780400187
 20
138.8607747048681
 10
25.31197780400187
 20
138.8607747048681
 10
25.55313448796936
 20
138.7160806944877
 10
25.55313448796936
 20
138.7160806944877
 10
25.55313448796936
 20
138.7160806944877
 10
27.31357828093202
 20
138.6678493576942
 10
27.31357828093202
 20
138.6678493576942
 10
27.31357828093202
 20
138.6678493576942
 10
27.31357828093202
 20
127.1405598640482
 10
27.31357828093202
 20
127.1405598640482
 10
27.31357828093202
 20
127.1405598640482
 10
16.919552947159
 20
126.875287511684
 10
16.919552947159
 20
126.875287511684
 10
16.919552947159
 20
126.875287511684
 10
16.8713216103655
 20
124.4637206720091
 10
16.8713216103655
 20
124.4637206720091
 10
16.8713216103655
 20
124.4637206720091
 10
10.26345621488205
 20
124.4637206720091
 10
10.26345621488205
 20
124.5601833455961
 10
10.26345621488205
 20
124.6566460191831
 10
10.04641519931131
 20
127.0199815220645
 10
10.04641519931131
 20
127.0199815220645
 10
10.04641519931131
 20
127.0199815220645
 10
9.178251137028354
 20
127.2370225376352
 10
9.178251137028354
 20
127.2370225376352
 10
9.178251137028354
 20
127.2370225376352
 10
8.985325789854363
 20
127.7434515739669
 10
9.03355712664786
 20
128.0569552631246
 10
9.08178846344136
 20
128.3704589522824
 10
9.636448836566583
 20
128.9974663305979
 10
9.70879584175683
 20
129.0215819989946
 10
9.781142846947075
 20
129.0456976673914
 10
9.877605520534072
 20
129.0698133357881
 10
9.877605520534072
 20
129.0698133357881
 10
9.877605520534072
 20
129.0698133357881
 10
9.660564504963332
 20
131.31274275146
 10
9.660564504963332
 20
131.31274275146
 10
9.660564504963332
 20
131.31274275146
 10
9.516042749357101
 20
133.3384588967869
 10
8.141277395968153
 20
133.4590372387707
 10
6.766512042579206
 20
133.5796155807544
 10
6.935321721356448
 20
133.5554999123576
 10
6.935321721356448
 20
133.5554999123576
 10
6.935321721356448
 20
133.5554999123576
 10
-1.915300835024647
 20
133.4831529071674
 10
-1.915300835024647
 20
133.4831529071674
 10
-1.915300835024647
 20
133.4831529071674
 10
-1.970594617562907
 20
133.3095200947108
 10
-1.970594617562907
 20
133.3095200947108
 10
-1.970594617562907
 20
133.3095200947108
 10
-5.085994464874335
 20
133.3158935213585
 10
-5.085994464874335
 20
133.3158935213585
 10
-5.085994464874335
 20
133.3158935213585
 10
-4.831918672837159
 20
135.4928493584879
 10
-4.831918672837159
 20
135.4928493584879
 10
-4.831918672837159
 20
135.4928493584879
 10
-4.382161457237793
 20
135.5124864027538
 10
-4.382161457237793
 20
135.5124864027538
 72
     1
 10
-4.382161457237793
 20
135.5124864027538
 11
-4.374926756718769
 21
135.5328124661168
 97
        0
 75
     0
 76
     1
 98
        0
  0
SPLINE
  5
40
330
1F
100
AcDbEntity
  8
GRAU_10_
100
AcDbSpline
210
0.0
220
0.0
230
1.0
 70
    11
 71
     3
 72
    35
 73
    31
 74
     0
 42
0.0000000001
 43
0.0000000001
 40
0.0
 40
0.0
 40
0.0
 40
0.0
 40
1.0
 40
1.0
 40
1.0
 40
2.0
 40
2.0
 40
2.0
 40
3.0
 40
3.0
 40
3.0
 40
4.0
 40
4.0
 40
4.0
 40
5.0
 40
5.0
 40
5.0
 40
6.0
 40
6.0
 40
6.0
 40
7.0
 40
7.0
 40
7.0
 40
8.0
 40
8.0
 40
8.0
 40
9.0
 40
9.0
 40
9.0
 40
10.0
 40
10.0
 40
10.0
 40
10.0
 10
57.62490639835419
 20
163.4353298202523
 30
0.0
 10
57.62490639835419
 20
163.4353298202523
 30
0.0
 10
52.99349228275857
 20
166.2758110478408
 30
0.0
 10
52.77593450286505
 20
169.4614908430513
 30
0.0
 10
52.55837672297152
 20
172.6471706382618
 30
0.0
 10
52.62262775377143
 20
175.8073567268815
 30
0.0
 10
53.40294188118052
 20
177.2787570086317
 30
0.0
 10
54.1832560085896
 20
178.7501572903819
 30
0.0
 10
56.2687445605856
 20
181.6417981859264
 30
0.0
 10
56.34557018990667
 20
181.6800387458126
 30
0.0
 10
56.42239581922774
 20
181.7182793056989
 30
0.0
 10
59.59567327069136
 20
184.4562689426012
 30
0.0
 10
62.50006101953124
 20
184.2132174561168
 30
0.0
 10
62.50006101953124
 20
184.2132174561168
 30
0.0
 10
62.47456731294039
 20
184.0213256375884
 30
0.0
 10
62.47456731294039
 20
184.0213256375884
 30
0.0
 10
62.47456731294039
 20
184.0213256375884
 30
0.0
 10
70.99652776002866
 20
183.7751735651673
 30
0.0
 10
71.48159720435183
 20
175.2644096784061
 30
0.0
 10
71.48159720435183
 20
175.2644096784061
 30
0.0
 10
71.55514999296192
 20
167.0108221696188
 30
0.0
 10
62.64010415100665
 20
166.4008680139553
 30
0.0
 10
62.64010415100665
 20
166.4008680139553
 30
0.0
 10
62.61805553990104
 20
163.1008110486345
 30
0.0
 10
62.61805553990104
 20
163.1008110486345
 30
0.0
 10
62.61805553990104
 20
163.1008110486345
 30
0.0
 10
60.58958331818594
 20
163.4243055146995
 30
0.0
 10
60.58958331818594
 20
163.4243055146995
 30
0.0
 10
60.58958331818594
 20
163.4243055146995
 30
0.0
 10
57.62490639835419
 20
163.4353298202523
 30
0.0
 10
57.62490639835419
 20
163.4353298202523
 30
0.0
  0
HATCH
  5
41
330
1F
100
AcDbEntity
  8
GRAU_10_
 62
   255
100
AcDbHatch
 10
0.0
 20
0.0
 30
0.0
210
0.0
220
0.0
230
1.0
  2
SOLID
 70
     1
 71
     0
 91
        1
 92
        1
 93
        1
 72
     4
 94
        3
 73
     0
 74
     1
 95
       35
 96
       31
 40
0.0
 40
0.0
 40
0.0
 40
0.0
 40
1.0
 40
1.0
 40
1.0
 40
2.0
 40
2.0
 40
2.0
 40
3.0
 40
3.0
 40
3.0
 40
4.0
 40
4.0
 40
4.0
 40
5.0
 40
5.0
 40
5.0
 40
6.0
 40
6.0
 40
6.0
 40
7.0
 40
7.0
 40
7.0
 40
8.0
 40
8.0
 40
8.0
 40
9.0
 40
9.0
 40
9.0
 40
10.0
 40
10.0
 40
10.0
 40
10.0
 10
57.62490639835419
 20
163.4353298202523
 10
57.62490639835419
 20
163.4353298202523
 10
52.99349228275857
 20
166.2758110478408
 10
52.77593450286505
 20
169.4614908430513
 10
52.55837672297152
 20
172.6471706382618
 10
52.62262775377143
 20
175.8073567268815
 10
53.40294188118052
 20
177.2787570086317
 10
54.1832560085896
 20
178.7501572903819
 10
56.2687445605856
 20
181.6417981859264
 10
56.34557018990667
 20
181.6800387458126
 10
56.42239581922774
 20
181.7182793056989
 10
59.59567327069136
 20
184.4562689426012
 10
62.50006101953124
 20
184.2132174561168
 10
62.50006101953124
 20
184.2132174561168
 10
62.47456731294039
 20
184.0213256375884
 10
62.47456731294039
 20
184.0213256375884
 10
62.47456731294039
 20
184.0213256375884
 10
70.99652776002866
 20
183.7751735651673
 10
71.48159720435183
 20
175.2644096784061
 10
71.48159720435183
 20
175.2644096784061
 10
71.55514999296192
 20
167.0108221696188
 10
62.64010415100665
 20
166.4008680139553
 10
62.64010415100665
 20
166.4008680139553
 10
62.61805553990104
 20
163.1008110486345
 10
62.61805553990104
 20
163.1008110486345
 10
62.61805553990104
 20
163.1008110486345
 10
60.58958331818594
 20
163.4243055146995
 10
60.58958331818594
 20
163.4243055146995
 10
60.58958331818594
 20
163.4243055146995
 10
57.62490639835419
 20
163.4353298202523
 10
57.62490639835419
 20
163.4353298202523
 97
        0
 75
     0
 76
     1
 98
        0
  0
POLYLINE
  5
43
330
1F
100
AcDbEntity
  8
STANDARDEBENE
 62
     7
100
AcDb2dPolyline
 66
     1
 10
0.0
 20
0.0
 30
0.0
  0
VERTEX
  5
44
330
43
100
AcDbEntity
  8
STANDARDEBENE
 62
     7
100
AcDbVertex
100
AcDb2dVertex
 10
-10.19903292930788
 20
206.864375762086
 30
0.0
  0
VERTEX
  5
45
330
43
100
AcDbEntity
  8
STANDARDEBENE
 62
     7
100
AcDbVertex
100
AcDb2dVertex
 10
-10.19903292930788
 20
187.7427177807553
 30
0.0
  0
SEQEND
  5
46
330
43
100
AcDbEntity
  8
STANDARDEBENE
  0
POLYLINE
  5
47
330
1F
100
AcDbEntity
  8
STANDARDEBENE
 62
     7
100
AcDb2dPolyline
 66
     1
 10
0.0
 20
0.0
 30
0.0
  0
VERTEX
  5
48
330
47
100
AcDbEntity
  8
STANDARDEBENE
 62
     7
100
AcDbVertex
100
AcDb2dVertex
 10
-10.19903292930788
 20
185.4558633976465
 30
0.0
  0
VERTEX
  5
49
330
47
100
AcDbEntity
  8
STANDARDEBENE
 62
     7
100
AcDbVertex
100
AcDb2dVertex
 10
-10.19903292930788
 20
175.1143757700235
 30
0.0
  0
SEQEND
  5
4A
330
47
100
AcDbEntity
  8
STANDARDEBENE
  0
POLYLINE
  5
4B
330
1F
100
AcDbEntity
  8
STANDARDEBENE
 62
     7
100
AcDb2dPolyline
 66
     1
 10
0.0
 20
0.0
 30
0.0
  0
VERTEX
  5
4C
330
4B
100
AcDbEntity
  8
STANDARDEBENE
 62
     7
100
AcDbVertex
100
AcDb2dVertex
 10
84.07841659139359
 20
178.4854017023405
 30
0.0
  0
VERTEX
  5
4D
330
4B
100
AcDbEntity
  8
STANDARDEBENE
 62
     7
100
AcDbVertex
100
AcDb2dVertex
 10
86.47930363506421
 20
178.7713446276162
 30
0.0
  0
SEQEND
  5
4E
330
4B
100
AcDbEntity
  8
STANDARDEBENE
  0
POLYLINE
  5
4F
330
1F
100
AcDbEntity
  8
STANDARDEBENE
 62
     7
100
AcDb2dPolyline
 66
     1
 10
0.0
 20
0.0
 30
0.0
  0
VERTEX
  5
50
330
4F
100
AcDbEntity
  8
STANDARDEBENE
 62
     7
100
AcDbVertex
100
AcDb2dVertex
 10
-31.28956298045886
 20
114.810563122339
 30
0.0
  0
VERTEX
  5
51
330
4F
100
AcDbEntity
  8
STANDARDEBENE
 62
     7
100
AcDbVertex
100
AcDb2dVertex
 10
-31.13522270271967
 20
117.0071560037343
 30
0.0
  0
SEQEND
  5
52
330
4F
100
AcDbEntity
  8
STANDARDEBENE
  0
POLYLINE
  5
53
330
1F
100
AcDbEntity
  8
STANDARDEBENE
  6
AI-LINETYPE-1
 62
   250
100
AcDb2dPolyline
 66
     1
 10
0.0
 20
0.0
 30
0.0
  0
VERTEX
  5
54
330
53
100
AcDbEntity
  8
STANDARDEBENE
  6
AI-LINETYPE-1
 62
   250
100
AcDbVertex
100
AcDb2dVertex
 10
-21.85310193681103
 20
190.9893757660547
 30
0.0
  0
VERTEX
  5
55
330
53
100
AcDbEntity
  8
STANDARDEBENE
  6
AI-LINETYPE-1
 62
   250
100
AcDbVertex
100
AcDb2dVertex
 10
22.87147216225088
 20
190.9893757660547
 30
0.0
  0
SEQEND
  5
56
330
53
100
AcDbEntity
  8
STANDARDEBENE
  6
AI-LINETYPE-1
  0
POLYLINE
  5
58
330
1F
100
AcDbEntity
  8
STANDARDEBENE
  6
AI-LINETYPE-2
 62
   250
100
AcDb2dPolyline
 66
     1
 10
0.0
 20
0.0
 30
0.0
  0
VERTEX
  5
59
330
58
100
AcDbEntity
  8
STANDARDEBENE
  6
AI-LINETYPE-2
 62
   250
100
AcDbVertex
100
AcDb2dVertex
 10
-27.52889674876014
 20
114.810563122339
 30
0.0
  0
VERTEX
  5
5A
330
58
100
AcDbEntity
  8
STANDARDEBENE
  6
AI-LINETYPE-2
 62
   250
100
AcDbVertex
100
AcDb2dVertex
 10
23.79992539552572
 20
114.810563122339
 30
0.0
  0
SEQEND
  5
5B
330
58
100
AcDbEntity
  8
STANDARDEBENE
  6
AI-LINETYPE-2
  0
POLYLINE
  5
5D
330
1F
100
AcDbEntity
  8
STANDARDEBENE
  6
AI-LINETYPE-3
 62
   250
100
AcDb2dPolyline
 66
     1
 10
0.0
 20
0.0
 30
0.0
  0
VERTEX
  5
5E
330
5D
100
AcDbEntity
  8
STANDARDEBENE
  6
AI-LINETYPE-3
 62
   250
100
AcDbVertex
100
AcDb2dVertex
 10
86.47930363506421
 20
176.458652028368
 30
0.0
  0
VERTEX
  5
5F
330
5D
100
AcDbEntity
  8
STANDARDEBENE
  6
AI-LINETYPE-3
 62
   250
100
AcDbVertex
100
AcDb2dVertex
 10
86.47930363506421
 20
213.0503892154006
 30
0.0
  0
SEQEND
  5
60
330
5D
100
AcDbEntity
  8
STANDARDEBENE
  6
AI-LINETYPE-3
  0
POLYLINE
  5
62
330
1F
100
AcDbEntity
  8
STANDARDEBENE
  6
AI-LINETYPE-4
 62
   250
100
AcDb2dPolyline
 66
     1
 10
0.0
 20
0.0
 30
0.0
  0
VERTEX
  5
63
330
62
100
AcDbEntity
  8
STANDARDEBENE
  6
AI-LINETYPE-4
 62
   250
100
AcDbVertex
100
AcDb2dVertex
 10
103.9247504080466
 20
190.9893757660547
 30
0.0
  0
VERTEX
  5
64
330
62
100
AcDbEntity
  8
STANDARDEBENE
  6
AI-LINETYPE-4
 62
   250
100
AcDbVertex
100
AcDb2dVertex
 10
65.3953192653352
 20
190.9893757660547
 30
0.0
  0
SEQEND
  5
65
330
62
100
AcDbEntity
  8
STANDARDEBENE
  6
AI-LINETYPE-4
  0
POLYLINE
  5
67
330
1F
100
AcDbEntity
  8
STANDARDEBENE
 62
     7
100
AcDb2dPolyline
 66
     1
 10
0.0
 20
0.0
 30
0.0
  0
VERTEX
  5
68
330
67
100
AcDbEntity
  8
STANDARDEBENE
 62
     7
100
AcDbVertex
100
AcDb2dVertex
 10
-1.513947210993041
 20
195.7449855738936
 30
0.0
  0
VERTEX
  5
69
330
67
100
AcDbEntity
  8
STANDARDEBENE
 62
     7
100
AcDbVertex
100
AcDb2dVertex
 10
-4.013708495090323
 20
195.7449855738936
 30
0.0
  0
SEQEND
  5
6A
330
67
100
AcDbEntity
  8
STANDARDEBENE
  0
POLYLINE
  5
6B
330
1F
100
AcDbEntity
  8
STANDARDEBENE
 62
     7
100
AcDb2dPolyline
 66
     1
 10
0.0
 20
0.0
 30
0.0
  0
VERTEX
  5
6C
330
6B
100
AcDbEntity
  8
STANDARDEBENE
 62
     7
100
AcDbVertex
100
AcDb2dVertex
 10
-4.013708495090323
 20
206.2663071858466
 30
0.0
  0
VERTEX
  5
6D
330
6B
100
AcDbEntity
  8
STANDARDEBENE
 62
     7
100
AcDbVertex
100
AcDb2dVertex
 10
-1.513947210993041
 20
206.2663071858466
 30
0.0
  0
SEQEND
  5
6E
330
6B
100
AcDbEntity
  8
STANDARDEBENE
  0
POLYLINE
  5
6F
330
1F
100
AcDbEntity
  8
STANDARDEBENE
 62
     7
100
AcDb2dPolyline
 66
     1
 10
0.0
 20
0.0
 30
0.0
  0
VERTEX
  5
70
330
6F
100
AcDbEntity
  8
STANDARDEBENE
 62
     7
100
AcDbVertex
100
AcDb2dVertex
 10
-1.513947210993041
 20
175.7131333653599
 30
0.0
  0
VERTEX
  5
71
330
6F
100
AcDbEntity
  8
STANDARDEBENE
 62
     7
100
AcDbVertex
100
AcDb2dVertex
 10
-4.013708495090323
 20
175.7131333653599
 30
0.0
  0
SEQEND
  5
72
330
6F
100
AcDbEntity
  8
STANDARDEBENE
  0
POLYLINE
  5
73
330
1F
100
AcDbEntity
  8
STANDARDEBENE
 62
     7
100
AcDb2dPolyline
 66
     1
 10
0.0
 20
0.0
 30
0.0
  0
VERTEX
  5
74
330
73
100
AcDbEntity
  8
STANDARDEBENE
 62
     7
100
AcDbVertex
100
AcDb2dVertex
 10
-4.013708495090323
 20
186.2337659582159
 30
0.0
  0
VERTEX
  5
75
330
73
100
AcDbEntity
  8
STANDARDEBENE
 62
     7
100
AcDbVertex
100
AcDb2dVertex
 10
-1.513947210993041
 20
186.2337659582159
 30
0.0
  0
VERTEX
  5
76
330
73
100
AcDbEntity
  8
STANDARDEBENE
 62
     7
100
AcDbVertex
100
AcDb2dVertex
 10
-1.513947210993041
 20
175.7131333653599
 30
0.0
  0
SEQEND
  5
77
330
73
100
AcDbEntity
  8
STANDARDEBENE
  0
POLYLINE
  5
78
330
1F
100
AcDbEntity
  8
STANDARDEBENE
 62
     7
100
AcDb2dPolyline
 66
     1
 10
0.0
 20
0.0
 30
0.0
  0
VERTEX
  5
79
330
78
100
AcDbEntity
  8
STANDARDEBENE
 62
     7
100
AcDbVertex
100
AcDb2dVertex
 10
-4.013708495090323
 20
186.2337659582159
 30
0.0
  0
VERTEX
  5
7A
330
78
100
AcDbEntity
  8
STANDARDEBENE
 62
     7
100
AcDbVertex
100
AcDb2dVertex
 10
-4.013708495090323
 20
175.7131333653599
 30
0.0
  0
SEQEND
  5
7B
330
78
100
AcDbEntity
  8
STANDARDEBENE
  0
POLYLINE
  5
7C
330
1F
100
AcDbEntity
  8
STANDARDEBENE
 62
     7
100
AcDb2dPolyline
 66
     1
 10
0.0
 20
0.0
 30
0.0
  0
VERTEX
  5
7D
330
7C
100
AcDbEntity
  8
STANDARDEBENE
 62
     7
100
AcDbVertex
100
AcDb2dVertex
 10
-1.513947210993041
 20
206.2663071858466
 30
0.0
  0
VERTEX
  5
7E
330
7C
100
AcDbEntity
  8
STANDARDEBENE
 62
     7
100
AcDbVertex
100
AcDb2dVertex
 10
-1.513947210993041
 20
195.7449855738936
 30
0.0
  0
SEQEND
  5
7F
330
7C
100
AcDbEntity
  8
STANDARDEBENE
  0
POLYLINE
  5
80
330
1F
100
AcDbEntity
  8
STANDARDEBENE
 62
     7
100
AcDb2dPolyline
 66
     1
 10
0.0
 20
0.0
 30
0.0
  0
VERTEX
  5
81
330
80
100
AcDbEntity
  8
STANDARDEBENE
 62
     7
100
AcDbVertex
100
AcDb2dVertex
 10
-4.013708495090323
 20
206.2663071858466
 30
0.0
  0
VERTEX
  5
82
330
80
100
AcDbEntity
  8
STANDARDEBENE
 62
     7
100
AcDbVertex
100
AcDb2dVertex
 10
-4.013708495090323
 20
195.7449855738936
 30
0.0
  0
SEQEND
  5
83
330
80
100
AcDbEntity
  8
STANDARDEBENE
  0
POLYLINE
  5
84
330
1F
100
AcDbEntity
  8
STANDARDEBENE
 62
     7
100
AcDb2dPolyline
 66
     1
 10
0.0
 20
0.0
 30
0.0
  0
VERTEX
  5
85
330
84
100
AcDbEntity
  8
STANDARDEBENE
 62
     7
100
AcDbVertex
100
AcDb2dVertex
 10
-9.303308103142923
 20
188.289798943813
 30
0.0
  0
VERTEX
  5
86
330
84
100
AcDbEntity
  8
STANDARDEBENE
 62
     7
100
AcDbVertex
100
AcDb2dVertex
 10
-11.01000840653569
 20
187.2480020690734
 30
0.0
  0
SEQEND
  5
87
330
84
100
AcDbEntity
  8
STANDARDEBENE
  0
POLYLINE
  5
88
330
1F
100
AcDbEntity
  8
STANDARDEBENE
 62
     7
100
AcDb2dPolyline
 66
     1
 10
0.0
 20
0.0
 30
0.0
  0
VERTEX
  5
89
330
88
100
AcDbEntity
  8
STANDARDEBENE
 62
     7
100
AcDbVertex
100
AcDb2dVertex
 10
22.23619655477081
 20
201.4417954683028
 30
0.0
  0
VERTEX
  5
8A
330
88
100
AcDbEntity
  8
STANDARDEBENE
 62
     7
100
AcDbVertex
100
AcDb2dVertex
 10
3.23649495361796
 20
201.9189411930099
 30
0.0
  0
SEQEND
  5
8B
330
88
100
AcDbEntity
  8
STANDARDEBENE
  0
POLYLINE
  5
8C
330
1F
100
AcDbEntity
  8
STANDARDEBENE
 62
     7
100
AcDb2dPolyline
 66
     1
 10
0.0
 20
0.0
 30
0.0
  0
VERTEX
  5
8D
330
8C
100
AcDbEntity
  8
STANDARDEBENE
 62
     7
100
AcDbVertex
100
AcDb2dVertex
 10
3.23649495361796
 20
180.037072708897
 30
0.0
  0
VERTEX
  5
8E
330
8C
100
AcDbEntity
  8
STANDARDEBENE
 62
     7
100
AcDbVertex
100
AcDb2dVertex
 10
22.23619655477081
 20
180.5149074527012
 30
0.0
  0
SEQEND
  5
8F
330
8C
100
AcDbEntity
  8
STANDARDEBENE
  0
POLYLINE
  5
90
330
1F
100
AcDbEntity
  8
STANDARDEBENE
 62
     7
100
AcDb2dPolyline
 66
     1
 10
0.0
 20
0.0
 30
0.0
  0
VERTEX
  5
91
330
90
100
AcDbEntity
  8
STANDARDEBENE
 62
     7
100
AcDbVertex
100
AcDb2dVertex
 10
-13.93007133983346
 20
170.3463636184377
 30
0.0
  0
VERTEX
  5
92
330
90
100
AcDbEntity
  8
STANDARDEBENE
 62
     7
100
AcDbVertex
100
AcDb2dVertex
 10
-25.73400200094497
 20
169.7276244692868
 30
0.0
  0
SEQEND
  5
93
330
90
100
AcDbEntity
  8
STANDARDEBENE
  0
POLYLINE
  5
94
330
1F
100
AcDbEntity
  8
STANDARDEBENE
 62
     7
100
AcDb2dPolyline
 66
     1
 10
0.0
 20
0.0
 30
0.0
  0
VERTEX
  5
95
330
94
100
AcDbEntity
  8
STANDARDEBENE
 62
     7
100
AcDbVertex
100
AcDb2dVertex
 10
-31.11248507251702
 20
180.560727222655
 30
0.0
  0
VERTEX
  5
96
330
94
100
AcDbEntity
  8
STANDARDEBENE
 62
     7
100
AcDbVertex
100
AcDb2dVertex
 10
-14.41272921731696
 20
207.2846774112865
 30
0.0
  0
VERTEX
  5
97
330
94
100
AcDbEntity
  8
STANDARDEBENE
 62
     7
100
AcDbVertex
100
AcDb2dVertex
 10
-13.86461452561371
 20
207.2846774112865
 30
0.0
  0
SEQEND
  5
98
330
94
100
AcDbEntity
  8
STANDARDEBENE
  0
POLYLINE
  5
99
330
1F
100
AcDbEntity
  8
STANDARDEBENE
 62
     7
100
AcDb2dPolyline
 66
     1
 10
0.0
 20
0.0
 30
0.0
  0
VERTEX
  5
9A
330
99
100
AcDbEntity
  8
STANDARDEBENE
 62
     7
100
AcDbVertex
100
AcDb2dVertex
 10
3.23649495361796
 20
206.9897772377491
 30
0.0
  0
VERTEX
  5
9B
330
99
100
AcDbEntity
  8
STANDARDEBENE
 62
     7
100
AcDbVertex
100
AcDb2dVertex
 10
-12.12484130556254
 20
206.9897772377491
 30
0.0
  0
SEQEND
  5
9C
330
99
100
AcDbEntity
  8
STANDARDEBENE
  0
POLYLINE
  5
9D
330
1F
100
AcDbEntity
  8
STANDARDEBENE
 62
     7
100
AcDb2dPolyline
 66
     1
 10
0.0
 20
0.0
 30
0.0
  0
VERTEX
  5
9E
330
9D
100
AcDbEntity
  8
STANDARDEBENE
 62
     7
100
AcDbVertex
100
AcDb2dVertex
 10
-12.13138698698451
 20
174.9896633134574
 30
0.0
  0
VERTEX
  5
9F
330
9D
100
AcDbEntity
  8
STANDARDEBENE
 62
     7
100
AcDbVertex
100
AcDb2dVertex
 10
3.23649495361796
 20
174.9896633134574
 30
0.0
  0
SEQEND
  5
A0
330
9D
100
AcDbEntity
  8
STANDARDEBENE
  0
POLYLINE
  5
A1
330
1F
100
AcDbEntity
  8
STANDARDEBENE
 62
     7
100
AcDb2dPolyline
 66
     1
 10
0.0
 20
0.0
 30
0.0
  0
VERTEX
  5
A2
330
A1
100
AcDbEntity
  8
STANDARDEBENE
 62
     7
100
AcDbVertex
100
AcDb2dVertex
 10
3.23649495361796
 20
174.9896633134574
 30
0.0
  0
VERTEX
  5
A3
330
A1
100
AcDbEntity
  8
STANDARDEBENE
 62
     7
100
AcDbVertex
100
AcDb2dVertex
 10
3.23649495361796
 20
175.0974948021458
 30
0.0
  0
VERTEX
  5
A4
330
A1
100
AcDbEntity
  8
STANDARDEBENE
 62
     7
100
AcDbVertex
100
AcDb2dVertex
 10
3.23649495361796
 20
175.4206447586622
 30
0.0
  0
VERTEX
  5
A5
330
A1
100
AcDbEntity
  8
STANDARDEBENE
 62
     7
100
AcDbVertex
100
AcDb2dVertex
 10
3.23649495361796
 20
175.9542900493274
 30
0.0
  0
VERTEX
  5
A6
330
A1
100
AcDbEntity
  8
STANDARDEBENE
 62
     7
100
AcDbVertex
100
AcDb2dVertex
 10
3.23649495361796
 20
176.6915404831709
 30
0.0
  0
VERTEX
  5
A7
330
A1
100
AcDbEntity
  8
STANDARDEBENE
 62
     7
100
AcDbVertex
100
AcDb2dVertex
 10
3.23649495361796
 20
177.6217162641883
 30
0.0
  0
VERTEX
  5
A8
330
A1
100
AcDbEntity
  8
STANDARDEBENE
 62
     7
100
AcDbVertex
100
AcDb2dVertex
 10
3.23649495361796
 20
178.7331040677299
 30
0.0
  0
VERTEX
  5
A9
330
A1
100
AcDbEntity
  8
STANDARDEBENE
 62
     7
100
AcDbVertex
100
AcDb2dVertex
 10
3.23649495361796
 20
180.009511945015
 30
0.0
  0
VERTEX
  5
AA
330
A1
100
AcDbEntity
  8
STANDARDEBENE
 62
     7
100
AcDbVertex
100
AcDb2dVertex
 10
3.23649495361796
 20
181.4350924568114
 30
0.0
  0
VERTEX
  5
AB
330
A1
100
AcDbEntity
  8
STANDARDEBENE
 62
     7
100
AcDbVertex
100
AcDb2dVertex
 10
3.23649495361796
 20
182.9891750302076
 30
0.0
  0
VERTEX
  5
AC
330
A1
100
AcDbEntity
  8
STANDARDEBENE
 62
     7
100
AcDbVertex
100
AcDb2dVertex
 10
3.23649495361796
 20
184.6517781113891
 30
0.0
  0
VERTEX
  5
AD
330
A1
100
AcDbEntity
  8
STANDARDEBENE
 62
     7
100
AcDbVertex
100
AcDb2dVertex
 10
3.23649495361796
 20
186.400508579702
 30
0.0
  0
VERTEX
  5
AE
330
A1
100
AcDbEntity
  8
STANDARDEBENE
 62
     7
100
AcDbVertex
100
AcDb2dVertex
 10
3.23649495361796
 20
188.2112507667493
 30
0.0
  0
VERTEX
  5
AF
330
A1
100
AcDbEntity
  8
STANDARDEBENE
 62
     7
100
AcDbVertex
100
AcDb2dVertex
 10
3.23649495361796
 20
190.0591999850373
 30
0.0
  0
VERTEX
  5
B0
330
A1
100
AcDbEntity
  8
STANDARDEBENE
 62
     7
100
AcDbVertex
100
AcDb2dVertex
 10
3.23649495361796
 20
191.9195515470722
 30
0.0
  0
VERTEX
  5
B1
330
A1
100
AcDbEntity
  8
STANDARDEBENE
 62
     7
100
AcDbVertex
100
AcDb2dVertex
 10
3.23649495361796
 20
193.7678452749088
 30
0.0
  0
VERTEX
  5
B2
330
A1
100
AcDbEntity
  8
STANDARDEBENE
 62
     7
100
AcDbVertex
100
AcDb2dVertex
 10
3.23649495361796
 20
195.5782429524075
 30
0.0
  0
VERTEX
  5
B3
330
A1
100
AcDbEntity
  8
STANDARDEBENE
 62
     7
100
AcDbVertex
100
AcDb2dVertex
 10
3.23649495361796
 20
197.3262844016233
 30
0.0
  0
VERTEX
  5
B4
330
A1
100
AcDbEntity
  8
STANDARDEBENE
 62
     7
100
AcDbVertex
100
AcDb2dVertex
 10
3.23649495361796
 20
198.9895765019019
 30
0.0
  0
VERTEX
  5
B5
330
A1
100
AcDbEntity
  8
STANDARDEBENE
 62
     7
100
AcDbVertex
100
AcDb2dVertex
 10
3.23649495361796
 20
200.5440035848466
 30
0.0
  0
VERTEX
  5
B6
330
A1
100
AcDbEntity
  8
STANDARDEBENE
 62
     7
100
AcDbVertex
100
AcDb2dVertex
 10
3.23649495361796
 20
201.9692395870945
 30
0.0
  0
VERTEX
  5
B7
330
A1
100
AcDbEntity
  8
STANDARDEBENE
 62
     7
100
AcDbVertex
100
AcDb2dVertex
 10
3.23649495361796
 20
203.2463364834766
 30
0.0
  0
VERTEX
  5
B8
330
A1
100
AcDbEntity
  8
STANDARDEBENE
 62
     7
100
AcDbVertex
100
AcDb2dVertex
 10
3.23649495361796
 20
204.3577242870182
 30
0.0
  0
VERTEX
  5
B9
330
A1
100
AcDbEntity
  8
STANDARDEBENE
 62
     7
100
AcDbVertex
100
AcDb2dVertex
 10
3.23649495361796
 20
205.2872110489386
 30
0.0
  0
VERTEX
  5
BA
330
A1
100
AcDbEntity
  8
STANDARDEBENE
 62
     7
100
AcDbVertex
100
AcDb2dVertex
 10
3.23649495361796
 20
206.0244614827821
 30
0.0
  0
VERTEX
  5
BB
330
A1
100
AcDbEntity
  8
STANDARDEBENE
 62
     7
100
AcDbVertex
100
AcDb2dVertex
 10
3.23649495361796
 20
206.5581067734473
 30
0.0
  0
VERTEX
  5
BC
330
A1
100
AcDbEntity
  8
STANDARDEBENE
 62
     7
100
AcDbVertex
100
AcDb2dVertex
 10
3.23649495361796
 20
206.8812567299637
 30
0.0
  0
VERTEX
  5
BD
330
A1
100
AcDbEntity
  8
STANDARDEBENE
 62
     7
100
AcDbVertex
100
AcDb2dVertex
 10
3.23649495361796
 20
206.9897772377491
 30
0.0
  0
SEQEND
  5
BE
330
A1
100
AcDbEntity
  8
STANDARDEBENE
  0
POLYLINE
  5
BF
330
1F
100
AcDbEntity
  8
STANDARDEBENE
 62
     7
100
AcDb2dPolyline
 66
     1
 10
0.0
 20
0.0
 30
0.0
  0
VERTEX
  5
C0
330
BF
100
AcDbEntity
  8
STANDARDEBENE
 62
     7
100
AcDbVertex
100
AcDb2dVertex
 10
22.23619655477081
 20
188.4324258969023
 30
0.0
  0
VERTEX
  5
C1
330
BF
100
AcDbEntity
  8
STANDARDEBENE
 62
     7
100
AcDbVertex
100
AcDb2dVertex
 10
22.23619655477081
 20
189.6413099026765
 30
0.0
  0
VERTEX
  5
C2
330
BF
100
AcDbEntity
  8
STANDARDEBENE
 62
     7
100
AcDbVertex
100
AcDb2dVertex
 10
22.23619655477081
 20
190.9204738563498
 30
0.0
  0
VERTEX
  5
C3
330
BF
100
AcDbEntity
  8
STANDARDEBENE
 62
     7
100
AcDbVertex
100
AcDb2dVertex
 10
22.23619655477081
 20
192.2020493768627
 30
0.0
  0
VERTEX
  5
C4
330
BF
100
AcDbEntity
  8
STANDARDEBENE
 62
     7
100
AcDbVertex
100
AcDb2dVertex
 10
22.23619655477081
 20
193.4140339685736
 30
0.0
  0
SEQEND
  5
C5
330
BF
100
AcDbEntity
  8
STANDARDEBENE
  0
POLYLINE
  5
C6
330
1F
100
AcDbEntity
  8
STANDARDEBENE
 62
     7
100
AcDb2dPolyline
 66
     1
 10
0.0
 20
0.0
 30
0.0
  0
VERTEX
  5
C7
330
C6
100
AcDbEntity
  8
STANDARDEBENE
 62
     7
100
AcDbVertex
100
AcDb2dVertex
 10
-11.01000840653569
 20
187.2480020690734
 30
0.0
  0
VERTEX
  5
C8
330
C6
100
AcDbEntity
  8
STANDARDEBENE
 62
     7
100
AcDbVertex
100
AcDb2dVertex
 10
-11.02585584576784
 20
187.0995184536592
 30
0.0
  0
VERTEX
  5
C9
330
C6
100
AcDbEntity
  8
STANDARDEBENE
 62
     7
100
AcDbVertex
100
AcDb2dVertex
 10
-10.91733533798247
 20
186.7705118348178
 30
0.0
  0
VERTEX
  5
CA
330
C6
100
AcDbEntity
  8
STANDARDEBENE
 62
     7
100
AcDbVertex
100
AcDb2dVertex
 10
-10.69857177466911
 20
186.3085245302458
 30
0.0
  0
VERTEX
  5
CB
330
C6
100
AcDbEntity
  8
STANDARDEBENE
 62
     7
100
AcDbVertex
100
AcDb2dVertex
 10
-10.40126003429205
 20
185.7797023732599
 30
0.0
  0
VERTEX
  5
CC
330
C6
100
AcDbEntity
  8
STANDARDEBENE
 62
     7
100
AcDbVertex
100
AcDb2dVertex
 10
-10.06846381041691
 20
185.2584594263416
 30
0.0
  0
VERTEX
  5
CD
330
C6
100
AcDbEntity
  8
STANDARDEBENE
 62
     7
100
AcDbVertex
100
AcDb2dVertex
 10
-9.747380911191627
 20
184.8212768092635
 30
0.0
  0
VERTEX
  5
CE
330
C6
100
AcDbEntity
  8
STANDARDEBENE
 62
     7
100
AcDbVertex
100
AcDb2dVertex
 10
-9.48348659702149
 20
184.5294772216628
 30
0.0
  0
VERTEX
  5
CF
330
C6
100
AcDbEntity
  8
STANDARDEBENE
 62
     7
100
AcDbVertex
100
AcDb2dVertex
 10
-9.315710446889822
 20
184.4247463189112
 30
0.0
  0
SEQEND
  5
D0
330
C6
100
AcDbEntity
  8
STANDARDEBENE
  0
POLYLINE
  5
D1
330
1F
100
AcDbEntity
  8
STANDARDEBENE
 62
     7
100
AcDb2dPolyline
 66
     1
 10
0.0
 20
0.0
 30
0.0
  0
VERTEX
  5
D2
330
D1
100
AcDbEntity
  8
STANDARDEBENE
 62
     7
100
AcDbVertex
100
AcDb2dVertex
 10
22.23619655477081
 20
193.4140339685736
 30
0.0
  0
VERTEX
  5
D3
330
D1
100
AcDbEntity
  8
STANDARDEBENE
 62
     7
100
AcDbVertex
100
AcDb2dVertex
 10
22.23619655477081
 20
194.9588147841596
 30
0.0
  0
VERTEX
  5
D4
330
D1
100
AcDbEntity
  8
STANDARDEBENE
 62
     7
100
AcDbVertex
100
AcDb2dVertex
 10
22.23619655477081
 20
196.3819837291163
 30
0.0
  0
VERTEX
  5
D5
330
D1
100
AcDbEntity
  8
STANDARDEBENE
 62
     7
100
AcDbVertex
100
AcDb2dVertex
 10
22.23619655477081
 20
197.6621812114352
 30
0.0
  0
VERTEX
  5
D6
330
D1
100
AcDbEntity
  8
STANDARDEBENE
 62
     7
100
AcDbVertex
100
AcDb2dVertex
 10
22.23619655477081
 20
198.7801146963987
 30
0.0
  0
VERTEX
  5
D7
330
D1
100
AcDbEntity
  8
STANDARDEBENE
 62
     7
100
AcDbVertex
100
AcDb2dVertex
 10
22.23619655477081
 20
199.7192477256778
 30
0.0
  0
VERTEX
  5
D8
330
D1
100
AcDbEntity
  8
STANDARDEBENE
 62
     7
100
AcDbVertex
100
AcDb2dVertex
 10
22.23619655477081
 20
200.4640773695889
 30
0.0
  0
VERTEX
  5
D9
330
D1
100
AcDbEntity
  8
STANDARDEBENE
 62
     7
100
AcDbVertex
100
AcDb2dVertex
 10
22.23619655477081
 20
201.0046128512246
 30
0.0
  0
VERTEX
  5
DA
330
D1
100
AcDbEntity
  8
STANDARDEBENE
 62
     7
100
AcDbVertex
100
AcDb2dVertex
 10
22.23619655477081
 20
201.3322414318718
 30
0.0
  0
VERTEX
  5
DB
330
D1
100
AcDbEntity
  8
STANDARDEBENE
 62
     7
100
AcDbVertex
100
AcDb2dVertex
 10
22.23619655477081
 20
201.4417954683028
 30
0.0
  0
SEQEND
  5
DC
330
D1
100
AcDbEntity
  8
STANDARDEBENE
  0
POLYLINE
  5
DD
330
1F
100
AcDbEntity
  8
STANDARDEBENE
 62
     7
100
AcDb2dPolyline
 66
     1
 10
0.0
 20
0.0
 30
0.0
  0
VERTEX
  5
DE
330
DD
100
AcDbEntity
  8
STANDARDEBENE
 62
     7
100
AcDbVertex
100
AcDb2dVertex
 10
22.23619655477081
 20
180.5149074527012
 30
0.0
  0
VERTEX
  5
DF
330
DD
100
AcDbEntity
  8
STANDARDEBENE
 62
     7
100
AcDbVertex
100
AcDb2dVertex
 10
22.23619655477081
 20
180.6227389413895
 30
0.0
  0
VERTEX
  5
E0
330
DD
100
AcDbEntity
  8
STANDARDEBENE
 62
     7
100
AcDbVertex
100
AcDb2dVertex
 10
22.23619655477081
 20
180.9451998788088
 30
0.0
  0
VERTEX
  5
E1
330
DD
100
AcDbEntity
  8
STANDARDEBENE
 62
     7
100
AcDbVertex
100
AcDb2dVertex
 10
22.23619655477081
 20
181.4778116408285
 30
0.0
  0
VERTEX
  5
E2
330
DD
100
AcDbEntity
  8
STANDARDEBENE
 62
     7
100
AcDbVertex
100
AcDb2dVertex
 10
22.23619655477081
 20
182.2119614887352
 30
0.0
  0
VERTEX
  5
E3
330
DD
100
AcDbEntity
  8
STANDARDEBENE
 62
     7
100
AcDbVertex
100
AcDb2dVertex
 10
22.23619655477081
 20
183.1369696265248
 30
0.0
  0
VERTEX
  5
E4
330
DD
100
AcDbEntity
  8
STANDARDEBENE
 62
     7
100
AcDbVertex
100
AcDb2dVertex
 10
22.23619655477081
 20
184.2387111627077
 30
0.0
  0
VERTEX
  5
E5
330
DD
100
AcDbEntity
  8
STANDARDEBENE
 62
     7
100
AcDbVertex
100
AcDb2dVertex
 10
22.23619655477081
 20
185.5016831676003
 30
0.0
  0
VERTEX
  5
E6
330
DD
100
AcDbEntity
  8
STANDARDEBENE
 62
     7
100
AcDbVertex
100
AcDb2dVertex
 10
22.23619655477081
 20
186.9065931064852
 30
0.0
  0
VERTEX
  5
E7
330
DD
100
AcDbEntity
  8
STANDARDEBENE
 62
     7
100
AcDbVertex
100
AcDb2dVertex
 10
22.23619655477081
 20
188.4324258969023
 30
0.0
  0
SEQEND
  5
E8
330
DD
100
AcDbEntity
  8
STANDARDEBENE
  0
SPLINE
  5
E9
330
1F
100
AcDbEntity
  8
STANDARDEBENE
 62
     7
100
AcDbSpline
210
0.0
220
0.0
230
1.0
 70
     8
 71
     3
 72
     8
 73
     4
 74
     0
 42
0.0000000001
 43
0.0000000001
 40
0.0
 40
0.0
 40
0.0
 40
0.0
 40
1.0
 40
1.0
 40
1.0
 40
1.0
 10
-31.06563177391762
 20
179.6939411985661
 30
0.0
 10
-31.06563177391762
 20
179.9988321490107
 30
0.0
 10
-31.08285725134387
 20
180.3006225135186
 30
0.0
 10
-31.11248507251702
 20
180.560727222655
 30
0.0
  0
SPLINE
  5
EA
330
1F
100
AcDbEntity
  8
STANDARDEBENE
 62
     7
100
AcDbSpline
210
0.0
220
0.0
230
1.0
 70
     8
 71
     3
 72
     8
 73
     4
 74
     0
 42
0.0000000001
 43
0.0000000001
 40
0.0
 40
0.0
 40
0.0
 40
0.0
 40
1.0
 40
1.0
 40
1.0
 40
1.0
 10
-31.12144232077867
 20
178.740338768249
 30
0.0
 10
-31.0818237226983
 20
179.0745130303182
 30
0.0
 10
-31.06356471662647
 20
179.4052421969022
 30
0.0
 10
-31.06563177391762
 20
179.6939411985661
 30
0.0
  0
SPLINE
  5
EB
330
1F
100
AcDbEntity
  8
STANDARDEBENE
 62
     7
100
AcDbSpline
210
0.0
220
0.0
230
1.0
 70
    11
 71
     3
 72
    17
 73
    13
 74
     0
 42
0.0000000001
 43
0.0000000001
 40
0.0
 40
0.0
 40
0.0
 40
0.0
 40
1.0
 40
1.0
 40
1.0
 40
2.0
 40
2.0
 40
2.0
 40
3.0
 40
3.0
 40
3.0
 40
4.0
 40
4.0
 40
4.0
 40
4.0
 10
-25.52143960950506
 20
174.1459594291198
 30
0.0
 10
-25.52143960950506
 20
175.8264770068246
 30
0.0
 10
-26.88363036437284
 20
177.189012271241
 30
0.0
 10
-28.56449245162624
 20
177.189012271241
 30
0.0
 10
-30.24569904842816
 20
177.189012271241
 30
0.0
 10
-31.60788980329595
 20
175.8264770068246
 30
0.0
 10
-31.60788980329595
 20
174.1459594291198
 30
0.0
 10
-31.60788980329595
 20
172.4647528323179
 30
0.0
 10
-30.24569904842816
 20
171.1025620774501
 30
0.0
 10
-28.56449245162624
 20
171.1025620774501
 30
0.0
 10
-26.88363036437284
 20
171.1025620774501
 30
0.0
 10
-25.52143960950506
 20
172.4647528323179
 30
0.0
 10
-25.52143960950506
 20
174.1459594291198
 30
0.0
  0
POLYLINE
  5
EC
330
1F
100
AcDbEntity
  8
STANDARDEBENE
 62
     7
100
AcDb2dPolyline
 66
     1
 10
0.0
 20
0.0
 30
0.0
  0
VERTEX
  5
ED
330
EC
100
AcDbEntity
  8
STANDARDEBENE
 62
     7
100
AcDbVertex
100
AcDb2dVertex
 10
-9.879328068276696
 20
206.6556029756799
 30
0.0
  0
VERTEX
  5
EE
330
EC
100
AcDbEntity
  8
STANDARDEBENE
 62
     7
100
AcDbVertex
100
AcDb2dVertex
 10
-9.72602131918308
 20
206.1846584228462
 30
0.0
  0
VERTEX
  5
EF
330
EC
100
AcDbEntity
  8
STANDARDEBENE
 62
     7
100
AcDbVertex
100
AcDb2dVertex
 10
-9.57753770376881
 20
205.5176879369018
 30
0.0
  0
VERTEX
  5
F0
330
EC
100
AcDbEntity
  8
STANDARDEBENE
 62
     7
100
AcDbVertex
100
AcDb2dVertex
 10
-9.436633298422093
 20
204.6612371992687
 30
0.0
  0
VERTEX
  5
F1
330
EC
100
AcDbEntity
  8
STANDARDEBENE
 62
     7
100
AcDbVertex
100
AcDb2dVertex
 10
-9.305375160434073
 20
203.6290865918879
 30
0.0
  0
VERTEX
  5
F2
330
EC
100
AcDbEntity
  8
STANDARDEBENE
 62
     7
100
AcDbVertex
100
AcDb2dVertex
 10
-9.18617485664443
 20
202.4332939489577
 30
0.0
  0
VERTEX
  5
F3
330
EC
100
AcDbEntity
  8
STANDARDEBENE
 62
     7
100
AcDbVertex
100
AcDb2dVertex
 10
-9.078343367956109
 20
201.0883286715161
 30
0.0
  0
VERTEX
  5
F4
330
EC
100
AcDbEntity
  8
STANDARDEBENE
 62
     7
100
AcDbVertex
100
AcDb2dVertex
 10
-8.984981280305838
 20
199.6134832942807
 30
0.0
  0
VERTEX
  5
F5
330
EC
100
AcDbEntity
  8
STANDARDEBENE
 62
     7
100
AcDbVertex
100
AcDb2dVertex
 10
-8.906777612790668
 20
198.0259832946775
 30
0.0
  0
VERTEX
  5
F6
330
EC
100
AcDbEntity
  8
STANDARDEBENE
 62
     7
100
AcDbVertex
100
AcDb2dVertex
 10
-8.845110403604695
 20
196.3485663029094
 30
0.0
  0
VERTEX
  5
F7
330
EC
100
AcDbEntity
  8
STANDARDEBENE
 62
     7
100
AcDbVertex
100
AcDb2dVertex
 10
-8.800324162296446
 20
194.6012138727907
 30
0.0
  0
VERTEX
  5
F8
330
EC
100
AcDbEntity
  8
STANDARDEBENE
 62
     7
100
AcDbVertex
100
AcDb2dVertex
 10
-8.773107907962974
 20
192.8076971631696
 30
0.0
  0
VERTEX
  5
F9
330
EC
100
AcDbEntity
  8
STANDARDEBENE
 62
     7
100
AcDbVertex
100
AcDb2dVertex
 10
-8.764495169249848
 20
190.9893757660547
 30
0.0
  0
VERTEX
  5
FA
330
EC
100
AcDbEntity
  8
STANDARDEBENE
 62
     7
100
AcDbVertex
100
AcDb2dVertex
 10
-8.773107907962974
 20
189.1717433880369
 30
0.0
  0
VERTEX
  5
FB
330
EC
100
AcDbEntity
  8
STANDARDEBENE
 62
     7
100
AcDbVertex
100
AcDb2dVertex
 10
-8.800324162296446
 20
187.3775376593188
 30
0.0
  0
VERTEX
  5
FC
330
EC
100
AcDbEntity
  8
STANDARDEBENE
 62
     7
100
AcDbVertex
100
AcDb2dVertex
 10
-8.845110403604695
 20
185.6301852292001
 30
0.0
  0
VERTEX
  5
FD
330
EC
100
AcDbEntity
  8
STANDARDEBENE
 62
     7
100
AcDbVertex
100
AcDb2dVertex
 10
-8.906777612790668
 20
183.9524237278834
 30
0.0
  0
VERTEX
  5
FE
330
EC
100
AcDbEntity
  8
STANDARDEBENE
 62
     7
100
AcDbVertex
100
AcDb2dVertex
 10
-8.984981280305838
 20
182.3652682378288
 30
0.0
  0
VERTEX
  5
FF
330
EC
100
AcDbEntity
  8
STANDARDEBENE
 62
     7
100
AcDbVertex
100
AcDb2dVertex
 10
-9.078343367956109
 20
180.8900783510448
 30
0.0
  0
VERTEX
  5
100
330
EC
100
AcDbEntity
  8
STANDARDEBENE
 62
     7
100
AcDbVertex
100
AcDb2dVertex
 10
-9.18617485664443
 20
179.5461466022489
 30
0.0
  0
VERTEX
  5
101
330
EC
100
AcDbEntity
  8
STANDARDEBENE
 62
     7
100
AcDbVertex
100
AcDb2dVertex
 10
-9.305375160434073
 20
178.3496649402216
 30
0.0
  0
VERTEX
  5
102
330
EC
100
AcDbEntity
  8
STANDARDEBENE
 62
     7
100
AcDbVertex
100
AcDb2dVertex
 10
-9.436633298422093
 20
177.3175143328408
 30
0.0
  0
VERTEX
  5
103
330
EC
100
AcDbEntity
  8
STANDARDEBENE
 62
     7
100
AcDbVertex
100
AcDb2dVertex
 10
-9.57753770376881
 20
176.4617526143047
 30
0.0
  0
VERTEX
  5
104
330
EC
100
AcDbEntity
  8
STANDARDEBENE
 62
     7
100
AcDbVertex
100
AcDb2dVertex
 10
-9.72602131918308
 20
175.7947821283603
 30
0.0
  0
VERTEX
  5
105
330
EC
100
AcDbEntity
  8
STANDARDEBENE
 62
     7
100
AcDbVertex
100
AcDb2dVertex
 10
-9.879328068276696
 20
175.3234930659782
 30
0.0
  0
SEQEND
  5
106
330
EC
100
AcDbEntity
  8
STANDARDEBENE
  0
POLYLINE
  5
107
330
1F
100
AcDbEntity
  8
STANDARDEBENE
 62
     7
100
AcDb2dPolyline
 66
     1
 10
0.0
 20
0.0
 30
0.0
  0
VERTEX
  5
108
330
107
100
AcDbEntity
  8
STANDARDEBENE
 62
     7
100
AcDbVertex
100
AcDb2dVertex
 10
-4.013708495090323
 20
195.7449855738936
 30
0.0
  0
VERTEX
  5
109
330
107
100
AcDbEntity
  8
STANDARDEBENE
 62
     7
100
AcDbVertex
100
AcDb2dVertex
 10
-4.427464462868828
 20
197.3566012418935
 30
0.0
  0
VERTEX
  5
10A
330
107
100
AcDbEntity
  8
STANDARDEBENE
 62
     7
100
AcDbVertex
100
AcDb2dVertex
 10
-4.742346190220664
 20
198.8941473569605
 30
0.0
  0
VERTEX
  5
10B
330
107
100
AcDbEntity
  8
STANDARDEBENE
 62
     7
100
AcDbVertex
100
AcDb2dVertex
 10
-4.953530543466479
 20
200.3407429512169
 30
0.0
  0
VERTEX
  5
10C
330
107
100
AcDbEntity
  8
STANDARDEBENE
 62
     7
100
AcDbVertex
100
AcDb2dVertex
 10
-5.059983993960699
 20
201.6791625472365
 30
0.0
  0
VERTEX
  5
10D
330
107
100
AcDbEntity
  8
STANDARDEBENE
 62
     7
100
AcDbVertex
100
AcDb2dVertex
 10
-5.059983993960699
 20
202.8942477248841
 30
0.0
  0
VERTEX
  5
10E
330
107
100
AcDbEntity
  8
STANDARDEBENE
 62
     7
100
AcDbVertex
100
AcDb2dVertex
 10
-4.953530543466479
 20
203.9722181022188
 30
0.0
  0
VERTEX
  5
10F
330
107
100
AcDbEntity
  8
STANDARDEBENE
 62
     7
100
AcDbVertex
100
AcDb2dVertex
 10
-4.742346190220664
 20
204.9006713354936
 30
0.0
  0
VERTEX
  5
110
330
107
100
AcDbEntity
  8
STANDARDEBENE
 62
     7
100
AcDbVertex
100
AcDb2dVertex
 10
-4.427464462868828
 20
205.6685831191558
 30
0.0
  0
VERTEX
  5
111
330
107
100
AcDbEntity
  8
STANDARDEBENE
 62
     7
100
AcDbVertex
100
AcDb2dVertex
 10
-4.013708495090323
 20
206.2663071858466
 30
0.0
  0
SEQEND
  5
112
330
107
100
AcDbEntity
  8
STANDARDEBENE
  0
POLYLINE
  5
113
330
1F
100
AcDbEntity
  8
STANDARDEBENE
 62
     7
100
AcDb2dPolyline
 66
     1
 10
0.0
 20
0.0
 30
0.0
  0
VERTEX
  5
114
330
113
100
AcDbEntity
  8
STANDARDEBENE
 62
     7
100
AcDbVertex
100
AcDb2dVertex
 10
-1.513947210993041
 20
206.2663071858466
 30
0.0
  0
VERTEX
  5
115
330
113
100
AcDbEntity
  8
STANDARDEBENE
 62
     7
100
AcDbVertex
100
AcDb2dVertex
 10
-1.100535752763061
 20
205.6685831191558
 30
0.0
  0
VERTEX
  5
116
330
113
100
AcDbEntity
  8
STANDARDEBENE
 62
     7
100
AcDbVertex
100
AcDb2dVertex
 10
-0.7863430445082754
 20
204.9006713354936
 30
0.0
  0
VERTEX
  5
117
330
113
100
AcDbEntity
  8
STANDARDEBENE
 62
     7
100
AcDbVertex
100
AcDb2dVertex
 10
-0.5737806530683605
 20
203.9722181022188
 30
0.0
  0
VERTEX
  5
118
330
113
100
AcDbEntity
  8
STANDARDEBENE
 62
     7
100
AcDbVertex
100
AcDb2dVertex
 10
-0.4680162216711904
 20
202.8942477248841
 30
0.0
  0
VERTEX
  5
119
330
113
100
AcDbEntity
  8
STANDARDEBENE
 62
     7
100
AcDbVertex
100
AcDb2dVertex
 10
-0.4680162216711904
 20
201.6791625472365
 30
0.0
  0
VERTEX
  5
11A
330
113
100
AcDbEntity
  8
STANDARDEBENE
 62
     7
100
AcDbVertex
100
AcDb2dVertex
 10
-0.5737806530683605
 20
200.3407429512169
 30
0.0
  0
VERTEX
  5
11B
330
113
100
AcDbEntity
  8
STANDARDEBENE
 62
     7
100
AcDbVertex
100
AcDb2dVertex
 10
-0.7863430445082754
 20
198.8941473569605
 30
0.0
  0
VERTEX
  5
11C
330
113
100
AcDbEntity
  8
STANDARDEBENE
 62
     7
100
AcDbVertex
100
AcDb2dVertex
 10
-1.100535752763061
 20
197.3566012418935
 30
0.0
  0
VERTEX
  5
11D
330
113
100
AcDbEntity
  8
STANDARDEBENE
 62
     7
100
AcDbVertex
100
AcDb2dVertex
 10
-1.513947210993041
 20
195.7449855738936
 30
0.0
  0
SEQEND
  5
11E
330
113
100
AcDbEntity
  8
STANDARDEBENE
  0
POLYLINE
  5
11F
330
1F
100
AcDbEntity
  8
STANDARDEBENE
 62
     7
100
AcDb2dPolyline
 66
     1
 10
0.0
 20
0.0
 30
0.0
  0
VERTEX
  5
120
330
11F
100
AcDbEntity
  8
STANDARDEBENE
 62
     7
100
AcDbVertex
100
AcDb2dVertex
 10
-4.013708495090323
 20
175.7131333653599
 30
0.0
  0
VERTEX
  5
121
330
11F
100
AcDbEntity
  8
STANDARDEBENE
 62
     7
100
AcDbVertex
100
AcDb2dVertex
 10
-4.427464462868828
 20
176.3108574320508
 30
0.0
  0
VERTEX
  5
122
330
11F
100
AcDbEntity
  8
STANDARDEBENE
 62
     7
100
AcDbVertex
100
AcDb2dVertex
 10
-4.742346190220664
 20
177.078769215713
 30
0.0
  0
VERTEX
  5
123
330
11F
100
AcDbEntity
  8
STANDARDEBENE
 62
     7
100
AcDbVertex
100
AcDb2dVertex
 10
-4.953530543466479
 20
178.0065334298907
 30
0.0
  0
VERTEX
  5
124
330
11F
100
AcDbEntity
  8
STANDARDEBENE
 62
     7
100
AcDbVertex
100
AcDb2dVertex
 10
-5.059983993960699
 20
179.0848483167739
 30
0.0
  0
VERTEX
  5
125
330
11F
100
AcDbEntity
  8
STANDARDEBENE
 62
     7
100
AcDbVertex
100
AcDb2dVertex
 10
-5.059983993960699
 20
180.299588984873
 30
0.0
  0
VERTEX
  5
126
330
11F
100
AcDbEntity
  8
STANDARDEBENE
 62
     7
100
AcDbVertex
100
AcDb2dVertex
 10
-4.953530543466479
 20
181.6380085808926
 30
0.0
  0
VERTEX
  5
127
330
11F
100
AcDbEntity
  8
STANDARDEBENE
 62
     7
100
AcDbVertex
100
AcDb2dVertex
 10
-4.742346190220664
 20
183.0849486846975
 30
0.0
  0
VERTEX
  5
128
330
11F
100
AcDbEntity
  8
STANDARDEBENE
 62
     7
100
AcDbVertex
100
AcDb2dVertex
 10
-4.427464462868828
 20
184.622839309313
 30
0.0
  0
VERTEX
  5
129
330
11F
100
AcDbEntity
  8
STANDARDEBENE
 62
     7
100
AcDbVertex
100
AcDb2dVertex
 10
-4.013708495090323
 20
186.2337659582159
 30
0.0
  0
SEQEND
  5
12A
330
11F
100
AcDbEntity
  8
STANDARDEBENE
  0
POLYLINE
  5
12B
330
1F
100
AcDbEntity
  8
STANDARDEBENE
 62
     7
100
AcDb2dPolyline
 66
     1
 10
0.0
 20
0.0
 30
0.0
  0
VERTEX
  5
12C
330
12B
100
AcDbEntity
  8
STANDARDEBENE
 62
     7
100
AcDbVertex
100
AcDb2dVertex
 10
-1.513947210993041
 20
186.2337659582159
 30
0.0
  0
VERTEX
  5
12D
330
12B
100
AcDbEntity
  8
STANDARDEBENE
 62
     7
100
AcDbVertex
100
AcDb2dVertex
 10
-1.100535752763061
 20
184.622839309313
 30
0.0
  0
VERTEX
  5
12E
330
12B
100
AcDbEntity
  8
STANDARDEBENE
 62
     7
100
AcDbVertex
100
AcDb2dVertex
 10
-0.7863430445082754
 20
183.0849486846975
 30
0.0
  0
VERTEX
  5
12F
330
12B
100
AcDbEntity
  8
STANDARDEBENE
 62
     7
100
AcDbVertex
100
AcDb2dVertex
 10
-0.5737806530683605
 20
181.6380085808926
 30
0.0
  0
VERTEX
  5
130
330
12B
100
AcDbEntity
  8
STANDARDEBENE
 62
     7
100
AcDbVertex
100
AcDb2dVertex
 10
-0.4680162216711904
 20
180.299588984873
 30
0.0
  0
VERTEX
  5
131
330
12B
100
AcDbEntity
  8
STANDARDEBENE
 62
     7
100
AcDbVertex
100
AcDb2dVertex
 10
-0.4680162216711904
 20
179.0848483167739
 30
0.0
  0
VERTEX
  5
132
330
12B
100
AcDbEntity
  8
STANDARDEBENE
 62
     7
100
AcDbVertex
100
AcDb2dVertex
 10
-0.5737806530683605
 20
178.0065334298907
 30
0.0
  0
VERTEX
  5
133
330
12B
100
AcDbEntity
  8
STANDARDEBENE
 62
     7
100
AcDbVertex
100
AcDb2dVertex
 10
-0.7863430445082754
 20
177.078769215713
 30
0.0
  0
VERTEX
  5
134
330
12B
100
AcDbEntity
  8
STANDARDEBENE
 62
     7
100
AcDbVertex
100
AcDb2dVertex
 10
-1.100535752763061
 20
176.3108574320508
 30
0.0
  0
VERTEX
  5
135
330
12B
100
AcDbEntity
  8
STANDARDEBENE
 62
     7
100
AcDbVertex
100
AcDb2dVertex
 10
-1.513947210993041
 20
175.7131333653599
 30
0.0
  0
SEQEND
  5
136
330
12B
100
AcDbEntity
  8
STANDARDEBENE
  0
POLYLINE
  5
137
330
1F
100
AcDbEntity
  8
STANDARDEBENE
 62
     7
100
AcDb2dPolyline
 66
     1
 10
0.0
 20
0.0
 30
0.0
  0
VERTEX
  5
138
330
137
100
AcDbEntity
  8
STANDARDEBENE
 62
     7
100
AcDbVertex
100
AcDb2dVertex
 10
-9.315710446889822
 20
184.4247463189112
 30
0.0
  0
VERTEX
  5
139
330
137
100
AcDbEntity
  8
STANDARDEBENE
 62
     7
100
AcDbVertex
100
AcDb2dVertex
 10
-9.27057969603305
 20
184.5970010931737
 30
0.0
  0
VERTEX
  5
13A
330
137
100
AcDbEntity
  8
STANDARDEBENE
 62
     7
100
AcDbVertex
100
AcDb2dVertex
 10
-9.230616588404152
 20
184.9297973170488
 30
0.0
  0
VERTEX
  5
13B
330
137
100
AcDbEntity
  8
STANDARDEBENE
 62
     7
100
AcDbVertex
100
AcDb2dVertex
 10
-9.197888181294278
 20
185.3924736407179
 30
0.0
  0
VERTEX
  5
13C
330
137
100
AcDbEntity
  8
STANDARDEBENE
 62
     7
100
AcDbVertex
100
AcDb2dVertex
 10
-9.176184079737205
 20
185.9436889183579
 30
0.0
  0
VERTEX
  5
13D
330
137
100
AcDbEntity
  8
STANDARDEBENE
 62
     7
100
AcDbVertex
100
AcDb2dVertex
 10
-9.167915850572605
 20
186.5328002463356
 30
0.0
  0
VERTEX
  5
13E
330
137
100
AcDbEntity
  8
STANDARDEBENE
 62
     7
100
AcDbVertex
100
AcDb2dVertex
 10
-9.17239447470343
 20
187.10399707779
 30
0.0
  0
VERTEX
  5
13F
330
137
100
AcDbEntity
  8
STANDARDEBENE
 62
     7
100
AcDbVertex
100
AcDb2dVertex
 10
-9.190997990323778
 20
187.6056029804424
 30
0.0
  0
VERTEX
  5
140
330
137
100
AcDbEntity
  8
STANDARDEBENE
 62
     7
100
AcDbVertex
100
AcDb2dVertex
 10
-9.220625811496927
 20
187.9914536747903
 30
0.0
  0
VERTEX
  5
141
330
137
100
AcDbEntity
  8
STANDARDEBENE
 62
     7
100
AcDbVertex
100
AcDb2dVertex
 10
-9.258521861834675
 20
188.2264091868844
 30
0.0
  0
VERTEX
  5
142
330
137
100
AcDbEntity
  8
STANDARDEBENE
 62
     7
100
AcDbVertex
100
AcDb2dVertex
 10
-9.303308103142923
 20
188.289798943813
 30
0.0
  0
SEQEND
  5
143
330
137
100
AcDbEntity
  8
STANDARDEBENE
  0
POLYLINE
  5
144
330
1F
100
AcDbEntity
  8
STANDARDEBENE
 62
     7
100
AcDb2dPolyline
 66
     1
 10
0.0
 20
0.0
 30
0.0
  0
VERTEX
  5
145
330
144
100
AcDbEntity
  8
STANDARDEBENE
 62
     7
100
AcDbVertex
100
AcDb2dVertex
 10
-9.879328068276696
 20
175.3234930659782
 30
0.0
  0
VERTEX
  5
146
330
144
100
AcDbEntity
  8
STANDARDEBENE
 62
     7
100
AcDbVertex
100
AcDb2dVertex
 10
-9.972345646378441
 20
175.2146280486443
 30
0.0
  0
VERTEX
  5
147
330
144
100
AcDbEntity
  8
STANDARDEBENE
 62
     7
100
AcDbVertex
100
AcDb2dVertex
 10
-10.15011257341733
 20
175.1298786997071
 30
0.0
  0
VERTEX
  5
148
330
144
100
AcDbEntity
  8
STANDARDEBENE
 62
     7
100
AcDbVertex
100
AcDb2dVertex
 10
-10.2696573867555
 20
175.0954277448546
 30
0.0
  0
VERTEX
  5
149
330
144
100
AcDbEntity
  8
STANDARDEBENE
 62
     7
100
AcDbVertex
100
AcDb2dVertex
 10
-10.40952826345665
 20
175.0678669809726
 30
0.0
  0
VERTEX
  5
14A
330
144
100
AcDbEntity
  8
STANDARDEBENE
 62
     7
100
AcDbVertex
100
AcDb2dVertex
 10
-10.56731363668109
 20
175.0447848412215
 30
0.0
  0
VERTEX
  5
14B
330
144
100
AcDbEntity
  8
STANDARDEBENE
 62
     7
100
AcDbVertex
100
AcDb2dVertex
 10
-10.74370252552588
 20
175.0272148542467
 30
0.0
  0
VERTEX
  5
14C
330
144
100
AcDbEntity
  8
STANDARDEBENE
 62
     7
100
AcDbVertex
100
AcDb2dVertex
 10
-10.93869492999102
 20
175.0127454532086
 30
0.0
  0
VERTEX
  5
14D
330
144
100
AcDbEntity
  8
STANDARDEBENE
 62
     7
100
AcDbVertex
100
AcDb2dVertex
 10
-11.14987928323684
 20
175.0034436953985
 30
0.0
  0
VERTEX
  5
14E
330
144
100
AcDbEntity
  8
STANDARDEBENE
 62
     7
100
AcDbVertex
100
AcDb2dVertex
 10
-11.37449950887513
 20
174.9958644853309
 30
0.0
  0
VERTEX
  5
14F
330
144
100
AcDbEntity
  8
STANDARDEBENE
 62
     7
100
AcDbVertex
100
AcDb2dVertex
 10
-11.61290011645441
 20
174.9920748802971
 30
0.0
  0
VERTEX
  5
150
330
144
100
AcDbEntity
  8
STANDARDEBENE
 62
     7
100
AcDbVertex
100
AcDb2dVertex
 10
-11.8650811059747
 20
174.9903523325545
 30
0.0
  0
VERTEX
  5
151
330
144
100
AcDbEntity
  8
STANDARDEBENE
 62
     7
100
AcDbVertex
100
AcDb2dVertex
 10
-12.12897542014484
 20
174.9896633134574
 30
0.0
  0
VERTEX
  5
152
330
144
100
AcDbEntity
  8
STANDARDEBENE
 62
     7
100
AcDbVertex
100
AcDb2dVertex
 10
-12.40251600167368
 20
174.9896633134574
 30
0.0
  0
VERTEX
  5
153
330
144
100
AcDbEntity
  8
STANDARDEBENE
 62
     7
100
AcDbVertex
100
AcDb2dVertex
 10
-12.68466932191564
 20
174.9910413516515
 30
0.0
  0
SEQEND
  5
154
330
144
100
AcDbEntity
  8
STANDARDEBENE
  0
POLYLINE
  5
155
330
1F
100
AcDbEntity
  8
STANDARDEBENE
 62
     7
100
AcDb2dPolyline
 66
     1
 10
0.0
 20
0.0
 30
0.0
  0
VERTEX
  5
156
330
155
100
AcDbEntity
  8
STANDARDEBENE
 62
     7
100
AcDbVertex
100
AcDb2dVertex
 10
-12.68466932191564
 20
206.988399199555
 30
0.0
  0
VERTEX
  5
157
330
155
100
AcDbEntity
  8
STANDARDEBENE
 62
     7
100
AcDbVertex
100
AcDb2dVertex
 10
-12.13173149653304
 20
206.9897772377491
 30
0.0
  0
VERTEX
  5
158
330
155
100
AcDbEntity
  8
STANDARDEBENE
 62
     7
100
AcDbVertex
100
AcDb2dVertex
 10
-11.61841226923081
 20
206.9863321422638
 30
0.0
  0
VERTEX
  5
159
330
155
100
AcDbEntity
  8
STANDARDEBENE
 62
     7
100
AcDbVertex
100
AcDb2dVertex
 10
-11.37760009481185
 20
206.9828870467786
 30
0.0
  0
VERTEX
  5
15A
330
155
100
AcDbEntity
  8
STANDARDEBENE
 62
     7
100
AcDbVertex
100
AcDb2dVertex
 10
-11.15229085007651
 20
206.9759968558081
 30
0.0
  0
VERTEX
  5
15B
330
155
100
AcDbEntity
  8
STANDARDEBENE
 62
     7
100
AcDbVertex
100
AcDb2dVertex
 10
-10.94179551592775
 20
206.9656615693523
 30
0.0
  0
VERTEX
  5
15C
330
155
100
AcDbEntity
  8
STANDARDEBENE
 62
     7
100
AcDbVertex
100
AcDb2dVertex
 10
-10.74887016875376
 20
206.9525702065084
 30
0.0
  0
VERTEX
  5
15D
330
155
100
AcDbEntity
  8
STANDARDEBENE
 62
     7
100
AcDbVertex
100
AcDb2dVertex
 10
-10.57041422261781
 20
206.933966690888
 30
0.0
  0
VERTEX
  5
15E
330
155
100
AcDbEntity
  8
STANDARDEBENE
 62
     7
100
AcDbVertex
100
AcDb2dVertex
 10
-10.41125081119927
 20
206.9112290606854
 30
0.0
  0
VERTEX
  5
15F
330
155
100
AcDbEntity
  8
STANDARDEBENE
 62
     7
100
AcDbVertex
100
AcDb2dVertex
 10
-10.27137993449813
 20
206.8829792777063
 30
0.0
  0
VERTEX
  5
160
330
155
100
AcDbEntity
  8
STANDARDEBENE
 62
     7
100
AcDbVertex
100
AcDb2dVertex
 10
-10.15252414025701
 20
206.8499063610479
 30
0.0
  0
VERTEX
  5
161
330
155
100
AcDbEntity
  8
STANDARDEBENE
 62
     7
100
AcDbVertex
100
AcDb2dVertex
 10
-10.05261637118476
 20
206.8106322725161
 30
0.0
  0
VERTEX
  5
162
330
155
100
AcDbEntity
  8
STANDARDEBENE
 62
     7
100
AcDbVertex
100
AcDb2dVertex
 10
-9.973379175024016
 20
206.7648125025623
 30
0.0
  0
VERTEX
  5
163
330
155
100
AcDbEntity
  8
STANDARDEBENE
 62
     7
100
AcDbVertex
100
AcDb2dVertex
 10
-9.916535099517395
 20
206.7134805798321
 30
0.0
  0
VERTEX
  5
164
330
155
100
AcDbEntity
  8
STANDARDEBENE
 62
     7
100
AcDbVertex
100
AcDb2dVertex
 10
-9.879328068276696
 20
206.6556029756799
 30
0.0
  0
SEQEND
  5
165
330
155
100
AcDbEntity
  8
STANDARDEBENE
  0
POLYLINE
  5
166
330
1F
100
AcDbEntity
  8
STANDARDEBENE
 62
     7
100
AcDb2dPolyline
 66
     1
 10
0.0
 20
0.0
 30
0.0
  0
VERTEX
  5
167
330
166
100
AcDbEntity
  8
STANDARDEBENE
 62
     7
100
AcDbVertex
100
AcDb2dVertex
 10
-12.76562906581901
 20
207.2877779972232
 30
0.0
  0
VERTEX
  5
168
330
166
100
AcDbEntity
  8
STANDARDEBENE
 62
     7
100
AcDbVertex
100
AcDb2dVertex
 10
-12.72532144864159
 20
207.1375718340663
 30
0.0
  0
VERTEX
  5
169
330
166
100
AcDbEntity
  8
STANDARDEBENE
 62
     7
100
AcDbVertex
100
AcDb2dVertex
 10
-12.68466932191564
 20
206.988399199555
 30
0.0
  0
SEQEND
  5
16A
330
166
100
AcDbEntity
  8
STANDARDEBENE
  0
POLYLINE
  5
16B
330
1F
100
AcDbEntity
  8
STANDARDEBENE
 62
     7
100
AcDb2dPolyline
 66
     1
 10
0.0
 20
0.0
 30
0.0
  0
VERTEX
  5
16C
330
16B
100
AcDbEntity
  8
STANDARDEBENE
 62
     7
100
AcDbVertex
100
AcDb2dVertex
 10
-12.68466932191564
 20
174.9910413516515
 30
0.0
  0
VERTEX
  5
16D
330
16B
100
AcDbEntity
  8
STANDARDEBENE
 62
     7
100
AcDbVertex
100
AcDb2dVertex
 10
-12.9792249859045
 20
173.8930894205024
 30
0.0
  0
VERTEX
  5
16E
330
16B
100
AcDbEntity
  8
STANDARDEBENE
 62
     7
100
AcDbVertex
100
AcDb2dVertex
 10
-13.27412515944189
 20
172.7930704320622
 30
0.0
  0
VERTEX
  5
16F
330
16B
100
AcDbEntity
  8
STANDARDEBENE
 62
     7
100
AcDbVertex
100
AcDb2dVertex
 10
-13.56868082343075
 20
171.6930514436219
 30
0.0
  0
VERTEX
  5
170
330
16B
100
AcDbEntity
  8
STANDARDEBENE
 62
     7
100
AcDbVertex
100
AcDb2dVertex
 10
-13.86461452561371
 20
170.5926879456331
 30
0.0
  0
SEQEND
  5
171
330
16B
100
AcDbEntity
  8
STANDARDEBENE
  0
POLYLINE
  5
172
330
1F
100
AcDbEntity
  8
STANDARDEBENE
 62
     7
100
AcDb2dPolyline
 66
     1
 10
0.0
 20
0.0
 30
0.0
  0
VERTEX
  5
173
330
172
100
AcDbEntity
  8
STANDARDEBENE
 62
     7
100
AcDbVertex
100
AcDb2dVertex
 10
-13.86461452561371
 20
207.2846774112865
 30
0.0
  0
VERTEX
  5
174
330
172
100
AcDbEntity
  8
STANDARDEBENE
 62
     7
100
AcDbVertex
100
AcDb2dVertex
 10
-13.58556179130847
 20
207.2853664303835
 30
0.0
  0
VERTEX
  5
175
330
172
100
AcDbEntity
  8
STANDARDEBENE
 62
     7
100
AcDbVertex
100
AcDb2dVertex
 10
-13.30892062384291
 20
207.2853664303835
 30
0.0
  0
VERTEX
  5
176
330
172
100
AcDbEntity
  8
STANDARDEBENE
 62
     7
100
AcDbVertex
100
AcDb2dVertex
 10
-13.0357245518626
 20
207.2863999590291
 30
0.0
  0
VERTEX
  5
177
330
172
100
AcDbEntity
  8
STANDARDEBENE
 62
     7
100
AcDbVertex
100
AcDb2dVertex
 10
-12.76562906581901
 20
207.2877779972232
 30
0.0
  0
SEQEND
  5
178
330
172
100
AcDbEntity
  8
STANDARDEBENE
  0
POLYLINE
  5
179
330
1F
100
AcDbEntity
  8
STANDARDEBENE
 62
     7
100
AcDb2dPolyline
 66
     1
 10
0.0
 20
0.0
 30
0.0
  0
VERTEX
  5
17A
330
179
100
AcDbEntity
  8
STANDARDEBENE
 62
     7
100
AcDbVertex
100
AcDb2dVertex
 10
-13.86461452561371
 20
170.5926879456331
 30
0.0
  0
VERTEX
  5
17B
330
179
100
AcDbEntity
  8
STANDARDEBENE
 62
     7
100
AcDbVertex
100
AcDb2dVertex
 10
-13.89699842317506
 20
170.4690090177126
 30
0.0
  0
VERTEX
  5
17C
330
179
100
AcDbEntity
  8
STANDARDEBENE
 62
     7
100
AcDbVertex
100
AcDb2dVertex
 10
-13.93007133983346
 20
170.3463636184377
 30
0.0
  0
SEQEND
  5
17D
330
179
100
AcDbEntity
  8
STANDARDEBENE
  0
POLYLINE
  5
17E
330
1F
100
AcDbEntity
  8
STANDARDEBENE
 62
     7
100
AcDb2dPolyline
 66
     1
 10
0.0
 20
0.0
 30
0.0
  0
VERTEX
  5
17F
330
17E
100
AcDbEntity
  8
STANDARDEBENE
 62
     7
100
AcDbVertex
100
AcDb2dVertex
 10
76.82924667133089
 20
170.3945949552312
 30
0.0
  0
VERTEX
  5
180
330
17E
100
AcDbEntity
  8
STANDARDEBENE
 62
     7
100
AcDbVertex
100
AcDb2dVertex
 10
82.5091755978623
 20
170.3945949552312
 30
0.0
  0
SEQEND
  5
181
330
17E
100
AcDbEntity
  8
STANDARDEBENE
  0
POLYLINE
  5
182
330
1F
100
AcDbEntity
  8
STANDARDEBENE
 62
     7
100
AcDb2dPolyline
 66
     1
 10
0.0
 20
0.0
 30
0.0
  0
VERTEX
  5
183
330
182
100
AcDbEntity
  8
STANDARDEBENE
 62
     7
100
AcDbVertex
100
AcDb2dVertex
 10
82.5091755978623
 20
169.9643025291235
 30
0.0
  0
VERTEX
  5
184
330
182
100
AcDbEntity
  8
STANDARDEBENE
 62
     7
100
AcDbVertex
100
AcDb2dVertex
 10
76.82924667133089
 20
169.9643025291235
 30
0.0
  0
SEQEND
  5
185
330
182
100
AcDbEntity
  8
STANDARDEBENE
  0
POLYLINE
  5
186
330
1F
100
AcDbEntity
  8
STANDARDEBENE
 62
     7
100
AcDb2dPolyline
 66
     1
 10
0.0
 20
0.0
 30
0.0
  0
VERTEX
  5
187
330
186
100
AcDbEntity
  8
STANDARDEBENE
 62
     7
100
AcDbVertex
100
AcDb2dVertex
 10
68.41460094860815
 20
180.560727222655
 30
0.0
  0
VERTEX
  5
188
330
186
100
AcDbEntity
  8
STANDARDEBENE
 62
     7
100
AcDbVertex
100
AcDb2dVertex
 10
86.07898353967818
 20
180.560727222655
 30
0.0
  0
SEQEND
  5
189
330
186
100
AcDbEntity
  8
STANDARDEBENE
  0
POLYLINE
  5
18A
330
1F
100
AcDbEntity
  8
STANDARDEBENE
 62
     7
100
AcDb2dPolyline
 66
     1
 10
0.0
 20
0.0
 30
0.0
  0
VERTEX
  5
18B
330
18A
100
AcDbEntity
  8
STANDARDEBENE
 62
     7
100
AcDbVertex
100
AcDb2dVertex
 10
71.4045993202565
 20
197.8771551697147
 30
0.0
  0
VERTEX
  5
18C
330
18A
100
AcDbEntity
  8
STANDARDEBENE
 62
     7
100
AcDbVertex
100
AcDb2dVertex
 10
73.12473549604174
 20
200.334886288892
 30
0.0
  0
SEQEND
  5
18D
330
18A
100
AcDbEntity
  8
STANDARDEBENE
  0
POLYLINE
  5
18E
330
1F
100
AcDbEntity
  8
STANDARDEBENE
 62
     7
100
AcDb2dPolyline
 66
     1
 10
0.0
 20
0.0
 30
0.0
  0
VERTEX
  5
18F
330
18E
100
AcDbEntity
  8
STANDARDEBENE
 62
     7
100
AcDbVertex
100
AcDb2dVertex
 10
68.28713241565391
 20
181.9838961676117
 30
0.0
  0
VERTEX
  5
190
330
18E
100
AcDbEntity
  8
STANDARDEBENE
 62
     7
100
AcDbVertex
100
AcDb2dVertex
 10
68.28713241565391
 20
187.9845634838198
 30
0.0
  0
SEQEND
  5
191
330
18E
100
AcDbEntity
  8
STANDARDEBENE
  0
POLYLINE
  5
192
330
1F
100
AcDbEntity
  8
STANDARDEBENE
 62
     7
100
AcDb2dPolyline
 66
     1
 10
0.0
 20
0.0
 30
0.0
  0
VERTEX
  5
193
330
192
100
AcDbEntity
  8
STANDARDEBENE
 62
     7
100
AcDbVertex
100
AcDb2dVertex
 10
86.07898353967818
 20
180.560727222655
 30
0.0
  0
VERTEX
  5
194
330
192
100
AcDbEntity
  8
STANDARDEBENE
 62
     7
100
AcDbVertex
100
AcDb2dVertex
 10
86.07898353967818
 20
207.2846774112865
 30
0.0
  0
SEQEND
  5
195
330
192
100
AcDbEntity
  8
STANDARDEBENE
  0
POLYLINE
  5
196
330
1F
100
AcDbEntity
  8
STANDARDEBENE
 62
     7
100
AcDb2dPolyline
 66
     1
 10
0.0
 20
0.0
 30
0.0
  0
VERTEX
  5
197
330
196
100
AcDbEntity
  8
STANDARDEBENE
 62
     7
100
AcDbVertex
100
AcDb2dVertex
 10
82.50883108831377
 20
169.7248683928987
 30
0.0
  0
VERTEX
  5
198
330
196
100
AcDbEntity
  8
STANDARDEBENE
 62
     7
100
AcDbVertex
100
AcDb2dVertex
 10
77.25127086827399
 20
169.7248683928987
 30
0.0
  0
SEQEND
  5
199
330
196
100
AcDbEntity
  8
STANDARDEBENE
  0
POLYLINE
  5
19A
330
1F
100
AcDbEntity
  8
STANDARDEBENE
 62
     7
100
AcDb2dPolyline
 66
     1
 10
0.0
 20
0.0
 30
0.0
  0
VERTEX
  5
19B
330
19A
100
AcDbEntity
  8
STANDARDEBENE
 62
     7
100
AcDbVertex
100
AcDb2dVertex
 10
97.60558401422708
 20
185.380760316068
 30
0.0
  0
VERTEX
  5
19C
330
19A
100
AcDbEntity
  8
STANDARDEBENE
 62
     7
100
AcDbVertex
100
AcDb2dVertex
 10
97.77783878848957
 20
185.9757283063707
 30
0.0
  0
SEQEND
  5
19D
330
19A
100
AcDbEntity
  8
STANDARDEBENE
  0
POLYLINE
  5
19E
330
1F
100
AcDbEntity
  8
STANDARDEBENE
 62
     7
100
AcDb2dPolyline
 66
     1
 10
0.0
 20
0.0
 30
0.0
  0
VERTEX
  5
19F
330
19E
100
AcDbEntity
  8
STANDARDEBENE
 62
     7
100
AcDbVertex
100
AcDb2dVertex
 10
94.55770803842655
 20
186.7205579502817
 30
0.0
  0
VERTEX
  5
1A0
330
19E
100
AcDbEntity
  8
STANDARDEBENE
 62
     7
100
AcDbVertex
100
AcDb2dVertex
 10
94.43540714870018
 20
186.2971557151445
 30
0.0
  0
SEQEND
  5
1A1
330
19E
100
AcDbEntity
  8
STANDARDEBENE
  0
POLYLINE
  5
1A2
330
1F
100
AcDbEntity
  8
STANDARDEBENE
 62
     7
100
AcDb2dPolyline
 66
     1
 10
0.0
 20
0.0
 30
0.0
  0
VERTEX
  5
1A3
330
1A2
100
AcDbEntity
  8
STANDARDEBENE
 62
     7
100
AcDbVertex
100
AcDb2dVertex
 10
94.76820337257531
 20
185.0341837102519
 30
0.0
  0
VERTEX
  5
1A4
330
1A2
100
AcDbEntity
  8
STANDARDEBENE
 62
     7
100
AcDbVertex
100
AcDb2dVertex
 10
96.1786254642366
 20
184.4247463189112
 30
0.0
  0
SEQEND
  5
1A5
330
1A2
100
AcDbEntity
  8
STANDARDEBENE
  0
POLYLINE
  5
1A6
330
1F
100
AcDbEntity
  8
STANDARDEBENE
 62
     7
100
AcDb2dPolyline
 66
     1
 10
0.0
 20
0.0
 30
0.0
  0
VERTEX
  5
1A7
330
1A6
100
AcDbEntity
  8
STANDARDEBENE
 62
     7
100
AcDbVertex
100
AcDb2dVertex
 10
86.07898353967818
 20
178.6852172404849
 30
0.0
  0
VERTEX
  5
1A8
330
1A6
100
AcDbEntity
  8
STANDARDEBENE
 62
     7
100
AcDbVertex
100
AcDb2dVertex
 10
86.07898353967818
 20
179.6222832124729
 30
0.0
  0
VERTEX
  5
1A9
330
1A6
100
AcDbEntity
  8
STANDARDEBENE
 62
     7
100
AcDbVertex
100
AcDb2dVertex
 10
86.07898353967818
 20
180.560727222655
 30
0.0
  0
SEQEND
  5
1AA
330
1A6
100
AcDbEntity
  8
STANDARDEBENE
  0
POLYLINE
  5
1AB
330
1F
100
AcDbEntity
  8
STANDARDEBENE
 62
     7
100
AcDb2dPolyline
 66
     1
 10
0.0
 20
0.0
 30
0.0
  0
VERTEX
  5
1AC
330
1AB
100
AcDbEntity
  8
STANDARDEBENE
 62
     7
100
AcDbVertex
100
AcDb2dVertex
 10
82.5091755978623
 20
175.4013522239448
 30
0.0
  0
VERTEX
  5
1AD
330
1AB
100
AcDbEntity
  8
STANDARDEBENE
 62
     7
100
AcDbVertex
100
AcDb2dVertex
 10
82.5091755978623
 20
176.5988674146176
 30
0.0
  0
VERTEX
  5
1AE
330
1AB
100
AcDbEntity
  8
STANDARDEBENE
 62
     7
100
AcDbVertex
100
AcDb2dVertex
 10
82.5091755978623
 20
177.8825099924217
 30
0.0
  0
SEQEND
  5
1AF
330
1AB
100
AcDbEntity
  8
STANDARDEBENE
  0
POLYLINE
  5
1B0
330
1F
100
AcDbEntity
  8
STANDARDEBENE
 62
     7
100
AcDb2dPolyline
 66
     1
 10
0.0
 20
0.0
 30
0.0
  0
VERTEX
  5
1B1
330
1B0
100
AcDbEntity
  8
STANDARDEBENE
 62
     7
100
AcDbVertex
100
AcDb2dVertex
 10
94.76820337257531
 20
185.0341837102519
 30
0.0
  0
VERTEX
  5
1B2
330
1B0
100
AcDbEntity
  8
STANDARDEBENE
 62
     7
100
AcDbVertex
100
AcDb2dVertex
 10
94.48329397594516
 20
185.4879027856593
 30
0.0
  0
VERTEX
  5
1B3
330
1B0
100
AcDbEntity
  8
STANDARDEBENE
 62
     7
100
AcDbVertex
100
AcDb2dVertex
 10
94.38958737874636
 20
185.9846855546323
 30
0.0
  0
VERTEX
  5
1B4
330
1B0
100
AcDbEntity
  8
STANDARDEBENE
 62
     7
100
AcDbVertex
100
AcDb2dVertex
 10
94.49741886743467
 20
186.4632093175335
 30
0.0
  0
VERTEX
  5
1B5
330
1B0
100
AcDbEntity
  8
STANDARDEBENE
 62
     7
100
AcDbVertex
100
AcDb2dVertex
 10
94.79507511736027
 20
186.8652519606622
 30
0.0
  0
VERTEX
  5
1B6
330
1B0
100
AcDbEntity
  8
STANDARDEBENE
 62
     7
100
AcDbVertex
100
AcDb2dVertex
 10
95.24397105908832
 20
187.1391370517395
 30
0.0
  0
VERTEX
  5
1B7
330
1B0
100
AcDbEntity
  8
STANDARDEBENE
 62
     7
100
AcDbVertex
100
AcDb2dVertex
 10
95.78967418395189
 20
187.2517916741072
 30
0.0
  0
VERTEX
  5
1B8
330
1B0
100
AcDbEntity
  8
STANDARDEBENE
 62
     7
100
AcDbVertex
100
AcDb2dVertex
 10
96.36397160134304
 20
187.1890909362756
 30
0.0
  0
VERTEX
  5
1B9
330
1B0
100
AcDbEntity
  8
STANDARDEBENE
 62
     7
100
AcDbVertex
100
AcDb2dVertex
 10
96.89589434426561
 20
186.9593030674095
 30
0.0
  0
VERTEX
  5
1BA
330
1B0
100
AcDbEntity
  8
STANDARDEBENE
 62
     7
100
AcDbVertex
100
AcDb2dVertex
 10
97.31860756030576
 20
186.5903333409392
 30
0.0
  0
VERTEX
  5
1BB
330
1B0
100
AcDbEntity
  8
STANDARDEBENE
 62
     7
100
AcDbVertex
100
AcDb2dVertex
 10
97.5811238362818
 20
186.1286905459158
 30
0.0
  0
VERTEX
  5
1BC
330
1B0
100
AcDbEntity
  8
STANDARDEBENE
 62
     7
100
AcDbVertex
100
AcDb2dVertex
 10
97.64933672688976
 20
185.6301852292001
 30
0.0
  0
VERTEX
  5
1BD
330
1B0
100
AcDbEntity
  8
STANDARDEBENE
 62
     7
100
AcDbVertex
100
AcDb2dVertex
 10
97.51566702206206
 20
185.1582071477209
 30
0.0
  0
VERTEX
  5
1BE
330
1B0
100
AcDbEntity
  8
STANDARDEBENE
 62
     7
100
AcDbVertex
100
AcDb2dVertex
 10
97.19699568967646
 20
184.7706339056303
 30
0.0
  0
VERTEX
  5
1BF
330
1B0
100
AcDbEntity
  8
STANDARDEBENE
 62
     7
100
AcDbVertex
100
AcDb2dVertex
 10
96.73190779916773
 20
184.5156968397218
 30
0.0
  0
VERTEX
  5
1C0
330
1B0
100
AcDbEntity
  8
STANDARDEBENE
 62
     7
100
AcDbVertex
100
AcDb2dVertex
 10
96.1786254642366
 20
184.4247463189112
 30
0.0
  0
SEQEND
  5
1C1
330
1B0
100
AcDbEntity
  8
STANDARDEBENE
  0
POLYLINE
  5
1C2
330
1F
100
AcDbEntity
  8
STANDARDEBENE
 62
     7
100
AcDb2dPolyline
 66
     1
 10
0.0
 20
0.0
 30
0.0
  0
VERTEX
  5
1C3
330
1C2
100
AcDbEntity
  8
STANDARDEBENE
 62
     7
100
AcDbVertex
100
AcDb2dVertex
 10
75.3802395102348
 20
170.8993014438203
 30
0.0
  0
VERTEX
  5
1C4
330
1C2
100
AcDbEntity
  8
STANDARDEBENE
 62
     7
100
AcDbVertex
100
AcDb2dVertex
 10
76.82924667133089
 20
170.3945949552312
 30
0.0
  0
SEQEND
  5
1C5
330
1C2
100
AcDbEntity
  8
STANDARDEBENE
  0
POLYLINE
  5
1C6
330
1F
100
AcDbEntity
  8
STANDARDEBENE
 62
     7
100
AcDb2dPolyline
 66
     1
 10
0.0
 20
0.0
 30
0.0
  0
VERTEX
  5
1C7
330
1C6
100
AcDbEntity
  8
STANDARDEBENE
 62
     7
100
AcDbVertex
100
AcDb2dVertex
 10
75.3802395102348
 20
170.8993014438203
 30
0.0
  0
VERTEX
  5
1C8
330
1C6
100
AcDbEntity
  8
STANDARDEBENE
 62
     7
100
AcDbVertex
100
AcDb2dVertex
 10
73.71488035266503
 20
172.2291083011268
 30
0.0
  0
VERTEX
  5
1C9
330
1C6
100
AcDbEntity
  8
STANDARDEBENE
 62
     7
100
AcDbVertex
100
AcDb2dVertex
 10
72.20730656831971
 20
173.7356485568265
 30
0.0
  0
VERTEX
  5
1CA
330
1C6
100
AcDbEntity
  8
STANDARDEBENE
 62
     7
100
AcDbVertex
100
AcDb2dVertex
 10
70.87749971101327
 20
175.4013522239448
 30
0.0
  0
SEQEND
  5
1CB
330
1C6
100
AcDbEntity
  8
STANDARDEBENE
  0
POLYLINE
  5
1CC
330
1F
100
AcDbEntity
  8
STANDARDEBENE
 62
     7
100
AcDb2dPolyline
 66
     1
 10
0.0
 20
0.0
 30
0.0
  0
VERTEX
  5
1CD
330
1CC
100
AcDbEntity
  8
STANDARDEBENE
 62
     7
100
AcDbVertex
100
AcDb2dVertex
 10
76.37759465321463
 20
170.2361205629097
 30
0.0
  0
VERTEX
  5
1CE
330
1CC
100
AcDbEntity
  8
STANDARDEBENE
 62
     7
100
AcDbVertex
100
AcDb2dVertex
 10
76.82924667133089
 20
169.9643025291235
 30
0.0
  0
SEQEND
  5
1CF
330
1CC
100
AcDbEntity
  8
STANDARDEBENE
  0
POLYLINE
  5
1D0
330
1F
100
AcDbEntity
  8
STANDARDEBENE
 62
     7
100
AcDb2dPolyline
 66
     1
 10
0.0
 20
0.0
 30
0.0
  0
VERTEX
  5
1D1
330
1D0
100
AcDbEntity
  8
STANDARDEBENE
 62
     7
100
AcDbVertex
100
AcDb2dVertex
 10
76.37759465321463
 20
170.2361205629097
 30
0.0
  0
VERTEX
  5
1D2
330
1D0
100
AcDbEntity
  8
STANDARDEBENE
 62
     7
100
AcDbVertex
100
AcDb2dVertex
 10
76.82924667133089
 20
170.3945949552312
 30
0.0
  0
SEQEND
  5
1D3
330
1D0
100
AcDbEntity
  8
STANDARDEBENE
  0
POLYLINE
  5
1D4
330
1F
100
AcDbEntity
  8
STANDARDEBENE
 62
     7
100
AcDb2dPolyline
 66
     1
 10
0.0
 20
0.0
 30
0.0
  0
VERTEX
  5
1D5
330
1D4
100
AcDbEntity
  8
STANDARDEBENE
 62
     7
100
AcDbVertex
100
AcDb2dVertex
 10
83.5075642694877
 20
178.2280530695923
 30
0.0
  0
VERTEX
  5
1D6
330
1D4
100
AcDbEntity
  8
STANDARDEBENE
 62
     7
100
AcDbVertex
100
AcDb2dVertex
 10
82.5091755978623
 20
177.8825099924217
 30
0.0
  0
SEQEND
  5
1D7
330
1D4
100
AcDbEntity
  8
STANDARDEBENE
  0
POLYLINE
  5
1D8
330
1F
100
AcDbEntity
  8
STANDARDEBENE
 62
     7
100
AcDb2dPolyline
 66
     1
 10
0.0
 20
0.0
 30
0.0
  0
VERTEX
  5
1D9
330
1D8
100
AcDbEntity
  8
STANDARDEBENE
 62
     7
100
AcDbVertex
100
AcDb2dVertex
 10
71.4045993202565
 20
197.8771551697147
 30
0.0
  0
VERTEX
  5
1DA
330
1D8
100
AcDbEntity
  8
STANDARDEBENE
 62
     7
100
AcDbVertex
100
AcDb2dVertex
 10
70.47270099149641
 20
196.3899074487324
 30
0.0
  0
VERTEX
  5
1DB
330
1D8
100
AcDbEntity
  8
STANDARDEBENE
 62
     7
100
AcDbVertex
100
AcDb2dVertex
 10
69.69652097866962
 20
194.8158433215218
 30
0.0
  0
VERTEX
  5
1DC
330
1D8
100
AcDbEntity
  8
STANDARDEBENE
 62
     7
100
AcDbVertex
100
AcDb2dVertex
 10
69.08467202048925
 20
193.1711547368635
 30
0.0
  0
VERTEX
  5
1DD
330
1D8
100
AcDbEntity
  8
STANDARDEBENE
 62
     7
100
AcDbVertex
100
AcDb2dVertex
 10
68.64232176018318
 20
191.4716891339897
 30
0.0
  0
VERTEX
  5
1DE
330
1D8
100
AcDbEntity
  8
STANDARDEBENE
 62
     7
100
AcDbVertex
100
AcDb2dVertex
 10
68.37601587917337
 20
189.7370835571664
 30
0.0
  0
VERTEX
  5
1DF
330
1D8
100
AcDbEntity
  8
STANDARDEBENE
 62
     7
100
AcDbVertex
100
AcDb2dVertex
 10
68.28713241565391
 20
187.9845634838198
 30
0.0
  0
SEQEND
  5
1E0
330
1D8
100
AcDbEntity
  8
STANDARDEBENE
  0
POLYLINE
  5
1E1
330
1F
100
AcDbEntity
  8
STANDARDEBENE
 62
     7
100
AcDb2dPolyline
 66
     1
 10
0.0
 20
0.0
 30
0.0
  0
VERTEX
  5
1E2
330
1E1
100
AcDbEntity
  8
STANDARDEBENE
 62
     7
100
AcDbVertex
100
AcDb2dVertex
 10
86.07898353967818
 20
207.2846774112865
 30
0.0
  0
VERTEX
  5
1E3
330
1E1
100
AcDbEntity
  8
STANDARDEBENE
 62
     7
100
AcDbVertex
100
AcDb2dVertex
 10
84.3901977328087
 20
207.1551418210411
 30
0.0
  0
VERTEX
  5
1E4
330
1E1
100
AcDbEntity
  8
STANDARDEBENE
 62
     7
100
AcDbVertex
100
AcDb2dVertex
 10
82.72449406569041
 20
206.851284399242
 30
0.0
  0
VERTEX
  5
1E5
330
1E1
100
AcDbEntity
  8
STANDARDEBENE
 62
     7
100
AcDbVertex
100
AcDb2dVertex
 10
81.09806448710395
 20
206.3758612222776
 30
0.0
  0
VERTEX
  5
1E6
330
1E1
100
AcDbEntity
  8
STANDARDEBENE
 62
     7
100
AcDbVertex
100
AcDb2dVertex
 10
79.5308905508638
 20
205.733695423827
 30
0.0
  0
VERTEX
  5
1E7
330
1E1
100
AcDbEntity
  8
STANDARDEBENE
 62
     7
100
AcDbVertex
100
AcDb2dVertex
 10
78.03813067710506
 20
204.9330552330549
 30
0.0
  0
VERTEX
  5
1E8
330
1E1
100
AcDbEntity
  8
STANDARDEBENE
 62
     7
100
AcDbVertex
100
AcDb2dVertex
 10
76.63701034325395
 20
203.9818643695775
 30
0.0
  0
VERTEX
  5
1E9
330
1E1
100
AcDbEntity
  8
STANDARDEBENE
 62
     7
100
AcDbVertex
100
AcDb2dVertex
 10
75.34165444080001
 20
202.8904581198503
 30
0.0
  0
VERTEX
  5
1EA
330
1E1
100
AcDbEntity
  8
STANDARDEBENE
 62
     7
100
AcDbVertex
100
AcDb2dVertex
 10
74.16653237078128
 20
201.6705498085233
 30
0.0
  0
VERTEX
  5
1EB
330
1E1
100
AcDbEntity
  8
STANDARDEBENE
 62
     7
100
AcDbVertex
100
AcDb2dVertex
 10
73.12473549604174
 20
200.334886288892
 30
0.0
  0
SEQEND
  5
1EC
330
1E1
100
AcDbEntity
  8
STANDARDEBENE
  0
POLYLINE
  5
1ED
330
1F
100
AcDbEntity
  8
STANDARDEBENE
 62
     7
100
AcDb2dPolyline
 66
     1
 10
0.0
 20
0.0
 30
0.0
  0
VERTEX
  5
1EE
330
1ED
100
AcDbEntity
  8
STANDARDEBENE
 62
     7
100
AcDbVertex
100
AcDb2dVertex
 10
68.28713241565391
 20
181.9838961676117
 30
0.0
  0
VERTEX
  5
1EF
330
1ED
100
AcDbEntity
  8
STANDARDEBENE
 62
     7
100
AcDbVertex
100
AcDb2dVertex
 10
68.41460094860815
 20
180.560727222655
 30
0.0
  0
SEQEND
  5
1F0
330
1ED
100
AcDbEntity
  8
STANDARDEBENE
  0
POLYLINE
  5
1F1
330
1F
100
AcDbEntity
  8
STANDARDEBENE
 62
     7
100
AcDb2dPolyline
 66
     1
 10
0.0
 20
0.0
 30
0.0
  0
VERTEX
  5
1F2
330
1F1
100
AcDbEntity
  8
STANDARDEBENE
 62
     7
100
AcDbVertex
100
AcDb2dVertex
 10
97.77783878848957
 20
185.9764173254677
 30
0.0
  0
VERTEX
  5
1F3
330
1F1
100
AcDbEntity
  8
STANDARDEBENE
 62
     7
100
AcDbVertex
100
AcDb2dVertex
 10
97.86947832839722
 20
186.5834431499687
 30
0.0
  0
VERTEX
  5
1F4
330
1F1
100
AcDbEntity
  8
STANDARDEBENE
 62
     7
100
AcDbVertex
100
AcDb2dVertex
 10
97.79403073727025
 20
187.1684203633642
 30
0.0
  0
VERTEX
  5
1F5
330
1F1
100
AcDbEntity
  8
STANDARDEBENE
 62
     7
100
AcDbVertex
100
AcDb2dVertex
 10
97.55976424427325
 20
187.6720933233077
 30
0.0
  0
VERTEX
  5
1F6
330
1F1
100
AcDbEntity
  8
STANDARDEBENE
 62
     7
100
AcDbVertex
100
AcDb2dVertex
 10
97.18976098915742
 20
188.0472642216514
 30
0.0
  0
VERTEX
  5
1F7
330
1F1
100
AcDbEntity
  8
STANDARDEBENE
 62
     7
100
AcDbVertex
100
AcDb2dVertex
 10
96.71881643632378
 20
188.255692498509
 30
0.0
  0
VERTEX
  5
1F8
330
1F1
100
AcDbEntity
  8
STANDARDEBENE
 62
     7
100
AcDbVertex
100
AcDb2dVertex
 10
96.19447290346875
 20
188.2770520905175
 30
0.0
  0
VERTEX
  5
1F9
330
1F1
100
AcDbEntity
  8
STANDARDEBENE
 62
     7
100
AcDbVertex
100
AcDb2dVertex
 10
95.667028784677
 20
188.1099649594829
 30
0.0
  0
VERTEX
  5
1FA
330
1F1
100
AcDbEntity
  8
STANDARDEBENE
 62
     7
100
AcDbVertex
100
AcDb2dVertex
 10
95.18884953132432
 20
187.7702785446373
 30
0.0
  0
VERTEX
  5
1FB
330
1F1
100
AcDbEntity
  8
STANDARDEBENE
 62
     7
100
AcDbVertex
100
AcDb2dVertex
 10
94.80713295155864
 20
187.2917547817361
 30
0.0
  0
VERTEX
  5
1FC
330
1F1
100
AcDbEntity
  8
STANDARDEBENE
 62
     7
100
AcDbVertex
100
AcDb2dVertex
 10
94.55770803842655
 20
186.7205579502817
 30
0.0
  0
SEQEND
  5
1FD
330
1F1
100
AcDbEntity
  8
STANDARDEBENE
  0
POLYLINE
  5
1FE
330
1F
100
AcDbEntity
  8
STANDARDEBENE
 62
     7
100
AcDb2dPolyline
 66
     1
 10
0.0
 20
0.0
 30
0.0
  0
VERTEX
  5
1FF
330
1FE
100
AcDbEntity
  8
STANDARDEBENE
 62
     7
100
AcDbVertex
100
AcDb2dVertex
 10
89.730784754043
 20
206.6556029756799
 30
0.0
  0
VERTEX
  5
200
330
1FE
100
AcDbEntity
  8
STANDARDEBENE
 62
     7
100
AcDbVertex
100
AcDb2dVertex
 10
91.48950599926305
 20
206.1846584228462
 30
0.0
  0
VERTEX
  5
201
330
1FE
100
AcDbEntity
  8
STANDARDEBENE
 62
     7
100
AcDbVertex
100
AcDb2dVertex
 10
93.18345944936038
 20
205.5176879369018
 30
0.0
  0
VERTEX
  5
202
330
1FE
100
AcDbEntity
  8
STANDARDEBENE
 62
     7
100
AcDbVertex
100
AcDb2dVertex
 10
94.78990747413239
 20
204.6612371992687
 30
0.0
  0
VERTEX
  5
203
330
1FE
100
AcDbEntity
  8
STANDARDEBENE
 62
     7
100
AcDbVertex
100
AcDb2dVertex
 10
96.28955753886164
 20
203.6290865918879
 30
0.0
  0
VERTEX
  5
204
330
1FE
100
AcDbEntity
  8
STANDARDEBENE
 62
     7
100
AcDbVertex
100
AcDb2dVertex
 10
97.66208358018518
 20
202.4332939489577
 30
0.0
  0
VERTEX
  5
205
330
1FE
100
AcDbEntity
  8
STANDARDEBENE
 62
     7
100
AcDbVertex
100
AcDb2dVertex
 10
98.88957110157969
 20
201.0883286715161
 30
0.0
  0
VERTEX
  5
206
330
1FE
100
AcDbEntity
  8
STANDARDEBENE
 62
     7
100
AcDbVertex
100
AcDb2dVertex
 10
99.95651717336158
 20
199.6134832942807
 30
0.0
  0
VERTEX
  5
207
330
1FE
100
AcDbEntity
  8
STANDARDEBENE
 62
     7
100
AcDbVertex
100
AcDb2dVertex
 10
100.8482801397185
 20
198.0259832946775
 30
0.0
  0
VERTEX
  5
208
330
1FE
100
AcDbEntity
  8
STANDARDEBENE
 62
     7
100
AcDbVertex
100
AcDb2dVertex
 10
101.5552137332918
 20
196.3485663029094
 30
0.0
  0
VERTEX
  5
209
330
1FE
100
AcDbEntity
  8
STANDARDEBENE
 62
     7
100
AcDbVertex
100
AcDb2dVertex
 10
102.0657768842058
 20
194.6012138727907
 30
0.0
  0
VERTEX
  5
20A
330
1FE
100
AcDbEntity
  8
STANDARDEBENE
 62
     7
100
AcDbVertex
100
AcDb2dVertex
 10
102.3758354778783
 20
192.8076971631696
 30
0.0
  0
VERTEX
  5
20B
330
1FE
100
AcDbEntity
  8
STANDARDEBENE
 62
     7
100
AcDbVertex
100
AcDb2dVertex
 10
102.4791883424358
 20
190.9893757660547
 30
0.0
  0
VERTEX
  5
20C
330
1FE
100
AcDbEntity
  8
STANDARDEBENE
 62
     7
100
AcDbVertex
100
AcDb2dVertex
 10
102.3758354778783
 20
189.1717433880369
 30
0.0
  0
VERTEX
  5
20D
330
1FE
100
AcDbEntity
  8
STANDARDEBENE
 62
     7
100
AcDbVertex
100
AcDb2dVertex
 10
102.0657768842058
 20
187.3775376593188
 30
0.0
  0
VERTEX
  5
20E
330
1FE
100
AcDbEntity
  8
STANDARDEBENE
 62
     7
100
AcDbVertex
100
AcDb2dVertex
 10
101.5552137332918
 20
185.6301852292001
 30
0.0
  0
VERTEX
  5
20F
330
1FE
100
AcDbEntity
  8
STANDARDEBENE
 62
     7
100
AcDbVertex
100
AcDb2dVertex
 10
100.8482801397185
 20
183.9524237278834
 30
0.0
  0
VERTEX
  5
210
330
1FE
100
AcDbEntity
  8
STANDARDEBENE
 62
     7
100
AcDbVertex
100
AcDb2dVertex
 10
99.95651717336158
 20
182.3652682378288
 30
0.0
  0
VERTEX
  5
211
330
1FE
100
AcDbEntity
  8
STANDARDEBENE
 62
     7
100
AcDbVertex
100
AcDb2dVertex
 10
98.88957110157969
 20
180.8900783510448
 30
0.0
  0
VERTEX
  5
212
330
1FE
100
AcDbEntity
  8
STANDARDEBENE
 62
     7
100
AcDbVertex
100
AcDb2dVertex
 10
97.66208358018518
 20
179.5461466022489
 30
0.0
  0
VERTEX
  5
213
330
1FE
100
AcDbEntity
  8
STANDARDEBENE
 62
     7
100
AcDbVertex
100
AcDb2dVertex
 10
96.28955753886164
 20
178.3496649402216
 30
0.0
  0
VERTEX
  5
214
330
1FE
100
AcDbEntity
  8
STANDARDEBENE
 62
     7
100
AcDbVertex
100
AcDb2dVertex
 10
94.78990747413239
 20
177.3175143328408
 30
0.0
  0
VERTEX
  5
215
330
1FE
100
AcDbEntity
  8
STANDARDEBENE
 62
     7
100
AcDbVertex
100
AcDb2dVertex
 10
93.18345944936038
 20
176.4617526143047
 30
0.0
  0
VERTEX
  5
216
330
1FE
100
AcDbEntity
  8
STANDARDEBENE
 62
     7
100
AcDbVertex
100
AcDb2dVertex
 10
91.48950599926305
 20
175.7947821283603
 30
0.0
  0
VERTEX
  5
217
330
1FE
100
AcDbEntity
  8
STANDARDEBENE
 62
     7
100
AcDbVertex
100
AcDb2dVertex
 10
89.730784754043
 20
175.3234930659782
 30
0.0
  0
SEQEND
  5
218
330
1FE
100
AcDbEntity
  8
STANDARDEBENE
  0
POLYLINE
  5
219
330
1F
100
AcDbEntity
  8
STANDARDEBENE
 62
     7
100
AcDb2dPolyline
 66
     1
 10
0.0
 20
0.0
 30
0.0
  0
VERTEX
  5
21A
330
219
100
AcDbEntity
  8
STANDARDEBENE
 62
     7
100
AcDbVertex
100
AcDb2dVertex
 10
75.3802395102348
 20
170.8993014438203
 30
0.0
  0
VERTEX
  5
21B
330
219
100
AcDbEntity
  8
STANDARDEBENE
 62
     7
100
AcDbVertex
100
AcDb2dVertex
 10
75.87254365507701
 20
170.5606485576203
 30
0.0
  0
VERTEX
  5
21C
330
219
100
AcDbEntity
  8
STANDARDEBENE
 62
     7
100
AcDbVertex
100
AcDb2dVertex
 10
76.37759465321463
 20
170.2361205629097
 30
0.0
  0
SEQEND
  5
21D
330
219
100
AcDbEntity
  8
STANDARDEBENE
  0
POLYLINE
  5
21E
330
1F
100
AcDbEntity
  8
STANDARDEBENE
 62
     7
100
AcDb2dPolyline
 66
     1
 10
0.0
 20
0.0
 30
0.0
  0
VERTEX
  5
21F
330
21E
100
AcDbEntity
  8
STANDARDEBENE
 62
     7
100
AcDbVertex
100
AcDb2dVertex
 10
86.07898353967818
 20
178.6852172404849
 30
0.0
  0
VERTEX
  5
220
330
21E
100
AcDbEntity
  8
STANDARDEBENE
 62
     7
100
AcDbVertex
100
AcDb2dVertex
 10
85.43233911709677
 20
178.5915106432862
 30
0.0
  0
VERTEX
  5
221
330
21E
100
AcDbEntity
  8
STANDARDEBENE
 62
     7
100
AcDbVertex
100
AcDb2dVertex
 10
84.78672822316096
 20
178.4912583646654
 30
0.0
  0
VERTEX
  5
222
330
21E
100
AcDbEntity
  8
STANDARDEBENE
 62
     7
100
AcDbVertex
100
AcDb2dVertex
 10
84.46426728574157
 20
178.437170365547
 30
0.0
  0
VERTEX
  5
223
330
21E
100
AcDbEntity
  8
STANDARDEBENE
 62
     7
100
AcDbVertex
100
AcDb2dVertex
 10
84.14283987696777
 20
178.3789482518463
 30
0.0
  0
VERTEX
  5
224
330
21E
100
AcDbEntity
  8
STANDARDEBENE
 62
     7
100
AcDbVertex
100
AcDb2dVertex
 10
83.98298744645217
 20
178.3472533733819
 30
0.0
  0
VERTEX
  5
225
330
21E
100
AcDbEntity
  8
STANDARDEBENE
 62
     7
100
AcDbVertex
100
AcDb2dVertex
 10
83.82347952548511
 20
178.3121133994324
 30
0.0
  0
VERTEX
  5
226
330
21E
100
AcDbEntity
  8
STANDARDEBENE
 62
     7
100
AcDbVertex
100
AcDb2dVertex
 10
83.66431611406657
 20
178.2738728395461
 30
0.0
  0
VERTEX
  5
227
330
21E
100
AcDbEntity
  8
STANDARDEBENE
 62
     7
100
AcDbVertex
100
AcDb2dVertex
 10
83.5075642694877
 20
178.2280530695923
 30
0.0
  0
SEQEND
  5
228
330
21E
100
AcDbEntity
  8
STANDARDEBENE
  0
POLYLINE
  5
229
330
1F
100
AcDbEntity
  8
STANDARDEBENE
 62
     7
100
AcDb2dPolyline
 66
     1
 10
0.0
 20
0.0
 30
0.0
  0
VERTEX
  5
22A
330
229
100
AcDbEntity
  8
STANDARDEBENE
 62
     7
100
AcDbVertex
100
AcDb2dVertex
 10
68.41460094860815
 20
180.560727222655
 30
0.0
  0
VERTEX
  5
22B
330
229
100
AcDbEntity
  8
STANDARDEBENE
 62
     7
100
AcDbVertex
100
AcDb2dVertex
 10
68.51381969858335
 20
180.092883255758
 30
0.0
  0
VERTEX
  5
22C
330
229
100
AcDbEntity
  8
STANDARDEBENE
 62
     7
100
AcDbVertex
100
AcDb2dVertex
 10
68.64025470289202
 20
179.6343410466713
 30
0.0
  0
VERTEX
  5
22D
330
229
100
AcDbEntity
  8
STANDARDEBENE
 62
     7
100
AcDbVertex
100
AcDb2dVertex
 10
68.79287243288859
 20
179.1833780476521
 30
0.0
  0
VERTEX
  5
22E
330
229
100
AcDbEntity
  8
STANDARDEBENE
 62
     7
100
AcDbVertex
100
AcDb2dVertex
 10
68.97408445541274
 20
178.740338768249
 30
0.0
  0
VERTEX
  5
22F
330
229
100
AcDbEntity
  8
STANDARDEBENE
 62
     7
100
AcDbVertex
100
AcDb2dVertex
 10
69.18423528001297
 20
178.2831745973563
 30
0.0
  0
VERTEX
  5
230
330
229
100
AcDbEntity
  8
STANDARDEBENE
 62
     7
100
AcDbVertex
100
AcDb2dVertex
 10
69.40334335287486
 20
177.837379241565
 30
0.0
  0
VERTEX
  5
231
330
229
100
AcDbEntity
  8
STANDARDEBENE
 62
     7
100
AcDbVertex
100
AcDb2dVertex
 10
69.63037514535283
 20
177.403641719972
 30
0.0
  0
VERTEX
  5
232
330
229
100
AcDbEntity
  8
STANDARDEBENE
 62
     7
100
AcDbVertex
100
AcDb2dVertex
 10
69.86533065744686
 20
176.9809285039319
 30
0.0
  0
VERTEX
  5
233
330
229
100
AcDbEntity
  8
STANDARDEBENE
 62
     7
100
AcDbVertex
100
AcDb2dVertex
 10
70.10889890825403
 20
176.569584102993
 30
0.0
  0
VERTEX
  5
234
330
229
100
AcDbEntity
  8
STANDARDEBENE
 62
     7
100
AcDbVertex
100
AcDb2dVertex
 10
70.35866833093465
 20
176.1678859694129
 30
0.0
  0
VERTEX
  5
235
330
229
100
AcDbEntity
  8
STANDARDEBENE
 62
     7
100
AcDbVertex
100
AcDb2dVertex
 10
70.42240259741176
 20
176.0697007480833
 30
0.0
  0
VERTEX
  5
236
330
229
100
AcDbEntity
  8
STANDARDEBENE
 62
     7
100
AcDbVertex
100
AcDb2dVertex
 10
70.48648137343741
 20
175.9711710172051
 30
0.0
  0
VERTEX
  5
237
330
229
100
AcDbEntity
  8
STANDARDEBENE
 62
     7
100
AcDbVertex
100
AcDb2dVertex
 10
70.55090465901158
 20
175.8740193245211
 30
0.0
  0
VERTEX
  5
238
330
229
100
AcDbEntity
  8
STANDARDEBENE
 62
     7
100
AcDbVertex
100
AcDb2dVertex
 10
70.61567245413428
 20
175.7775566509341
 30
0.0
  0
VERTEX
  5
239
330
229
100
AcDbEntity
  8
STANDARDEBENE
 62
     7
100
AcDbVertex
100
AcDb2dVertex
 10
70.74624157302524
 20
175.5880763992454
 30
0.0
  0
VERTEX
  5
23A
330
229
100
AcDbEntity
  8
STANDARDEBENE
 62
     7
100
AcDbVertex
100
AcDb2dVertex
 10
70.87749971101327
 20
175.4013522239448
 30
0.0
  0
SEQEND
  5
23B
330
229
100
AcDbEntity
  8
STANDARDEBENE
  0
POLYLINE
  5
23C
330
1F
100
AcDbEntity
  8
STANDARDEBENE
 62
     7
100
AcDb2dPolyline
 66
     1
 10
0.0
 20
0.0
 30
0.0
  0
VERTEX
  5
23D
330
23C
100
AcDbEntity
  8
STANDARDEBENE
 62
     7
100
AcDbVertex
100
AcDb2dVertex
 10
76.82717961403974
 20
169.9649915482206
 30
0.0
  0
VERTEX
  5
23E
330
23C
100
AcDbEntity
  8
STANDARDEBENE
 62
     7
100
AcDbVertex
100
AcDb2dVertex
 10
76.90056014787555
 20
169.9229613833005
 30
0.0
  0
VERTEX
  5
23F
330
23C
100
AcDbEntity
  8
STANDARDEBENE
 62
     7
100
AcDbVertex
100
AcDb2dVertex
 10
76.92743189266051
 20
169.9071139440684
 30
0.0
  0
VERTEX
  5
240
330
23C
100
AcDbEntity
  8
STANDARDEBENE
 62
     7
100
AcDbVertex
100
AcDb2dVertex
 10
76.95430363744545
 20
169.8923000334818
 30
0.0
  0
VERTEX
  5
241
330
23C
100
AcDbEntity
  8
STANDARDEBENE
 62
     7
100
AcDbVertex
100
AcDb2dVertex
 10
76.98186440132746
 20
169.8761080847011
 30
0.0
  0
VERTEX
  5
242
330
23C
100
AcDbEntity
  8
STANDARDEBENE
 62
     7
100
AcDbVertex
100
AcDb2dVertex
 10
77.00976967475798
 20
169.860260645469
 30
0.0
  0
VERTEX
  5
243
330
23C
100
AcDbEntity
  8
STANDARDEBENE
 62
     7
100
AcDbVertex
100
AcDb2dVertex
 10
77.12690292125647
 20
169.7937703026037
 30
0.0
  0
VERTEX
  5
244
330
23C
100
AcDbEntity
  8
STANDARDEBENE
 62
     7
100
AcDbVertex
100
AcDb2dVertex
 10
77.25127086827399
 20
169.7248683928987
 30
0.0
  0
SEQEND
  5
245
330
23C
100
AcDbEntity
  8
STANDARDEBENE
  0
POLYLINE
  5
246
330
1F
100
AcDbEntity
  8
STANDARDEBENE
 62
     7
100
AcDb2dPolyline
 66
     1
 10
0.0
 20
0.0
 30
0.0
  0
VERTEX
  5
247
330
246
100
AcDbEntity
  8
STANDARDEBENE
 62
     7
100
AcDbVertex
100
AcDb2dVertex
 10
86.25709497626559
 20
206.988399199555
 30
0.0
  0
VERTEX
  5
248
330
246
100
AcDbEntity
  8
STANDARDEBENE
 62
     7
100
AcDbVertex
100
AcDb2dVertex
 10
86.35562470714373
 20
206.9890882186521
 30
0.0
  0
VERTEX
  5
249
330
246
100
AcDbEntity
  8
STANDARDEBENE
 62
     7
100
AcDbVertex
100
AcDb2dVertex
 10
86.47413599183633
 20
206.9897772377491
 30
0.0
  0
VERTEX
  5
24A
330
246
100
AcDbEntity
  8
STANDARDEBENE
 62
     7
100
AcDbVertex
100
AcDb2dVertex
 10
86.6115953016978
 20
206.9890882186521
 30
0.0
  0
VERTEX
  5
24B
330
246
100
AcDbEntity
  8
STANDARDEBENE
 62
     7
100
AcDbVertex
100
AcDb2dVertex
 10
86.76938067492225
 20
206.9863321422638
 30
0.0
  0
VERTEX
  5
24C
330
246
100
AcDbEntity
  8
STANDARDEBENE
 62
     7
100
AcDbVertex
100
AcDb2dVertex
 10
86.81175534939082
 20
206.9863321422638
 30
0.0
  0
VERTEX
  5
24D
330
246
100
AcDbEntity
  8
STANDARDEBENE
 62
     7
100
AcDbVertex
100
AcDb2dVertex
 10
86.85550806205349
 20
206.9852986136183
 30
0.0
  0
VERTEX
  5
24E
330
246
100
AcDbEntity
  8
STANDARDEBENE
 62
     7
100
AcDbVertex
100
AcDb2dVertex
 10
86.90029430336173
 20
206.9839205754242
 30
0.0
  0
VERTEX
  5
24F
330
246
100
AcDbEntity
  8
STANDARDEBENE
 62
     7
100
AcDbVertex
100
AcDb2dVertex
 10
86.94611407331556
 20
206.9828870467786
 30
0.0
  0
VERTEX
  5
250
330
246
100
AcDbEntity
  8
STANDARDEBENE
 62
     7
100
AcDbVertex
100
AcDb2dVertex
 10
87.04085419915992
 20
206.9794419512934
 30
0.0
  0
VERTEX
  5
251
330
246
100
AcDbEntity
  8
STANDARDEBENE
 62
     7
100
AcDbVertex
100
AcDb2dVertex
 10
87.13903942048955
 20
206.9759968558081
 30
0.0
  0
VERTEX
  5
252
330
246
100
AcDbEntity
  8
STANDARDEBENE
 62
     7
100
AcDbVertex
100
AcDb2dVertex
 10
87.34746769734717
 20
206.9656615693523
 30
0.0
  0
VERTEX
  5
253
330
246
100
AcDbEntity
  8
STANDARDEBENE
 62
     7
100
AcDbVertex
100
AcDb2dVertex
 10
87.57139890388841
 20
206.9525702065084
 30
0.0
  0
VERTEX
  5
254
330
246
100
AcDbEntity
  8
STANDARDEBENE
 62
     7
100
AcDbVertex
100
AcDb2dVertex
 10
87.6885321503869
 20
206.9439574677953
 30
0.0
  0
VERTEX
  5
255
330
246
100
AcDbEntity
  8
STANDARDEBENE
 62
     7
100
AcDbVertex
100
AcDb2dVertex
 10
87.80945500191916
 20
206.933966690888
 30
0.0
  0
VERTEX
  5
256
330
246
100
AcDbEntity
  8
STANDARDEBENE
 62
     7
100
AcDbVertex
100
AcDb2dVertex
 10
87.87146672065367
 20
206.9294880667572
 30
0.0
  0
VERTEX
  5
257
330
246
100
AcDbEntity
  8
STANDARDEBENE
 62
     7
100
AcDbVertex
100
AcDb2dVertex
 10
87.9341674584852
 20
206.9232868948838
 30
0.0
  0
VERTEX
  5
258
330
246
100
AcDbEntity
  8
STANDARDEBENE
 62
     7
100
AcDbVertex
100
AcDb2dVertex
 10
87.99686819631675
 20
206.9170857230103
 30
0.0
  0
VERTEX
  5
259
330
246
100
AcDbEntity
  8
STANDARDEBENE
 62
     7
100
AcDbVertex
100
AcDb2dVertex
 10
88.0609469723424
 20
206.9112290606854
 30
0.0
  0
VERTEX
  5
25A
330
246
100
AcDbEntity
  8
STANDARDEBENE
 62
     7
100
AcDbVertex
100
AcDb2dVertex
 10
88.3200181528332
 20
206.8829792777063
 30
0.0
  0
VERTEX
  5
25B
330
246
100
AcDbEntity
  8
STANDARDEBENE
 62
     7
100
AcDbVertex
100
AcDb2dVertex
 10
88.58908011023121
 20
206.8499063610479
 30
0.0
  0
VERTEX
  5
25C
330
246
100
AcDbEntity
  8
STANDARDEBENE
 62
     7
100
AcDbVertex
100
AcDb2dVertex
 10
88.72653942009268
 20
206.8306138263306
 30
0.0
  0
VERTEX
  5
25D
330
246
100
AcDbEntity
  8
STANDARDEBENE
 62
     7
100
AcDbVertex
100
AcDb2dVertex
 10
88.86572127769676
 20
206.8106322725161
 30
0.0
  0
VERTEX
  5
25E
330
246
100
AcDbEntity
  8
STANDARDEBENE
 62
     7
100
AcDbVertex
100
AcDb2dVertex
 10
88.93634573514439
 20
206.7999524765118
 30
0.0
  0
VERTEX
  5
25F
330
246
100
AcDbEntity
  8
STANDARDEBENE
 62
     7
100
AcDbVertex
100
AcDb2dVertex
 10
89.00800372123759
 20
206.7885836614105
 30
0.0
  0
VERTEX
  5
260
330
246
100
AcDbEntity
  8
STANDARDEBENE
 62
     7
100
AcDbVertex
100
AcDb2dVertex
 10
89.07931719778226
 20
206.7765258272121
 30
0.0
  0
VERTEX
  5
261
330
246
100
AcDbEntity
  8
STANDARDEBENE
 62
     7
100
AcDbVertex
100
AcDb2dVertex
 10
89.15063067432693
 20
206.7648125025623
 30
0.0
  0
VERTEX
  5
262
330
246
100
AcDbEntity
  8
STANDARDEBENE
 62
     7
100
AcDbVertex
100
AcDb2dVertex
 10
89.43932967599086
 20
206.7134805798321
 30
0.0
  0
VERTEX
  5
263
330
246
100
AcDbEntity
  8
STANDARDEBENE
 62
     7
100
AcDbVertex
100
AcDb2dVertex
 10
89.730784754043
 20
206.6556029756799
 30
0.0
  0
SEQEND
  5
264
330
246
100
AcDbEntity
  8
STANDARDEBENE
  0
POLYLINE
  5
265
330
1F
100
AcDbEntity
  8
STANDARDEBENE
 62
     7
100
AcDb2dPolyline
 66
     1
 10
0.0
 20
0.0
 30
0.0
  0
VERTEX
  5
266
330
265
100
AcDbEntity
  8
STANDARDEBENE
 62
     7
100
AcDbVertex
100
AcDb2dVertex
 10
89.730784754043
 20
175.3234930659782
 30
0.0
  0
VERTEX
  5
267
330
265
100
AcDbEntity
  8
STANDARDEBENE
 62
     7
100
AcDbVertex
100
AcDb2dVertex
 10
89.44001869508791
 20
175.2652709522774
 30
0.0
  0
VERTEX
  5
268
330
265
100
AcDbEntity
  8
STANDARDEBENE
 62
     7
100
AcDbVertex
100
AcDb2dVertex
 10
89.15407576981218
 20
175.2146280486443
 30
0.0
  0
VERTEX
  5
269
330
265
100
AcDbEntity
  8
STANDARDEBENE
 62
     7
100
AcDbVertex
100
AcDb2dVertex
 10
88.87261146866727
 20
175.1694972977875
 30
0.0
  0
VERTEX
  5
26A
330
265
100
AcDbEntity
  8
STANDARDEBENE
 62
     7
100
AcDbVertex
100
AcDb2dVertex
 10
88.59528128210465
 20
175.1298786997071
 30
0.0
  0
VERTEX
  5
26B
330
265
100
AcDbEntity
  8
STANDARDEBENE
 62
     7
100
AcDbVertex
100
AcDb2dVertex
 10
88.52672388194819
 20
175.121265960994
 30
0.0
  0
VERTEX
  5
26C
330
265
100
AcDbEntity
  8
STANDARDEBENE
 62
     7
100
AcDbVertex
100
AcDb2dVertex
 10
88.45851099134023
 20
175.1126532222809
 30
0.0
  0
VERTEX
  5
26D
330
265
100
AcDbEntity
  8
STANDARDEBENE
 62
     7
100
AcDbVertex
100
AcDb2dVertex
 10
88.39098711982935
 20
175.1043849931163
 30
0.0
  0
VERTEX
  5
26E
330
265
100
AcDbEntity
  8
STANDARDEBENE
 62
     7
100
AcDbVertex
100
AcDb2dVertex
 10
88.32311873876992
 20
175.0954277448546
 30
0.0
  0
VERTEX
  5
26F
330
265
100
AcDbEntity
  8
STANDARDEBENE
 62
     7
100
AcDbVertex
100
AcDb2dVertex
 10
88.19220511033042
 20
175.0816473629136
 30
0.0
  0
VERTEX
  5
270
330
265
100
AcDbEntity
  8
STANDARDEBENE
 62
     7
100
AcDbVertex
100
AcDb2dVertex
 10
88.06335853918208
 20
175.0678669809726
 30
0.0
  0
VERTEX
  5
271
330
265
100
AcDbEntity
  8
STANDARDEBENE
 62
     7
100
AcDbVertex
100
AcDb2dVertex
 10
87.81427813559851
 20
175.0447848412215
 30
0.0
  0
VERTEX
  5
272
330
265
100
AcDbEntity
  8
STANDARDEBENE
 62
     7
100
AcDbVertex
100
AcDb2dVertex
 10
87.57656654711627
 20
175.0272148542467
 30
0.0
  0
VERTEX
  5
273
330
265
100
AcDbEntity
  8
STANDARDEBENE
 62
     7
100
AcDbVertex
100
AcDb2dVertex
 10
87.5190334525126
 20
175.0230807396644
 30
0.0
  0
VERTEX
  5
274
330
265
100
AcDbEntity
  8
STANDARDEBENE
 62
     7
100
AcDbVertex
100
AcDb2dVertex
 10
87.46287839610304
 20
175.0196356441791
 30
0.0
  0
VERTEX
  5
275
330
265
100
AcDbEntity
  8
STANDARDEBENE
 62
     7
100
AcDbVertex
100
AcDb2dVertex
 10
87.40672333969346
 20
175.0161905486939
 30
0.0
  0
VERTEX
  5
276
330
265
100
AcDbEntity
  8
STANDARDEBENE
 62
     7
100
AcDbVertex
100
AcDb2dVertex
 10
87.35125730238094
 20
175.0127454532086
 30
0.0
  0
VERTEX
  5
277
330
265
100
AcDbEntity
  8
STANDARDEBENE
 62
     7
100
AcDbVertex
100
AcDb2dVertex
 10
87.24411483278966
 20
175.0079223195293
 30
0.0
  0
VERTEX
  5
278
330
265
100
AcDbEntity
  8
STANDARDEBENE
 62
     7
100
AcDbVertex
100
AcDb2dVertex
 10
87.1411064777807
 20
175.0034436953985
 30
0.0
  0
VERTEX
  5
279
330
265
100
AcDbEntity
  8
STANDARDEBENE
 62
     7
100
AcDbVertex
100
AcDb2dVertex
 10
86.94852564015524
 20
174.9958644853309
 30
0.0
  0
VERTEX
  5
27A
330
265
100
AcDbEntity
  8
STANDARDEBENE
 62
     7
100
AcDbVertex
100
AcDb2dVertex
 10
86.7728257704075
 20
174.9920748802971
 30
0.0
  0
VERTEX
  5
27B
330
265
100
AcDbEntity
  8
STANDARDEBENE
 62
     7
100
AcDbVertex
100
AcDb2dVertex
 10
86.69186602650412
 20
174.9910413516515
 30
0.0
  0
VERTEX
  5
27C
330
265
100
AcDbEntity
  8
STANDARDEBENE
 62
     7
100
AcDbVertex
100
AcDb2dVertex
 10
86.61504039718305
 20
174.9903523325545
 30
0.0
  0
VERTEX
  5
27D
330
265
100
AcDbEntity
  8
STANDARDEBENE
 62
     7
100
AcDbVertex
100
AcDb2dVertex
 10
86.57817787549088
 20
174.9896633134574
 30
0.0
  0
VERTEX
  5
27E
330
265
100
AcDbEntity
  8
STANDARDEBENE
 62
     7
100
AcDbVertex
100
AcDb2dVertex
 10
86.54234888244427
 20
174.9896633134574
 30
0.0
  0
VERTEX
  5
27F
330
265
100
AcDbEntity
  8
STANDARDEBENE
 62
     7
100
AcDbVertex
100
AcDb2dVertex
 10
86.50824243714031
 20
174.9896633134574
 30
0.0
  0
VERTEX
  5
280
330
265
100
AcDbEntity
  8
STANDARDEBENE
 62
     7
100
AcDbVertex
100
AcDb2dVertex
 10
86.47551403003042
 20
174.9896633134574
 30
0.0
  0
VERTEX
  5
281
330
265
100
AcDbEntity
  8
STANDARDEBENE
 62
     7
100
AcDbVertex
100
AcDb2dVertex
 10
86.47551403003042
 20
174.9896633134574
 30
0.0
  0
SEQEND
  5
282
330
265
100
AcDbEntity
  8
STANDARDEBENE
  0
POLYLINE
  5
283
330
1F
100
AcDbEntity
  8
STANDARDEBENE
 62
     7
100
AcDb2dPolyline
 66
     1
 10
0.0
 20
0.0
 30
0.0
  0
VERTEX
  5
284
330
283
100
AcDbEntity
  8
STANDARDEBENE
 62
     7
100
AcDbVertex
100
AcDb2dVertex
 10
86.2336683269659
 20
207.2877779972232
 30
0.0
  0
VERTEX
  5
285
330
283
100
AcDbEntity
  8
STANDARDEBENE
 62
     7
100
AcDbVertex
100
AcDb2dVertex
 10
86.24503714206722
 20
207.1375718340663
 30
0.0
  0
VERTEX
  5
286
330
283
100
AcDbEntity
  8
STANDARDEBENE
 62
     7
100
AcDbVertex
100
AcDb2dVertex
 10
86.25709497626559
 20
206.988399199555
 30
0.0
  0
SEQEND
  5
287
330
283
100
AcDbEntity
  8
STANDARDEBENE
  0
POLYLINE
  5
288
330
1F
100
AcDbEntity
  8
STANDARDEBENE
 62
     7
100
AcDb2dPolyline
 66
     1
 10
0.0
 20
0.0
 30
0.0
  0
VERTEX
  5
289
330
288
100
AcDbEntity
  8
STANDARDEBENE
 62
     7
100
AcDbVertex
100
AcDb2dVertex
 10
86.07898353967818
 20
207.2846774112865
 30
0.0
  0
VERTEX
  5
28A
330
288
100
AcDbEntity
  8
STANDARDEBENE
 62
     7
100
AcDbVertex
100
AcDb2dVertex
 10
86.08931882613392
 20
207.2853664303835
 30
0.0
  0
VERTEX
  5
28B
330
288
100
AcDbEntity
  8
STANDARDEBENE
 62
     7
100
AcDbVertex
100
AcDb2dVertex
 10
86.11825762821002
 20
207.2853664303835
 30
0.0
  0
VERTEX
  5
28C
330
288
100
AcDbEntity
  8
STANDARDEBENE
 62
     7
100
AcDbVertex
100
AcDb2dVertex
 10
86.166144455455
 20
207.2863999590291
 30
0.0
  0
VERTEX
  5
28D
330
288
100
AcDbEntity
  8
STANDARDEBENE
 62
     7
100
AcDbVertex
100
AcDb2dVertex
 10
86.2336683269659
 20
207.2877779972232
 30
0.0
  0
SEQEND
  5
28E
330
288
100
AcDbEntity
  8
STANDARDEBENE
  0
POLYLINE
  5
28F
330
1F
100
AcDbEntity
  8
STANDARDEBENE
 62
     7
100
AcDb2dPolyline
 66
     1
 10
0.0
 20
0.0
 30
0.0
  0
VERTEX
  5
290
330
28F
100
AcDbEntity
  8
STANDARDEBENE
 62
     7
100
AcDbVertex
100
AcDb2dVertex
 10
-14.41272921731696
 20
115.210194198628
 30
0.0
  0
VERTEX
  5
291
330
28F
100
AcDbEntity
  8
STANDARDEBENE
 62
     7
100
AcDbVertex
100
AcDb2dVertex
 10
-13.86461452561371
 20
115.210194198628
 30
0.0
  0
SEQEND
  5
292
330
28F
100
AcDbEntity
  8
STANDARDEBENE
  0
POLYLINE
  5
293
330
1F
100
AcDbEntity
  8
STANDARDEBENE
 62
     7
100
AcDb2dPolyline
 66
     1
 10
0.0
 20
0.0
 30
0.0
  0
VERTEX
  5
294
330
293
100
AcDbEntity
  8
STANDARDEBENE
 62
     7
100
AcDbVertex
100
AcDb2dVertex
 10
-20.2917846628958
 20
129.884750672824
 30
0.0
  0
VERTEX
  5
295
330
293
100
AcDbEntity
  8
STANDARDEBENE
 62
     7
100
AcDbVertex
100
AcDb2dVertex
 10
-18.7556165860229
 20
128.1646144970387
 30
0.0
  0
SEQEND
  5
296
330
293
100
AcDbEntity
  8
STANDARDEBENE
  0
POLYLINE
  5
297
330
1F
100
AcDbEntity
  8
STANDARDEBENE
 62
     7
100
AcDb2dPolyline
 66
     1
 10
0.0
 20
0.0
 30
0.0
  0
VERTEX
  5
298
330
297
100
AcDbEntity
  8
STANDARDEBENE
 62
     7
100
AcDbVertex
100
AcDb2dVertex
 10
-31.11248507251702
 20
132.8750935540208
 30
0.0
  0
VERTEX
  5
299
330
297
100
AcDbEntity
  8
STANDARDEBENE
 62
     7
100
AcDbVertex
100
AcDb2dVertex
 10
-31.11248507251702
 20
115.210194198628
 30
0.0
  0
SEQEND
  5
29A
330
297
100
AcDbEntity
  8
STANDARDEBENE
  0
POLYLINE
  5
29B
330
1F
100
AcDbEntity
  8
STANDARDEBENE
 62
     7
100
AcDb2dPolyline
 66
     1
 10
0.0
 20
0.0
 30
0.0
  0
VERTEX
  5
29C
330
29B
100
AcDbEntity
  8
STANDARDEBENE
 62
     7
100
AcDbVertex
100
AcDb2dVertex
 10
-30.22227239912846
 20
133.0029065965236
 30
0.0
  0
VERTEX
  5
29D
330
29B
100
AcDbEntity
  8
STANDARDEBENE
 62
     7
100
AcDbVertex
100
AcDb2dVertex
 10
-26.47331949207959
 20
133.0029065965236
 30
0.0
  0
SEQEND
  5
29E
330
29B
100
AcDbEntity
  8
STANDARDEBENE
  0
POLYLINE
  5
29F
330
1F
100
AcDbEntity
  8
STANDARDEBENE
 62
     7
100
AcDb2dPolyline
 66
     1
 10
0.0
 20
0.0
 30
0.0
  0
VERTEX
  5
2A0
330
29F
100
AcDbEntity
  8
STANDARDEBENE
 62
     7
100
AcDbVertex
100
AcDb2dVertex
 10
-31.11248507251702
 20
115.210194198628
 30
0.0
  0
VERTEX
  5
2A1
330
29F
100
AcDbEntity
  8
STANDARDEBENE
 62
     7
100
AcDbVertex
100
AcDb2dVertex
 10
-14.41272921731696
 20
115.210194198628
 30
0.0
  0
SEQEND
  5
2A2
330
29F
100
AcDbEntity
  8
STANDARDEBENE
  0
POLYLINE
  5
2A3
330
1F
100
AcDbEntity
  8
STANDARDEBENE
 62
     7
100
AcDb2dPolyline
 66
     1
 10
0.0
 20
0.0
 30
0.0
  0
VERTEX
  5
2A4
330
2A3
100
AcDbEntity
  8
STANDARDEBENE
 62
     7
100
AcDbVertex
100
AcDb2dVertex
 10
3.23649495361796
 20
130.8104478297106
 30
0.0
  0
VERTEX
  5
2A5
330
2A3
100
AcDbEntity
  8
STANDARDEBENE
 62
     7
100
AcDbVertex
100
AcDb2dVertex
 10
-12.68466932191564
 20
130.8104478297106
 30
0.0
  0
SEQEND
  5
2A6
330
2A3
100
AcDbEntity
  8
STANDARDEBENE
  0
POLYLINE
  5
2A7
330
1F
100
AcDbEntity
  8
STANDARDEBENE
 62
     7
100
AcDb2dPolyline
 66
     1
 10
0.0
 20
0.0
 30
0.0
  0
VERTEX
  5
2A8
330
2A7
100
AcDbEntity
  8
STANDARDEBENE
 62
     7
100
AcDbVertex
100
AcDb2dVertex
 10
-8.764495169249848
 20
98.81085066974174
 30
0.0
  0
VERTEX
  5
2A9
330
2A7
100
AcDbEntity
  8
STANDARDEBENE
 62
     7
100
AcDbVertex
100
AcDb2dVertex
 10
3.23649495361796
 20
98.81085066974174
 30
0.0
  0
SEQEND
  5
2AA
330
2A7
100
AcDbEntity
  8
STANDARDEBENE
  0
POLYLINE
  5
2AB
330
1F
100
AcDbEntity
  8
STANDARDEBENE
 62
     7
100
AcDb2dPolyline
 66
     1
 10
0.0
 20
0.0
 30
0.0
  0
VERTEX
  5
2AC
330
2AB
100
AcDbEntity
  8
STANDARDEBENE
 62
     7
100
AcDbVertex
100
AcDb2dVertex
 10
-1.513947210993041
 20
99.5329426834501
 30
0.0
  0
VERTEX
  5
2AD
330
2AB
100
AcDbEntity
  8
STANDARDEBENE
 62
     7
100
AcDbVertex
100
AcDb2dVertex
 10
-4.013708495090323
 20
99.5329426834501
 30
0.0
  0
SEQEND
  5
2AE
330
2AB
100
AcDbEntity
  8
STANDARDEBENE
  0
POLYLINE
  5
2AF
330
1F
100
AcDbEntity
  8
STANDARDEBENE
 62
     7
100
AcDb2dPolyline
 66
     1
 10
0.0
 20
0.0
 30
0.0
  0
VERTEX
  5
2B0
330
2AF
100
AcDbEntity
  8
STANDARDEBENE
 62
     7
100
AcDbVertex
100
AcDb2dVertex
 10
-4.013708495090323
 20
110.0542642954031
 30
0.0
  0
VERTEX
  5
2B1
330
2AF
100
AcDbEntity
  8
STANDARDEBENE
 62
     7
100
AcDbVertex
100
AcDb2dVertex
 10
-1.513947210993041
 20
110.0542642954031
 30
0.0
  0
SEQEND
  5
2B2
330
2AF
100
AcDbEntity
  8
STANDARDEBENE
  0
POLYLINE
  5
2B3
330
1F
100
AcDbEntity
  8
STANDARDEBENE
 62
     7
100
AcDb2dPolyline
 66
     1
 10
0.0
 20
0.0
 30
0.0
  0
VERTEX
  5
2B4
330
2B3
100
AcDbEntity
  8
STANDARDEBENE
 62
     7
100
AcDbVertex
100
AcDb2dVertex
 10
-1.513947210993041
 20
119.5654839110809
 30
0.0
  0
VERTEX
  5
2B5
330
2B3
100
AcDbEntity
  8
STANDARDEBENE
 62
     7
100
AcDbVertex
100
AcDb2dVertex
 10
-4.013708495090323
 20
119.5654839110809
 30
0.0
  0
SEQEND
  5
2B6
330
2B3
100
AcDbEntity
  8
STANDARDEBENE
  0
POLYLINE
  5
2B7
330
1F
100
AcDbEntity
  8
STANDARDEBENE
 62
     7
100
AcDb2dPolyline
 66
     1
 10
0.0
 20
0.0
 30
0.0
  0
VERTEX
  5
2B8
330
2B7
100
AcDbEntity
  8
STANDARDEBENE
 62
     7
100
AcDbVertex
100
AcDb2dVertex
 10
-4.013708495090323
 20
130.0869777778081
 30
0.0
  0
VERTEX
  5
2B9
330
2B7
100
AcDbEntity
  8
STANDARDEBENE
 62
     7
100
AcDbVertex
100
AcDb2dVertex
 10
-1.513947210993041
 20
130.0869777778081
 30
0.0
  0
SEQEND
  5
2BA
330
2B7
100
AcDbEntity
  8
STANDARDEBENE
  0
POLYLINE
  5
2BB
330
1F
100
AcDbEntity
  8
STANDARDEBENE
 62
     7
100
AcDb2dPolyline
 66
     1
 10
0.0
 20
0.0
 30
0.0
  0
VERTEX
  5
2BC
330
2BB
100
AcDbEntity
  8
STANDARDEBENE
 62
     7
100
AcDbVertex
100
AcDb2dVertex
 10
-1.513947210993041
 20
110.0542642954031
 30
0.0
  0
VERTEX
  5
2BD
330
2BB
100
AcDbEntity
  8
STANDARDEBENE
 62
     7
100
AcDbVertex
100
AcDb2dVertex
 10
-1.513947210993041
 20
99.5329426834501
 30
0.0
  0
SEQEND
  5
2BE
330
2BB
100
AcDbEntity
  8
STANDARDEBENE
  0
POLYLINE
  5
2BF
330
1F
100
AcDbEntity
  8
STANDARDEBENE
 62
     7
100
AcDb2dPolyline
 66
     1
 10
0.0
 20
0.0
 30
0.0
  0
VERTEX
  5
2C0
330
2BF
100
AcDbEntity
  8
STANDARDEBENE
 62
     7
100
AcDbVertex
100
AcDb2dVertex
 10
-4.013708495090323
 20
110.0542642954031
 30
0.0
  0
VERTEX
  5
2C1
330
2BF
100
AcDbEntity
  8
STANDARDEBENE
 62
     7
100
AcDbVertex
100
AcDb2dVertex
 10
-4.013708495090323
 20
99.5329426834501
 30
0.0
  0
SEQEND
  5
2C2
330
2BF
100
AcDbEntity
  8
STANDARDEBENE
  0
POLYLINE
  5
2C3
330
1F
100
AcDbEntity
  8
STANDARDEBENE
 62
     7
100
AcDb2dPolyline
 66
     1
 10
0.0
 20
0.0
 30
0.0
  0
VERTEX
  5
2C4
330
2C3
100
AcDbEntity
  8
STANDARDEBENE
 62
     7
100
AcDbVertex
100
AcDb2dVertex
 10
-1.513947210993041
 20
130.0869777778081
 30
0.0
  0
VERTEX
  5
2C5
330
2C3
100
AcDbEntity
  8
STANDARDEBENE
 62
     7
100
AcDbVertex
100
AcDb2dVertex
 10
-1.513947210993041
 20
119.5654839110809
 30
0.0
  0
SEQEND
  5
2C6
330
2C3
100
AcDbEntity
  8
STANDARDEBENE
  0
POLYLINE
  5
2C7
330
1F
100
AcDbEntity
  8
STANDARDEBENE
 62
     7
100
AcDb2dPolyline
 66
     1
 10
0.0
 20
0.0
 30
0.0
  0
VERTEX
  5
2C8
330
2C7
100
AcDbEntity
  8
STANDARDEBENE
 62
     7
100
AcDbVertex
100
AcDb2dVertex
 10
-4.013708495090323
 20
130.0869777778081
 30
0.0
  0
VERTEX
  5
2C9
330
2C7
100
AcDbEntity
  8
STANDARDEBENE
 62
     7
100
AcDbVertex
100
AcDb2dVertex
 10
-4.013708495090323
 20
119.5654839110809
 30
0.0
  0
SEQEND
  5
2CA
330
2C7
100
AcDbEntity
  8
STANDARDEBENE
  0
POLYLINE
  5
2CB
330
1F
100
AcDbEntity
  8
STANDARDEBENE
 62
     7
100
AcDb2dPolyline
 66
     1
 10
0.0
 20
0.0
 30
0.0
  0
VERTEX
  5
2CC
330
2CB
100
AcDbEntity
  8
STANDARDEBENE
 62
     7
100
AcDbVertex
100
AcDb2dVertex
 10
18.88584119536534
 20
124.7537977118671
 30
0.0
  0
VERTEX
  5
2CD
330
2CB
100
AcDbEntity
  8
STANDARDEBENE
 62
     7
100
AcDbVertex
100
AcDb2dVertex
 10
3.23649495361796
 20
125.1465385971856
 30
0.0
  0
SEQEND
  5
2CE
330
2CB
100
AcDbEntity
  8
STANDARDEBENE
  0
POLYLINE
  5
2CF
330
1F
100
AcDbEntity
  8
STANDARDEBENE
 62
     7
100
AcDb2dPolyline
 66
     1
 10
0.0
 20
0.0
 30
0.0
  0
VERTEX
  5
2D0
330
2CF
100
AcDbEntity
  8
STANDARDEBENE
 62
     7
100
AcDbVertex
100
AcDb2dVertex
 10
-26.47331949207959
 20
133.0029065965236
 30
0.0
  0
VERTEX
  5
2D1
330
2CF
100
AcDbEntity
  8
STANDARDEBENE
 62
     7
100
AcDbVertex
100
AcDb2dVertex
 10
-13.33889295456458
 20
133.0029065965236
 30
0.0
  0
SEQEND
  5
2D2
330
2CF
100
AcDbEntity
  8
STANDARDEBENE
  0
POLYLINE
  5
2D3
330
1F
100
AcDbEntity
  8
STANDARDEBENE
 62
     7
100
AcDb2dPolyline
 66
     1
 10
0.0
 20
0.0
 30
0.0
  0
VERTEX
  5
2D4
330
2D3
100
AcDbEntity
  8
STANDARDEBENE
 62
     7
100
AcDbVertex
100
AcDb2dVertex
 10
3.23649495361796
 20
103.1110188544306
 30
0.0
  0
VERTEX
  5
2D5
330
2D3
100
AcDbEntity
  8
STANDARDEBENE
 62
     7
100
AcDbVertex
100
AcDb2dVertex
 10
22.23619655477081
 20
103.5871310504921
 30
0.0
  0
SEQEND
  5
2D6
330
2D3
100
AcDbEntity
  8
STANDARDEBENE
  0
POLYLINE
  5
2D7
330
1F
100
AcDbEntity
  8
STANDARDEBENE
 62
     7
100
AcDb2dPolyline
 66
     1
 10
0.0
 20
0.0
 30
0.0
  0
VERTEX
  5
2D8
330
2D7
100
AcDbEntity
  8
STANDARDEBENE
 62
     7
100
AcDbVertex
100
AcDb2dVertex
 10
-10.43674451779012
 20
103.6436306164502
 30
0.0
  0
VERTEX
  5
2D9
330
2D7
100
AcDbEntity
  8
STANDARDEBENE
 62
     7
100
AcDbVertex
100
AcDb2dVertex
 10
-9.167226831475555
 20
103.419699409909
 30
0.0
  0
SEQEND
  5
2DA
330
2D7
100
AcDbEntity
  8
STANDARDEBENE
  0
POLYLINE
  5
2DB
330
1F
100
AcDbEntity
  8
STANDARDEBENE
 62
     7
100
AcDb2dPolyline
 66
     1
 10
0.0
 20
0.0
 30
0.0
  0
VERTEX
  5
2DC
330
2DB
100
AcDbEntity
  8
STANDARDEBENE
 62
     7
100
AcDbVertex
100
AcDb2dVertex
 10
-9.46488308140114
 20
106.8234537493358
 30
0.0
  0
VERTEX
  5
2DD
330
2DB
100
AcDbEntity
  8
STANDARDEBENE
 62
     7
100
AcDbVertex
100
AcDb2dVertex
 10
-9.864514157690122
 20
106.8937336972349
 30
0.0
  0
SEQEND
  5
2DE
330
2DB
100
AcDbEntity
  8
STANDARDEBENE
  0
POLYLINE
  5
2DF
330
1F
100
AcDbEntity
  8
STANDARDEBENE
 62
     7
100
AcDb2dPolyline
 66
     1
 10
0.0
 20
0.0
 30
0.0
  0
VERTEX
  5
2E0
330
2DF
100
AcDbEntity
  8
STANDARDEBENE
 62
     7
100
AcDbVertex
100
AcDb2dVertex
 10
-35.42436658185571
 20
124.4602755765238
 30
0.0
  0
VERTEX
  5
2E1
330
2DF
100
AcDbEntity
  8
STANDARDEBENE
 62
     7
100
AcDbVertex
100
AcDb2dVertex
 10
-35.42436658185571
 20
118.7800021404439
 30
0.0
  0
SEQEND
  5
2E2
330
2DF
100
AcDbEntity
  8
STANDARDEBENE
  0
POLYLINE
  5
2E3
330
1F
100
AcDbEntity
  8
STANDARDEBENE
 62
     7
100
AcDb2dPolyline
 66
     1
 10
0.0
 20
0.0
 30
0.0
  0
VERTEX
  5
2E4
330
2E3
100
AcDbEntity
  8
STANDARDEBENE
 62
     7
100
AcDbVertex
100
AcDb2dVertex
 10
-12.68466932191564
 20
130.8104478297106
 30
0.0
  0
VERTEX
  5
2E5
330
2E3
100
AcDbEntity
  8
STANDARDEBENE
 62
     7
100
AcDbVertex
100
AcDb2dVertex
 10
-13.20108913515459
 20
132.7359116964167
 30
0.0
  0
SEQEND
  5
2E6
330
2E3
100
AcDbEntity
  8
STANDARDEBENE
  0
POLYLINE
  5
2E7
330
1F
100
AcDbEntity
  8
STANDARDEBENE
 62
     7
100
AcDb2dPolyline
 66
     1
 10
0.0
 20
0.0
 30
0.0
  0
VERTEX
  5
2E8
330
2E7
100
AcDbEntity
  8
STANDARDEBENE
 62
     7
100
AcDbVertex
100
AcDb2dVertex
 10
-12.76562906581901
 20
115.0558539208888
 30
0.0
  0
VERTEX
  5
2E9
330
2E7
100
AcDbEntity
  8
STANDARDEBENE
 62
     7
100
AcDbVertex
100
AcDb2dVertex
 10
-12.76562906581901
 20
116.974772106173
 30
0.0
  0
VERTEX
  5
2EA
330
2E7
100
AcDbEntity
  8
STANDARDEBENE
 62
     7
100
AcDbVertex
100
AcDb2dVertex
 10
-12.76562906581901
 20
118.864751489381
 30
0.0
  0
VERTEX
  5
2EB
330
2E7
100
AcDbEntity
  8
STANDARDEBENE
 62
     7
100
AcDbVertex
100
AcDb2dVertex
 10
-12.76562906581901
 20
120.6968532684369
 30
0.0
  0
VERTEX
  5
2EC
330
2E7
100
AcDbEntity
  8
STANDARDEBENE
 62
     7
100
AcDbVertex
100
AcDb2dVertex
 10
-12.76562906581901
 20
122.4476507940409
 30
0.0
  0
VERTEX
  5
2ED
330
2E7
100
AcDbEntity
  8
STANDARDEBENE
 62
     7
100
AcDbVertex
100
AcDb2dVertex
 10
-12.76562906581901
 20
124.0916503596021
 30
0.0
  0
VERTEX
  5
2EE
330
2E7
100
AcDbEntity
  8
STANDARDEBENE
 62
     7
100
AcDbVertex
100
AcDb2dVertex
 10
-12.76562906581901
 20
125.6061143349179
 30
0.0
  0
VERTEX
  5
2EF
330
2E7
100
AcDbEntity
  8
STANDARDEBENE
 62
     7
100
AcDbVertex
100
AcDb2dVertex
 10
-12.76562906581901
 20
126.9701998923026
 30
0.0
  0
VERTEX
  5
2F0
330
2E7
100
AcDbEntity
  8
STANDARDEBENE
 62
     7
100
AcDbVertex
100
AcDb2dVertex
 10
-12.76562906581901
 20
128.1646144970387
 30
0.0
  0
SEQEND
  5
2F1
330
2E7
100
AcDbEntity
  8
STANDARDEBENE
  0
POLYLINE
  5
2F2
330
1F
100
AcDbEntity
  8
STANDARDEBENE
 62
     7
100
AcDb2dPolyline
 66
     1
 10
0.0
 20
0.0
 30
0.0
  0
VERTEX
  5
2F3
330
2F2
100
AcDbEntity
  8
STANDARDEBENE
 62
     7
100
AcDbVertex
100
AcDb2dVertex
 10
-12.68466932191564
 20
130.8104478297106
 30
0.0
  0
VERTEX
  5
2F4
330
2F2
100
AcDbEntity
  8
STANDARDEBENE
 62
     7
100
AcDbVertex
100
AcDb2dVertex
 10
-12.68466932191564
 20
130.6953816405033
 30
0.0
  0
VERTEX
  5
2F5
330
2F2
100
AcDbEntity
  8
STANDARDEBENE
 62
     7
100
AcDbVertex
100
AcDb2dVertex
 10
-12.68466932191564
 20
130.3532836588179
 30
0.0
  0
VERTEX
  5
2F6
330
2F2
100
AcDbEntity
  8
STANDARDEBENE
 62
     7
100
AcDbVertex
100
AcDb2dVertex
 10
-12.68466932191564
 20
129.788977018334
 30
0.0
  0
VERTEX
  5
2F7
330
2F2
100
AcDbEntity
  8
STANDARDEBENE
 62
     7
100
AcDbVertex
100
AcDb2dVertex
 10
-12.68466932191564
 20
129.0083183813764
 30
0.0
  0
VERTEX
  5
2F8
330
2F2
100
AcDbEntity
  8
STANDARDEBENE
 62
     7
100
AcDbVertex
100
AcDb2dVertex
 10
-12.68466932191564
 20
128.0261216585317
 30
0.0
  0
VERTEX
  5
2F9
330
2F2
100
AcDbEntity
  8
STANDARDEBENE
 62
     7
100
AcDbVertex
100
AcDb2dVertex
 10
-12.68466932191564
 20
126.8537556649011
 30
0.0
  0
VERTEX
  5
2FA
330
2F2
100
AcDbEntity
  8
STANDARDEBENE
 62
     7
100
AcDbVertex
100
AcDb2dVertex
 10
-12.68466932191564
 20
125.5096516613309
 30
0.0
  0
VERTEX
  5
2FB
330
2F2
100
AcDbEntity
  8
STANDARDEBENE
 62
     7
100
AcDbVertex
100
AcDb2dVertex
 10
-12.68466932191564
 20
124.0110351252472
 30
0.0
  0
VERTEX
  5
2FC
330
2F2
100
AcDbEntity
  8
STANDARDEBENE
 62
     7
100
AcDbVertex
100
AcDb2dVertex
 10
-12.68466932191564
 20
122.3815049607241
 30
0.0
  0
VERTEX
  5
2FD
330
2F2
100
AcDbEntity
  8
STANDARDEBENE
 62
     7
100
AcDbVertex
100
AcDb2dVertex
 10
-12.68466932191564
 20
120.643109778867
 30
0.0
  0
VERTEX
  5
2FE
330
2F2
100
AcDbEntity
  8
STANDARDEBENE
 62
     7
100
AcDbVertex
100
AcDb2dVertex
 10
-12.68466932191564
 20
118.8206542671698
 30
0.0
  0
VERTEX
  5
2FF
330
2F2
100
AcDbEntity
  8
STANDARDEBENE
 62
     7
100
AcDbVertex
100
AcDb2dVertex
 10
-12.68466932191564
 20
116.9416991895146
 30
0.0
  0
VERTEX
  5
300
330
2F2
100
AcDbEntity
  8
STANDARDEBENE
 62
     7
100
AcDbVertex
100
AcDb2dVertex
 10
-12.68466932191564
 20
115.0324272715891
 30
0.0
  0
SEQEND
  5
301
330
2F2
100
AcDbEntity
  8
STANDARDEBENE
  0
POLYLINE
  5
302
330
1F
100
AcDbEntity
  8
STANDARDEBENE
 62
     7
100
AcDb2dPolyline
 66
     1
 10
0.0
 20
0.0
 30
0.0
  0
VERTEX
  5
303
330
302
100
AcDbEntity
  8
STANDARDEBENE
 62
     7
100
AcDbVertex
100
AcDb2dVertex
 10
3.23649495361796
 20
98.81085066974174
 30
0.0
  0
VERTEX
  5
304
330
302
100
AcDbEntity
  8
STANDARDEBENE
 62
     7
100
AcDbVertex
100
AcDb2dVertex
 10
3.23649495361796
 20
98.91833764888153
 30
0.0
  0
VERTEX
  5
305
330
302
100
AcDbEntity
  8
STANDARDEBENE
 62
     7
100
AcDbVertex
100
AcDb2dVertex
 10
3.23649495361796
 20
99.24148760539796
 30
0.0
  0
VERTEX
  5
306
330
302
100
AcDbEntity
  8
STANDARDEBENE
 62
     7
100
AcDbVertex
100
AcDb2dVertex
 10
3.23649495361796
 20
99.77478838651464
 30
0.0
  0
VERTEX
  5
307
330
302
100
AcDbEntity
  8
STANDARDEBENE
 62
     7
100
AcDbVertex
100
AcDb2dVertex
 10
3.23649495361796
 20
100.5120388203581
 30
0.0
  0
VERTEX
  5
308
330
302
100
AcDbEntity
  8
STANDARDEBENE
 62
     7
100
AcDbVertex
100
AcDb2dVertex
 10
3.23649495361796
 20
101.4422146013756
 30
0.0
  0
VERTEX
  5
309
330
302
100
AcDbEntity
  8
STANDARDEBENE
 62
     7
100
AcDbVertex
100
AcDb2dVertex
 10
3.23649495361796
 20
102.5536024049172
 30
0.0
  0
VERTEX
  5
30A
330
302
100
AcDbEntity
  8
STANDARDEBENE
 62
     7
100
AcDbVertex
100
AcDb2dVertex
 10
3.23649495361796
 20
103.8296657726537
 30
0.0
  0
VERTEX
  5
30B
330
302
100
AcDbEntity
  8
STANDARDEBENE
 62
     7
100
AcDbVertex
100
AcDb2dVertex
 10
3.23649495361796
 20
105.2552462844501
 30
0.0
  0
VERTEX
  5
30C
330
302
100
AcDbEntity
  8
STANDARDEBENE
 62
     7
100
AcDbVertex
100
AcDb2dVertex
 10
3.23649495361796
 20
106.8103623864919
 30
0.0
  0
VERTEX
  5
30D
330
302
100
AcDbEntity
  8
STANDARDEBENE
 62
     7
100
AcDbVertex
100
AcDb2dVertex
 10
3.23649495361796
 20
108.4722764485764
 30
0.0
  0
VERTEX
  5
30E
330
302
100
AcDbEntity
  8
STANDARDEBENE
 62
     7
100
AcDbVertex
100
AcDb2dVertex
 10
3.23649495361796
 20
110.2216959359862
 30
0.0
  0
VERTEX
  5
30F
330
302
100
AcDbEntity
  8
STANDARDEBENE
 62
     7
100
AcDbVertex
100
AcDb2dVertex
 10
3.23649495361796
 20
112.0324381230336
 30
0.0
  0
VERTEX
  5
310
330
302
100
AcDbEntity
  8
STANDARDEBENE
 62
     7
100
AcDbVertex
100
AcDb2dVertex
 10
3.23649495361796
 20
113.8803873413216
 30
0.0
  0
VERTEX
  5
311
330
302
100
AcDbEntity
  8
STANDARDEBENE
 62
     7
100
AcDbVertex
100
AcDb2dVertex
 10
3.23649495361796
 20
115.7407389033565
 30
0.0
  0
VERTEX
  5
312
330
302
100
AcDbEntity
  8
STANDARDEBENE
 62
     7
100
AcDbVertex
100
AcDb2dVertex
 10
3.23649495361796
 20
117.5879991025475
 30
0.0
  0
VERTEX
  5
313
330
302
100
AcDbEntity
  8
STANDARDEBENE
 62
     7
100
AcDbVertex
100
AcDb2dVertex
 10
3.23649495361796
 20
119.3987412895948
 30
0.0
  0
VERTEX
  5
314
330
302
100
AcDbEntity
  8
STANDARDEBENE
 62
     7
100
AcDbVertex
100
AcDb2dVertex
 10
3.23649495361796
 20
121.1474717579076
 30
0.0
  0
VERTEX
  5
315
330
302
100
AcDbEntity
  8
STANDARDEBENE
 62
     7
100
AcDbVertex
100
AcDb2dVertex
 10
3.23649495361796
 20
122.8100748390892
 30
0.0
  0
VERTEX
  5
316
330
302
100
AcDbEntity
  8
STANDARDEBENE
 62
     7
100
AcDbVertex
100
AcDb2dVertex
 10
3.23649495361796
 20
124.3651909411309
 30
0.0
  0
VERTEX
  5
317
330
302
100
AcDbEntity
  8
STANDARDEBENE
 62
     7
100
AcDbVertex
100
AcDb2dVertex
 10
3.23649495361796
 20
125.7907714529273
 30
0.0
  0
VERTEX
  5
318
330
302
100
AcDbEntity
  8
STANDARDEBENE
 62
     7
100
AcDbVertex
100
AcDb2dVertex
 10
3.23649495361796
 20
127.0666625658896
 30
0.0
  0
VERTEX
  5
319
330
302
100
AcDbEntity
  8
STANDARDEBENE
 62
     7
100
AcDbVertex
100
AcDb2dVertex
 10
3.23649495361796
 20
128.1777058598826
 30
0.0
  0
VERTEX
  5
31A
330
302
100
AcDbEntity
  8
STANDARDEBENE
 62
     7
100
AcDbVertex
100
AcDb2dVertex
 10
3.23649495361796
 20
129.1085706599972
 30
0.0
  0
VERTEX
  5
31B
330
302
100
AcDbEntity
  8
STANDARDEBENE
 62
     7
100
AcDbVertex
100
AcDb2dVertex
 10
3.23649495361796
 20
129.8451320747436
 30
0.0
  0
VERTEX
  5
31C
330
302
100
AcDbEntity
  8
STANDARDEBENE
 62
     7
100
AcDbVertex
100
AcDb2dVertex
 10
3.23649495361796
 20
130.3787773654088
 30
0.0
  0
VERTEX
  5
31D
330
302
100
AcDbEntity
  8
STANDARDEBENE
 62
     7
100
AcDbVertex
100
AcDb2dVertex
 10
3.23649495361796
 20
130.7022718314738
 30
0.0
  0
VERTEX
  5
31E
330
302
100
AcDbEntity
  8
STANDARDEBENE
 62
     7
100
AcDbVertex
100
AcDb2dVertex
 10
3.23649495361796
 20
130.8104478297106
 30
0.0
  0
SEQEND
  5
31F
330
302
100
AcDbEntity
  8
STANDARDEBENE
  0
POLYLINE
  5
320
330
1F
100
AcDbEntity
  8
STANDARDEBENE
 62
     7
100
AcDb2dPolyline
 66
     1
 10
0.0
 20
0.0
 30
0.0
  0
VERTEX
  5
321
330
320
100
AcDbEntity
  8
STANDARDEBENE
 62
     7
100
AcDbVertex
100
AcDb2dVertex
 10
22.23619655477081
 20
104.1707302256934
 30
0.0
  0
VERTEX
  5
322
330
320
100
AcDbEntity
  8
STANDARDEBENE
 62
     7
100
AcDbVertex
100
AcDb2dVertex
 10
22.23619655477081
 20
105.1195095223312
 30
0.0
  0
VERTEX
  5
323
330
320
100
AcDbEntity
  8
STANDARDEBENE
 62
     7
100
AcDbVertex
100
AcDb2dVertex
 10
22.23619655477081
 20
106.2708604335017
 30
0.0
  0
VERTEX
  5
324
330
320
100
AcDbEntity
  8
STANDARDEBENE
 62
     7
100
AcDbVertex
100
AcDb2dVertex
 10
22.23619655477081
 20
107.6041123862934
 30
0.0
  0
VERTEX
  5
325
330
320
100
AcDbEntity
  8
STANDARDEBENE
 62
     7
100
AcDbVertex
100
AcDb2dVertex
 10
22.23619655477081
 20
109.0992838268918
 30
0.0
  0
VERTEX
  5
326
330
320
100
AcDbEntity
  8
STANDARDEBENE
 62
     7
100
AcDbVertex
100
AcDb2dVertex
 10
22.23619655477081
 20
110.7295030105121
 30
0.0
  0
VERTEX
  5
327
330
320
100
AcDbEntity
  8
STANDARDEBENE
 62
     7
100
AcDbVertex
100
AcDb2dVertex
 10
22.23619655477081
 20
112.4672091732721
 30
0.0
  0
VERTEX
  5
328
330
320
100
AcDbEntity
  8
STANDARDEBENE
 62
     7
100
AcDbVertex
100
AcDb2dVertex
 10
22.23619655477081
 20
114.2834635130958
 30
0.0
  0
VERTEX
  5
329
330
320
100
AcDbEntity
  8
STANDARDEBENE
 62
     7
100
AcDbVertex
100
AcDb2dVertex
 10
22.23619655477081
 20
116.147949189713
 30
0.0
  0
VERTEX
  5
32A
330
320
100
AcDbEntity
  8
STANDARDEBENE
 62
     7
100
AcDbVertex
100
AcDb2dVertex
 10
22.23619655477081
 20
118.0296603437565
 30
0.0
  0
VERTEX
  5
32B
330
320
100
AcDbEntity
  8
STANDARDEBENE
 62
     7
100
AcDbVertex
100
AcDb2dVertex
 10
22.23619655477081
 20
119.2988335205225
 30
0.0
  0
VERTEX
  5
32C
330
320
100
AcDbEntity
  8
STANDARDEBENE
 62
     7
100
AcDbVertex
100
AcDb2dVertex
 10
22.23619655477081
 20
120.4805012719632
 30
0.0
  0
VERTEX
  5
32D
330
320
100
AcDbEntity
  8
STANDARDEBENE
 62
     7
100
AcDbVertex
100
AcDb2dVertex
 10
22.23619655477081
 20
121.51127384115
 30
0.0
  0
VERTEX
  5
32E
330
320
100
AcDbEntity
  8
STANDARDEBENE
 62
     7
100
AcDbVertex
100
AcDb2dVertex
 10
22.23619655477081
 20
122.3339626430276
 30
0.0
  0
SEQEND
  5
32F
330
320
100
AcDbEntity
  8
STANDARDEBENE
  0
POLYLINE
  5
330
330
1F
100
AcDbEntity
  8
STANDARDEBENE
 62
     7
100
AcDb2dPolyline
 66
     1
 10
0.0
 20
0.0
 30
0.0
  0
VERTEX
  5
331
330
330
100
AcDbEntity
  8
STANDARDEBENE
 62
     7
100
AcDbVertex
100
AcDb2dVertex
 10
18.88584119536534
 20
124.7537977118671
 30
0.0
  0
VERTEX
  5
332
330
330
100
AcDbEntity
  8
STANDARDEBENE
 62
     7
100
AcDbVertex
100
AcDb2dVertex
 10
18.88584119536534
 20
124.7069444132677
 30
0.0
  0
VERTEX
  5
333
330
330
100
AcDbEntity
  8
STANDARDEBENE
 62
     7
100
AcDbVertex
100
AcDb2dVertex
 10
18.88584119536534
 20
124.5670735365666
 30
0.0
  0
SEQEND
  5
334
330
330
100
AcDbEntity
  8
STANDARDEBENE
  0
POLYLINE
  5
335
330
1F
100
AcDbEntity
  8
STANDARDEBENE
 62
     7
100
AcDb2dPolyline
 66
     1
 10
0.0
 20
0.0
 30
0.0
  0
VERTEX
  5
336
330
335
100
AcDbEntity
  8
STANDARDEBENE
 62
     7
100
AcDbVertex
100
AcDb2dVertex
 10
22.23619655477081
 20
122.3339626430276
 30
0.0
  0
VERTEX
  5
337
330
335
100
AcDbEntity
  8
STANDARDEBENE
 62
     7
100
AcDbVertex
100
AcDb2dVertex
 10
22.23619655477081
 20
123.3192599518091
 30
0.0
  0
VERTEX
  5
338
330
335
100
AcDbEntity
  8
STANDARDEBENE
 62
     7
100
AcDbVertex
100
AcDb2dVertex
 10
22.23619655477081
 20
124.0454860800997
 30
0.0
  0
VERTEX
  5
339
330
335
100
AcDbEntity
  8
STANDARDEBENE
 62
     7
100
AcDbVertex
100
AcDb2dVertex
 10
22.23619655477081
 20
124.4981716268616
 30
0.0
  0
SEQEND
  5
33A
330
335
100
AcDbEntity
  8
STANDARDEBENE
  0
POLYLINE
  5
33B
330
1F
100
AcDbEntity
  8
STANDARDEBENE
 62
     7
100
AcDb2dPolyline
 66
     1
 10
0.0
 20
0.0
 30
0.0
  0
VERTEX
  5
33C
330
33B
100
AcDbEntity
  8
STANDARDEBENE
 62
     7
100
AcDbVertex
100
AcDb2dVertex
 10
22.23619655477081
 20
103.5871310504921
 30
0.0
  0
VERTEX
  5
33D
330
33B
100
AcDbEntity
  8
STANDARDEBENE
 62
     7
100
AcDbVertex
100
AcDb2dVertex
 10
22.23619655477081
 20
103.7359591754549
 30
0.0
  0
VERTEX
  5
33E
330
33B
100
AcDbEntity
  8
STANDARDEBENE
 62
     7
100
AcDbVertex
100
AcDb2dVertex
 10
22.23619655477081
 20
104.1707302256934
 30
0.0
  0
SEQEND
  5
33F
330
33B
100
AcDbEntity
  8
STANDARDEBENE
  0
POLYLINE
  5
340
330
1F
100
AcDbEntity
  8
STANDARDEBENE
 62
     7
100
AcDb2dPolyline
 66
     1
 10
0.0
 20
0.0
 30
0.0
  0
VERTEX
  5
341
330
340
100
AcDbEntity
  8
STANDARDEBENE
 62
     7
100
AcDbVertex
100
AcDb2dVertex
 10
-9.864514157690122
 20
106.8937336972349
 30
0.0
  0
VERTEX
  5
342
330
340
100
AcDbEntity
  8
STANDARDEBENE
 62
     7
100
AcDbVertex
100
AcDb2dVertex
 10
-10.20592312027838
 20
106.8268988448211
 30
0.0
  0
VERTEX
  5
343
330
340
100
AcDbEntity
  8
STANDARDEBENE
 62
     7
100
AcDbVertex
100
AcDb2dVertex
 10
-10.53975287279909
 20
106.522352403925
 30
0.0
  0
VERTEX
  5
344
330
340
100
AcDbEntity
  8
STANDARDEBENE
 62
     7
100
AcDbVertex
100
AcDb2dVertex
 10
-10.81398247342498
 20
106.026947673146
 30
0.0
  0
VERTEX
  5
345
330
340
100
AcDbEntity
  8
STANDARDEBENE
 62
     7
100
AcDbVertex
100
AcDb2dVertex
 10
-10.98692626678452
 20
105.4164767531598
 30
0.0
  0
VERTEX
  5
346
330
340
100
AcDbEntity
  8
STANDARDEBENE
 62
     7
100
AcDbVertex
100
AcDb2dVertex
 10
-11.03274603673834
 20
104.7832682029709
 30
0.0
  0
VERTEX
  5
347
330
340
100
AcDbEntity
  8
STANDARDEBENE
 62
     7
100
AcDbVertex
100
AcDb2dVertex
 10
-10.94489610186447
 20
104.2244737152633
 30
0.0
  0
VERTEX
  5
348
330
340
100
AcDbEntity
  8
STANDARDEBENE
 62
     7
100
AcDbVertex
100
AcDb2dVertex
 10
-10.73508978681276
 20
103.8241536198773
 30
0.0
  0
VERTEX
  5
349
330
340
100
AcDbEntity
  8
STANDARDEBENE
 62
     7
100
AcDbVertex
100
AcDb2dVertex
 10
-10.43674451779012
 20
103.6436306164502
 30
0.0
  0
SEQEND
  5
34A
330
340
100
AcDbEntity
  8
STANDARDEBENE
  0
POLYLINE
  5
34B
330
1F
100
AcDbEntity
  8
STANDARDEBENE
 62
     7
100
AcDb2dPolyline
 66
     1
 10
0.0
 20
0.0
 30
0.0
  0
VERTEX
  5
34C
330
34B
100
AcDbEntity
  8
STANDARDEBENE
 62
     7
100
AcDbVertex
100
AcDb2dVertex
 10
-31.12798800220064
 20
115.210194198628
 30
0.0
  0
VERTEX
  5
34D
330
34B
100
AcDbEntity
  8
STANDARDEBENE
 62
     7
100
AcDbVertex
100
AcDb2dVertex
 10
-31.12006428258457
 20
115.210194198628
 30
0.0
  0
VERTEX
  5
34E
330
34B
100
AcDbEntity
  8
STANDARDEBENE
 62
     7
100
AcDbVertex
100
AcDb2dVertex
 10
-31.11248507251702
 20
115.210194198628
 30
0.0
  0
SEQEND
  5
34F
330
34B
100
AcDbEntity
  8
STANDARDEBENE
  0
POLYLINE
  5
350
330
1F
100
AcDbEntity
  8
STANDARDEBENE
 62
     7
100
AcDb2dPolyline
 66
     1
 10
0.0
 20
0.0
 30
0.0
  0
VERTEX
  5
351
330
350
100
AcDbEntity
  8
STANDARDEBENE
 62
     7
100
AcDbVertex
100
AcDb2dVertex
 10
-14.41272921731696
 20
115.210194198628
 30
0.0
  0
VERTEX
  5
352
330
350
100
AcDbEntity
  8
STANDARDEBENE
 62
     7
100
AcDbVertex
100
AcDb2dVertex
 10
-14.4947224898659
 20
116.8989800054975
 30
0.0
  0
VERTEX
  5
353
330
350
100
AcDbEntity
  8
STANDARDEBENE
 62
     7
100
AcDbVertex
100
AcDb2dVertex
 10
-14.68420274155464
 20
118.5650281821643
 30
0.0
  0
VERTEX
  5
354
330
350
100
AcDbEntity
  8
STANDARDEBENE
 62
     7
100
AcDbVertex
100
AcDb2dVertex
 10
-14.98116997238318
 20
120.1911132512022
 30
0.0
  0
VERTEX
  5
355
330
350
100
AcDbEntity
  8
STANDARDEBENE
 62
     7
100
AcDbVertex
100
AcDb2dVertex
 10
-15.38217908686626
 20
121.7586316969909
 30
0.0
  0
VERTEX
  5
356
330
350
100
AcDbEntity
  8
STANDARDEBENE
 62
     7
100
AcDbVertex
100
AcDb2dVertex
 10
-15.88275146087306
 20
123.2510470612011
 30
0.0
  0
VERTEX
  5
357
330
350
100
AcDbEntity
  8
STANDARDEBENE
 62
     7
100
AcDbVertex
100
AcDb2dVertex
 10
-16.47703043207866
 20
124.6532009236978
 30
0.0
  0
VERTEX
  5
358
330
350
100
AcDbEntity
  8
STANDARDEBENE
 62
     7
100
AcDbVertex
100
AcDb2dVertex
 10
-17.1588148286096
 20
125.9478678070547
 30
0.0
  0
VERTEX
  5
359
330
350
100
AcDbEntity
  8
STANDARDEBENE
 62
     7
100
AcDbVertex
100
AcDb2dVertex
 10
-17.92155896904392
 20
127.1228176222992
 30
0.0
  0
VERTEX
  5
35A
330
350
100
AcDbEntity
  8
STANDARDEBENE
 62
     7
100
AcDbVertex
100
AcDb2dVertex
 10
-18.7556165860229
 20
128.1646144970387
 30
0.0
  0
SEQEND
  5
35B
330
350
100
AcDbEntity
  8
STANDARDEBENE
  0
POLYLINE
  5
35C
330
1F
100
AcDbEntity
  8
STANDARDEBENE
 62
     7
100
AcDb2dPolyline
 66
     1
 10
0.0
 20
0.0
 30
0.0
  0
VERTEX
  5
35D
330
35C
100
AcDbEntity
  8
STANDARDEBENE
 62
     7
100
AcDbVertex
100
AcDb2dVertex
 10
-20.2917846628958
 20
129.884750672824
 30
0.0
  0
VERTEX
  5
35E
330
35C
100
AcDbEntity
  8
STANDARDEBENE
 62
     7
100
AcDbVertex
100
AcDb2dVertex
 10
-21.22092691526769
 20
130.816649001584
 30
0.0
  0
VERTEX
  5
35F
330
35C
100
AcDbEntity
  8
STANDARDEBENE
 62
     7
100
AcDbVertex
100
AcDb2dVertex
 10
-22.20484618585504
 20
131.5921399953138
 30
0.0
  0
VERTEX
  5
360
330
35C
100
AcDbEntity
  8
STANDARDEBENE
 62
     7
100
AcDbVertex
100
AcDb2dVertex
 10
-23.23217365955654
 20
132.2046779725912
 30
0.0
  0
VERTEX
  5
361
330
35C
100
AcDbEntity
  8
STANDARDEBENE
 62
     7
100
AcDbVertex
100
AcDb2dVertex
 10
-24.29429659765907
 20
132.6463392138002
 30
0.0
  0
VERTEX
  5
362
330
35C
100
AcDbEntity
  8
STANDARDEBENE
 62
     7
100
AcDbVertex
100
AcDb2dVertex
 10
-25.37777912777014
 20
132.9140231330042
 30
0.0
  0
VERTEX
  5
363
330
35C
100
AcDbEntity
  8
STANDARDEBENE
 62
     7
100
AcDbVertex
100
AcDb2dVertex
 10
-26.47331949207959
 20
133.0029065965236
 30
0.0
  0
SEQEND
  5
364
330
35C
100
AcDbEntity
  8
STANDARDEBENE
  0
POLYLINE
  5
365
330
1F
100
AcDbEntity
  8
STANDARDEBENE
 62
     7
100
AcDb2dPolyline
 66
     1
 10
0.0
 20
0.0
 30
0.0
  0
VERTEX
  5
366
330
365
100
AcDbEntity
  8
STANDARDEBENE
 62
     7
100
AcDbVertex
100
AcDb2dVertex
 10
-30.22227239912846
 20
133.0029065965236
 30
0.0
  0
VERTEX
  5
367
330
365
100
AcDbEntity
  8
STANDARDEBENE
 62
     7
100
AcDbVertex
100
AcDb2dVertex
 10
-31.11248507251702
 20
132.8750935540208
 30
0.0
  0
SEQEND
  5
368
330
365
100
AcDbEntity
  8
STANDARDEBENE
  0
POLYLINE
  5
369
330
1F
100
AcDbEntity
  8
STANDARDEBENE
 62
     7
100
AcDb2dPolyline
 66
     1
 10
0.0
 20
0.0
 30
0.0
  0
VERTEX
  5
36A
330
369
100
AcDbEntity
  8
STANDARDEBENE
 62
     7
100
AcDbVertex
100
AcDb2dVertex
 10
-9.879328068276696
 20
111.5583929842632
 30
0.0
  0
VERTEX
  5
36B
330
369
100
AcDbEntity
  8
STANDARDEBENE
 62
     7
100
AcDbVertex
100
AcDb2dVertex
 10
-9.72602131918308
 20
109.8000162485917
 30
0.0
  0
VERTEX
  5
36C
330
369
100
AcDbEntity
  8
STANDARDEBENE
 62
     7
100
AcDbVertex
100
AcDb2dVertex
 10
-9.57753770376881
 20
108.1064073080428
 30
0.0
  0
VERTEX
  5
36D
330
369
100
AcDbEntity
  8
STANDARDEBENE
 62
     7
100
AcDbVertex
100
AcDb2dVertex
 10
-9.436633298422093
 20
106.4996147737223
 30
0.0
  0
VERTEX
  5
36E
330
369
100
AcDbEntity
  8
STANDARDEBENE
 62
     7
100
AcDbVertex
100
AcDb2dVertex
 10
-9.305375160434073
 20
104.9996201994445
 30
0.0
  0
VERTEX
  5
36F
330
369
100
AcDbEntity
  8
STANDARDEBENE
 62
     7
100
AcDbVertex
100
AcDb2dVertex
 10
-9.18617485664443
 20
103.6277831772181
 30
0.0
  0
VERTEX
  5
370
330
369
100
AcDbEntity
  8
STANDARDEBENE
 62
     7
100
AcDbVertex
100
AcDb2dVertex
 10
-9.078343367956109
 20
102.4006401653721
 30
0.0
  0
VERTEX
  5
371
330
369
100
AcDbEntity
  8
STANDARDEBENE
 62
     7
100
AcDbVertex
100
AcDb2dVertex
 10
-8.984981280305838
 20
101.3333495840417
 30
0.0
  0
VERTEX
  5
372
330
369
100
AcDbEntity
  8
STANDARDEBENE
 62
     7
100
AcDbVertex
100
AcDb2dVertex
 10
-8.906777612790668
 20
100.4403808342649
 30
0.0
  0
VERTEX
  5
373
330
369
100
AcDbEntity
  8
STANDARDEBENE
 62
     7
100
AcDbVertex
100
AcDb2dVertex
 10
-8.845110403604695
 20
99.7341362597887
 30
0.0
  0
VERTEX
  5
374
330
369
100
AcDbEntity
  8
STANDARDEBENE
 62
     7
100
AcDbVertex
100
AcDb2dVertex
 10
-8.800324162296446
 20
99.22357310887466
 30
0.0
  0
VERTEX
  5
375
330
369
100
AcDbEntity
  8
STANDARDEBENE
 62
     7
100
AcDbVertex
100
AcDb2dVertex
 10
-8.773107907962974
 20
98.91420353429923
 30
0.0
  0
VERTEX
  5
376
330
369
100
AcDbEntity
  8
STANDARDEBENE
 62
     7
100
AcDbVertex
100
AcDb2dVertex
 10
-8.764495169249848
 20
98.81085066974174
 30
0.0
  0
SEQEND
  5
377
330
369
100
AcDbEntity
  8
STANDARDEBENE
  0
POLYLINE
  5
378
330
1F
100
AcDbEntity
  8
STANDARDEBENE
 62
     7
100
AcDb2dPolyline
 66
     1
 10
0.0
 20
0.0
 30
0.0
  0
VERTEX
  5
379
330
378
100
AcDbEntity
  8
STANDARDEBENE
 62
     7
100
AcDbVertex
100
AcDb2dVertex
 10
-4.013708495090323
 20
99.5329426834501
 30
0.0
  0
VERTEX
  5
37A
330
378
100
AcDbEntity
  8
STANDARDEBENE
 62
     7
100
AcDbVertex
100
AcDb2dVertex
 10
-4.427464462868828
 20
100.1317002787865
 30
0.0
  0
VERTEX
  5
37B
330
378
100
AcDbEntity
  8
STANDARDEBENE
 62
     7
100
AcDbVertex
100
AcDb2dVertex
 10
-4.742346190220664
 20
100.8992675529002
 30
0.0
  0
VERTEX
  5
37C
330
378
100
AcDbEntity
  8
STANDARDEBENE
 62
     7
100
AcDbVertex
100
AcDb2dVertex
 10
-4.953530543466479
 20
101.8266872575294
 30
0.0
  0
VERTEX
  5
37D
330
378
100
AcDbEntity
  8
STANDARDEBENE
 62
     7
100
AcDbVertex
100
AcDb2dVertex
 10
-5.059983993960699
 20
102.9050021444126
 30
0.0
  0
VERTEX
  5
37E
330
378
100
AcDbEntity
  8
STANDARDEBENE
 62
     7
100
AcDbVertex
100
AcDb2dVertex
 10
-5.059983993960699
 20
104.1204318316088
 30
0.0
  0
VERTEX
  5
37F
330
378
100
AcDbEntity
  8
STANDARDEBENE
 62
     7
100
AcDbVertex
100
AcDb2dVertex
 10
-4.953530543466479
 20
105.4591959371769
 30
0.0
  0
VERTEX
  5
380
330
378
100
AcDbEntity
  8
STANDARDEBENE
 62
     7
100
AcDbVertex
100
AcDb2dVertex
 10
-4.742346190220664
 20
106.9061360409818
 30
0.0
  0
VERTEX
  5
381
330
378
100
AcDbEntity
  8
STANDARDEBENE
 62
     7
100
AcDbVertex
100
AcDb2dVertex
 10
-4.427464462868828
 20
108.4433376465003
 30
0.0
  0
VERTEX
  5
382
330
378
100
AcDbEntity
  8
STANDARDEBENE
 62
     7
100
AcDbVertex
100
AcDb2dVertex
 10
-4.013708495090323
 20
110.0542642954031
 30
0.0
  0
SEQEND
  5
383
330
378
100
AcDbEntity
  8
STANDARDEBENE
  0
POLYLINE
  5
384
330
1F
100
AcDbEntity
  8
STANDARDEBENE
 62
     7
100
AcDb2dPolyline
 66
     1
 10
0.0
 20
0.0
 30
0.0
  0
VERTEX
  5
385
330
384
100
AcDbEntity
  8
STANDARDEBENE
 62
     7
100
AcDbVertex
100
AcDb2dVertex
 10
-1.513947210993041
 20
110.0542642954031
 30
0.0
  0
VERTEX
  5
386
330
384
100
AcDbEntity
  8
STANDARDEBENE
 62
     7
100
AcDbVertex
100
AcDb2dVertex
 10
-1.100535752763061
 20
108.4433376465003
 30
0.0
  0
VERTEX
  5
387
330
384
100
AcDbEntity
  8
STANDARDEBENE
 62
     7
100
AcDbVertex
100
AcDb2dVertex
 10
-0.7863430445082754
 20
106.9061360409818
 30
0.0
  0
VERTEX
  5
388
330
384
100
AcDbEntity
  8
STANDARDEBENE
 62
     7
100
AcDbVertex
100
AcDb2dVertex
 10
-0.5737806530683605
 20
105.4591959371769
 30
0.0
  0
VERTEX
  5
389
330
384
100
AcDbEntity
  8
STANDARDEBENE
 62
     7
100
AcDbVertex
100
AcDb2dVertex
 10
-0.4680162216711904
 20
104.1204318316088
 30
0.0
  0
VERTEX
  5
38A
330
384
100
AcDbEntity
  8
STANDARDEBENE
 62
     7
100
AcDbVertex
100
AcDb2dVertex
 10
-0.4680162216711904
 20
102.9050021444126
 30
0.0
  0
VERTEX
  5
38B
330
384
100
AcDbEntity
  8
STANDARDEBENE
 62
     7
100
AcDbVertex
100
AcDb2dVertex
 10
-0.5737806530683605
 20
101.8266872575294
 30
0.0
  0
VERTEX
  5
38C
330
384
100
AcDbEntity
  8
STANDARDEBENE
 62
     7
100
AcDbVertex
100
AcDb2dVertex
 10
-0.7863430445082754
 20
100.8992675529002
 30
0.0
  0
VERTEX
  5
38D
330
384
100
AcDbEntity
  8
STANDARDEBENE
 62
     7
100
AcDbVertex
100
AcDb2dVertex
 10
-1.100535752763061
 20
100.1317002787865
 30
0.0
  0
VERTEX
  5
38E
330
384
100
AcDbEntity
  8
STANDARDEBENE
 62
     7
100
AcDbVertex
100
AcDb2dVertex
 10
-1.513947210993041
 20
99.5329426834501
 30
0.0
  0
SEQEND
  5
38F
330
384
100
AcDbEntity
  8
STANDARDEBENE
  0
POLYLINE
  5
390
330
1F
100
AcDbEntity
  8
STANDARDEBENE
 62
     7
100
AcDb2dPolyline
 66
     1
 10
0.0
 20
0.0
 30
0.0
  0
VERTEX
  5
391
330
390
100
AcDbEntity
  8
STANDARDEBENE
 62
     7
100
AcDbVertex
100
AcDb2dVertex
 10
-4.013708495090323
 20
119.5654839110809
 30
0.0
  0
VERTEX
  5
392
330
390
100
AcDbEntity
  8
STANDARDEBENE
 62
     7
100
AcDbVertex
100
AcDb2dVertex
 10
-4.427464462868828
 20
121.1770995790807
 30
0.0
  0
VERTEX
  5
393
330
390
100
AcDbEntity
  8
STANDARDEBENE
 62
     7
100
AcDbVertex
100
AcDb2dVertex
 10
-4.742346190220664
 20
122.7143011845992
 30
0.0
  0
VERTEX
  5
394
330
390
100
AcDbEntity
  8
STANDARDEBENE
 62
     7
100
AcDbVertex
100
AcDb2dVertex
 10
-4.953530543466479
 20
124.1612412884041
 30
0.0
  0
VERTEX
  5
395
330
390
100
AcDbEntity
  8
STANDARDEBENE
 62
     7
100
AcDbVertex
100
AcDb2dVertex
 10
-5.059983993960699
 20
125.4993163748752
 30
0.0
  0
VERTEX
  5
396
330
390
100
AcDbEntity
  8
STANDARDEBENE
 62
     7
100
AcDbVertex
100
AcDb2dVertex
 10
-5.059983993960699
 20
126.7154350811684
 30
0.0
  0
VERTEX
  5
397
330
390
100
AcDbEntity
  8
STANDARDEBENE
 62
     7
100
AcDbVertex
100
AcDb2dVertex
 10
-4.953530543466479
 20
127.7932332037288
 30
0.0
  0
VERTEX
  5
398
330
390
100
AcDbEntity
  8
STANDARDEBENE
 62
     7
100
AcDbVertex
100
AcDb2dVertex
 10
-4.742346190220664
 20
128.7209974179066
 30
0.0
  0
VERTEX
  5
399
330
390
100
AcDbEntity
  8
STANDARDEBENE
 62
     7
100
AcDbVertex
100
AcDb2dVertex
 10
-4.427464462868828
 20
129.4889092015688
 30
0.0
  0
VERTEX
  5
39A
330
390
100
AcDbEntity
  8
STANDARDEBENE
 62
     7
100
AcDbVertex
100
AcDb2dVertex
 10
-4.013708495090323
 20
130.0869777778081
 30
0.0
  0
SEQEND
  5
39B
330
390
100
AcDbEntity
  8
STANDARDEBENE
  0
POLYLINE
  5
39C
330
1F
100
AcDbEntity
  8
STANDARDEBENE
 62
     7
100
AcDb2dPolyline
 66
     1
 10
0.0
 20
0.0
 30
0.0
  0
VERTEX
  5
39D
330
39C
100
AcDbEntity
  8
STANDARDEBENE
 62
     7
100
AcDbVertex
100
AcDb2dVertex
 10
-1.513947210993041
 20
130.0869777778081
 30
0.0
  0
VERTEX
  5
39E
330
39C
100
AcDbEntity
  8
STANDARDEBENE
 62
     7
100
AcDbVertex
100
AcDb2dVertex
 10
-1.100535752763061
 20
129.4889092015688
 30
0.0
  0
VERTEX
  5
39F
330
39C
100
AcDbEntity
  8
STANDARDEBENE
 62
     7
100
AcDbVertex
100
AcDb2dVertex
 10
-0.7863430445082754
 20
128.7209974179066
 30
0.0
  0
VERTEX
  5
3A0
330
39C
100
AcDbEntity
  8
STANDARDEBENE
 62
     7
100
AcDbVertex
100
AcDb2dVertex
 10
-0.5737806530683605
 20
127.7932332037288
 30
0.0
  0
VERTEX
  5
3A1
330
39C
100
AcDbEntity
  8
STANDARDEBENE
 62
     7
100
AcDbVertex
100
AcDb2dVertex
 10
-0.4680162216711904
 20
126.7154350811684
 30
0.0
  0
VERTEX
  5
3A2
330
39C
100
AcDbEntity
  8
STANDARDEBENE
 62
     7
100
AcDbVertex
100
AcDb2dVertex
 10
-0.4680162216711904
 20
125.4993163748752
 30
0.0
  0
VERTEX
  5
3A3
330
39C
100
AcDbEntity
  8
STANDARDEBENE
 62
     7
100
AcDbVertex
100
AcDb2dVertex
 10
-0.5737806530683605
 20
124.1612412884041
 30
0.0
  0
VERTEX
  5
3A4
330
39C
100
AcDbEntity
  8
STANDARDEBENE
 62
     7
100
AcDbVertex
100
AcDb2dVertex
 10
-0.7863430445082754
 20
122.7143011845992
 30
0.0
  0
VERTEX
  5
3A5
330
39C
100
AcDbEntity
  8
STANDARDEBENE
 62
     7
100
AcDbVertex
100
AcDb2dVertex
 10
-1.100535752763061
 20
121.1770995790807
 30
0.0
  0
VERTEX
  5
3A6
330
39C
100
AcDbEntity
  8
STANDARDEBENE
 62
     7
100
AcDbVertex
100
AcDb2dVertex
 10
-1.513947210993041
 20
119.5654839110809
 30
0.0
  0
SEQEND
  5
3A7
330
39C
100
AcDbEntity
  8
STANDARDEBENE
  0
POLYLINE
  5
3A8
330
1F
100
AcDbEntity
  8
STANDARDEBENE
 62
     7
100
AcDb2dPolyline
 66
     1
 10
0.0
 20
0.0
 30
0.0
  0
VERTEX
  5
3A9
330
3A8
100
AcDbEntity
  8
STANDARDEBENE
 62
     7
100
AcDbVertex
100
AcDb2dVertex
 10
-31.19895696919679
 20
117.7823024879155
 30
0.0
  0
VERTEX
  5
3AA
330
3A8
100
AcDbEntity
  8
STANDARDEBENE
 62
     7
100
AcDbVertex
100
AcDb2dVertex
 10
-31.27027044574146
 20
118.7800021404439
 30
0.0
  0
SEQEND
  5
3AB
330
3A8
100
AcDbEntity
  8
STANDARDEBENE
  0
POLYLINE
  5
3AC
330
1F
100
AcDbEntity
  8
STANDARDEBENE
 62
     7
100
AcDb2dPolyline
 66
     1
 10
0.0
 20
0.0
 30
0.0
  0
VERTEX
  5
3AD
330
3AC
100
AcDbEntity
  8
STANDARDEBENE
 62
     7
100
AcDbVertex
100
AcDb2dVertex
 10
-35.10879583540683
 20
125.9092827376199
 30
0.0
  0
VERTEX
  5
3AE
330
3AC
100
AcDbEntity
  8
STANDARDEBENE
 62
     7
100
AcDbVertex
100
AcDb2dVertex
 10
-35.42436658185571
 20
124.4602755765238
 30
0.0
  0
SEQEND
  5
3AF
330
3AC
100
AcDbEntity
  8
STANDARDEBENE
  0
POLYLINE
  5
3B0
330
1F
100
AcDbEntity
  8
STANDARDEBENE
 62
     7
100
AcDb2dPolyline
 66
     1
 10
0.0
 20
0.0
 30
0.0
  0
VERTEX
  5
3B1
330
3B0
100
AcDbEntity
  8
STANDARDEBENE
 62
     7
100
AcDbVertex
100
AcDb2dVertex
 10
-35.10879583540683
 20
125.9092827376199
 30
0.0
  0
VERTEX
  5
3B2
330
3B0
100
AcDbEntity
  8
STANDARDEBENE
 62
     7
100
AcDbVertex
100
AcDb2dVertex
 10
-34.27852782346162
 20
127.5744696404154
 30
0.0
  0
VERTEX
  5
3B3
330
3B0
100
AcDbEntity
  8
STANDARDEBENE
 62
     7
100
AcDbVertex
100
AcDb2dVertex
 10
-33.33663871779432
 20
129.0810098961152
 30
0.0
  0
VERTEX
  5
3B4
330
3B0
100
AcDbEntity
  8
STANDARDEBENE
 62
     7
100
AcDbVertex
100
AcDb2dVertex
 10
-32.29690890034591
 20
130.4121947916157
 30
0.0
  0
SEQEND
  5
3B5
330
3B0
100
AcDbEntity
  8
STANDARDEBENE
  0
POLYLINE
  5
3B6
330
1F
100
AcDbEntity
  8
STANDARDEBENE
 62
     7
100
AcDb2dPolyline
 66
     1
 10
0.0
 20
0.0
 30
0.0
  0
VERTEX
  5
3B7
330
3B6
100
AcDbEntity
  8
STANDARDEBENE
 62
     7
100
AcDbVertex
100
AcDb2dVertex
 10
-13.86461452561371
 20
115.210194198628
 30
0.0
  0
VERTEX
  5
3B8
330
3B6
100
AcDbEntity
  8
STANDARDEBENE
 62
     7
100
AcDbVertex
100
AcDb2dVertex
 10
-13.58556179130847
 20
115.2005479312693
 30
0.0
  0
VERTEX
  5
3B9
330
3B6
100
AcDbEntity
  8
STANDARDEBENE
 62
     7
100
AcDbVertex
100
AcDb2dVertex
 10
-13.30892062384291
 20
115.1716091291932
 30
0.0
  0
VERTEX
  5
3BA
330
3B6
100
AcDbEntity
  8
STANDARDEBENE
 62
     7
100
AcDbVertex
100
AcDb2dVertex
 10
-13.0357245518626
 20
115.1233777923997
 30
0.0
  0
VERTEX
  5
3BB
330
3B6
100
AcDbEntity
  8
STANDARDEBENE
 62
     7
100
AcDbVertex
100
AcDb2dVertex
 10
-12.76562906581901
 20
115.0558539208888
 30
0.0
  0
SEQEND
  5
3BC
330
3B6
100
AcDbEntity
  8
STANDARDEBENE
  0
POLYLINE
  5
3BD
330
1F
100
AcDbEntity
  8
STANDARDEBENE
 62
     7
100
AcDb2dPolyline
 66
     1
 10
0.0
 20
0.0
 30
0.0
  0
VERTEX
  5
3BE
330
3BD
100
AcDbEntity
  8
STANDARDEBENE
 62
     7
100
AcDbVertex
100
AcDb2dVertex
 10
-12.83866509010631
 20
129.884750672824
 30
0.0
  0
VERTEX
  5
3BF
330
3BD
100
AcDbEntity
  8
STANDARDEBENE
 62
     7
100
AcDbVertex
100
AcDb2dVertex
 10
-12.80697021164201
 20
129.4551472658133
 30
0.0
  0
VERTEX
  5
3C0
330
3BD
100
AcDbEntity
  8
STANDARDEBENE
 62
     7
100
AcDbVertex
100
AcDb2dVertex
 10
-12.78388807189083
 20
129.0251993492541
 30
0.0
  0
VERTEX
  5
3C1
330
3BD
100
AcDbEntity
  8
STANDARDEBENE
 62
     7
100
AcDbVertex
100
AcDb2dVertex
 10
-12.76941867085278
 20
128.5949069231464
 30
0.0
  0
VERTEX
  5
3C2
330
3BD
100
AcDbEntity
  8
STANDARDEBENE
 62
     7
100
AcDbVertex
100
AcDb2dVertex
 10
-12.76562906581901
 20
128.1646144970387
 30
0.0
  0
SEQEND
  5
3C3
330
3BD
100
AcDbEntity
  8
STANDARDEBENE
  0
POLYLINE
  5
3C4
330
1F
100
AcDbEntity
  8
STANDARDEBENE
 62
     7
100
AcDb2dPolyline
 66
     1
 10
0.0
 20
0.0
 30
0.0
  0
VERTEX
  5
3C5
330
3C4
100
AcDbEntity
  8
STANDARDEBENE
 62
     7
100
AcDbVertex
100
AcDb2dVertex
 10
-12.83866509010631
 20
129.884750672824
 30
0.0
  0
VERTEX
  5
3C6
330
3C4
100
AcDbEntity
  8
STANDARDEBENE
 62
     7
100
AcDbVertex
100
AcDb2dVertex
 10
-12.90308837568048
 20
130.5999524955618
 30
0.0
  0
VERTEX
  5
3C7
330
3C4
100
AcDbEntity
  8
STANDARDEBENE
 62
     7
100
AcDbVertex
100
AcDb2dVertex
 10
-12.96751166125465
 20
131.2231702688435
 30
0.0
  0
VERTEX
  5
3C8
330
3C4
100
AcDbEntity
  8
STANDARDEBENE
 62
     7
100
AcDbVertex
100
AcDb2dVertex
 10
-13.03090141818325
 20
131.7581935977028
 30
0.0
  0
VERTEX
  5
3C9
330
3C4
100
AcDbEntity
  8
STANDARDEBENE
 62
     7
100
AcDbVertex
100
AcDb2dVertex
 10
-13.09429117511185
 20
132.2015773866545
 30
0.0
  0
VERTEX
  5
3CA
330
3C4
100
AcDbEntity
  8
STANDARDEBENE
 62
     7
100
AcDbVertex
100
AcDb2dVertex
 10
-13.12633056312467
 20
132.387612542858
 30
0.0
  0
VERTEX
  5
3CB
330
3C4
100
AcDbEntity
  8
STANDARDEBENE
 62
     7
100
AcDbVertex
100
AcDb2dVertex
 10
-13.15802544158897
 20
132.5505655593103
 30
0.0
  0
VERTEX
  5
3CC
330
3C4
100
AcDbEntity
  8
STANDARDEBENE
 62
     7
100
AcDbVertex
100
AcDb2dVertex
 10
-13.18937581050474
 20
132.6890583978173
 30
0.0
  0
VERTEX
  5
3CD
330
3C4
100
AcDbEntity
  8
STANDARDEBENE
 62
     7
100
AcDbVertex
100
AcDb2dVertex
 10
-13.21934814122641
 20
132.8010240010879
 30
0.0
  0
VERTEX
  5
3CE
330
3C4
100
AcDbEntity
  8
STANDARDEBENE
 62
     7
100
AcDbVertex
100
AcDb2dVertex
 10
-13.27963731221829
 20
132.9515746737934
 30
0.0
  0
VERTEX
  5
3CF
330
3C4
100
AcDbEntity
  8
STANDARDEBENE
 62
     7
100
AcDbVertex
100
AcDb2dVertex
 10
-13.33889295456458
 20
133.0029065965236
 30
0.0
  0
SEQEND
  5
3D0
330
3C4
100
AcDbEntity
  8
STANDARDEBENE
  0
POLYLINE
  5
3D1
330
1F
100
AcDbEntity
  8
STANDARDEBENE
 62
     7
100
AcDb2dPolyline
 66
     1
 10
0.0
 20
0.0
 30
0.0
  0
VERTEX
  5
3D2
330
3D1
100
AcDbEntity
  8
STANDARDEBENE
 62
     7
100
AcDbVertex
100
AcDb2dVertex
 10
-12.76562906581901
 20
115.0558539208888
 30
0.0
  0
VERTEX
  5
3D3
330
3D1
100
AcDbEntity
  8
STANDARDEBENE
 62
     7
100
AcDbVertex
100
AcDb2dVertex
 10
-12.72532144864159
 20
115.044829615336
 30
0.0
  0
VERTEX
  5
3D4
330
3D1
100
AcDbEntity
  8
STANDARDEBENE
 62
     7
100
AcDbVertex
100
AcDb2dVertex
 10
-12.68466932191564
 20
115.0324272715891
 30
0.0
  0
VERTEX
  5
3D5
330
3D1
100
AcDbEntity
  8
STANDARDEBENE
 62
     7
100
AcDbVertex
100
AcDb2dVertex
 10
-12.40320502077073
 20
114.933897540711
 30
0.0
  0
VERTEX
  5
3D6
330
3D1
100
AcDbEntity
  8
STANDARDEBENE
 62
     7
100
AcDbVertex
100
AcDb2dVertex
 10
-12.13173149653304
 20
114.8153862560184
 30
0.0
  0
VERTEX
  5
3D7
330
3D1
100
AcDbEntity
  8
STANDARDEBENE
 62
     7
100
AcDbVertex
100
AcDb2dVertex
 10
-11.87024874920258
 20
114.6782714557054
 30
0.0
  0
VERTEX
  5
3D8
330
3D1
100
AcDbEntity
  8
STANDARDEBENE
 62
     7
100
AcDbVertex
100
AcDb2dVertex
 10
-11.61841226923081
 20
114.520486082481
 30
0.0
  0
VERTEX
  5
3D9
330
3D1
100
AcDbEntity
  8
STANDARDEBENE
 62
     7
100
AcDbVertex
100
AcDb2dVertex
 10
-11.55674506004484
 20
114.4777668984639
 30
0.0
  0
VERTEX
  5
3DA
330
3D1
100
AcDbEntity
  8
STANDARDEBENE
 62
     7
100
AcDbVertex
100
AcDb2dVertex
 10
-11.49645588905297
 20
114.4336696762527
 30
0.0
  0
VERTEX
  5
3DB
330
3D1
100
AcDbEntity
  8
STANDARDEBENE
 62
     7
100
AcDbVertex
100
AcDb2dVertex
 10
-11.43651122760962
 20
114.3895724540415
 30
0.0
  0
VERTEX
  5
3DC
330
3D1
100
AcDbEntity
  8
STANDARDEBENE
 62
     7
100
AcDbVertex
100
AcDb2dVertex
 10
-11.37725558526333
 20
114.3427191554421
 30
0.0
  0
VERTEX
  5
3DD
330
3D1
100
AcDbEntity
  8
STANDARDEBENE
 62
     7
100
AcDbVertex
100
AcDb2dVertex
 10
-11.26253390560451
 20
114.2490125582433
 30
0.0
  0
VERTEX
  5
3DE
330
3D1
100
AcDbEntity
  8
STANDARDEBENE
 62
     7
100
AcDbVertex
100
AcDb2dVertex
 10
-11.15229085007651
 20
114.1497938082681
 30
0.0
  0
VERTEX
  5
3DF
330
3D1
100
AcDbEntity
  8
STANDARDEBENE
 62
     7
100
AcDbVertex
100
AcDb2dVertex
 10
-10.94179551592775
 20
113.941710040959
 30
0.0
  0
VERTEX
  5
3E0
330
3D1
100
AcDbEntity
  8
STANDARDEBENE
 62
     7
100
AcDbVertex
100
AcDb2dVertex
 10
-10.74887016875376
 20
113.7184678535148
 30
0.0
  0
VERTEX
  5
3E1
330
3D1
100
AcDbEntity
  8
STANDARDEBENE
 62
     7
100
AcDbVertex
100
AcDb2dVertex
 10
-10.65723062884611
 20
113.6006455879193
 30
0.0
  0
VERTEX
  5
3E2
330
3D1
100
AcDbEntity
  8
STANDARDEBENE
 62
     7
100
AcDbVertex
100
AcDb2dVertex
 10
-10.57041422261781
 20
113.4807562650326
 30
0.0
  0
VERTEX
  5
3E3
330
3D1
100
AcDbEntity
  8
STANDARDEBENE
 62
     7
100
AcDbVertex
100
AcDb2dVertex
 10
-10.52907307679482
 20
113.418055527201
 30
0.0
  0
VERTEX
  5
3E4
330
3D1
100
AcDbEntity
  8
STANDARDEBENE
 62
     7
100
AcDbVertex
100
AcDb2dVertex
 10
-10.48842095006887
 20
113.3560438084666
 30
0.0
  0
VERTEX
  5
3E5
330
3D1
100
AcDbEntity
  8
STANDARDEBENE
 62
     7
100
AcDbVertex
100
AcDb2dVertex
 10
-10.44914686153702
 20
113.2919650324409
 30
0.0
  0
VERTEX
  5
3E6
330
3D1
100
AcDbEntity
  8
STANDARDEBENE
 62
     7
100
AcDbVertex
100
AcDb2dVertex
 10
-10.41125081119927
 20
113.2285752755123
 30
0.0
  0
VERTEX
  5
3E7
330
3D1
100
AcDbEntity
  8
STANDARDEBENE
 62
     7
100
AcDbVertex
100
AcDb2dVertex
 10
-10.27137993449813
 20
112.9688150759245
 30
0.0
  0
VERTEX
  5
3E8
330
3D1
100
AcDbEntity
  8
STANDARDEBENE
 62
     7
100
AcDbVertex
100
AcDb2dVertex
 10
-10.15252414025701
 20
112.700097628075
 30
0.0
  0
VERTEX
  5
3E9
330
3D1
100
AcDbEntity
  8
STANDARDEBENE
 62
     7
100
AcDbVertex
100
AcDb2dVertex
 10
-10.09981417933269
 20
112.562982827762
 30
0.0
  0
VERTEX
  5
3EA
330
3D1
100
AcDbEntity
  8
STANDARDEBENE
 62
     7
100
AcDbVertex
100
AcDb2dVertex
 10
-10.05261637118476
 20
112.4238009701579
 30
0.0
  0
VERTEX
  5
3EB
330
3D1
100
AcDbEntity
  8
STANDARDEBENE
 62
     7
100
AcDbVertex
100
AcDb2dVertex
 10
-10.03091226962769
 20
112.3528320031618
 30
0.0
  0
VERTEX
  5
3EC
330
3D1
100
AcDbEntity
  8
STANDARDEBENE
 62
     7
100
AcDbVertex
100
AcDb2dVertex
 10
-10.01024169671619
 20
112.2818630361656
 30
0.0
  0
VERTEX
  5
3ED
330
3D1
100
AcDbEntity
  8
STANDARDEBENE
 62
     7
100
AcDbVertex
100
AcDb2dVertex
 10
-9.99163818109584
 20
112.2102050500725
 30
0.0
  0
VERTEX
  5
3EE
330
3D1
100
AcDbEntity
  8
STANDARDEBENE
 62
     7
100
AcDbVertex
100
AcDb2dVertex
 10
-9.973379175024016
 20
112.1385470639793
 30
0.0
  0
VERTEX
  5
3EF
330
3D1
100
AcDbEntity
  8
STANDARDEBENE
 62
     7
100
AcDbVertex
100
AcDb2dVertex
 10
-9.916535099517395
 20
111.8505370814124
 30
0.0
  0
VERTEX
  5
3F0
330
3D1
100
AcDbEntity
  8
STANDARDEBENE
 62
     7
100
AcDbVertex
100
AcDb2dVertex
 10
-9.879328068276696
 20
111.5583929842632
 30
0.0
  0
SEQEND
  5
3F1
330
3D1
100
AcDbEntity
  8
STANDARDEBENE
  0
POLYLINE
  5
3F2
330
1F
100
AcDbEntity
  8
STANDARDEBENE
 62
     7
100
AcDb2dPolyline
 66
     1
 10
0.0
 20
0.0
 30
0.0
  0
VERTEX
  5
3F3
330
3F2
100
AcDbEntity
  8
STANDARDEBENE
 62
     7
100
AcDbVertex
100
AcDb2dVertex
 10
18.88584119536534
 20
124.5670735365666
 30
0.0
  0
VERTEX
  5
3F4
330
3F2
100
AcDbEntity
  8
STANDARDEBENE
 62
     7
100
AcDbVertex
100
AcDb2dVertex
 10
20.56084662029382
 20
124.5326225817141
 30
0.0
  0
VERTEX
  5
3F5
330
3F2
100
AcDbEntity
  8
STANDARDEBENE
 62
     7
100
AcDbVertex
100
AcDb2dVertex
 10
22.23619655477081
 20
124.4981716268616
 30
0.0
  0
SEQEND
  5
3F6
330
3F2
100
AcDbEntity
  8
STANDARDEBENE
  0
POLYLINE
  5
3F7
330
1F
100
AcDbEntity
  8
STANDARDEBENE
 62
     7
100
AcDb2dPolyline
 66
     1
 10
0.0
 20
0.0
 30
0.0
  0
VERTEX
  5
3F8
330
3F7
100
AcDbEntity
  8
STANDARDEBENE
 62
     7
100
AcDbVertex
100
AcDb2dVertex
 10
-31.11110703432292
 20
132.3559176643937
 30
0.0
  0
VERTEX
  5
3F9
330
3F7
100
AcDbEntity
  8
STANDARDEBENE
 62
     7
100
AcDbVertex
100
AcDb2dVertex
 10
-31.12144232077867
 20
132.3156100472162
 30
0.0
  0
SEQEND
  5
3FA
330
3F7
100
AcDbEntity
  8
STANDARDEBENE
  0
POLYLINE
  5
3FB
330
1F
100
AcDbEntity
  8
STANDARDEBENE
 62
     7
100
AcDb2dPolyline
 66
     1
 10
0.0
 20
0.0
 30
0.0
  0
VERTEX
  5
3FC
330
3FB
100
AcDbEntity
  8
STANDARDEBENE
 62
     7
100
AcDbVertex
100
AcDb2dVertex
 10
-31.12798800220064
 20
115.210194198628
 30
0.0
  0
VERTEX
  5
3FD
330
3FB
100
AcDbEntity
  8
STANDARDEBENE
 62
     7
100
AcDbVertex
100
AcDb2dVertex
 10
-31.13453368362262
 20
115.5340331742415
 30
0.0
  0
VERTEX
  5
3FE
330
3FB
100
AcDbEntity
  8
STANDARDEBENE
 62
     7
100
AcDbVertex
100
AcDb2dVertex
 10
-31.14073485549607
 20
115.8571831307579
 30
0.0
  0
VERTEX
  5
3FF
330
3FB
100
AcDbEntity
  8
STANDARDEBENE
 62
     7
100
AcDbVertex
100
AcDb2dVertex
 10
-31.14831406556362
 20
116.1803330872744
 30
0.0
  0
VERTEX
  5
400
330
3FB
100
AcDbEntity
  8
STANDARDEBENE
 62
     7
100
AcDbVertex
100
AcDb2dVertex
 10
-31.15520425653412
 20
116.5034830437908
 30
0.0
  0
VERTEX
  5
401
330
3FB
100
AcDbEntity
  8
STANDARDEBENE
 62
     7
100
AcDbVertex
100
AcDb2dVertex
 10
-31.15864935201937
 20
116.6647135125005
 30
0.0
  0
VERTEX
  5
402
330
3FB
100
AcDbEntity
  8
STANDARDEBENE
 62
     7
100
AcDbVertex
100
AcDb2dVertex
 10
-31.16312797615019
 20
116.8252549621131
 30
0.0
  0
VERTEX
  5
403
330
3FB
100
AcDbEntity
  8
STANDARDEBENE
 62
     7
100
AcDbVertex
100
AcDb2dVertex
 10
-31.16760660028102
 20
116.9864854308228
 30
0.0
  0
VERTEX
  5
404
330
3FB
100
AcDbEntity
  8
STANDARDEBENE
 62
     7
100
AcDbVertex
100
AcDb2dVertex
 10
-31.17311875305742
 20
117.1463378613384
 30
0.0
  0
VERTEX
  5
405
330
3FB
100
AcDbEntity
  8
STANDARDEBENE
 62
     7
100
AcDbVertex
100
AcDb2dVertex
 10
-31.17794188673676
 20
117.3068793109511
 30
0.0
  0
VERTEX
  5
406
330
3FB
100
AcDbEntity
  8
STANDARDEBENE
 62
     7
100
AcDbVertex
100
AcDb2dVertex
 10
-31.18448756815874
 20
117.4660427223696
 30
0.0
  0
VERTEX
  5
407
330
3FB
100
AcDbEntity
  8
STANDARDEBENE
 62
     7
100
AcDbVertex
100
AcDb2dVertex
 10
-31.18689913499842
 20
117.5459689376274
 30
0.0
  0
VERTEX
  5
408
330
3FB
100
AcDbEntity
  8
STANDARDEBENE
 62
     7
100
AcDbVertex
100
AcDb2dVertex
 10
-31.19068874003219
 20
117.6252061337882
 30
0.0
  0
VERTEX
  5
409
330
3FB
100
AcDbEntity
  8
STANDARDEBENE
 62
     7
100
AcDbVertex
100
AcDb2dVertex
 10
-31.19447834506596
 20
117.7037543108518
 30
0.0
  0
VERTEX
  5
40A
330
3FB
100
AcDbEntity
  8
STANDARDEBENE
 62
     7
100
AcDbVertex
100
AcDb2dVertex
 10
-31.19895696919679
 20
117.7823024879155
 30
0.0
  0
SEQEND
  5
40B
330
3FB
100
AcDbEntity
  8
STANDARDEBENE
  0
POLYLINE
  5
40C
330
1F
100
AcDbEntity
  8
STANDARDEBENE
 62
     7
100
AcDb2dPolyline
 66
     1
 10
0.0
 20
0.0
 30
0.0
  0
VERTEX
  5
40D
330
40C
100
AcDbEntity
  8
STANDARDEBENE
 62
     7
100
AcDbVertex
100
AcDb2dVertex
 10
-31.12144232077867
 20
132.3156100472162
 30
0.0
  0
VERTEX
  5
40E
330
40C
100
AcDbEntity
  8
STANDARDEBENE
 62
     7
100
AcDbVertex
100
AcDb2dVertex
 10
-31.28060573219721
 20
131.8866956593026
 30
0.0
  0
VERTEX
  5
40F
330
40C
100
AcDbEntity
  8
STANDARDEBENE
 62
     7
100
AcDbVertex
100
AcDb2dVertex
 10
-31.5327867217175
 20
131.4236748260851
 30
0.0
  0
VERTEX
  5
410
330
40C
100
AcDbEntity
  8
STANDARDEBENE
 62
     7
100
AcDbVertex
100
AcDb2dVertex
 10
-31.69263915223309
 20
131.1811401039235
 30
0.0
  0
VERTEX
  5
411
330
40C
100
AcDbEntity
  8
STANDARDEBENE
 62
     7
100
AcDbVertex
100
AcDb2dVertex
 10
-31.87281764611166
 20
130.9306816621458
 30
0.0
  0
VERTEX
  5
412
330
40C
100
AcDbEntity
  8
STANDARDEBENE
 62
     7
100
AcDbVertex
100
AcDb2dVertex
 10
-32.07435573199877
 20
130.6740220484947
 30
0.0
  0
VERTEX
  5
413
330
40C
100
AcDbEntity
  8
STANDARDEBENE
 62
     7
100
AcDbVertex
100
AcDb2dVertex
 10
-32.29690890034591
 20
130.4121947916157
 30
0.0
  0
SEQEND
  5
414
330
40C
100
AcDbEntity
  8
STANDARDEBENE
  0
POLYLINE
  5
415
330
1F
100
AcDbEntity
  8
STANDARDEBENE
  6
AI-LINETYPE-5
 62
   250
100
AcDb2dPolyline
 66
     1
 10
0.0
 20
0.0
 30
0.0
  0
VERTEX
  5
416
330
415
100
AcDbEntity
  8
STANDARDEBENE
  6
AI-LINETYPE-5
 62
   250
100
AcDbVertex
100
AcDb2dVertex
 10
-21.20060085190471
 20
179.3005112941506
 30
0.0
  0
VERTEX
  5
417
330
415
100
AcDbEntity
  8
STANDARDEBENE
  6
AI-LINETYPE-5
 62
   250
100
AcDbVertex
100
AcDb2dVertex
 10
-30.87684054132593
 20
178.7930487291733
 30
0.0
  0
SEQEND
  5
418
330
415
100
AcDbEntity
  8
STANDARDEBENE
  6
AI-LINETYPE-5
  0
POLYLINE
  5
41A
330
1F
100
AcDbEntity
  8
STANDARDEBENE
  6
AI-LINETYPE-6
 62
   250
100
AcDb2dPolyline
 66
     1
 10
0.0
 20
0.0
 30
0.0
  0
VERTEX
  5
41B
330
41A
100
AcDbEntity
  8
STANDARDEBENE
  6
AI-LINETYPE-6
 62
   250
100
AcDbVertex
100
AcDb2dVertex
 10
-31.50901556286928
 20
178.4216674358634
 30
0.0
  0
VERTEX
  5
41C
330
41A
100
AcDbEntity
  8
STANDARDEBENE
  6
AI-LINETYPE-6
 62
   250
100
AcDbVertex
100
AcDb2dVertex
 10
-36.64324136453711
 20
170.204770193994
 30
0.0
  0
SEQEND
  5
41D
330
41A
100
AcDbEntity
  8
STANDARDEBENE
  6
AI-LINETYPE-6
  0
POLYLINE
  5
41F
330
1F
100
AcDbEntity
  8
STANDARDEBENE
  6
AI-LINETYPE-7
 62
   250
100
AcDb2dPolyline
 66
     1
 10
0.0
 20
0.0
 30
0.0
  0
VERTEX
  5
420
330
41F
100
AcDbEntity
  8
STANDARDEBENE
  6
AI-LINETYPE-7
 62
   250
100
AcDbVertex
100
AcDb2dVertex
 10
-35.92803954179924
 20
168.9903740354434
 30
0.0
  0
VERTEX
  5
421
330
41F
100
AcDbEntity
  8
STANDARDEBENE
  6
AI-LINETYPE-7
 62
   250
100
AcDbVertex
100
AcDb2dVertex
 10
-26.25214436192655
 20
169.4974920908722
 30
0.0
  0
SEQEND
  5
422
330
41F
100
AcDbEntity
  8
STANDARDEBENE
  6
AI-LINETYPE-7
  0
POLYLINE
  5
424
330
1F
100
AcDbEntity
  8
STANDARDEBENE
  6
AI-LINETYPE-8
 62
   250
100
AcDb2dPolyline
 66
     1
 10
0.0
 20
0.0
 30
0.0
  0
VERTEX
  5
425
330
424
100
AcDbEntity
  8
STANDARDEBENE
  6
AI-LINETYPE-8
 62
   250
100
AcDbVertex
100
AcDb2dVertex
 10
-25.62031384993173
 20
169.8702514223762
 30
0.0
  0
VERTEX
  5
426
330
424
100
AcDbEntity
  8
STANDARDEBENE
  6
AI-LINETYPE-8
 62
   250
100
AcDbVertex
100
AcDb2dVertex
 10
-20.48574353871537
 20
178.0864596451485
 30
0.0
  0
SEQEND
  5
427
330
424
100
AcDbEntity
  8
STANDARDEBENE
  6
AI-LINETYPE-8
  0
SPLINE
  5
429
330
1F
100
AcDbEntity
  8
STANDARDEBENE
  6
AI-LINETYPE-9
 62
   250
100
AcDbSpline
210
0.0
220
0.0
230
1.0
 70
     8
 71
     3
 72
    11
 73
     7
 74
     0
 42
0.0000000001
 43
0.0000000001
 40
0.0
 40
0.0
 40
0.0
 40
0.0
 40
1.0
 40
1.0
 40
1.0
 40
2.0
 40
2.0
 40
2.0
 40
2.0
 10
-20.36516519673163
 20
178.5081393325431
 30
0.0
 10
-20.36516519673163
 20
178.9460109687184
 30
0.0
 10
-20.72069905080941
 20
179.3018893323447
 30
0.0
 10
-21.15925970608171
 20
179.3018893323447
 30
0.0
 10
-21.17441812621681
 20
179.3018893323447
 30
0.0
 10
-21.18854301770634
 20
179.3012003132476
 30
0.0
 10
-21.20060085190471
 20
179.3005112941506
 30
0.0
  0
SPLINE
  5
42B
330
1F
100
AcDbEntity
  8
STANDARDEBENE
  6
AI-LINETYPE-10
 62
   250
100
AcDbSpline
210
0.0
220
0.0
230
1.0
 70
     8
 71
     3
 72
     8
 73
     4
 74
     0
 42
0.0000000001
 43
0.0000000001
 40
0.0
 40
0.0
 40
0.0
 40
0.0
 40
1.0
 40
1.0
 40
1.0
 40
1.0
 10
-20.48574353871537
 20
178.0864596451485
 30
0.0
 10
-20.40306124706937
 20
178.2187513117821
 30
0.0
 10
-20.36447617763458
 20
178.3658568890023
 30
0.0
 10
-20.36516519673163
 20
178.5081393325431
 30
0.0
  0
SPLINE
  5
42D
330
1F
100
AcDbEntity
  8
STANDARDEBENE
  6
AI-LINETYPE-11
 62
   250
100
AcDbSpline
210
0.0
220
0.0
230
1.0
 70
     8
 71
     3
 72
    14
 73
    10
 74
     0
 42
0.0000000001
 43
0.0000000001
 40
0.0
 40
0.0
 40
0.0
 40
0.0
 40
1.0
 40
1.0
 40
1.0
 40
2.0
 40
2.0
 40
2.0
 40
3.0
 40
3.0
 40
3.0
 40
3.0
 10
-36.64324136453711
 20
170.2040811748969
 30
0.0
 10
-36.72592365618311
 20
170.0724785273604
 30
0.0
 10
-36.76485323516643
 20
169.9246839310431
 30
0.0
 10
-36.76381970652086
 20
169.7837795256964
 30
0.0
 10
-36.76381970652086
 20
169.3448743608756
 30
0.0
 10
-36.40863036199159
 20
168.9896850163463
 30
0.0
 10
-35.96972519717077
 20
168.9896850163463
 30
0.0
 10
-35.95491128658419
 20
168.9896850163463
 30
0.0
 10
-35.94044188554614
 20
168.9903740354434
 30
0.0
 10
-35.92803954179924
 20
168.9903740354434
 30
0.0
  0
SPLINE
  5
42F
330
1F
100
AcDbEntity
  8
STANDARDEBENE
  6
AI-LINETYPE-12
 62
   250
100
AcDbSpline
210
0.0
220
0.0
230
1.0
 70
    11
 71
     3
 72
    17
 73
    13
 74
     0
 42
0.0000000001
 43
0.0000000001
 40
0.0
 40
0.0
 40
0.0
 40
0.0
 40
1.0
 40
1.0
 40
1.0
 40
2.0
 40
2.0
 40
2.0
 40
3.0
 40
3.0
 40
3.0
 40
4.0
 40
4.0
 40
4.0
 40
4.0
 10
-25.49318982652601
 20
174.1459594291198
 30
0.0
 10
-25.49318982652601
 20
175.8423244460568
 30
0.0
 10
-26.86812743468922
 20
177.21726205422
 30
0.0
 10
-28.56449245162624
 20
177.21726205422
 30
0.0
 10
-30.26085746856326
 20
177.21726205422
 30
0.0
 10
-31.63613958627499
 20
175.8423244460568
 30
0.0
 10
-31.63613958627499
 20
174.1459594291198
 30
0.0
 10
-31.63613958627499
 20
172.4495944121828
 30
0.0
 10
-30.26085746856326
 20
171.0750013135681
 30
0.0
 10
-28.56449245162624
 20
171.0750013135681
 30
0.0
 10
-26.86812743468922
 20
171.0750013135681
 30
0.0
 10
-25.49318982652601
 20
172.4495944121828
 30
0.0
 10
-25.49318982652601
 20
174.1459594291198
 30
0.0
  0
SPLINE
  5
431
330
1F
100
AcDbEntity
  8
STANDARDEBENE
  6
AI-LINETYPE-13
 62
   250
100
AcDbSpline
210
0.0
220
0.0
230
1.0
 70
     8
 71
     3
 72
     8
 73
     4
 74
     0
 42
0.0000000001
 43
0.0000000001
 40
0.0
 40
0.0
 40
0.0
 40
0.0
 40
1.0
 40
1.0
 40
1.0
 40
1.0
 10
-30.87684054132593
 20
178.7930487291733
 30
0.0
 10
-31.14452446052984
 20
178.7799573663293
 30
0.0
 10
-31.37431232939601
 20
178.6345743368518
 30
0.0
 10
-31.50901556286928
 20
178.4216674358634
 30
0.0
  0
SPLINE
  5
433
330
1F
100
AcDbEntity
  8
STANDARDEBENE
  6
AI-LINETYPE-14
 62
   250
100
AcDbSpline
210
0.0
220
0.0
230
1.0
 70
     8
 71
     3
 72
     8
 73
     4
 74
     0
 42
0.0000000001
 43
0.0000000001
 40
0.0
 40
0.0
 40
0.0
 40
0.0
 40
1.0
 40
1.0
 40
1.0
 40
1.0
 10
-26.25214436192655
 20
169.4974920908722
 30
0.0
 10
-25.98411593317411
 20
169.5112724728132
 30
0.0
 10
-25.755017083405
 20
169.6566555022907
 30
0.0
 10
-25.62031384993173
 20
169.8702514223762
 30
0.0
  0
POLYLINE
  5
435
330
1F
100
AcDbEntity
  8
STANDARDEBENE
  6
AI-LINETYPE-15
 62
   250
100
AcDb2dPolyline
 66
     1
 10
0.0
 20
0.0
 30
0.0
  0
VERTEX
  5
436
330
435
100
AcDbEntity
  8
STANDARDEBENE
  6
AI-LINETYPE-15
 62
   250
100
AcDbVertex
100
AcDb2dVertex
 10
82.5091755978623
 20
169.4768215179607
 30
0.0
  0
VERTEX
  5
437
330
435
100
AcDbEntity
  8
STANDARDEBENE
  6
AI-LINETYPE-15
 62
   250
100
AcDbVertex
100
AcDb2dVertex
 10
86.47930363506421
 20
168.9896850163463
 30
0.0
  0
SEQEND
  5
438
330
435
100
AcDbEntity
  8
STANDARDEBENE
  6
AI-LINETYPE-15
  0
POLYLINE
  5
43A
330
1F
100
AcDbEntity
  8
STANDARDEBENE
  6
AI-LINETYPE-16
 62
   250
100
AcDb2dPolyline
 66
     1
 10
0.0
 20
0.0
 30
0.0
  0
VERTEX
  5
43B
330
43A
100
AcDbEntity
  8
STANDARDEBENE
  6
AI-LINETYPE-16
 62
   250
100
AcDbVertex
100
AcDb2dVertex
 10
82.5091755978623
 20
177.8825099924217
 30
0.0
  0
VERTEX
  5
43C
330
43A
100
AcDbEntity
  8
STANDARDEBENE
  6
AI-LINETYPE-16
 62
   250
100
AcDbVertex
100
AcDb2dVertex
 10
82.5091755978623
 20
169.9460435230517
 30
0.0
  0
SEQEND
  5
43D
330
43A
100
AcDbEntity
  8
STANDARDEBENE
  6
AI-LINETYPE-16
  0
POLYLINE
  5
43F
330
1F
100
AcDbEntity
  8
STANDARDEBENE
  6
AI-LINETYPE-17
 62
   250
100
AcDb2dPolyline
 66
     1
 10
0.0
 20
0.0
 30
0.0
  0
VERTEX
  5
440
330
43F
100
AcDbEntity
  8
STANDARDEBENE
  6
AI-LINETYPE-17
 62
   250
100
AcDbVertex
100
AcDb2dVertex
 10
86.47930363506421
 20
178.4216674358634
 30
0.0
  0
VERTEX
  5
441
330
43F
100
AcDbEntity
  8
STANDARDEBENE
  6
AI-LINETYPE-17
 62
   250
100
AcDbVertex
100
AcDb2dVertex
 10
86.47930363506421
 20
170.204770193994
 30
0.0
  0
SEQEND
  5
442
330
43F
100
AcDbEntity
  8
STANDARDEBENE
  6
AI-LINETYPE-17
  0
POLYLINE
  5
444
330
1F
100
AcDbEntity
  8
STANDARDEBENE
  6
AI-LINETYPE-18
 62
   250
100
AcDb2dPolyline
 66
     1
 10
0.0
 20
0.0
 30
0.0
  0
VERTEX
  5
445
330
444
100
AcDbEntity
  8
STANDARDEBENE
  6
AI-LINETYPE-18
 62
   250
100
AcDbVertex
100
AcDb2dVertex
 10
86.47930363506421
 20
179.3005112941506
 30
0.0
  0
VERTEX
  5
446
330
444
100
AcDbEntity
  8
STANDARDEBENE
  6
AI-LINETYPE-18
 62
   250
100
AcDbVertex
100
AcDb2dVertex
 10
86.47930363506421
 20
178.7930487291733
 30
0.0
  0
SEQEND
  5
447
330
444
100
AcDbEntity
  8
STANDARDEBENE
  6
AI-LINETYPE-18
  0
POLYLINE
  5
449
330
1F
100
AcDbEntity
  8
STANDARDEBENE
  6
AI-LINETYPE-19
 62
   250
100
AcDb2dPolyline
 66
     1
 10
0.0
 20
0.0
 30
0.0
  0
VERTEX
  5
44A
330
449
100
AcDbEntity
  8
STANDARDEBENE
  6
AI-LINETYPE-19
 62
   250
100
AcDbVertex
100
AcDb2dVertex
 10
86.47930363506421
 20
179.3018893323447
 30
0.0
  0
VERTEX
  5
44B
330
449
100
AcDbEntity
  8
STANDARDEBENE
  6
AI-LINETYPE-19
 62
   250
100
AcDbVertex
100
AcDb2dVertex
 10
86.07898353967818
 20
179.2529689764541
 30
0.0
  0
SEQEND
  5
44C
330
449
100
AcDbEntity
  8
STANDARDEBENE
  6
AI-LINETYPE-19
  0
POLYLINE
  5
44E
330
1F
100
AcDbEntity
  8
STANDARDEBENE
  6
AI-LINETYPE-20
 62
   250
100
AcDb2dPolyline
 66
     1
 10
0.0
 20
0.0
 30
0.0
  0
VERTEX
  5
44F
330
44E
100
AcDbEntity
  8
STANDARDEBENE
  6
AI-LINETYPE-20
 62
   250
100
AcDbVertex
100
AcDb2dVertex
 10
82.5091755978623
 20
169.4768215179607
 30
0.0
  0
VERTEX
  5
450
330
44E
100
AcDbEntity
  8
STANDARDEBENE
  6
AI-LINETYPE-20
 62
   250
100
AcDbVertex
100
AcDb2dVertex
 10
82.5091755978623
 20
169.6349514007336
 30
0.0
  0
VERTEX
  5
451
330
44E
100
AcDbEntity
  8
STANDARDEBENE
  6
AI-LINETYPE-20
 62
   250
100
AcDbVertex
100
AcDb2dVertex
 10
82.5091755978623
 20
169.9460435230517
 30
0.0
  0
SEQEND
  5
452
330
44E
100
AcDbEntity
  8
STANDARDEBENE
  6
AI-LINETYPE-20
  0
POLYLINE
  5
454
330
1F
100
AcDbEntity
  8
STANDARDEBENE
  6
AI-LINETYPE-21
 62
   250
100
AcDb2dPolyline
 66
     1
 10
0.0
 20
0.0
 30
0.0
  0
VERTEX
  5
455
330
454
100
AcDbEntity
  8
STANDARDEBENE
  6
AI-LINETYPE-21
 62
   250
100
AcDbVertex
100
AcDb2dVertex
 10
86.47930363506421
 20
168.9896850163463
 30
0.0
  0
VERTEX
  5
456
330
454
100
AcDbEntity
  8
STANDARDEBENE
  6
AI-LINETYPE-21
 62
   250
100
AcDbVertex
100
AcDb2dVertex
 10
86.47930363506421
 20
169.0992390527773
 30
0.0
  0
VERTEX
  5
457
330
454
100
AcDbEntity
  8
STANDARDEBENE
  6
AI-LINETYPE-21
 62
   250
100
AcDbVertex
100
AcDb2dVertex
 10
86.47930363506421
 20
169.3986178504455
 30
0.0
  0
VERTEX
  5
458
330
454
100
AcDbEntity
  8
STANDARDEBENE
  6
AI-LINETYPE-21
 62
   250
100
AcDbVertex
100
AcDb2dVertex
 10
86.47930363506421
 20
169.8037610795109
 30
0.0
  0
VERTEX
  5
459
330
454
100
AcDbEntity
  8
STANDARDEBENE
  6
AI-LINETYPE-21
 62
   250
100
AcDbVertex
100
AcDb2dVertex
 10
86.47930363506421
 20
170.204770193994
 30
0.0
  0
SEQEND
  5
45A
330
454
100
AcDbEntity
  8
STANDARDEBENE
  6
AI-LINETYPE-21
  0
POLYLINE
  5
45C
330
1F
100
AcDbEntity
  8
STANDARDEBENE
  6
AI-LINETYPE-22
 62
   250
100
AcDb2dPolyline
 66
     1
 10
0.0
 20
0.0
 30
0.0
  0
VERTEX
  5
45D
330
45C
100
AcDbEntity
  8
STANDARDEBENE
  6
AI-LINETYPE-22
 62
   250
100
AcDbVertex
100
AcDb2dVertex
 10
86.47930363506421
 20
178.4216674358634
 30
0.0
  0
VERTEX
  5
45E
330
45C
100
AcDbEntity
  8
STANDARDEBENE
  6
AI-LINETYPE-22
 62
   250
100
AcDbVertex
100
AcDb2dVertex
 10
86.47930363506421
 20
178.6848727309364
 30
0.0
  0
VERTEX
  5
45F
330
45C
100
AcDbEntity
  8
STANDARDEBENE
  6
AI-LINETYPE-22
 62
   250
100
AcDbVertex
100
AcDb2dVertex
 10
86.47930363506421
 20
178.7930487291733
 30
0.0
  0
SEQEND
  5
460
330
45C
100
AcDbEntity
  8
STANDARDEBENE
  6
AI-LINETYPE-22
  0
POLYLINE
  5
462
330
1F
100
AcDbEntity
  8
STANDARDEBENE
  6
AI-LINETYPE-23
 62
   250
100
AcDb2dPolyline
 66
     1
 10
0.0
 20
0.0
 30
0.0
  0
VERTEX
  5
463
330
462
100
AcDbEntity
  8
STANDARDEBENE
  6
AI-LINETYPE-23
 62
   250
100
AcDbVertex
100
AcDb2dVertex
 10
86.47930363506421
 20
179.3005112941506
 30
0.0
  0
VERTEX
  5
464
330
462
100
AcDbEntity
  8
STANDARDEBENE
  6
AI-LINETYPE-23
 62
   250
100
AcDbVertex
100
AcDb2dVertex
 10
86.47930363506421
 20
179.3012003132476
 30
0.0
  0
VERTEX
  5
465
330
462
100
AcDbEntity
  8
STANDARDEBENE
  6
AI-LINETYPE-23
 62
   250
100
AcDbVertex
100
AcDb2dVertex
 10
86.47930363506421
 20
179.3018893323447
 30
0.0
  0
SEQEND
  5
466
330
462
100
AcDbEntity
  8
STANDARDEBENE
  6
AI-LINETYPE-23
  0
POLYLINE
  5
468
330
1F
100
AcDbEntity
  8
STANDARDEBENE
  6
AI-LINETYPE-24
 62
   250
100
AcDb2dPolyline
 66
     1
 10
0.0
 20
0.0
 30
0.0
  0
VERTEX
  5
469
330
468
100
AcDbEntity
  8
STANDARDEBENE
  6
AI-LINETYPE-24
 62
   250
100
AcDbVertex
100
AcDb2dVertex
 10
-20.36516519673163
 20
114.810563122339
 30
0.0
  0
VERTEX
  5
46A
330
468
100
AcDbEntity
  8
STANDARDEBENE
  6
AI-LINETYPE-24
 62
   250
100
AcDbVertex
100
AcDb2dVertex
 10
-20.4144300621707
 20
115.210194198628
 30
0.0
  0
SEQEND
  5
46B
330
468
100
AcDbEntity
  8
STANDARDEBENE
  6
AI-LINETYPE-24
  0
POLYLINE
  5
46D
330
1F
100
AcDbEntity
  8
STANDARDEBENE
  6
AI-LINETYPE-25
 62
   250
100
AcDb2dPolyline
 66
     1
 10
0.0
 20
0.0
 30
0.0
  0
VERTEX
  5
46E
330
46D
100
AcDbEntity
  8
STANDARDEBENE
  6
AI-LINETYPE-25
 62
   250
100
AcDbVertex
100
AcDb2dVertex
 10
-21.20060085190471
 20
114.810563122339
 30
0.0
  0
VERTEX
  5
46F
330
46D
100
AcDbEntity
  8
STANDARDEBENE
  6
AI-LINETYPE-25
 62
   250
100
AcDbVertex
100
AcDb2dVertex
 10
-30.87684054132593
 20
114.810563122339
 30
0.0
  0
SEQEND
  5
470
330
46D
100
AcDbEntity
  8
STANDARDEBENE
  6
AI-LINETYPE-25
  0
POLYLINE
  5
472
330
1F
100
AcDbEntity
  8
STANDARDEBENE
  6
AI-LINETYPE-26
 62
   250
100
AcDb2dPolyline
 66
     1
 10
0.0
 20
0.0
 30
0.0
  0
VERTEX
  5
473
330
472
100
AcDbEntity
  8
STANDARDEBENE
  6
AI-LINETYPE-26
 62
   250
100
AcDbVertex
100
AcDb2dVertex
 10
-31.27027044574146
 20
118.7800021404439
 30
0.0
  0
VERTEX
  5
474
330
472
100
AcDbEntity
  8
STANDARDEBENE
  6
AI-LINETYPE-26
 62
   250
100
AcDbVertex
100
AcDb2dVertex
 10
-36.22982990630712
 20
118.7800021404439
 30
0.0
  0
SEQEND
  5
475
330
472
100
AcDbEntity
  8
STANDARDEBENE
  6
AI-LINETYPE-26
  0
POLYLINE
  5
477
330
1F
100
AcDbEntity
  8
STANDARDEBENE
  6
AI-LINETYPE-27
 62
   250
100
AcDb2dPolyline
 66
     1
 10
0.0
 20
0.0
 30
0.0
  0
VERTEX
  5
478
330
477
100
AcDbEntity
  8
STANDARDEBENE
  6
AI-LINETYPE-27
 62
   250
100
AcDbVertex
100
AcDb2dVertex
 10
-31.50901556286928
 20
114.810563122339
 30
0.0
  0
VERTEX
  5
479
330
477
100
AcDbEntity
  8
STANDARDEBENE
  6
AI-LINETYPE-27
 62
   250
100
AcDbVertex
100
AcDb2dVertex
 10
-36.64324136453711
 20
114.810563122339
 30
0.0
  0
SEQEND
  5
47A
330
477
100
AcDbEntity
  8
STANDARDEBENE
  6
AI-LINETYPE-27
  0
POLYLINE
  5
47C
330
1F
100
AcDbEntity
  8
STANDARDEBENE
  6
AI-LINETYPE-28
 62
   250
100
AcDb2dPolyline
 66
     1
 10
0.0
 20
0.0
 30
0.0
  0
VERTEX
  5
47D
330
47C
100
AcDbEntity
  8
STANDARDEBENE
  6
AI-LINETYPE-28
 62
   250
100
AcDbVertex
100
AcDb2dVertex
 10
-36.276338695358
 20
118.7800021404439
 30
0.0
  0
VERTEX
  5
47E
330
47C
100
AcDbEntity
  8
STANDARDEBENE
  6
AI-LINETYPE-28
 62
   250
100
AcDbVertex
100
AcDb2dVertex
 10
-36.76381970652086
 20
114.810563122339
 30
0.0
  0
SEQEND
  5
47F
330
47C
100
AcDbEntity
  8
STANDARDEBENE
  6
AI-LINETYPE-28
  0
POLYLINE
  5
481
330
1F
100
AcDbEntity
  8
STANDARDEBENE
  6
AI-LINETYPE-29
 62
   250
100
AcDb2dPolyline
 66
     1
 10
0.0
 20
0.0
 30
0.0
  0
VERTEX
  5
482
330
481
100
AcDbEntity
  8
STANDARDEBENE
  6
AI-LINETYPE-29
 62
   250
100
AcDbVertex
100
AcDb2dVertex
 10
-21.20060085190471
 20
114.810563122339
 30
0.0
  0
VERTEX
  5
483
330
481
100
AcDbEntity
  8
STANDARDEBENE
  6
AI-LINETYPE-29
 62
   250
100
AcDbVertex
100
AcDb2dVertex
 10
-20.78718939367473
 20
114.810563122339
 30
0.0
  0
VERTEX
  5
484
330
481
100
AcDbEntity
  8
STANDARDEBENE
  6
AI-LINETYPE-29
 62
   250
100
AcDbVertex
100
AcDb2dVertex
 10
-20.47885334774487
 20
114.810563122339
 30
0.0
  0
VERTEX
  5
485
330
481
100
AcDbEntity
  8
STANDARDEBENE
  6
AI-LINETYPE-29
 62
   250
100
AcDbVertex
100
AcDb2dVertex
 10
-20.36516519673163
 20
114.810563122339
 30
0.0
  0
SEQEND
  5
486
330
481
100
AcDbEntity
  8
STANDARDEBENE
  6
AI-LINETYPE-29
  0
POLYLINE
  5
488
330
1F
100
AcDbEntity
  8
STANDARDEBENE
  6
AI-LINETYPE-30
 62
   250
100
AcDb2dPolyline
 66
     1
 10
0.0
 20
0.0
 30
0.0
  0
VERTEX
  5
489
330
488
100
AcDbEntity
  8
STANDARDEBENE
  6
AI-LINETYPE-30
 62
   250
100
AcDbVertex
100
AcDb2dVertex
 10
-31.50901556286928
 20
114.810563122339
 30
0.0
  0
VERTEX
  5
48A
330
488
100
AcDbEntity
  8
STANDARDEBENE
  6
AI-LINETYPE-30
 62
   250
100
AcDbVertex
100
AcDb2dVertex
 10
-31.23823105772864
 20
114.810563122339
 30
0.0
  0
VERTEX
  5
48B
330
488
100
AcDbEntity
  8
STANDARDEBENE
  6
AI-LINETYPE-30
 62
   250
100
AcDbVertex
100
AcDb2dVertex
 10
-30.87684054132593
 20
114.810563122339
 30
0.0
  0
SEQEND
  5
48C
330
488
100
AcDbEntity
  8
STANDARDEBENE
  6
AI-LINETYPE-30
  0
POLYLINE
  5
48E
330
1F
100
AcDbEntity
  8
STANDARDEBENE
  6
AI-LINETYPE-31
 62
   250
100
AcDb2dPolyline
 66
     1
 10
0.0
 20
0.0
 30
0.0
  0
VERTEX
  5
48F
330
48E
100
AcDbEntity
  8
STANDARDEBENE
  6
AI-LINETYPE-31
 62
   250
100
AcDbVertex
100
AcDb2dVertex
 10
-36.276338695358
 20
118.7800021404439
 30
0.0
  0
VERTEX
  5
490
330
48E
100
AcDbEntity
  8
STANDARDEBENE
  6
AI-LINETYPE-31
 62
   250
100
AcDbVertex
100
AcDb2dVertex
 10
-36.26428086115963
 20
118.7800021404439
 30
0.0
  0
VERTEX
  5
491
330
48E
100
AcDbEntity
  8
STANDARDEBENE
  6
AI-LINETYPE-31
 62
   250
100
AcDbVertex
100
AcDb2dVertex
 10
-36.22982990630712
 20
118.7800021404439
 30
0.0
  0
SEQEND
  5
492
330
48E
100
AcDbEntity
  8
STANDARDEBENE
  6
AI-LINETYPE-31
  0
POLYLINE
  5
494
330
1F
100
AcDbEntity
  8
STANDARDEBENE
  6
AI-LINETYPE-32
 62
   250
100
AcDb2dPolyline
 66
     1
 10
0.0
 20
0.0
 30
0.0
  0
VERTEX
  5
495
330
494
100
AcDbEntity
  8
STANDARDEBENE
  6
AI-LINETYPE-32
 62
   250
100
AcDbVertex
100
AcDb2dVertex
 10
-36.76381970652086
 20
114.810563122339
 30
0.0
  0
VERTEX
  5
496
330
494
100
AcDbEntity
  8
STANDARDEBENE
  6
AI-LINETYPE-32
 62
   250
100
AcDbVertex
100
AcDb2dVertex
 10
-36.7328138471536
 20
114.810563122339
 30
0.0
  0
VERTEX
  5
497
330
494
100
AcDbEntity
  8
STANDARDEBENE
  6
AI-LINETYPE-32
 62
   250
100
AcDbVertex
100
AcDb2dVertex
 10
-36.64324136453711
 20
114.810563122339
 30
0.0
  0
SEQEND
  5
498
330
494
100
AcDbEntity
  8
STANDARDEBENE
  6
AI-LINETYPE-32
  0
POLYLINE
  5
49B
330
1F
100
AcDbEntity
  8
BEMAßUNG
 62
     7
100
AcDb2dPolyline
 66
     1
 10
0.0
 20
0.0
 30
0.0
  0
VERTEX
  5
49C
330
49B
100
AcDbEntity
  8
BEMAßUNG
 62
     7
100
AcDbVertex
100
AcDb2dVertex
 10
16.89130316417995
 20
184.0128851536496
 30
0.0
  0
VERTEX
  5
49D
330
49B
100
AcDbEntity
  8
BEMAßUNG
 62
     7
100
AcDbVertex
100
AcDb2dVertex
 10
36.44721543142639
 20
184.0128851536496
 30
0.0
  0
SEQEND
  5
49E
330
49B
100
AcDbEntity
  8
BEMAßUNG
  0
POLYLINE
  5
49F
330
1F
100
AcDbEntity
  8
BEMAßUNG
 62
     7
100
AcDb2dPolyline
 66
     1
 10
0.0
 20
0.0
 30
0.0
  0
VERTEX
  5
4A0
330
49F
100
AcDbEntity
  8
BEMAßUNG
 62
     7
100
AcDbVertex
100
AcDb2dVertex
 10
16.89130316417995
 20
166.4129258481537
 30
0.0
  0
VERTEX
  5
4A1
330
49F
100
AcDbEntity
  8
BEMAßUNG
 62
     7
100
AcDbVertex
100
AcDb2dVertex
 10
36.44721543142639
 20
166.4129258481537
 30
0.0
  0
SEQEND
  5
4A2
330
49F
100
AcDbEntity
  8
BEMAßUNG
  0
POLYLINE
  5
4A3
330
1F
100
AcDbEntity
  8
BEMAßUNG
 62
     7
100
AcDb2dPolyline
 66
     1
 10
0.0
 20
0.0
 30
0.0
  0
VERTEX
  5
4A4
330
4A3
100
AcDbEntity
  8
BEMAßUNG
 62
     7
100
AcDbVertex
100
AcDb2dVertex
 10
35.34719644298612
 20
184.0128851536496
 30
0.0
  0
VERTEX
  5
4A5
330
4A3
100
AcDbEntity
  8
BEMAßUNG
 62
     7
100
AcDbVertex
100
AcDb2dVertex
 10
35.34719644298612
 20
166.4129258481537
 30
0.0
  0
SEQEND
  5
4A6
330
4A3
100
AcDbEntity
  8
BEMAßUNG
  0
POLYLINE
  5
4A7
330
1F
100
AcDbEntity
  8
BEMAßUNG
 62
     7
100
AcDb2dPolyline
 66
     1
 10
0.0
 20
0.0
 30
0.0
  0
VERTEX
  5
4A8
330
4A7
100
AcDbEntity
  8
BEMAßUNG
 62
     7
100
AcDbVertex
100
AcDb2dVertex
 10
35.34719644298612
 20
184.0128851536496
 30
0.0
  0
VERTEX
  5
4A9
330
4A7
100
AcDbEntity
  8
BEMAßUNG
 62
     7
100
AcDbVertex
100
AcDb2dVertex
 10
35.09415417959452
 20
182.087765796492
 30
0.0
  0
VERTEX
  5
4AA
330
4A7
100
AcDbEntity
  8
BEMAßUNG
 62
     7
100
AcDbVertex
100
AcDb2dVertex
 10
35.60058321592624
 20
182.087765796492
 30
0.0
  0
VERTEX
  5
4AB
330
4A7
100
AcDbEntity
  8
BEMAßUNG
 62
     7
100
AcDbVertex
100
AcDb2dVertex
 10
35.34719644298612
 20
184.0128851536496
 30
0.0
  0
SEQEND
  5
4AC
330
4A7
100
AcDbEntity
  8
BEMAßUNG
  0
POLYLINE
  5
4AD
330
1F
100
AcDbEntity
  8
BEMAßUNG
 62
     7
100
AcDb2dPolyline
 66
     1
 10
0.0
 20
0.0
 30
0.0
  0
VERTEX
  5
4AE
330
4AD
100
AcDbEntity
  8
BEMAßUNG
 62
     7
100
AcDbVertex
100
AcDb2dVertex
 10
35.09587672733714
 20
182.087765796492
 30
0.0
  0
VERTEX
  5
4AF
330
4AD
100
AcDbEntity
  8
BEMAßUNG
 62
     7
100
AcDbVertex
100
AcDb2dVertex
 10
35.09587672733714
 20
182.1029242166271
 30
0.0
  0
SEQEND
  5
4B0
330
4AD
100
AcDbEntity
  8
BEMAßUNG
  0
POLYLINE
  5
4B1
330
1F
100
AcDbEntity
  8
BEMAßUNG
 62
     7
100
AcDb2dPolyline
 66
     1
 10
0.0
 20
0.0
 30
0.0
  0
VERTEX
  5
4B2
330
4B1
100
AcDbEntity
  8
BEMAßUNG
 62
     7
100
AcDbVertex
100
AcDb2dVertex
 10
35.09587672733714
 20
182.087765796492
 30
0.0
  0
VERTEX
  5
4B3
330
4B1
100
AcDbEntity
  8
BEMAßUNG
 62
     7
100
AcDbVertex
100
AcDb2dVertex
 10
35.09587672733714
 20
182.1029242166271
 30
0.0
  0
SEQEND
  5
4B4
330
4B1
100
AcDbEntity
  8
BEMAßUNG
  0
POLYLINE
  5
4B5
330
1F
100
AcDbEntity
  8
BEMAßUNG
 62
     7
100
AcDb2dPolyline
 66
     1
 10
0.0
 20
0.0
 30
0.0
  0
VERTEX
  5
4B6
330
4B5
100
AcDbEntity
  8
BEMAßUNG
 62
     7
100
AcDbVertex
100
AcDb2dVertex
 10
35.12395425554193
 20
182.087765796492
 30
0.0
  0
VERTEX
  5
4B7
330
4B5
100
AcDbEntity
  8
BEMAßUNG
 62
     7
100
AcDbVertex
100
AcDb2dVertex
 10
35.12395425554193
 20
182.3147975889699
 30
0.0
  0
SEQEND
  5
4B8
330
4B5
100
AcDbEntity
  8
BEMAßUNG
  0
POLYLINE
  5
4B9
330
1F
100
AcDbEntity
  8
BEMAßUNG
 62
     7
100
AcDb2dPolyline
 66
     1
 10
0.0
 20
0.0
 30
0.0
  0
VERTEX
  5
4BA
330
4B9
100
AcDbEntity
  8
BEMAßUNG
 62
     7
100
AcDbVertex
100
AcDb2dVertex
 10
35.15185952897245
 20
182.087765796492
 30
0.0
  0
VERTEX
  5
4BB
330
4B9
100
AcDbEntity
  8
BEMAßUNG
 62
     7
100
AcDbVertex
100
AcDb2dVertex
 10
35.15185952897245
 20
182.5270154708613
 30
0.0
  0
SEQEND
  5
4BC
330
4B9
100
AcDbEntity
  8
BEMAßUNG
  0
POLYLINE
  5
4BD
330
1F
100
AcDbEntity
  8
BEMAßUNG
 62
     7
100
AcDb2dPolyline
 66
     1
 10
0.0
 20
0.0
 30
0.0
  0
VERTEX
  5
4BE
330
4BD
100
AcDbEntity
  8
BEMAßUNG
 62
     7
100
AcDbVertex
100
AcDb2dVertex
 10
35.17993705717724
 20
182.087765796492
 30
0.0
  0
VERTEX
  5
4BF
330
4BD
100
AcDbEntity
  8
BEMAßUNG
 62
     7
100
AcDbVertex
100
AcDb2dVertex
 10
35.17993705717724
 20
182.7395778623012
 30
0.0
  0
SEQEND
  5
4C0
330
4BD
100
AcDbEntity
  8
BEMAßUNG
  0
POLYLINE
  5
4C1
330
1F
100
AcDbEntity
  8
BEMAßUNG
 62
     7
100
AcDb2dPolyline
 66
     1
 10
0.0
 20
0.0
 30
0.0
  0
VERTEX
  5
4C2
330
4C1
100
AcDbEntity
  8
BEMAßUNG
 62
     7
100
AcDbVertex
100
AcDb2dVertex
 10
35.20784233060776
 20
182.087765796492
 30
0.0
  0
VERTEX
  5
4C3
330
4C1
100
AcDbEntity
  8
BEMAßUNG
 62
     7
100
AcDbVertex
100
AcDb2dVertex
 10
35.20784233060776
 20
182.9517957441926
 30
0.0
  0
SEQEND
  5
4C4
330
4C1
100
AcDbEntity
  8
BEMAßUNG
  0
POLYLINE
  5
4C5
330
1F
100
AcDbEntity
  8
BEMAßUNG
 62
     7
100
AcDb2dPolyline
 66
     1
 10
0.0
 20
0.0
 30
0.0
  0
VERTEX
  5
4C6
330
4C5
100
AcDbEntity
  8
BEMAßUNG
 62
     7
100
AcDbVertex
100
AcDb2dVertex
 10
35.23574760403829
 20
182.087765796492
 30
0.0
  0
VERTEX
  5
4C7
330
4C5
100
AcDbEntity
  8
BEMAßUNG
 62
     7
100
AcDbVertex
100
AcDb2dVertex
 10
35.23574760403829
 20
183.1636691165355
 30
0.0
  0
SEQEND
  5
4C8
330
4C5
100
AcDbEntity
  8
BEMAßUNG
  0
POLYLINE
  5
4C9
330
1F
100
AcDbEntity
  8
BEMAßUNG
 62
     7
100
AcDb2dPolyline
 66
     1
 10
0.0
 20
0.0
 30
0.0
  0
VERTEX
  5
4CA
330
4C9
100
AcDbEntity
  8
BEMAßUNG
 62
     7
100
AcDbVertex
100
AcDb2dVertex
 10
35.26348062269455
 20
182.087765796492
 30
0.0
  0
VERTEX
  5
4CB
330
4C9
100
AcDbEntity
  8
BEMAßUNG
 62
     7
100
AcDbVertex
100
AcDb2dVertex
 10
35.26348062269455
 20
183.3758869984269
 30
0.0
  0
SEQEND
  5
4CC
330
4C9
100
AcDbEntity
  8
BEMAßUNG
  0
POLYLINE
  5
4CD
330
1F
100
AcDbEntity
  8
BEMAßUNG
 62
     7
100
AcDb2dPolyline
 66
     1
 10
0.0
 20
0.0
 30
0.0
  0
VERTEX
  5
4CE
330
4CD
100
AcDbEntity
  8
BEMAßUNG
 62
     7
100
AcDbVertex
100
AcDb2dVertex
 10
35.29138589612507
 20
182.087765796492
 30
0.0
  0
VERTEX
  5
4CF
330
4CD
100
AcDbEntity
  8
BEMAßUNG
 62
     7
100
AcDbVertex
100
AcDb2dVertex
 10
35.29138589612507
 20
183.5884493898668
 30
0.0
  0
SEQEND
  5
4D0
330
4CD
100
AcDbEntity
  8
BEMAßUNG
  0
POLYLINE
  5
4D1
330
1F
100
AcDbEntity
  8
BEMAßUNG
 62
     7
100
AcDb2dPolyline
 66
     1
 10
0.0
 20
0.0
 30
0.0
  0
VERTEX
  5
4D2
330
4D1
100
AcDbEntity
  8
BEMAßUNG
 62
     7
100
AcDbVertex
100
AcDb2dVertex
 10
35.31946342432986
 20
182.087765796492
 30
0.0
  0
VERTEX
  5
4D3
330
4D1
100
AcDbEntity
  8
BEMAßUNG
 62
     7
100
AcDbVertex
100
AcDb2dVertex
 10
35.31946342432986
 20
183.8006672717582
 30
0.0
  0
SEQEND
  5
4D4
330
4D1
100
AcDbEntity
  8
BEMAßUNG
  0
POLYLINE
  5
4D5
330
1F
100
AcDbEntity
  8
BEMAßUNG
 62
     7
100
AcDb2dPolyline
 66
     1
 10
0.0
 20
0.0
 30
0.0
  0
VERTEX
  5
4D6
330
4D5
100
AcDbEntity
  8
BEMAßUNG
 62
     7
100
AcDbVertex
100
AcDb2dVertex
 10
35.34719644298612
 20
182.087765796492
 30
0.0
  0
VERTEX
  5
4D7
330
4D5
100
AcDbEntity
  8
BEMAßUNG
 62
     7
100
AcDbVertex
100
AcDb2dVertex
 10
35.34719644298612
 20
184.0128851536496
 30
0.0
  0
SEQEND
  5
4D8
330
4D5
100
AcDbEntity
  8
BEMAßUNG
  0
POLYLINE
  5
4D9
330
1F
100
AcDbEntity
  8
BEMAßUNG
 62
     7
100
AcDb2dPolyline
 66
     1
 10
0.0
 20
0.0
 30
0.0
  0
VERTEX
  5
4DA
330
4D9
100
AcDbEntity
  8
BEMAßUNG
 62
     7
100
AcDbVertex
100
AcDb2dVertex
 10
35.59886066818362
 20
182.087765796492
 30
0.0
  0
VERTEX
  5
4DB
330
4D9
100
AcDbEntity
  8
BEMAßUNG
 62
     7
100
AcDbVertex
100
AcDb2dVertex
 10
35.59886066818362
 20
182.1029242166271
 30
0.0
  0
SEQEND
  5
4DC
330
4D9
100
AcDbEntity
  8
BEMAßUNG
  0
POLYLINE
  5
4DD
330
1F
100
AcDbEntity
  8
BEMAßUNG
 62
     7
100
AcDb2dPolyline
 66
     1
 10
0.0
 20
0.0
 30
0.0
  0
VERTEX
  5
4DE
330
4DD
100
AcDbEntity
  8
BEMAßUNG
 62
     7
100
AcDbVertex
100
AcDb2dVertex
 10
35.59886066818362
 20
182.087765796492
 30
0.0
  0
VERTEX
  5
4DF
330
4DD
100
AcDbEntity
  8
BEMAßUNG
 62
     7
100
AcDbVertex
100
AcDb2dVertex
 10
35.59886066818362
 20
182.1029242166271
 30
0.0
  0
SEQEND
  5
4E0
330
4DD
100
AcDbEntity
  8
BEMAßUNG
  0
POLYLINE
  5
4E1
330
1F
100
AcDbEntity
  8
BEMAßUNG
 62
     7
100
AcDb2dPolyline
 66
     1
 10
0.0
 20
0.0
 30
0.0
  0
VERTEX
  5
4E2
330
4E1
100
AcDbEntity
  8
BEMAßUNG
 62
     7
100
AcDbVertex
100
AcDb2dVertex
 10
35.57078313997884
 20
182.087765796492
 30
0.0
  0
VERTEX
  5
4E3
330
4E1
100
AcDbEntity
  8
BEMAßUNG
 62
     7
100
AcDbVertex
100
AcDb2dVertex
 10
35.57078313997884
 20
182.3147975889699
 30
0.0
  0
SEQEND
  5
4E4
330
4E1
100
AcDbEntity
  8
BEMAßUNG
  0
POLYLINE
  5
4E5
330
1F
100
AcDbEntity
  8
BEMAßUNG
 62
     7
100
AcDb2dPolyline
 66
     1
 10
0.0
 20
0.0
 30
0.0
  0
VERTEX
  5
4E6
330
4E5
100
AcDbEntity
  8
BEMAßUNG
 62
     7
100
AcDbVertex
100
AcDb2dVertex
 10
35.54287786654831
 20
182.087765796492
 30
0.0
  0
VERTEX
  5
4E7
330
4E5
100
AcDbEntity
  8
BEMAßUNG
 62
     7
100
AcDbVertex
100
AcDb2dVertex
 10
35.54287786654831
 20
182.5270154708613
 30
0.0
  0
SEQEND
  5
4E8
330
4E5
100
AcDbEntity
  8
BEMAßUNG
  0
POLYLINE
  5
4E9
330
1F
100
AcDbEntity
  8
BEMAßUNG
 62
     7
100
AcDb2dPolyline
 66
     1
 10
0.0
 20
0.0
 30
0.0
  0
VERTEX
  5
4EA
330
4E9
100
AcDbEntity
  8
BEMAßUNG
 62
     7
100
AcDbVertex
100
AcDb2dVertex
 10
35.51514484789205
 20
182.087765796492
 30
0.0
  0
VERTEX
  5
4EB
330
4E9
100
AcDbEntity
  8
BEMAßUNG
 62
     7
100
AcDbVertex
100
AcDb2dVertex
 10
35.51514484789205
 20
182.7395778623012
 30
0.0
  0
SEQEND
  5
4EC
330
4E9
100
AcDbEntity
  8
BEMAßUNG
  0
POLYLINE
  5
4ED
330
1F
100
AcDbEntity
  8
BEMAßUNG
 62
     7
100
AcDb2dPolyline
 66
     1
 10
0.0
 20
0.0
 30
0.0
  0
VERTEX
  5
4EE
330
4ED
100
AcDbEntity
  8
BEMAßUNG
 62
     7
100
AcDbVertex
100
AcDb2dVertex
 10
35.48723957446153
 20
182.087765796492
 30
0.0
  0
VERTEX
  5
4EF
330
4ED
100
AcDbEntity
  8
BEMAßUNG
 62
     7
100
AcDbVertex
100
AcDb2dVertex
 10
35.48723957446153
 20
182.9517957441926
 30
0.0
  0
SEQEND
  5
4F0
330
4ED
100
AcDbEntity
  8
BEMAßUNG
  0
POLYLINE
  5
4F1
330
1F
100
AcDbEntity
  8
BEMAßUNG
 62
     7
100
AcDb2dPolyline
 66
     1
 10
0.0
 20
0.0
 30
0.0
  0
VERTEX
  5
4F2
330
4F1
100
AcDbEntity
  8
BEMAßUNG
 62
     7
100
AcDbVertex
100
AcDb2dVertex
 10
35.459334301031
 20
182.087765796492
 30
0.0
  0
VERTEX
  5
4F3
330
4F1
100
AcDbEntity
  8
BEMAßUNG
 62
     7
100
AcDbVertex
100
AcDb2dVertex
 10
35.459334301031
 20
183.1636691165355
 30
0.0
  0
SEQEND
  5
4F4
330
4F1
100
AcDbEntity
  8
BEMAßUNG
  0
POLYLINE
  5
4F5
330
1F
100
AcDbEntity
  8
BEMAßUNG
 62
     7
100
AcDb2dPolyline
 66
     1
 10
0.0
 20
0.0
 30
0.0
  0
VERTEX
  5
4F6
330
4F5
100
AcDbEntity
  8
BEMAßUNG
 62
     7
100
AcDbVertex
100
AcDb2dVertex
 10
35.43125677282622
 20
182.087765796492
 30
0.0
  0
VERTEX
  5
4F7
330
4F5
100
AcDbEntity
  8
BEMAßUNG
 62
     7
100
AcDbVertex
100
AcDb2dVertex
 10
35.43125677282622
 20
183.3758869984269
 30
0.0
  0
SEQEND
  5
4F8
330
4F5
100
AcDbEntity
  8
BEMAßUNG
  0
POLYLINE
  5
4F9
330
1F
100
AcDbEntity
  8
BEMAßUNG
 62
     7
100
AcDb2dPolyline
 66
     1
 10
0.0
 20
0.0
 30
0.0
  0
VERTEX
  5
4FA
330
4F9
100
AcDbEntity
  8
BEMAßUNG
 62
     7
100
AcDbVertex
100
AcDb2dVertex
 10
35.40335149939569
 20
182.087765796492
 30
0.0
  0
VERTEX
  5
4FB
330
4F9
100
AcDbEntity
  8
BEMAßUNG
 62
     7
100
AcDbVertex
100
AcDb2dVertex
 10
35.40335149939569
 20
183.5884493898668
 30
0.0
  0
SEQEND
  5
4FC
330
4F9
100
AcDbEntity
  8
BEMAßUNG
  0
POLYLINE
  5
4FD
330
1F
100
AcDbEntity
  8
BEMAßUNG
 62
     7
100
AcDb2dPolyline
 66
     1
 10
0.0
 20
0.0
 30
0.0
  0
VERTEX
  5
4FE
330
4FD
100
AcDbEntity
  8
BEMAßUNG
 62
     7
100
AcDbVertex
100
AcDb2dVertex
 10
35.37527397119091
 20
182.087765796492
 30
0.0
  0
VERTEX
  5
4FF
330
4FD
100
AcDbEntity
  8
BEMAßUNG
 62
     7
100
AcDbVertex
100
AcDb2dVertex
 10
35.37527397119091
 20
183.8006672717582
 30
0.0
  0
SEQEND
  5
500
330
4FD
100
AcDbEntity
  8
BEMAßUNG
  0
POLYLINE
  5
501
330
1F
100
AcDbEntity
  8
BEMAßUNG
 62
     7
100
AcDb2dPolyline
 66
     1
 10
0.0
 20
0.0
 30
0.0
  0
VERTEX
  5
502
330
501
100
AcDbEntity
  8
BEMAßUNG
 62
     7
100
AcDbVertex
100
AcDb2dVertex
 10
35.34719644298612
 20
182.087765796492
 30
0.0
  0
VERTEX
  5
503
330
501
100
AcDbEntity
  8
BEMAßUNG
 62
     7
100
AcDbVertex
100
AcDb2dVertex
 10
35.34719644298612
 20
184.0128851536496
 30
0.0
  0
SEQEND
  5
504
330
501
100
AcDbEntity
  8
BEMAßUNG
  0
POLYLINE
  5
505
330
1F
100
AcDbEntity
  8
BEMAßUNG
 62
     7
100
AcDb2dPolyline
 66
     1
 10
0.0
 20
0.0
 30
0.0
  0
VERTEX
  5
506
330
505
100
AcDbEntity
  8
BEMAßUNG
 62
     7
100
AcDbVertex
100
AcDb2dVertex
 10
35.34719644298612
 20
166.4129258481537
 30
0.0
  0
VERTEX
  5
507
330
505
100
AcDbEntity
  8
BEMAßUNG
 62
     7
100
AcDbVertex
100
AcDb2dVertex
 10
35.60058321592624
 20
168.3380452053113
 30
0.0
  0
VERTEX
  5
508
330
505
100
AcDbEntity
  8
BEMAßUNG
 62
     7
100
AcDbVertex
100
AcDb2dVertex
 10
35.09415417959452
 20
168.3380452053113
 30
0.0
  0
VERTEX
  5
509
330
505
100
AcDbEntity
  8
BEMAßUNG
 62
     7
100
AcDbVertex
100
AcDb2dVertex
 10
35.34719644298612
 20
166.4129258481537
 30
0.0
  0
SEQEND
  5
50A
330
505
100
AcDbEntity
  8
BEMAßUNG
  0
POLYLINE
  5
50B
330
1F
100
AcDbEntity
  8
BEMAßUNG
 62
     7
100
AcDb2dPolyline
 66
     1
 10
0.0
 20
0.0
 30
0.0
  0
VERTEX
  5
50C
330
50B
100
AcDbEntity
  8
BEMAßUNG
 62
     7
100
AcDbVertex
100
AcDb2dVertex
 10
35.59886066818362
 20
168.3380452053113
 30
0.0
  0
VERTEX
  5
50D
330
50B
100
AcDbEntity
  8
BEMAßUNG
 62
     7
100
AcDbVertex
100
AcDb2dVertex
 10
35.59886066818362
 20
168.3228867851762
 30
0.0
  0
SEQEND
  5
50E
330
50B
100
AcDbEntity
  8
BEMAßUNG
  0
POLYLINE
  5
50F
330
1F
100
AcDbEntity
  8
BEMAßUNG
 62
     7
100
AcDb2dPolyline
 66
     1
 10
0.0
 20
0.0
 30
0.0
  0
VERTEX
  5
510
330
50F
100
AcDbEntity
  8
BEMAßUNG
 62
     7
100
AcDbVertex
100
AcDb2dVertex
 10
35.59886066818362
 20
168.3380452053113
 30
0.0
  0
VERTEX
  5
511
330
50F
100
AcDbEntity
  8
BEMAßUNG
 62
     7
100
AcDbVertex
100
AcDb2dVertex
 10
35.59886066818362
 20
168.3228867851762
 30
0.0
  0
SEQEND
  5
512
330
50F
100
AcDbEntity
  8
BEMAßUNG
  0
POLYLINE
  5
513
330
1F
100
AcDbEntity
  8
BEMAßUNG
 62
     7
100
AcDb2dPolyline
 66
     1
 10
0.0
 20
0.0
 30
0.0
  0
VERTEX
  5
514
330
513
100
AcDbEntity
  8
BEMAßUNG
 62
     7
100
AcDbVertex
100
AcDb2dVertex
 10
35.57078313997884
 20
168.3380452053113
 30
0.0
  0
VERTEX
  5
515
330
513
100
AcDbEntity
  8
BEMAßUNG
 62
     7
100
AcDbVertex
100
AcDb2dVertex
 10
35.57078313997884
 20
168.1106689032848
 30
0.0
  0
SEQEND
  5
516
330
513
100
AcDbEntity
  8
BEMAßUNG
  0
POLYLINE
  5
517
330
1F
100
AcDbEntity
  8
BEMAßUNG
 62
     7
100
AcDb2dPolyline
 66
     1
 10
0.0
 20
0.0
 30
0.0
  0
VERTEX
  5
518
330
517
100
AcDbEntity
  8
BEMAßUNG
 62
     7
100
AcDbVertex
100
AcDb2dVertex
 10
35.54287786654831
 20
168.3380452053113
 30
0.0
  0
VERTEX
  5
519
330
517
100
AcDbEntity
  8
BEMAßUNG
 62
     7
100
AcDbVertex
100
AcDb2dVertex
 10
35.54287786654831
 20
167.8984510213934
 30
0.0
  0
SEQEND
  5
51A
330
517
100
AcDbEntity
  8
BEMAßUNG
  0
POLYLINE
  5
51B
330
1F
100
AcDbEntity
  8
BEMAßUNG
 62
     7
100
AcDb2dPolyline
 66
     1
 10
0.0
 20
0.0
 30
0.0
  0
VERTEX
  5
51C
330
51B
100
AcDbEntity
  8
BEMAßUNG
 62
     7
100
AcDbVertex
100
AcDb2dVertex
 10
35.51514484789205
 20
168.3380452053113
 30
0.0
  0
VERTEX
  5
51D
330
51B
100
AcDbEntity
  8
BEMAßUNG
 62
     7
100
AcDbVertex
100
AcDb2dVertex
 10
35.51514484789205
 20
167.6862331395021
 30
0.0
  0
SEQEND
  5
51E
330
51B
100
AcDbEntity
  8
BEMAßUNG
  0
POLYLINE
  5
51F
330
1F
100
AcDbEntity
  8
BEMAßUNG
 62
     7
100
AcDb2dPolyline
 66
     1
 10
0.0
 20
0.0
 30
0.0
  0
VERTEX
  5
520
330
51F
100
AcDbEntity
  8
BEMAßUNG
 62
     7
100
AcDbVertex
100
AcDb2dVertex
 10
35.48723957446153
 20
168.3380452053113
 30
0.0
  0
VERTEX
  5
521
330
51F
100
AcDbEntity
  8
BEMAßUNG
 62
     7
100
AcDbVertex
100
AcDb2dVertex
 10
35.48723957446153
 20
167.4740152576107
 30
0.0
  0
SEQEND
  5
522
330
51F
100
AcDbEntity
  8
BEMAßUNG
  0
POLYLINE
  5
523
330
1F
100
AcDbEntity
  8
BEMAßUNG
 62
     7
100
AcDb2dPolyline
 66
     1
 10
0.0
 20
0.0
 30
0.0
  0
VERTEX
  5
524
330
523
100
AcDbEntity
  8
BEMAßUNG
 62
     7
100
AcDbVertex
100
AcDb2dVertex
 10
35.459334301031
 20
168.3380452053113
 30
0.0
  0
VERTEX
  5
525
330
523
100
AcDbEntity
  8
BEMAßUNG
 62
     7
100
AcDbVertex
100
AcDb2dVertex
 10
35.459334301031
 20
167.2617973757193
 30
0.0
  0
SEQEND
  5
526
330
523
100
AcDbEntity
  8
BEMAßUNG
  0
POLYLINE
  5
527
330
1F
100
AcDbEntity
  8
BEMAßUNG
 62
     7
100
AcDb2dPolyline
 66
     1
 10
0.0
 20
0.0
 30
0.0
  0
VERTEX
  5
528
330
527
100
AcDbEntity
  8
BEMAßUNG
 62
     7
100
AcDbVertex
100
AcDb2dVertex
 10
35.43125677282622
 20
168.3380452053113
 30
0.0
  0
VERTEX
  5
529
330
527
100
AcDbEntity
  8
BEMAßUNG
 62
     7
100
AcDbVertex
100
AcDb2dVertex
 10
35.43125677282622
 20
167.0495794938279
 30
0.0
  0
SEQEND
  5
52A
330
527
100
AcDbEntity
  8
BEMAßUNG
  0
POLYLINE
  5
52B
330
1F
100
AcDbEntity
  8
BEMAßUNG
 62
     7
100
AcDb2dPolyline
 66
     1
 10
0.0
 20
0.0
 30
0.0
  0
VERTEX
  5
52C
330
52B
100
AcDbEntity
  8
BEMAßUNG
 62
     7
100
AcDbVertex
100
AcDb2dVertex
 10
35.40335149939569
 20
168.3380452053113
 30
0.0
  0
VERTEX
  5
52D
330
52B
100
AcDbEntity
  8
BEMAßUNG
 62
     7
100
AcDbVertex
100
AcDb2dVertex
 10
35.40335149939569
 20
166.8373616119365
 30
0.0
  0
SEQEND
  5
52E
330
52B
100
AcDbEntity
  8
BEMAßUNG
  0
POLYLINE
  5
52F
330
1F
100
AcDbEntity
  8
BEMAßUNG
 62
     7
100
AcDb2dPolyline
 66
     1
 10
0.0
 20
0.0
 30
0.0
  0
VERTEX
  5
530
330
52F
100
AcDbEntity
  8
BEMAßUNG
 62
     7
100
AcDbVertex
100
AcDb2dVertex
 10
35.37527397119091
 20
168.3380452053113
 30
0.0
  0
VERTEX
  5
531
330
52F
100
AcDbEntity
  8
BEMAßUNG
 62
     7
100
AcDbVertex
100
AcDb2dVertex
 10
35.37527397119091
 20
166.6251437300451
 30
0.0
  0
SEQEND
  5
532
330
52F
100
AcDbEntity
  8
BEMAßUNG
  0
POLYLINE
  5
533
330
1F
100
AcDbEntity
  8
BEMAßUNG
 62
     7
100
AcDb2dPolyline
 66
     1
 10
0.0
 20
0.0
 30
0.0
  0
VERTEX
  5
534
330
533
100
AcDbEntity
  8
BEMAßUNG
 62
     7
100
AcDbVertex
100
AcDb2dVertex
 10
35.34719644298612
 20
168.3380452053113
 30
0.0
  0
VERTEX
  5
535
330
533
100
AcDbEntity
  8
BEMAßUNG
 62
     7
100
AcDbVertex
100
AcDb2dVertex
 10
35.34719644298612
 20
166.4129258481537
 30
0.0
  0
SEQEND
  5
536
330
533
100
AcDbEntity
  8
BEMAßUNG
  0
POLYLINE
  5
537
330
1F
100
AcDbEntity
  8
BEMAßUNG
 62
     7
100
AcDb2dPolyline
 66
     1
 10
0.0
 20
0.0
 30
0.0
  0
VERTEX
  5
538
330
537
100
AcDbEntity
  8
BEMAßUNG
 62
     7
100
AcDbVertex
100
AcDb2dVertex
 10
35.09587672733714
 20
168.3380452053113
 30
0.0
  0
VERTEX
  5
539
330
537
100
AcDbEntity
  8
BEMAßUNG
 62
     7
100
AcDbVertex
100
AcDb2dVertex
 10
35.09587672733714
 20
168.3228867851762
 30
0.0
  0
SEQEND
  5
53A
330
537
100
AcDbEntity
  8
BEMAßUNG
  0
POLYLINE
  5
53B
330
1F
100
AcDbEntity
  8
BEMAßUNG
 62
     7
100
AcDb2dPolyline
 66
     1
 10
0.0
 20
0.0
 30
0.0
  0
VERTEX
  5
53C
330
53B
100
AcDbEntity
  8
BEMAßUNG
 62
     7
100
AcDbVertex
100
AcDb2dVertex
 10
35.09587672733714
 20
168.3380452053113
 30
0.0
  0
VERTEX
  5
53D
330
53B
100
AcDbEntity
  8
BEMAßUNG
 62
     7
100
AcDbVertex
100
AcDb2dVertex
 10
35.09587672733714
 20
168.3228867851762
 30
0.0
  0
SEQEND
  5
53E
330
53B
100
AcDbEntity
  8
BEMAßUNG
  0
POLYLINE
  5
53F
330
1F
100
AcDbEntity
  8
BEMAßUNG
 62
     7
100
AcDb2dPolyline
 66
     1
 10
0.0
 20
0.0
 30
0.0
  0
VERTEX
  5
540
330
53F
100
AcDbEntity
  8
BEMAßUNG
 62
     7
100
AcDbVertex
100
AcDb2dVertex
 10
35.12395425554193
 20
168.3380452053113
 30
0.0
  0
VERTEX
  5
541
330
53F
100
AcDbEntity
  8
BEMAßUNG
 62
     7
100
AcDbVertex
100
AcDb2dVertex
 10
35.12395425554193
 20
168.1106689032848
 30
0.0
  0
SEQEND
  5
542
330
53F
100
AcDbEntity
  8
BEMAßUNG
  0
POLYLINE
  5
543
330
1F
100
AcDbEntity
  8
BEMAßUNG
 62
     7
100
AcDb2dPolyline
 66
     1
 10
0.0
 20
0.0
 30
0.0
  0
VERTEX
  5
544
330
543
100
AcDbEntity
  8
BEMAßUNG
 62
     7
100
AcDbVertex
100
AcDb2dVertex
 10
35.15185952897245
 20
168.3380452053113
 30
0.0
  0
VERTEX
  5
545
330
543
100
AcDbEntity
  8
BEMAßUNG
 62
     7
100
AcDbVertex
100
AcDb2dVertex
 10
35.15185952897245
 20
167.8984510213934
 30
0.0
  0
SEQEND
  5
546
330
543
100
AcDbEntity
  8
BEMAßUNG
  0
POLYLINE
  5
547
330
1F
100
AcDbEntity
  8
BEMAßUNG
 62
     7
100
AcDb2dPolyline
 66
     1
 10
0.0
 20
0.0
 30
0.0
  0
VERTEX
  5
548
330
547
100
AcDbEntity
  8
BEMAßUNG
 62
     7
100
AcDbVertex
100
AcDb2dVertex
 10
35.17993705717724
 20
168.3380452053113
 30
0.0
  0
VERTEX
  5
549
330
547
100
AcDbEntity
  8
BEMAßUNG
 62
     7
100
AcDbVertex
100
AcDb2dVertex
 10
35.17993705717724
 20
167.6862331395021
 30
0.0
  0
SEQEND
  5
54A
330
547
100
AcDbEntity
  8
BEMAßUNG
  0
POLYLINE
  5
54B
330
1F
100
AcDbEntity
  8
BEMAßUNG
 62
     7
100
AcDb2dPolyline
 66
     1
 10
0.0
 20
0.0
 30
0.0
  0
VERTEX
  5
54C
330
54B
100
AcDbEntity
  8
BEMAßUNG
 62
     7
100
AcDbVertex
100
AcDb2dVertex
 10
35.20784233060776
 20
168.3380452053113
 30
0.0
  0
VERTEX
  5
54D
330
54B
100
AcDbEntity
  8
BEMAßUNG
 62
     7
100
AcDbVertex
100
AcDb2dVertex
 10
35.20784233060776
 20
167.4740152576107
 30
0.0
  0
SEQEND
  5
54E
330
54B
100
AcDbEntity
  8
BEMAßUNG
  0
POLYLINE
  5
54F
330
1F
100
AcDbEntity
  8
BEMAßUNG
 62
     7
100
AcDb2dPolyline
 66
     1
 10
0.0
 20
0.0
 30
0.0
  0
VERTEX
  5
550
330
54F
100
AcDbEntity
  8
BEMAßUNG
 62
     7
100
AcDbVertex
100
AcDb2dVertex
 10
35.23574760403829
 20
168.3380452053113
 30
0.0
  0
VERTEX
  5
551
330
54F
100
AcDbEntity
  8
BEMAßUNG
 62
     7
100
AcDbVertex
100
AcDb2dVertex
 10
35.23574760403829
 20
167.2617973757193
 30
0.0
  0
SEQEND
  5
552
330
54F
100
AcDbEntity
  8
BEMAßUNG
  0
POLYLINE
  5
553
330
1F
100
AcDbEntity
  8
BEMAßUNG
 62
     7
100
AcDb2dPolyline
 66
     1
 10
0.0
 20
0.0
 30
0.0
  0
VERTEX
  5
554
330
553
100
AcDbEntity
  8
BEMAßUNG
 62
     7
100
AcDbVertex
100
AcDb2dVertex
 10
35.26348062269455
 20
168.3380452053113
 30
0.0
  0
VERTEX
  5
555
330
553
100
AcDbEntity
  8
BEMAßUNG
 62
     7
100
AcDbVertex
100
AcDb2dVertex
 10
35.26348062269455
 20
167.0495794938279
 30
0.0
  0
SEQEND
  5
556
330
553
100
AcDbEntity
  8
BEMAßUNG
  0
POLYLINE
  5
557
330
1F
100
AcDbEntity
  8
BEMAßUNG
 62
     7
100
AcDb2dPolyline
 66
     1
 10
0.0
 20
0.0
 30
0.0
  0
VERTEX
  5
558
330
557
100
AcDbEntity
  8
BEMAßUNG
 62
     7
100
AcDbVertex
100
AcDb2dVertex
 10
35.29138589612507
 20
168.3380452053113
 30
0.0
  0
VERTEX
  5
559
330
557
100
AcDbEntity
  8
BEMAßUNG
 62
     7
100
AcDbVertex
100
AcDb2dVertex
 10
35.29138589612507
 20
166.8373616119365
 30
0.0
  0
SEQEND
  5
55A
330
557
100
AcDbEntity
  8
BEMAßUNG
  0
POLYLINE
  5
55B
330
1F
100
AcDbEntity
  8
BEMAßUNG
 62
     7
100
AcDb2dPolyline
 66
     1
 10
0.0
 20
0.0
 30
0.0
  0
VERTEX
  5
55C
330
55B
100
AcDbEntity
  8
BEMAßUNG
 62
     7
100
AcDbVertex
100
AcDb2dVertex
 10
35.31946342432986
 20
168.3380452053113
 30
0.0
  0
VERTEX
  5
55D
330
55B
100
AcDbEntity
  8
BEMAßUNG
 62
     7
100
AcDbVertex
100
AcDb2dVertex
 10
35.31946342432986
 20
166.6251437300451
 30
0.0
  0
SEQEND
  5
55E
330
55B
100
AcDbEntity
  8
BEMAßUNG
  0
POLYLINE
  5
55F
330
1F
100
AcDbEntity
  8
BEMAßUNG
 62
     7
100
AcDb2dPolyline
 66
     1
 10
0.0
 20
0.0
 30
0.0
  0
VERTEX
  5
560
330
55F
100
AcDbEntity
  8
BEMAßUNG
 62
     7
100
AcDbVertex
100
AcDb2dVertex
 10
35.34719644298612
 20
168.3380452053113
 30
0.0
  0
VERTEX
  5
561
330
55F
100
AcDbEntity
  8
BEMAßUNG
 62
     7
100
AcDbVertex
100
AcDb2dVertex
 10
35.34719644298612
 20
166.4129258481537
 30
0.0
  0
SEQEND
  5
562
330
55F
100
AcDbEntity
  8
BEMAßUNG
  0
POLYLINE
  5
563
330
1F
100
AcDbEntity
  8
BEMAßUNG
 62
     7
100
AcDb2dPolyline
 66
     1
 10
0.0
 20
0.0
 30
0.0
  0
VERTEX
  5
564
330
563
100
AcDbEntity
  8
BEMAßUNG
 62
     7
100
AcDbVertex
100
AcDb2dVertex
 10
0.6726548934950307
 20
163.3922661266866
 30
0.0
  0
VERTEX
  5
565
330
563
100
AcDbEntity
  8
BEMAßUNG
 62
     7
100
AcDbVertex
100
AcDb2dVertex
 10
4.459848360430177
 20
163.5907036266371
 30
0.0
  0
SEQEND
  5
566
330
563
100
AcDbEntity
  8
BEMAßUNG
  0
SPLINE
  5
567
330
1F
100
AcDbEntity
  8
BEMAßUNG
 62
     7
100
AcDbSpline
210
0.0
220
0.0
230
1.0
 70
     8
 71
     3
 72
     8
 73
     4
 74
     0
 42
0.0000000001
 43
0.0000000001
 40
0.0
 40
0.0
 40
0.0
 40
0.0
 40
1.0
 40
1.0
 40
1.0
 40
1.0
 10
3.373092989608116
 20
163.0894422335332
 30
0.0
 10
3.373092989608116
 20
163.245505059015
 30
0.0
 10
3.368786620251553
 20
163.4005343558512
 30
0.0
 10
3.361379664958267
 20
163.5331705320334
 30
0.0
  0
SPLINE
  5
568
330
1F
100
AcDbEntity
  8
BEMAßUNG
 62
     7
100
AcDbSpline
210
0.0
220
0.0
230
1.0
 70
     8
 71
     3
 72
     8
 73
     4
 74
     0
 42
0.0000000001
 43
0.0000000001
 40
0.0
 40
0.0
 40
0.0
 40
0.0
 40
1.0
 40
1.0
 40
1.0
 40
1.0
 10
-5.108732095076983
 20
154.6072726392996
 30
0.0
 10
-0.42443576378278
 20
154.6072726392996
 30
0.0
 10
3.373092989608116
 20
158.405145902239
 30
0.0
 10
3.373092989608116
 20
163.0894422335332
 30
0.0
  0
POLYLINE
  5
569
330
1F
100
AcDbEntity
  8
BEMAßUNG
 62
     7
100
AcDb2dPolyline
 66
     1
 10
0.0
 20
0.0
 30
0.0
  0
VERTEX
  5
56A
330
569
100
AcDbEntity
  8
BEMAßUNG
 62
     7
100
AcDbVertex
100
AcDb2dVertex
 10
-5.108732095076983
 20
154.6072726392996
 30
0.0
  0
VERTEX
  5
56B
330
569
100
AcDbEntity
  8
BEMAßUNG
 62
     7
100
AcDbVertex
100
AcDb2dVertex
 10
-3.172588432366575
 20
154.4632676480161
 30
0.0
  0
VERTEX
  5
56C
330
569
100
AcDbEntity
  8
BEMAßUNG
 62
     7
100
AcDbVertex
100
AcDb2dVertex
 10
-3.201182724894149
 20
154.9693521747993
 30
0.0
  0
VERTEX
  5
56D
330
569
100
AcDbEntity
  8
BEMAßUNG
 62
     7
100
AcDbVertex
100
AcDb2dVertex
 10
-5.108732095076983
 20
154.6072726392996
 30
0.0
  0
SEQEND
  5
56E
330
569
100
AcDbEntity
  8
BEMAßUNG
  0
POLYLINE
  5
56F
330
1F
100
AcDbEntity
  8
BEMAßUNG
 62
     7
100
AcDb2dPolyline
 66
     1
 10
0.0
 20
0.0
 30
0.0
  0
VERTEX
  5
570
330
56F
100
AcDbEntity
  8
BEMAßUNG
 62
     7
100
AcDbVertex
100
AcDb2dVertex
 10
-3.1729329419151
 20
154.4649901957588
 30
0.0
  0
VERTEX
  5
571
330
56F
100
AcDbEntity
  8
BEMAßUNG
 62
     7
100
AcDbVertex
100
AcDb2dVertex
 10
-3.187746852501674
 20
154.4643011766617
 30
0.0
  0
SEQEND
  5
572
330
56F
100
AcDbEntity
  8
BEMAßUNG
  0
POLYLINE
  5
573
330
1F
100
AcDbEntity
  8
BEMAßUNG
 62
     7
100
AcDb2dPolyline
 66
     1
 10
0.0
 20
0.0
 30
0.0
  0
VERTEX
  5
574
330
573
100
AcDbEntity
  8
BEMAßUNG
 62
     7
100
AcDbVertex
100
AcDb2dVertex
 10
-3.1729329419151
 20
154.4649901957588
 30
0.0
  0
VERTEX
  5
575
330
573
100
AcDbEntity
  8
BEMAßUNG
 62
     7
100
AcDbVertex
100
AcDb2dVertex
 10
-3.187746852501674
 20
154.4643011766617
 30
0.0
  0
SEQEND
  5
576
330
573
100
AcDbEntity
  8
BEMAßUNG
  0
POLYLINE
  5
577
330
1F
100
AcDbEntity
  8
BEMAßUNG
 62
     7
100
AcDb2dPolyline
 66
     1
 10
0.0
 20
0.0
 30
0.0
  0
VERTEX
  5
578
330
577
100
AcDbEntity
  8
BEMAßUNG
 62
     7
100
AcDbVertex
100
AcDb2dVertex
 10
-3.1743109801092
 20
154.4928954691893
 30
0.0
  0
VERTEX
  5
579
330
577
100
AcDbEntity
  8
BEMAßUNG
 62
     7
100
AcDbVertex
100
AcDb2dVertex
 10
-3.400998263038639
 20
154.4801486158939
 30
0.0
  0
SEQEND
  5
57A
330
577
100
AcDbEntity
  8
BEMAßUNG
  0
POLYLINE
  5
57B
330
1F
100
AcDbEntity
  8
BEMAßUNG
 62
     7
100
AcDb2dPolyline
 66
     1
 10
0.0
 20
0.0
 30
0.0
  0
VERTEX
  5
57C
330
57B
100
AcDbEntity
  8
BEMAßUNG
 62
     7
100
AcDbVertex
100
AcDb2dVertex
 10
-3.1756890183033
 20
154.5211452521683
 30
0.0
  0
VERTEX
  5
57D
330
57B
100
AcDbEntity
  8
BEMAßUNG
 62
     7
100
AcDbVertex
100
AcDb2dVertex
 10
-3.61459418312413
 20
154.495996055126
 30
0.0
  0
SEQEND
  5
57E
330
57B
100
AcDbEntity
  8
BEMAßUNG
  0
POLYLINE
  5
57F
330
1F
100
AcDbEntity
  8
BEMAßUNG
 62
     7
100
AcDb2dPolyline
 66
     1
 10
0.0
 20
0.0
 30
0.0
  0
VERTEX
  5
580
330
57F
100
AcDbEntity
  8
BEMAßUNG
 62
     7
100
AcDbVertex
100
AcDb2dVertex
 10
-3.177411566045925
 20
154.5490505255989
 30
0.0
  0
VERTEX
  5
581
330
57F
100
AcDbEntity
  8
BEMAßUNG
 62
     7
100
AcDbVertex
100
AcDb2dVertex
 10
-3.827845593661094
 20
154.5121880039067
 30
0.0
  0
SEQEND
  5
582
330
57F
100
AcDbEntity
  8
BEMAßUNG
  0
POLYLINE
  5
583
330
1F
100
AcDbEntity
  8
BEMAßUNG
 62
     7
100
AcDb2dPolyline
 66
     1
 10
0.0
 20
0.0
 30
0.0
  0
VERTEX
  5
584
330
583
100
AcDbEntity
  8
BEMAßUNG
 62
     7
100
AcDbVertex
100
AcDb2dVertex
 10
-3.178789604240025
 20
154.5769557990294
 30
0.0
  0
VERTEX
  5
585
330
583
100
AcDbEntity
  8
BEMAßUNG
 62
     7
100
AcDbVertex
100
AcDb2dVertex
 10
-4.041441513746585
 20
154.5280354431388
 30
0.0
  0
SEQEND
  5
586
330
583
100
AcDbEntity
  8
BEMAßUNG
  0
POLYLINE
  5
587
330
1F
100
AcDbEntity
  8
BEMAßUNG
 62
     7
100
AcDb2dPolyline
 66
     1
 10
0.0
 20
0.0
 30
0.0
  0
VERTEX
  5
588
330
587
100
AcDbEntity
  8
BEMAßUNG
 62
     7
100
AcDbVertex
100
AcDb2dVertex
 10
-3.180856661531175
 20
154.6045165629114
 30
0.0
  0
VERTEX
  5
589
330
587
100
AcDbEntity
  8
BEMAßUNG
 62
     7
100
AcDbVertex
100
AcDb2dVertex
 10
-4.255037433832074
 20
154.543882882371
 30
0.0
  0
SEQEND
  5
58A
330
587
100
AcDbEntity
  8
BEMAßUNG
  0
POLYLINE
  5
58B
330
1F
100
AcDbEntity
  8
BEMAßUNG
 62
     7
100
AcDb2dPolyline
 66
     1
 10
0.0
 20
0.0
 30
0.0
  0
VERTEX
  5
58C
330
58B
100
AcDbEntity
  8
BEMAßUNG
 62
     7
100
AcDbVertex
100
AcDb2dVertex
 10
-3.182234699725275
 20
154.6324218363419
 30
0.0
  0
VERTEX
  5
58D
330
58B
100
AcDbEntity
  8
BEMAßUNG
 62
     7
100
AcDbVertex
100
AcDb2dVertex
 10
-4.468633353917564
 20
154.5593858120546
 30
0.0
  0
SEQEND
  5
58E
330
58B
100
AcDbEntity
  8
BEMAßUNG
  0
POLYLINE
  5
58F
330
1F
100
AcDbEntity
  8
BEMAßUNG
 62
     7
100
AcDb2dPolyline
 66
     1
 10
0.0
 20
0.0
 30
0.0
  0
VERTEX
  5
590
330
58F
100
AcDbEntity
  8
BEMAßUNG
 62
     7
100
AcDbVertex
100
AcDb2dVertex
 10
-3.183612737919375
 20
154.6603271097724
 30
0.0
  0
VERTEX
  5
591
330
58F
100
AcDbEntity
  8
BEMAßUNG
 62
     7
100
AcDbVertex
100
AcDb2dVertex
 10
-4.681884764454529
 20
154.5755777608353
 30
0.0
  0
SEQEND
  5
592
330
58F
100
AcDbEntity
  8
BEMAßUNG
  0
POLYLINE
  5
593
330
1F
100
AcDbEntity
  8
BEMAßUNG
 62
     7
100
AcDb2dPolyline
 66
     1
 10
0.0
 20
0.0
 30
0.0
  0
VERTEX
  5
594
330
593
100
AcDbEntity
  8
BEMAßUNG
 62
     7
100
AcDbVertex
100
AcDb2dVertex
 10
-3.185507540436262
 20
154.6882323832029
 30
0.0
  0
VERTEX
  5
595
330
593
100
AcDbEntity
  8
BEMAßUNG
 62
     7
100
AcDbVertex
100
AcDb2dVertex
 10
-4.895136174991494
 20
154.5914252000674
 30
0.0
  0
SEQEND
  5
596
330
593
100
AcDbEntity
  8
BEMAßUNG
  0
POLYLINE
  5
597
330
1F
100
AcDbEntity
  8
BEMAßUNG
 62
     7
100
AcDb2dPolyline
 66
     1
 10
0.0
 20
0.0
 30
0.0
  0
VERTEX
  5
598
330
597
100
AcDbEntity
  8
BEMAßUNG
 62
     7
100
AcDbVertex
100
AcDb2dVertex
 10
-3.186713323856099
 20
154.715793147085
 30
0.0
  0
VERTEX
  5
599
330
597
100
AcDbEntity
  8
BEMAßUNG
 62
     7
100
AcDbVertex
100
AcDb2dVertex
 10
-5.108732095076983
 20
154.6072726392996
 30
0.0
  0
SEQEND
  5
59A
330
597
100
AcDbEntity
  8
BEMAßUNG
  0
POLYLINE
  5
59B
330
1F
100
AcDbEntity
  8
BEMAßUNG
 62
     7
100
AcDb2dPolyline
 66
     1
 10
0.0
 20
0.0
 30
0.0
  0
VERTEX
  5
59C
330
59B
100
AcDbEntity
  8
BEMAßUNG
 62
     7
100
AcDbVertex
100
AcDb2dVertex
 10
-3.200838215345624
 20
154.9672851175082
 30
0.0
  0
VERTEX
  5
59D
330
59B
100
AcDbEntity
  8
BEMAßUNG
 62
     7
100
AcDbVertex
100
AcDb2dVertex
 10
-3.215996635480723
 20
154.9665960984111
 30
0.0
  0
SEQEND
  5
59E
330
59B
100
AcDbEntity
  8
BEMAßUNG
  0
POLYLINE
  5
59F
330
1F
100
AcDbEntity
  8
BEMAßUNG
 62
     7
100
AcDb2dPolyline
 66
     1
 10
0.0
 20
0.0
 30
0.0
  0
VERTEX
  5
5A0
330
59F
100
AcDbEntity
  8
BEMAßUNG
 62
     7
100
AcDbVertex
100
AcDb2dVertex
 10
-3.200838215345624
 20
154.9672851175082
 30
0.0
  0
VERTEX
  5
5A1
330
59F
100
AcDbEntity
  8
BEMAßUNG
 62
     7
100
AcDbVertex
100
AcDb2dVertex
 10
-3.215996635480723
 20
154.9665960984111
 30
0.0
  0
SEQEND
  5
5A2
330
59F
100
AcDbEntity
  8
BEMAßUNG
  0
POLYLINE
  5
5A3
330
1F
100
AcDbEntity
  8
BEMAßUNG
 62
     7
100
AcDb2dPolyline
 66
     1
 10
0.0
 20
0.0
 30
0.0
  0
VERTEX
  5
5A4
330
5A3
100
AcDbEntity
  8
BEMAßUNG
 62
     7
100
AcDbVertex
100
AcDb2dVertex
 10
-3.199632431925787
 20
154.9393798440776
 30
0.0
  0
VERTEX
  5
5A5
330
5A3
100
AcDbEntity
  8
BEMAßUNG
 62
     7
100
AcDbVertex
100
AcDb2dVertex
 10
-3.426147460080963
 20
154.9262884812337
 30
0.0
  0
SEQEND
  5
5A6
330
5A3
100
AcDbEntity
  8
BEMAßUNG
  0
POLYLINE
  5
5A7
330
1F
100
AcDbEntity
  8
BEMAßUNG
 62
     7
100
AcDb2dPolyline
 66
     1
 10
0.0
 20
0.0
 30
0.0
  0
VERTEX
  5
5A8
330
5A7
100
AcDbEntity
  8
BEMAßUNG
 62
     7
100
AcDbVertex
100
AcDb2dVertex
 10
-3.198082138957424
 20
154.9114745706471
 30
0.0
  0
VERTEX
  5
5A9
330
5A7
100
AcDbEntity
  8
BEMAßUNG
 62
     7
100
AcDbVertex
100
AcDb2dVertex
 10
-3.636642794229728
 20
154.8866698831533
 30
0.0
  0
SEQEND
  5
5AA
330
5A7
100
AcDbEntity
  8
BEMAßUNG
  0
POLYLINE
  5
5AB
330
1F
100
AcDbEntity
  8
BEMAßUNG
 62
     7
100
AcDb2dPolyline
 66
     1
 10
0.0
 20
0.0
 30
0.0
  0
VERTEX
  5
5AC
330
5AB
100
AcDbEntity
  8
BEMAßUNG
 62
     7
100
AcDbVertex
100
AcDb2dVertex
 10
-3.196359591214799
 20
154.8835692972166
 30
0.0
  0
VERTEX
  5
5AD
330
5AB
100
AcDbEntity
  8
BEMAßUNG
 62
     7
100
AcDbVertex
100
AcDb2dVertex
 10
-3.847138128378493
 20
154.8463622659759
 30
0.0
  0
SEQEND
  5
5AE
330
5AB
100
AcDbEntity
  8
BEMAßUNG
  0
POLYLINE
  5
5AF
330
1F
100
AcDbEntity
  8
BEMAßUNG
 62
     7
100
AcDb2dPolyline
 66
     1
 10
0.0
 20
0.0
 30
0.0
  0
VERTEX
  5
5B0
330
5AF
100
AcDbEntity
  8
BEMAßUNG
 62
     7
100
AcDbVertex
100
AcDb2dVertex
 10
-3.194981553020699
 20
154.8556640237861
 30
0.0
  0
VERTEX
  5
5B1
330
5AF
100
AcDbEntity
  8
BEMAßUNG
 62
     7
100
AcDbVertex
100
AcDb2dVertex
 10
-4.057288952978734
 20
154.8070881774441
 30
0.0
  0
SEQEND
  5
5B2
330
5AF
100
AcDbEntity
  8
BEMAßUNG
  0
POLYLINE
  5
5B3
330
1F
100
AcDbEntity
  8
BEMAßUNG
 62
     7
100
AcDb2dPolyline
 66
     1
 10
0.0
 20
0.0
 30
0.0
  0
VERTEX
  5
5B4
330
5B3
100
AcDbEntity
  8
BEMAßUNG
 62
     7
100
AcDbVertex
100
AcDb2dVertex
 10
-3.193431260052337
 20
154.8277587503556
 30
0.0
  0
VERTEX
  5
5B5
330
5B3
100
AcDbEntity
  8
BEMAßUNG
 62
     7
100
AcDbVertex
100
AcDb2dVertex
 10
-4.267784287127498
 20
154.7667805602667
 30
0.0
  0
SEQEND
  5
5B6
330
5B3
100
AcDbEntity
  8
BEMAßUNG
  0
POLYLINE
  5
5B7
330
1F
100
AcDbEntity
  8
BEMAßUNG
 62
     7
100
AcDb2dPolyline
 66
     1
 10
0.0
 20
0.0
 30
0.0
  0
VERTEX
  5
5B8
330
5B7
100
AcDbEntity
  8
BEMAßUNG
 62
     7
100
AcDbVertex
100
AcDb2dVertex
 10
-3.191536457535449
 20
154.7998534769251
 30
0.0
  0
VERTEX
  5
5B9
330
5B7
100
AcDbEntity
  8
BEMAßUNG
 62
     7
100
AcDbVertex
100
AcDb2dVertex
 10
-4.477935111727739
 20
154.7271619621863
 30
0.0
  0
SEQEND
  5
5BA
330
5B7
100
AcDbEntity
  8
BEMAßUNG
  0
POLYLINE
  5
5BB
330
1F
100
AcDbEntity
  8
BEMAßUNG
 62
     7
100
AcDb2dPolyline
 66
     1
 10
0.0
 20
0.0
 30
0.0
  0
VERTEX
  5
5BC
330
5BB
100
AcDbEntity
  8
BEMAßUNG
 62
     7
100
AcDbVertex
100
AcDb2dVertex
 10
-3.190158419341349
 20
154.7719482034945
 30
0.0
  0
VERTEX
  5
5BD
330
5BB
100
AcDbEntity
  8
BEMAßUNG
 62
     7
100
AcDbVertex
100
AcDb2dVertex
 10
-4.688085936327979
 20
154.6871988545574
 30
0.0
  0
SEQEND
  5
5BE
330
5BB
100
AcDbEntity
  8
BEMAßUNG
  0
POLYLINE
  5
5BF
330
1F
100
AcDbEntity
  8
BEMAßUNG
 62
     7
100
AcDb2dPolyline
 66
     1
 10
0.0
 20
0.0
 30
0.0
  0
VERTEX
  5
5C0
330
5BF
100
AcDbEntity
  8
BEMAßUNG
 62
     7
100
AcDbVertex
100
AcDb2dVertex
 10
-3.188435871598724
 20
154.744042930064
 30
0.0
  0
VERTEX
  5
5C1
330
5BF
100
AcDbEntity
  8
BEMAßUNG
 62
     7
100
AcDbVertex
100
AcDb2dVertex
 10
-4.898581270476744
 20
154.6472357469285
 30
0.0
  0
SEQEND
  5
5C2
330
5BF
100
AcDbEntity
  8
BEMAßUNG
  0
POLYLINE
  5
5C3
330
1F
100
AcDbEntity
  8
BEMAßUNG
 62
     7
100
AcDb2dPolyline
 66
     1
 10
0.0
 20
0.0
 30
0.0
  0
VERTEX
  5
5C4
330
5C3
100
AcDbEntity
  8
BEMAßUNG
 62
     7
100
AcDbVertex
100
AcDb2dVertex
 10
-3.186713323856099
 20
154.715793147085
 30
0.0
  0
VERTEX
  5
5C5
330
5C3
100
AcDbEntity
  8
BEMAßUNG
 62
     7
100
AcDbVertex
100
AcDb2dVertex
 10
-5.108732095076983
 20
154.6072726392996
 30
0.0
  0
SEQEND
  5
5C6
330
5C3
100
AcDbEntity
  8
BEMAßUNG
  0
POLYLINE
  5
5C7
330
1F
100
AcDbEntity
  8
BEMAßUNG
 62
     7
100
AcDb2dPolyline
 66
     1
 10
0.0
 20
0.0
 30
0.0
  0
VERTEX
  5
5C8
330
5C7
100
AcDbEntity
  8
BEMAßUNG
 62
     7
100
AcDbVertex
100
AcDb2dVertex
 10
3.361379664958267
 20
163.5331705320334
 30
0.0
  0
VERTEX
  5
5C9
330
5C7
100
AcDbEntity
  8
BEMAßUNG
 62
     7
100
AcDbVertex
100
AcDb2dVertex
 10
3.099896917627804
 20
161.6094292130699
 30
0.0
  0
VERTEX
  5
5CA
330
5C7
100
AcDbEntity
  8
BEMAßUNG
 62
     7
100
AcDbVertex
100
AcDb2dVertex
 10
3.60701497305658
 20
161.6070176462302
 30
0.0
  0
VERTEX
  5
5CB
330
5C7
100
AcDbEntity
  8
BEMAßUNG
 62
     7
100
AcDbVertex
100
AcDb2dVertex
 10
3.361379664958267
 20
163.5331705320334
 30
0.0
  0
SEQEND
  5
5CC
330
5C7
100
AcDbEntity
  8
BEMAßUNG
  0
POLYLINE
  5
5CD
330
1F
100
AcDbEntity
  8
BEMAßUNG
 62
     7
100
AcDb2dPolyline
 66
     1
 10
0.0
 20
0.0
 30
0.0
  0
VERTEX
  5
5CE
330
5CD
100
AcDbEntity
  8
BEMAßUNG
 62
     7
100
AcDbVertex
100
AcDb2dVertex
 10
3.101963974918954
 20
161.6094292130699
 30
0.0
  0
VERTEX
  5
5CF
330
5CD
100
AcDbEntity
  8
BEMAßUNG
 62
     7
100
AcDbVertex
100
AcDb2dVertex
 10
3.101963974918954
 20
161.6242431236564
 30
0.0
  0
SEQEND
  5
5D0
330
5CD
100
AcDbEntity
  8
BEMAßUNG
  0
POLYLINE
  5
5D1
330
1F
100
AcDbEntity
  8
BEMAßUNG
 62
     7
100
AcDb2dPolyline
 66
     1
 10
0.0
 20
0.0
 30
0.0
  0
VERTEX
  5
5D2
330
5D1
100
AcDbEntity
  8
BEMAßUNG
 62
     7
100
AcDbVertex
100
AcDb2dVertex
 10
3.101963974918954
 20
161.6094292130699
 30
0.0
  0
VERTEX
  5
5D3
330
5D1
100
AcDbEntity
  8
BEMAßUNG
 62
     7
100
AcDbVertex
100
AcDb2dVertex
 10
3.101963974918954
 20
161.6242431236564
 30
0.0
  0
SEQEND
  5
5D4
330
5D1
100
AcDbEntity
  8
BEMAßUNG
  0
POLYLINE
  5
5D5
330
1F
100
AcDbEntity
  8
BEMAßUNG
 62
     7
100
AcDb2dPolyline
 66
     1
 10
0.0
 20
0.0
 30
0.0
  0
VERTEX
  5
5D6
330
5D5
100
AcDbEntity
  8
BEMAßUNG
 62
     7
100
AcDbVertex
100
AcDb2dVertex
 10
3.130213757898002
 20
161.6094292130699
 30
0.0
  0
VERTEX
  5
5D7
330
5D5
100
AcDbEntity
  8
BEMAßUNG
 62
     7
100
AcDbVertex
100
AcDb2dVertex
 10
3.130902776995052
 20
161.8364610055478
 30
0.0
  0
SEQEND
  5
5D8
330
5D5
100
AcDbEntity
  8
BEMAßUNG
  0
POLYLINE
  5
5D9
330
1F
100
AcDbEntity
  8
BEMAßUNG
 62
     7
100
AcDb2dPolyline
 66
     1
 10
0.0
 20
0.0
 30
0.0
  0
VERTEX
  5
5DA
330
5D9
100
AcDbEntity
  8
BEMAßUNG
 62
     7
100
AcDbVertex
100
AcDb2dVertex
 10
3.158119031328526
 20
161.6090847035213
 30
0.0
  0
VERTEX
  5
5DB
330
5D9
100
AcDbEntity
  8
BEMAßUNG
 62
     7
100
AcDbVertex
100
AcDb2dVertex
 10
3.159841579071151
 20
162.0486788874392
 30
0.0
  0
SEQEND
  5
5DC
330
5D9
100
AcDbEntity
  8
BEMAßUNG
  0
POLYLINE
  5
5DD
330
1F
100
AcDbEntity
  8
BEMAßUNG
 62
     7
100
AcDb2dPolyline
 66
     1
 10
0.0
 20
0.0
 30
0.0
  0
VERTEX
  5
5DE
330
5DD
100
AcDbEntity
  8
BEMAßUNG
 62
     7
100
AcDbVertex
100
AcDb2dVertex
 10
3.18602430475905
 20
161.6087401939728
 30
0.0
  0
VERTEX
  5
5DF
330
5DD
100
AcDbEntity
  8
BEMAßUNG
 62
     7
100
AcDbVertex
100
AcDb2dVertex
 10
3.188435871598724
 20
162.2605522597821
 30
0.0
  0
SEQEND
  5
5E0
330
5DD
100
AcDbEntity
  8
BEMAßUNG
  0
POLYLINE
  5
5E1
330
1F
100
AcDbEntity
  8
BEMAßUNG
 62
     7
100
AcDb2dPolyline
 66
     1
 10
0.0
 20
0.0
 30
0.0
  0
VERTEX
  5
5E2
330
5E1
100
AcDbEntity
  8
BEMAßUNG
 62
     7
100
AcDbVertex
100
AcDb2dVertex
 10
3.213585068641049
 20
161.6087401939728
 30
0.0
  0
VERTEX
  5
5E3
330
5E1
100
AcDbEntity
  8
BEMAßUNG
 62
     7
100
AcDbVertex
100
AcDb2dVertex
 10
3.217202418900561
 20
162.4727701416735
 30
0.0
  0
SEQEND
  5
5E4
330
5E1
100
AcDbEntity
  8
BEMAßUNG
  0
POLYLINE
  5
5E5
330
1F
100
AcDbEntity
  8
BEMAßUNG
 62
     7
100
AcDb2dPolyline
 66
     1
 10
0.0
 20
0.0
 30
0.0
  0
VERTEX
  5
5E6
330
5E5
100
AcDbEntity
  8
BEMAßUNG
 62
     7
100
AcDbVertex
100
AcDb2dVertex
 10
3.241834851620097
 20
161.6087401939728
 30
0.0
  0
VERTEX
  5
5E7
330
5E5
100
AcDbEntity
  8
BEMAßUNG
 62
     7
100
AcDbVertex
100
AcDb2dVertex
 10
3.246141220976659
 20
162.6849880235649
 30
0.0
  0
SEQEND
  5
5E8
330
5E5
100
AcDbEntity
  8
BEMAßUNG
  0
POLYLINE
  5
5E9
330
1F
100
AcDbEntity
  8
BEMAßUNG
 62
     7
100
AcDb2dPolyline
 66
     1
 10
0.0
 20
0.0
 30
0.0
  0
VERTEX
  5
5EA
330
5E9
100
AcDbEntity
  8
BEMAßUNG
 62
     7
100
AcDbVertex
100
AcDb2dVertex
 10
3.269740125050621
 20
161.6087401939728
 30
0.0
  0
VERTEX
  5
5EB
330
5E9
100
AcDbEntity
  8
BEMAßUNG
 62
     7
100
AcDbVertex
100
AcDb2dVertex
 10
3.275252277827021
 20
162.8968613959077
 30
0.0
  0
SEQEND
  5
5EC
330
5E9
100
AcDbEntity
  8
BEMAßUNG
  0
POLYLINE
  5
5ED
330
1F
100
AcDbEntity
  8
BEMAßUNG
 62
     7
100
AcDb2dPolyline
 66
     1
 10
0.0
 20
0.0
 30
0.0
  0
VERTEX
  5
5EE
330
5ED
100
AcDbEntity
  8
BEMAßUNG
 62
     7
100
AcDbVertex
100
AcDb2dVertex
 10
3.297645398481144
 20
161.6087401939728
 30
0.0
  0
VERTEX
  5
5EF
330
5ED
100
AcDbEntity
  8
BEMAßUNG
 62
     7
100
AcDbVertex
100
AcDb2dVertex
 10
3.304018825128856
 20
163.1090792777991
 30
0.0
  0
SEQEND
  5
5F0
330
5ED
100
AcDbEntity
  8
BEMAßUNG
  0
POLYLINE
  5
5F1
330
1F
100
AcDbEntity
  8
BEMAßUNG
 62
     7
100
AcDb2dPolyline
 66
     1
 10
0.0
 20
0.0
 30
0.0
  0
VERTEX
  5
5F2
330
5F1
100
AcDbEntity
  8
BEMAßUNG
 62
     7
100
AcDbVertex
100
AcDb2dVertex
 10
3.325550671911668
 20
161.6083956844243
 30
0.0
  0
VERTEX
  5
5F3
330
5F1
100
AcDbEntity
  8
BEMAßUNG
 62
     7
100
AcDbVertex
100
AcDb2dVertex
 10
3.332440862882168
 20
163.3212971596905
 30
0.0
  0
SEQEND
  5
5F4
330
5F1
100
AcDbEntity
  8
BEMAßUNG
  0
POLYLINE
  5
5F5
330
1F
100
AcDbEntity
  8
BEMAßUNG
 62
     7
100
AcDb2dPolyline
 66
     1
 10
0.0
 20
0.0
 30
0.0
  0
VERTEX
  5
5F6
330
5F5
100
AcDbEntity
  8
BEMAßUNG
 62
     7
100
AcDbVertex
100
AcDb2dVertex
 10
3.353455945342192
 20
161.6083956844243
 30
0.0
  0
VERTEX
  5
5F7
330
5F5
100
AcDbEntity
  8
BEMAßUNG
 62
     7
100
AcDbVertex
100
AcDb2dVertex
 10
3.361379664958267
 20
163.5331705320334
 30
0.0
  0
SEQEND
  5
5F8
330
5F5
100
AcDbEntity
  8
BEMAßUNG
  0
POLYLINE
  5
5F9
330
1F
100
AcDbEntity
  8
BEMAßUNG
 62
     7
100
AcDb2dPolyline
 66
     1
 10
0.0
 20
0.0
 30
0.0
  0
VERTEX
  5
5FA
330
5F9
100
AcDbEntity
  8
BEMAßUNG
 62
     7
100
AcDbVertex
100
AcDb2dVertex
 10
3.60494791576543
 20
161.6070176462302
 30
0.0
  0
VERTEX
  5
5FB
330
5F9
100
AcDbEntity
  8
BEMAßUNG
 62
     7
100
AcDbVertex
100
AcDb2dVertex
 10
3.60494791576543
 20
161.6225205759138
 30
0.0
  0
SEQEND
  5
5FC
330
5F9
100
AcDbEntity
  8
BEMAßUNG
  0
POLYLINE
  5
5FD
330
1F
100
AcDbEntity
  8
BEMAßUNG
 62
     7
100
AcDb2dPolyline
 66
     1
 10
0.0
 20
0.0
 30
0.0
  0
VERTEX
  5
5FE
330
5FD
100
AcDbEntity
  8
BEMAßUNG
 62
     7
100
AcDbVertex
100
AcDb2dVertex
 10
3.60494791576543
 20
161.6070176462302
 30
0.0
  0
VERTEX
  5
5FF
330
5FD
100
AcDbEntity
  8
BEMAßUNG
 62
     7
100
AcDbVertex
100
AcDb2dVertex
 10
3.60494791576543
 20
161.6225205759138
 30
0.0
  0
SEQEND
  5
600
330
5FD
100
AcDbEntity
  8
BEMAßUNG
  0
POLYLINE
  5
601
330
1F
100
AcDbEntity
  8
BEMAßUNG
 62
     7
100
AcDb2dPolyline
 66
     1
 10
0.0
 20
0.0
 30
0.0
  0
VERTEX
  5
602
330
601
100
AcDbEntity
  8
BEMAßUNG
 62
     7
100
AcDbVertex
100
AcDb2dVertex
 10
3.576698132786381
 20
161.6073621557787
 30
0.0
  0
VERTEX
  5
603
330
601
100
AcDbEntity
  8
BEMAßUNG
 62
     7
100
AcDbVertex
100
AcDb2dVertex
 10
3.577731661431956
 20
161.8343939482567
 30
0.0
  0
SEQEND
  5
604
330
601
100
AcDbEntity
  8
BEMAßUNG
  0
POLYLINE
  5
605
330
1F
100
AcDbEntity
  8
BEMAßUNG
 62
     7
100
AcDb2dPolyline
 66
     1
 10
0.0
 20
0.0
 30
0.0
  0
VERTEX
  5
606
330
605
100
AcDbEntity
  8
BEMAßUNG
 62
     7
100
AcDbVertex
100
AcDb2dVertex
 10
3.548792859355857
 20
161.6077066653272
 30
0.0
  0
VERTEX
  5
607
330
605
100
AcDbEntity
  8
BEMAßUNG
 62
     7
100
AcDbVertex
100
AcDb2dVertex
 10
3.550859916647008
 20
162.0469563396966
 30
0.0
  0
SEQEND
  5
608
330
605
100
AcDbEntity
  8
BEMAßUNG
  0
POLYLINE
  5
609
330
1F
100
AcDbEntity
  8
BEMAßUNG
 62
     7
100
AcDb2dPolyline
 66
     1
 10
0.0
 20
0.0
 30
0.0
  0
VERTEX
  5
60A
330
609
100
AcDbEntity
  8
BEMAßUNG
 62
     7
100
AcDbVertex
100
AcDb2dVertex
 10
3.521232095473859
 20
161.6077066653272
 30
0.0
  0
VERTEX
  5
60B
330
609
100
AcDbEntity
  8
BEMAßUNG
 62
     7
100
AcDbVertex
100
AcDb2dVertex
 10
3.523643662313534
 20
162.2595187311365
 30
0.0
  0
SEQEND
  5
60C
330
609
100
AcDbEntity
  8
BEMAßUNG
  0
POLYLINE
  5
60D
330
1F
100
AcDbEntity
  8
BEMAßUNG
 62
     7
100
AcDb2dPolyline
 66
     1
 10
0.0
 20
0.0
 30
0.0
  0
VERTEX
  5
60E
330
60D
100
AcDbEntity
  8
BEMAßUNG
 62
     7
100
AcDbVertex
100
AcDb2dVertex
 10
3.493326822043335
 20
161.6077066653272
 30
0.0
  0
VERTEX
  5
60F
330
60D
100
AcDbEntity
  8
BEMAßUNG
 62
     7
100
AcDbVertex
100
AcDb2dVertex
 10
3.496599662754322
 20
162.4713921034794
 30
0.0
  0
SEQEND
  5
610
330
60D
100
AcDbEntity
  8
BEMAßUNG
  0
POLYLINE
  5
611
330
1F
100
AcDbEntity
  8
BEMAßUNG
 62
     7
100
AcDb2dPolyline
 66
     1
 10
0.0
 20
0.0
 30
0.0
  0
VERTEX
  5
612
330
611
100
AcDbEntity
  8
BEMAßUNG
 62
     7
100
AcDbVertex
100
AcDb2dVertex
 10
3.465421548612811
 20
161.6077066653272
 30
0.0
  0
VERTEX
  5
613
330
611
100
AcDbEntity
  8
BEMAßUNG
 62
     7
100
AcDbVertex
100
AcDb2dVertex
 10
3.469727917969374
 20
162.6839544949193
 30
0.0
  0
SEQEND
  5
614
330
611
100
AcDbEntity
  8
BEMAßUNG
  0
POLYLINE
  5
615
330
1F
100
AcDbEntity
  8
BEMAßUNG
 62
     7
100
AcDb2dPolyline
 66
     1
 10
0.0
 20
0.0
 30
0.0
  0
VERTEX
  5
616
330
615
100
AcDbEntity
  8
BEMAßUNG
 62
     7
100
AcDbVertex
100
AcDb2dVertex
 10
3.437516275182288
 20
161.6077066653272
 30
0.0
  0
VERTEX
  5
617
330
615
100
AcDbEntity
  8
BEMAßUNG
 62
     7
100
AcDbVertex
100
AcDb2dVertex
 10
3.4425116636359
 20
162.8961723768107
 30
0.0
  0
SEQEND
  5
618
330
615
100
AcDbEntity
  8
BEMAßUNG
  0
POLYLINE
  5
619
330
1F
100
AcDbEntity
  8
BEMAßUNG
 62
     7
100
AcDb2dPolyline
 66
     1
 10
0.0
 20
0.0
 30
0.0
  0
VERTEX
  5
61A
330
619
100
AcDbEntity
  8
BEMAßUNG
 62
     7
100
AcDbVertex
100
AcDb2dVertex
 10
3.409266492203239
 20
161.6080511748758
 30
0.0
  0
VERTEX
  5
61B
330
619
100
AcDbEntity
  8
BEMAßUNG
 62
     7
100
AcDbVertex
100
AcDb2dVertex
 10
3.415467664076689
 20
163.1087347682506
 30
0.0
  0
SEQEND
  5
61C
330
619
100
AcDbEntity
  8
BEMAßUNG
  0
POLYLINE
  5
61D
330
1F
100
AcDbEntity
  8
BEMAßUNG
 62
     7
100
AcDb2dPolyline
 66
     1
 10
0.0
 20
0.0
 30
0.0
  0
VERTEX
  5
61E
330
61D
100
AcDbEntity
  8
BEMAßUNG
 62
     7
100
AcDbVertex
100
AcDb2dVertex
 10
3.381361218772716
 20
161.6080511748758
 30
0.0
  0
VERTEX
  5
61F
330
61D
100
AcDbEntity
  8
BEMAßUNG
 62
     7
100
AcDbVertex
100
AcDb2dVertex
 10
3.388423664517477
 20
163.320952650142
 30
0.0
  0
SEQEND
  5
620
330
61D
100
AcDbEntity
  8
BEMAßUNG
  0
POLYLINE
  5
621
330
1F
100
AcDbEntity
  8
BEMAßUNG
 62
     7
100
AcDb2dPolyline
 66
     1
 10
0.0
 20
0.0
 30
0.0
  0
VERTEX
  5
622
330
621
100
AcDbEntity
  8
BEMAßUNG
 62
     7
100
AcDbVertex
100
AcDb2dVertex
 10
3.353455945342192
 20
161.6083956844243
 30
0.0
  0
VERTEX
  5
623
330
621
100
AcDbEntity
  8
BEMAßUNG
 62
     7
100
AcDbVertex
100
AcDb2dVertex
 10
3.361379664958267
 20
163.5331705320334
 30
0.0
  0
SEQEND
  5
624
330
621
100
AcDbEntity
  8
BEMAßUNG
  0
POLYLINE
  5
625
330
1F
100
AcDbEntity
  8
BEMAßUNG
 62
     7
100
AcDb2dPolyline
 66
     1
 10
0.0
 20
0.0
 30
0.0
  0
VERTEX
  5
626
330
625
100
AcDbEntity
  8
BEMAßUNG
 62
     7
100
AcDbVertex
100
AcDb2dVertex
 10
16.89130316417995
 20
166.4129258481537
 30
0.0
  0
VERTEX
  5
627
330
625
100
AcDbEntity
  8
BEMAßUNG
 62
     7
100
AcDbVertex
100
AcDb2dVertex
 10
16.89130316417995
 20
147.8238796288427
 30
0.0
  0
SEQEND
  5
628
330
625
100
AcDbEntity
  8
BEMAßUNG
  0
POLYLINE
  5
629
330
1F
100
AcDbEntity
  8
BEMAßUNG
 62
     7
100
AcDb2dPolyline
 66
     1
 10
0.0
 20
0.0
 30
0.0
  0
VERTEX
  5
62A
330
629
100
AcDbEntity
  8
BEMAßUNG
 62
     7
100
AcDbVertex
100
AcDb2dVertex
 10
-5.108732095076983
 20
163.4759819469782
 30
0.0
  0
VERTEX
  5
62B
330
629
100
AcDbEntity
  8
BEMAßUNG
 62
     7
100
AcDbVertex
100
AcDb2dVertex
 10
-5.108732095076983
 20
147.8238796288427
 30
0.0
  0
SEQEND
  5
62C
330
629
100
AcDbEntity
  8
BEMAßUNG
  0
POLYLINE
  5
62D
330
1F
100
AcDbEntity
  8
BEMAßUNG
 62
     7
100
AcDb2dPolyline
 66
     1
 10
0.0
 20
0.0
 30
0.0
  0
VERTEX
  5
62E
330
62D
100
AcDbEntity
  8
BEMAßUNG
 62
     7
100
AcDbVertex
100
AcDb2dVertex
 10
16.89130316417995
 20
148.9238986172829
 30
0.0
  0
VERTEX
  5
62F
330
62D
100
AcDbEntity
  8
BEMAßUNG
 62
     7
100
AcDbVertex
100
AcDb2dVertex
 10
-5.108732095076983
 20
148.9238986172829
 30
0.0
  0
SEQEND
  5
630
330
62D
100
AcDbEntity
  8
BEMAßUNG
  0
POLYLINE
  5
631
330
1F
100
AcDbEntity
  8
BEMAßUNG
 62
     7
100
AcDb2dPolyline
 66
     1
 10
0.0
 20
0.0
 30
0.0
  0
VERTEX
  5
632
330
631
100
AcDbEntity
  8
BEMAßUNG
 62
     7
100
AcDbVertex
100
AcDb2dVertex
 10
16.89130316417995
 20
148.9238986172829
 30
0.0
  0
VERTEX
  5
633
330
631
100
AcDbEntity
  8
BEMAßUNG
 62
     7
100
AcDbVertex
100
AcDb2dVertex
 10
14.96583929747382
 20
149.1771131354488
 30
0.0
  0
VERTEX
  5
634
330
631
100
AcDbEntity
  8
BEMAßUNG
 62
     7
100
AcDbVertex
100
AcDb2dVertex
 10
14.96583929747382
 20
148.6703395895685
 30
0.0
  0
VERTEX
  5
635
330
631
100
AcDbEntity
  8
BEMAßUNG
 62
     7
100
AcDbVertex
100
AcDb2dVertex
 10
16.89130316417995
 20
148.9238986172829
 30
0.0
  0
SEQEND
  5
636
330
631
100
AcDbEntity
  8
BEMAßUNG
  0
POLYLINE
  5
637
330
1F
100
AcDbEntity
  8
BEMAßUNG
 62
     7
100
AcDb2dPolyline
 66
     1
 10
0.0
 20
0.0
 30
0.0
  0
VERTEX
  5
638
330
637
100
AcDbEntity
  8
BEMAßUNG
 62
     7
100
AcDbVertex
100
AcDb2dVertex
 10
14.96583929747382
 20
149.1753905877061
 30
0.0
  0
VERTEX
  5
639
330
637
100
AcDbEntity
  8
BEMAßUNG
 62
     7
100
AcDbVertex
100
AcDb2dVertex
 10
14.98134222715744
 20
149.1753905877061
 30
0.0
  0
SEQEND
  5
63A
330
637
100
AcDbEntity
  8
BEMAßUNG
  0
POLYLINE
  5
63B
330
1F
100
AcDbEntity
  8
BEMAßUNG
 62
     7
100
AcDb2dPolyline
 66
     1
 10
0.0
 20
0.0
 30
0.0
  0
VERTEX
  5
63C
330
63B
100
AcDbEntity
  8
BEMAßUNG
 62
     7
100
AcDbVertex
100
AcDb2dVertex
 10
14.96583929747382
 20
149.1753905877061
 30
0.0
  0
VERTEX
  5
63D
330
63B
100
AcDbEntity
  8
BEMAßUNG
 62
     7
100
AcDbVertex
100
AcDb2dVertex
 10
14.98134222715744
 20
149.1753905877061
 30
0.0
  0
SEQEND
  5
63E
330
63B
100
AcDbEntity
  8
BEMAßUNG
  0
POLYLINE
  5
63F
330
1F
100
AcDbEntity
  8
BEMAßUNG
 62
     7
100
AcDb2dPolyline
 66
     1
 10
0.0
 20
0.0
 30
0.0
  0
VERTEX
  5
640
330
63F
100
AcDbEntity
  8
BEMAßUNG
 62
     7
100
AcDbVertex
100
AcDb2dVertex
 10
14.96583929747382
 20
149.1471408047271
 30
0.0
  0
VERTEX
  5
641
330
63F
100
AcDbEntity
  8
BEMAßUNG
 62
     7
100
AcDbVertex
100
AcDb2dVertex
 10
15.19321559950031
 20
149.1471408047271
 30
0.0
  0
SEQEND
  5
642
330
63F
100
AcDbEntity
  8
BEMAßUNG
  0
POLYLINE
  5
643
330
1F
100
AcDbEntity
  8
BEMAßUNG
 62
     7
100
AcDb2dPolyline
 66
     1
 10
0.0
 20
0.0
 30
0.0
  0
VERTEX
  5
644
330
643
100
AcDbEntity
  8
BEMAßUNG
 62
     7
100
AcDbVertex
100
AcDb2dVertex
 10
14.96583929747382
 20
149.1192355312966
 30
0.0
  0
VERTEX
  5
645
330
643
100
AcDbEntity
  8
BEMAßUNG
 62
     7
100
AcDbVertex
100
AcDb2dVertex
 10
15.4054334813917
 20
149.1192355312966
 30
0.0
  0
SEQEND
  5
646
330
643
100
AcDbEntity
  8
BEMAßUNG
  0
POLYLINE
  5
647
330
1F
100
AcDbEntity
  8
BEMAßUNG
 62
     7
100
AcDb2dPolyline
 66
     1
 10
0.0
 20
0.0
 30
0.0
  0
VERTEX
  5
648
330
647
100
AcDbEntity
  8
BEMAßUNG
 62
     7
100
AcDbVertex
100
AcDb2dVertex
 10
14.96583929747382
 20
149.0913302578661
 30
0.0
  0
VERTEX
  5
649
330
647
100
AcDbEntity
  8
BEMAßUNG
 62
     7
100
AcDbVertex
100
AcDb2dVertex
 10
15.61782361805735
 20
149.0913302578661
 30
0.0
  0
SEQEND
  5
64A
330
647
100
AcDbEntity
  8
BEMAßUNG
  0
POLYLINE
  5
64B
330
1F
100
AcDbEntity
  8
BEMAßUNG
 62
     7
100
AcDb2dPolyline
 66
     1
 10
0.0
 20
0.0
 30
0.0
  0
VERTEX
  5
64C
330
64B
100
AcDbEntity
  8
BEMAßUNG
 62
     7
100
AcDbVertex
100
AcDb2dVertex
 10
14.96583929747382
 20
149.0634249844355
 30
0.0
  0
VERTEX
  5
64D
330
64B
100
AcDbEntity
  8
BEMAßUNG
 62
     7
100
AcDbVertex
100
AcDb2dVertex
 10
15.830213754723
 20
149.0634249844355
 30
0.0
  0
SEQEND
  5
64E
330
64B
100
AcDbEntity
  8
BEMAßUNG
  0
POLYLINE
  5
64F
330
1F
100
AcDbEntity
  8
BEMAßUNG
 62
     7
100
AcDb2dPolyline
 66
     1
 10
0.0
 20
0.0
 30
0.0
  0
VERTEX
  5
650
330
64F
100
AcDbEntity
  8
BEMAßUNG
 62
     7
100
AcDbVertex
100
AcDb2dVertex
 10
14.96583929747382
 20
149.035519711005
 30
0.0
  0
VERTEX
  5
651
330
64F
100
AcDbEntity
  8
BEMAßUNG
 62
     7
100
AcDbVertex
100
AcDb2dVertex
 10
16.04243163661439
 20
149.035519711005
 30
0.0
  0
SEQEND
  5
652
330
64F
100
AcDbEntity
  8
BEMAßUNG
  0
POLYLINE
  5
653
330
1F
100
AcDbEntity
  8
BEMAßUNG
 62
     7
100
AcDb2dPolyline
 66
     1
 10
0.0
 20
0.0
 30
0.0
  0
VERTEX
  5
654
330
653
100
AcDbEntity
  8
BEMAßUNG
 62
     7
100
AcDbVertex
100
AcDb2dVertex
 10
14.96583929747382
 20
149.0076144375745
 30
0.0
  0
VERTEX
  5
655
330
653
100
AcDbEntity
  8
BEMAßUNG
 62
     7
100
AcDbVertex
100
AcDb2dVertex
 10
16.25430500895726
 20
149.0076144375745
 30
0.0
  0
SEQEND
  5
656
330
653
100
AcDbEntity
  8
BEMAßUNG
  0
POLYLINE
  5
657
330
1F
100
AcDbEntity
  8
BEMAßUNG
 62
     7
100
AcDb2dPolyline
 66
     1
 10
0.0
 20
0.0
 30
0.0
  0
VERTEX
  5
658
330
657
100
AcDbEntity
  8
BEMAßUNG
 62
     7
100
AcDbVertex
100
AcDb2dVertex
 10
14.96583929747382
 20
148.979709164144
 30
0.0
  0
VERTEX
  5
659
330
657
100
AcDbEntity
  8
BEMAßUNG
 62
     7
100
AcDbVertex
100
AcDb2dVertex
 10
16.46669514562291
 20
148.979709164144
 30
0.0
  0
SEQEND
  5
65A
330
657
100
AcDbEntity
  8
BEMAßUNG
  0
POLYLINE
  5
65B
330
1F
100
AcDbEntity
  8
BEMAßUNG
 62
     7
100
AcDb2dPolyline
 66
     1
 10
0.0
 20
0.0
 30
0.0
  0
VERTEX
  5
65C
330
65B
100
AcDbEntity
  8
BEMAßUNG
 62
     7
100
AcDbVertex
100
AcDb2dVertex
 10
14.96583929747382
 20
148.9518038907134
 30
0.0
  0
VERTEX
  5
65D
330
65B
100
AcDbEntity
  8
BEMAßUNG
 62
     7
100
AcDbVertex
100
AcDb2dVertex
 10
16.67908528228856
 20
148.9518038907134
 30
0.0
  0
SEQEND
  5
65E
330
65B
100
AcDbEntity
  8
BEMAßUNG
  0
POLYLINE
  5
65F
330
1F
100
AcDbEntity
  8
BEMAßUNG
 62
     7
100
AcDb2dPolyline
 66
     1
 10
0.0
 20
0.0
 30
0.0
  0
VERTEX
  5
660
330
65F
100
AcDbEntity
  8
BEMAßUNG
 62
     7
100
AcDbVertex
100
AcDb2dVertex
 10
14.96583929747382
 20
148.9238986172829
 30
0.0
  0
VERTEX
  5
661
330
65F
100
AcDbEntity
  8
BEMAßUNG
 62
     7
100
AcDbVertex
100
AcDb2dVertex
 10
16.89130316417995
 20
148.9238986172829
 30
0.0
  0
SEQEND
  5
662
330
65F
100
AcDbEntity
  8
BEMAßUNG
  0
POLYLINE
  5
663
330
1F
100
AcDbEntity
  8
BEMAßUNG
 62
     7
100
AcDb2dPolyline
 66
     1
 10
0.0
 20
0.0
 30
0.0
  0
VERTEX
  5
664
330
663
100
AcDbEntity
  8
BEMAßUNG
 62
     7
100
AcDbVertex
100
AcDb2dVertex
 10
14.96583929747382
 20
148.6724066468597
 30
0.0
  0
VERTEX
  5
665
330
663
100
AcDbEntity
  8
BEMAßUNG
 62
     7
100
AcDbVertex
100
AcDb2dVertex
 10
14.98134222715744
 20
148.6724066468597
 30
0.0
  0
SEQEND
  5
666
330
663
100
AcDbEntity
  8
BEMAßUNG
  0
POLYLINE
  5
667
330
1F
100
AcDbEntity
  8
BEMAßUNG
 62
     7
100
AcDb2dPolyline
 66
     1
 10
0.0
 20
0.0
 30
0.0
  0
VERTEX
  5
668
330
667
100
AcDbEntity
  8
BEMAßUNG
 62
     7
100
AcDbVertex
100
AcDb2dVertex
 10
14.96583929747382
 20
148.6724066468597
 30
0.0
  0
VERTEX
  5
669
330
667
100
AcDbEntity
  8
BEMAßUNG
 62
     7
100
AcDbVertex
100
AcDb2dVertex
 10
14.98134222715744
 20
148.6724066468597
 30
0.0
  0
SEQEND
  5
66A
330
667
100
AcDbEntity
  8
BEMAßUNG
  0
POLYLINE
  5
66B
330
1F
100
AcDbEntity
  8
BEMAßUNG
 62
     7
100
AcDb2dPolyline
 66
     1
 10
0.0
 20
0.0
 30
0.0
  0
VERTEX
  5
66C
330
66B
100
AcDbEntity
  8
BEMAßUNG
 62
     7
100
AcDbVertex
100
AcDb2dVertex
 10
14.96583929747382
 20
148.7003119202902
 30
0.0
  0
VERTEX
  5
66D
330
66B
100
AcDbEntity
  8
BEMAßUNG
 62
     7
100
AcDbVertex
100
AcDb2dVertex
 10
15.19321559950031
 20
148.7003119202902
 30
0.0
  0
SEQEND
  5
66E
330
66B
100
AcDbEntity
  8
BEMAßUNG
  0
POLYLINE
  5
66F
330
1F
100
AcDbEntity
  8
BEMAßUNG
 62
     7
100
AcDb2dPolyline
 66
     1
 10
0.0
 20
0.0
 30
0.0
  0
VERTEX
  5
670
330
66F
100
AcDbEntity
  8
BEMAßUNG
 62
     7
100
AcDbVertex
100
AcDb2dVertex
 10
14.96583929747382
 20
148.7282171937207
 30
0.0
  0
VERTEX
  5
671
330
66F
100
AcDbEntity
  8
BEMAßUNG
 62
     7
100
AcDbVertex
100
AcDb2dVertex
 10
15.4054334813917
 20
148.7282171937207
 30
0.0
  0
SEQEND
  5
672
330
66F
100
AcDbEntity
  8
BEMAßUNG
  0
POLYLINE
  5
673
330
1F
100
AcDbEntity
  8
BEMAßUNG
 62
     7
100
AcDb2dPolyline
 66
     1
 10
0.0
 20
0.0
 30
0.0
  0
VERTEX
  5
674
330
673
100
AcDbEntity
  8
BEMAßUNG
 62
     7
100
AcDbVertex
100
AcDb2dVertex
 10
14.96583929747382
 20
148.7561224671512
 30
0.0
  0
VERTEX
  5
675
330
673
100
AcDbEntity
  8
BEMAßUNG
 62
     7
100
AcDbVertex
100
AcDb2dVertex
 10
15.61782361805735
 20
148.7561224671512
 30
0.0
  0
SEQEND
  5
676
330
673
100
AcDbEntity
  8
BEMAßUNG
  0
POLYLINE
  5
677
330
1F
100
AcDbEntity
  8
BEMAßUNG
 62
     7
100
AcDb2dPolyline
 66
     1
 10
0.0
 20
0.0
 30
0.0
  0
VERTEX
  5
678
330
677
100
AcDbEntity
  8
BEMAßUNG
 62
     7
100
AcDbVertex
100
AcDb2dVertex
 10
14.96583929747382
 20
148.7840277405818
 30
0.0
  0
VERTEX
  5
679
330
677
100
AcDbEntity
  8
BEMAßUNG
 62
     7
100
AcDbVertex
100
AcDb2dVertex
 10
15.830213754723
 20
148.7840277405818
 30
0.0
  0
SEQEND
  5
67A
330
677
100
AcDbEntity
  8
BEMAßUNG
  0
POLYLINE
  5
67B
330
1F
100
AcDbEntity
  8
BEMAßUNG
 62
     7
100
AcDb2dPolyline
 66
     1
 10
0.0
 20
0.0
 30
0.0
  0
VERTEX
  5
67C
330
67B
100
AcDbEntity
  8
BEMAßUNG
 62
     7
100
AcDbVertex
100
AcDb2dVertex
 10
14.96583929747382
 20
148.8119330140123
 30
0.0
  0
VERTEX
  5
67D
330
67B
100
AcDbEntity
  8
BEMAßUNG
 62
     7
100
AcDbVertex
100
AcDb2dVertex
 10
16.04243163661439
 20
148.8119330140123
 30
0.0
  0
SEQEND
  5
67E
330
67B
100
AcDbEntity
  8
BEMAßUNG
  0
POLYLINE
  5
67F
330
1F
100
AcDbEntity
  8
BEMAßUNG
 62
     7
100
AcDb2dPolyline
 66
     1
 10
0.0
 20
0.0
 30
0.0
  0
VERTEX
  5
680
330
67F
100
AcDbEntity
  8
BEMAßUNG
 62
     7
100
AcDbVertex
100
AcDb2dVertex
 10
14.96583929747382
 20
148.8398382874428
 30
0.0
  0
VERTEX
  5
681
330
67F
100
AcDbEntity
  8
BEMAßUNG
 62
     7
100
AcDbVertex
100
AcDb2dVertex
 10
16.25430500895726
 20
148.8398382874428
 30
0.0
  0
SEQEND
  5
682
330
67F
100
AcDbEntity
  8
BEMAßUNG
  0
POLYLINE
  5
683
330
1F
100
AcDbEntity
  8
BEMAßUNG
 62
     7
100
AcDb2dPolyline
 66
     1
 10
0.0
 20
0.0
 30
0.0
  0
VERTEX
  5
684
330
683
100
AcDbEntity
  8
BEMAßUNG
 62
     7
100
AcDbVertex
100
AcDb2dVertex
 10
14.96583929747382
 20
148.8677435608734
 30
0.0
  0
VERTEX
  5
685
330
683
100
AcDbEntity
  8
BEMAßUNG
 62
     7
100
AcDbVertex
100
AcDb2dVertex
 10
16.46669514562291
 20
148.8677435608734
 30
0.0
  0
SEQEND
  5
686
330
683
100
AcDbEntity
  8
BEMAßUNG
  0
POLYLINE
  5
687
330
1F
100
AcDbEntity
  8
BEMAßUNG
 62
     7
100
AcDb2dPolyline
 66
     1
 10
0.0
 20
0.0
 30
0.0
  0
VERTEX
  5
688
330
687
100
AcDbEntity
  8
BEMAßUNG
 62
     7
100
AcDbVertex
100
AcDb2dVertex
 10
14.96583929747382
 20
148.8959933438524
 30
0.0
  0
VERTEX
  5
689
330
687
100
AcDbEntity
  8
BEMAßUNG
 62
     7
100
AcDbVertex
100
AcDb2dVertex
 10
16.67908528228856
 20
148.8959933438524
 30
0.0
  0
SEQEND
  5
68A
330
687
100
AcDbEntity
  8
BEMAßUNG
  0
POLYLINE
  5
68B
330
1F
100
AcDbEntity
  8
BEMAßUNG
 62
     7
100
AcDb2dPolyline
 66
     1
 10
0.0
 20
0.0
 30
0.0
  0
VERTEX
  5
68C
330
68B
100
AcDbEntity
  8
BEMAßUNG
 62
     7
100
AcDbVertex
100
AcDb2dVertex
 10
14.96583929747382
 20
148.9238986172829
 30
0.0
  0
VERTEX
  5
68D
330
68B
100
AcDbEntity
  8
BEMAßUNG
 62
     7
100
AcDbVertex
100
AcDb2dVertex
 10
16.89130316417995
 20
148.9238986172829
 30
0.0
  0
SEQEND
  5
68E
330
68B
100
AcDbEntity
  8
BEMAßUNG
  0
POLYLINE
  5
68F
330
1F
100
AcDbEntity
  8
BEMAßUNG
 62
     7
100
AcDb2dPolyline
 66
     1
 10
0.0
 20
0.0
 30
0.0
  0
VERTEX
  5
690
330
68F
100
AcDbEntity
  8
BEMAßUNG
 62
     7
100
AcDbVertex
100
AcDb2dVertex
 10
-5.108732095076983
 20
148.9238986172829
 30
0.0
  0
VERTEX
  5
691
330
68F
100
AcDbEntity
  8
BEMAßUNG
 62
     7
100
AcDbVertex
100
AcDb2dVertex
 10
-3.183612737919375
 20
148.6703395895685
 30
0.0
  0
VERTEX
  5
692
330
68F
100
AcDbEntity
  8
BEMAßUNG
 62
     7
100
AcDbVertex
100
AcDb2dVertex
 10
-3.183612737919375
 20
149.1771131354488
 30
0.0
  0
VERTEX
  5
693
330
68F
100
AcDbEntity
  8
BEMAßUNG
 62
     7
100
AcDbVertex
100
AcDb2dVertex
 10
-5.108732095076983
 20
148.9238986172829
 30
0.0
  0
SEQEND
  5
694
330
68F
100
AcDbEntity
  8
BEMAßUNG
  0
POLYLINE
  5
695
330
1F
100
AcDbEntity
  8
BEMAßUNG
 62
     7
100
AcDb2dPolyline
 66
     1
 10
0.0
 20
0.0
 30
0.0
  0
VERTEX
  5
696
330
695
100
AcDbEntity
  8
BEMAßUNG
 62
     7
100
AcDbVertex
100
AcDb2dVertex
 10
-3.183612737919375
 20
148.6724066468597
 30
0.0
  0
VERTEX
  5
697
330
695
100
AcDbEntity
  8
BEMAßUNG
 62
     7
100
AcDbVertex
100
AcDb2dVertex
 10
-3.198771158054474
 20
148.6724066468597
 30
0.0
  0
SEQEND
  5
698
330
695
100
AcDbEntity
  8
BEMAßUNG
  0
POLYLINE
  5
699
330
1F
100
AcDbEntity
  8
BEMAßUNG
 62
     7
100
AcDb2dPolyline
 66
     1
 10
0.0
 20
0.0
 30
0.0
  0
VERTEX
  5
69A
330
699
100
AcDbEntity
  8
BEMAßUNG
 62
     7
100
AcDbVertex
100
AcDb2dVertex
 10
-3.183612737919375
 20
148.6724066468597
 30
0.0
  0
VERTEX
  5
69B
330
699
100
AcDbEntity
  8
BEMAßUNG
 62
     7
100
AcDbVertex
100
AcDb2dVertex
 10
-3.198771158054474
 20
148.6724066468597
 30
0.0
  0
SEQEND
  5
69C
330
699
100
AcDbEntity
  8
BEMAßUNG
  0
POLYLINE
  5
69D
330
1F
100
AcDbEntity
  8
BEMAßUNG
 62
     7
100
AcDb2dPolyline
 66
     1
 10
0.0
 20
0.0
 30
0.0
  0
VERTEX
  5
69E
330
69D
100
AcDbEntity
  8
BEMAßUNG
 62
     7
100
AcDbVertex
100
AcDb2dVertex
 10
-3.183612737919375
 20
148.7003119202902
 30
0.0
  0
VERTEX
  5
69F
330
69D
100
AcDbEntity
  8
BEMAßUNG
 62
     7
100
AcDbVertex
100
AcDb2dVertex
 10
-3.410989039945864
 20
148.7003119202902
 30
0.0
  0
SEQEND
  5
6A0
330
69D
100
AcDbEntity
  8
BEMAßUNG
  0
POLYLINE
  5
6A1
330
1F
100
AcDbEntity
  8
BEMAßUNG
 62
     7
100
AcDb2dPolyline
 66
     1
 10
0.0
 20
0.0
 30
0.0
  0
VERTEX
  5
6A2
330
6A1
100
AcDbEntity
  8
BEMAßUNG
 62
     7
100
AcDbVertex
100
AcDb2dVertex
 10
-3.183612737919375
 20
148.7282171937207
 30
0.0
  0
VERTEX
  5
6A3
330
6A1
100
AcDbEntity
  8
BEMAßUNG
 62
     7
100
AcDbVertex
100
AcDb2dVertex
 10
-3.623379176611516
 20
148.7282171937207
 30
0.0
  0
SEQEND
  5
6A4
330
6A1
100
AcDbEntity
  8
BEMAßUNG
  0
POLYLINE
  5
6A5
330
1F
100
AcDbEntity
  8
BEMAßUNG
 62
     7
100
AcDb2dPolyline
 66
     1
 10
0.0
 20
0.0
 30
0.0
  0
VERTEX
  5
6A6
330
6A5
100
AcDbEntity
  8
BEMAßUNG
 62
     7
100
AcDbVertex
100
AcDb2dVertex
 10
-3.183612737919375
 20
148.7561224671512
 30
0.0
  0
VERTEX
  5
6A7
330
6A5
100
AcDbEntity
  8
BEMAßUNG
 62
     7
100
AcDbVertex
100
AcDb2dVertex
 10
-3.835769313277169
 20
148.7561224671512
 30
0.0
  0
SEQEND
  5
6A8
330
6A5
100
AcDbEntity
  8
BEMAßUNG
  0
POLYLINE
  5
6A9
330
1F
100
AcDbEntity
  8
BEMAßUNG
 62
     7
100
AcDb2dPolyline
 66
     1
 10
0.0
 20
0.0
 30
0.0
  0
VERTEX
  5
6AA
330
6A9
100
AcDbEntity
  8
BEMAßUNG
 62
     7
100
AcDbVertex
100
AcDb2dVertex
 10
-3.183612737919375
 20
148.7840277405818
 30
0.0
  0
VERTEX
  5
6AB
330
6A9
100
AcDbEntity
  8
BEMAßUNG
 62
     7
100
AcDbVertex
100
AcDb2dVertex
 10
-4.047642685620034
 20
148.7840277405818
 30
0.0
  0
SEQEND
  5
6AC
330
6A9
100
AcDbEntity
  8
BEMAßUNG
  0
POLYLINE
  5
6AD
330
1F
100
AcDbEntity
  8
BEMAßUNG
 62
     7
100
AcDb2dPolyline
 66
     1
 10
0.0
 20
0.0
 30
0.0
  0
VERTEX
  5
6AE
330
6AD
100
AcDbEntity
  8
BEMAßUNG
 62
     7
100
AcDbVertex
100
AcDb2dVertex
 10
-3.183612737919375
 20
148.8119330140123
 30
0.0
  0
VERTEX
  5
6AF
330
6AD
100
AcDbEntity
  8
BEMAßUNG
 62
     7
100
AcDbVertex
100
AcDb2dVertex
 10
-4.259860567511424
 20
148.8119330140123
 30
0.0
  0
SEQEND
  5
6B0
330
6AD
100
AcDbEntity
  8
BEMAßUNG
  0
POLYLINE
  5
6B1
330
1F
100
AcDbEntity
  8
BEMAßUNG
 62
     7
100
AcDb2dPolyline
 66
     1
 10
0.0
 20
0.0
 30
0.0
  0
VERTEX
  5
6B2
330
6B1
100
AcDbEntity
  8
BEMAßUNG
 62
     7
100
AcDbVertex
100
AcDb2dVertex
 10
-3.183612737919375
 20
148.8398382874428
 30
0.0
  0
VERTEX
  5
6B3
330
6B1
100
AcDbEntity
  8
BEMAßUNG
 62
     7
100
AcDbVertex
100
AcDb2dVertex
 10
-4.472250704177076
 20
148.8398382874428
 30
0.0
  0
SEQEND
  5
6B4
330
6B1
100
AcDbEntity
  8
BEMAßUNG
  0
POLYLINE
  5
6B5
330
1F
100
AcDbEntity
  8
BEMAßUNG
 62
     7
100
AcDb2dPolyline
 66
     1
 10
0.0
 20
0.0
 30
0.0
  0
VERTEX
  5
6B6
330
6B5
100
AcDbEntity
  8
BEMAßUNG
 62
     7
100
AcDbVertex
100
AcDb2dVertex
 10
-3.183612737919375
 20
148.8677435608734
 30
0.0
  0
VERTEX
  5
6B7
330
6B5
100
AcDbEntity
  8
BEMAßUNG
 62
     7
100
AcDbVertex
100
AcDb2dVertex
 10
-4.684640840842729
 20
148.8677435608734
 30
0.0
  0
SEQEND
  5
6B8
330
6B5
100
AcDbEntity
  8
BEMAßUNG
  0
POLYLINE
  5
6B9
330
1F
100
AcDbEntity
  8
BEMAßUNG
 62
     7
100
AcDb2dPolyline
 66
     1
 10
0.0
 20
0.0
 30
0.0
  0
VERTEX
  5
6BA
330
6B9
100
AcDbEntity
  8
BEMAßUNG
 62
     7
100
AcDbVertex
100
AcDb2dVertex
 10
-3.183612737919375
 20
148.8959933438524
 30
0.0
  0
VERTEX
  5
6BB
330
6B9
100
AcDbEntity
  8
BEMAßUNG
 62
     7
100
AcDbVertex
100
AcDb2dVertex
 10
-4.896514213185594
 20
148.8959933438524
 30
0.0
  0
SEQEND
  5
6BC
330
6B9
100
AcDbEntity
  8
BEMAßUNG
  0
POLYLINE
  5
6BD
330
1F
100
AcDbEntity
  8
BEMAßUNG
 62
     7
100
AcDb2dPolyline
 66
     1
 10
0.0
 20
0.0
 30
0.0
  0
VERTEX
  5
6BE
330
6BD
100
AcDbEntity
  8
BEMAßUNG
 62
     7
100
AcDbVertex
100
AcDb2dVertex
 10
-3.183612737919375
 20
148.9238986172829
 30
0.0
  0
VERTEX
  5
6BF
330
6BD
100
AcDbEntity
  8
BEMAßUNG
 62
     7
100
AcDbVertex
100
AcDb2dVertex
 10
-5.108732095076983
 20
148.9238986172829
 30
0.0
  0
SEQEND
  5
6C0
330
6BD
100
AcDbEntity
  8
BEMAßUNG
  0
POLYLINE
  5
6C1
330
1F
100
AcDbEntity
  8
BEMAßUNG
 62
     7
100
AcDb2dPolyline
 66
     1
 10
0.0
 20
0.0
 30
0.0
  0
VERTEX
  5
6C2
330
6C1
100
AcDbEntity
  8
BEMAßUNG
 62
     7
100
AcDbVertex
100
AcDb2dVertex
 10
-3.183612737919375
 20
149.1753905877061
 30
0.0
  0
VERTEX
  5
6C3
330
6C1
100
AcDbEntity
  8
BEMAßUNG
 62
     7
100
AcDbVertex
100
AcDb2dVertex
 10
-3.198771158054474
 20
149.1753905877061
 30
0.0
  0
SEQEND
  5
6C4
330
6C1
100
AcDbEntity
  8
BEMAßUNG
  0
POLYLINE
  5
6C5
330
1F
100
AcDbEntity
  8
BEMAßUNG
 62
     7
100
AcDb2dPolyline
 66
     1
 10
0.0
 20
0.0
 30
0.0
  0
VERTEX
  5
6C6
330
6C5
100
AcDbEntity
  8
BEMAßUNG
 62
     7
100
AcDbVertex
100
AcDb2dVertex
 10
-3.183612737919375
 20
149.1753905877061
 30
0.0
  0
VERTEX
  5
6C7
330
6C5
100
AcDbEntity
  8
BEMAßUNG
 62
     7
100
AcDbVertex
100
AcDb2dVertex
 10
-3.198771158054474
 20
149.1753905877061
 30
0.0
  0
SEQEND
  5
6C8
330
6C5
100
AcDbEntity
  8
BEMAßUNG
  0
POLYLINE
  5
6C9
330
1F
100
AcDbEntity
  8
BEMAßUNG
 62
     7
100
AcDb2dPolyline
 66
     1
 10
0.0
 20
0.0
 30
0.0
  0
VERTEX
  5
6CA
330
6C9
100
AcDbEntity
  8
BEMAßUNG
 62
     7
100
AcDbVertex
100
AcDb2dVertex
 10
-3.183612737919375
 20
149.1471408047271
 30
0.0
  0
VERTEX
  5
6CB
330
6C9
100
AcDbEntity
  8
BEMAßUNG
 62
     7
100
AcDbVertex
100
AcDb2dVertex
 10
-3.410989039945864
 20
149.1471408047271
 30
0.0
  0
SEQEND
  5
6CC
330
6C9
100
AcDbEntity
  8
BEMAßUNG
  0
POLYLINE
  5
6CD
330
1F
100
AcDbEntity
  8
BEMAßUNG
 62
     7
100
AcDb2dPolyline
 66
     1
 10
0.0
 20
0.0
 30
0.0
  0
VERTEX
  5
6CE
330
6CD
100
AcDbEntity
  8
BEMAßUNG
 62
     7
100
AcDbVertex
100
AcDb2dVertex
 10
-3.183612737919375
 20
149.1192355312966
 30
0.0
  0
VERTEX
  5
6CF
330
6CD
100
AcDbEntity
  8
BEMAßUNG
 62
     7
100
AcDbVertex
100
AcDb2dVertex
 10
-3.623379176611516
 20
149.1192355312966
 30
0.0
  0
SEQEND
  5
6D0
330
6CD
100
AcDbEntity
  8
BEMAßUNG
  0
POLYLINE
  5
6D1
330
1F
100
AcDbEntity
  8
BEMAßUNG
 62
     7
100
AcDb2dPolyline
 66
     1
 10
0.0
 20
0.0
 30
0.0
  0
VERTEX
  5
6D2
330
6D1
100
AcDbEntity
  8
BEMAßUNG
 62
     7
100
AcDbVertex
100
AcDb2dVertex
 10
-3.183612737919375
 20
149.0913302578661
 30
0.0
  0
VERTEX
  5
6D3
330
6D1
100
AcDbEntity
  8
BEMAßUNG
 62
     7
100
AcDbVertex
100
AcDb2dVertex
 10
-3.835769313277169
 20
149.0913302578661
 30
0.0
  0
SEQEND
  5
6D4
330
6D1
100
AcDbEntity
  8
BEMAßUNG
  0
POLYLINE
  5
6D5
330
1F
100
AcDbEntity
  8
BEMAßUNG
 62
     7
100
AcDb2dPolyline
 66
     1
 10
0.0
 20
0.0
 30
0.0
  0
VERTEX
  5
6D6
330
6D5
100
AcDbEntity
  8
BEMAßUNG
 62
     7
100
AcDbVertex
100
AcDb2dVertex
 10
-3.183612737919375
 20
149.0634249844355
 30
0.0
  0
VERTEX
  5
6D7
330
6D5
100
AcDbEntity
  8
BEMAßUNG
 62
     7
100
AcDbVertex
100
AcDb2dVertex
 10
-4.047642685620034
 20
149.0634249844355
 30
0.0
  0
SEQEND
  5
6D8
330
6D5
100
AcDbEntity
  8
BEMAßUNG
  0
POLYLINE
  5
6D9
330
1F
100
AcDbEntity
  8
BEMAßUNG
 62
     7
100
AcDb2dPolyline
 66
     1
 10
0.0
 20
0.0
 30
0.0
  0
VERTEX
  5
6DA
330
6D9
100
AcDbEntity
  8
BEMAßUNG
 62
     7
100
AcDbVertex
100
AcDb2dVertex
 10
-3.183612737919375
 20
149.035519711005
 30
0.0
  0
VERTEX
  5
6DB
330
6D9
100
AcDbEntity
  8
BEMAßUNG
 62
     7
100
AcDbVertex
100
AcDb2dVertex
 10
-4.259860567511424
 20
149.035519711005
 30
0.0
  0
SEQEND
  5
6DC
330
6D9
100
AcDbEntity
  8
BEMAßUNG
  0
POLYLINE
  5
6DD
330
1F
100
AcDbEntity
  8
BEMAßUNG
 62
     7
100
AcDb2dPolyline
 66
     1
 10
0.0
 20
0.0
 30
0.0
  0
VERTEX
  5
6DE
330
6DD
100
AcDbEntity
  8
BEMAßUNG
 62
     7
100
AcDbVertex
100
AcDb2dVertex
 10
-3.183612737919375
 20
149.0076144375745
 30
0.0
  0
VERTEX
  5
6DF
330
6DD
100
AcDbEntity
  8
BEMAßUNG
 62
     7
100
AcDbVertex
100
AcDb2dVertex
 10
-4.472250704177076
 20
149.0076144375745
 30
0.0
  0
SEQEND
  5
6E0
330
6DD
100
AcDbEntity
  8
BEMAßUNG
  0
POLYLINE
  5
6E1
330
1F
100
AcDbEntity
  8
BEMAßUNG
 62
     7
100
AcDb2dPolyline
 66
     1
 10
0.0
 20
0.0
 30
0.0
  0
VERTEX
  5
6E2
330
6E1
100
AcDbEntity
  8
BEMAßUNG
 62
     7
100
AcDbVertex
100
AcDb2dVertex
 10
-3.183612737919375
 20
148.979709164144
 30
0.0
  0
VERTEX
  5
6E3
330
6E1
100
AcDbEntity
  8
BEMAßUNG
 62
     7
100
AcDbVertex
100
AcDb2dVertex
 10
-4.684640840842729
 20
148.979709164144
 30
0.0
  0
SEQEND
  5
6E4
330
6E1
100
AcDbEntity
  8
BEMAßUNG
  0
POLYLINE
  5
6E5
330
1F
100
AcDbEntity
  8
BEMAßUNG
 62
     7
100
AcDb2dPolyline
 66
     1
 10
0.0
 20
0.0
 30
0.0
  0
VERTEX
  5
6E6
330
6E5
100
AcDbEntity
  8
BEMAßUNG
 62
     7
100
AcDbVertex
100
AcDb2dVertex
 10
-3.183612737919375
 20
148.9518038907134
 30
0.0
  0
VERTEX
  5
6E7
330
6E5
100
AcDbEntity
  8
BEMAßUNG
 62
     7
100
AcDbVertex
100
AcDb2dVertex
 10
-4.896514213185594
 20
148.9518038907134
 30
0.0
  0
SEQEND
  5
6E8
330
6E5
100
AcDbEntity
  8
BEMAßUNG
  0
POLYLINE
  5
6E9
330
1F
100
AcDbEntity
  8
BEMAßUNG
 62
     7
100
AcDb2dPolyline
 66
     1
 10
0.0
 20
0.0
 30
0.0
  0
VERTEX
  5
6EA
330
6E9
100
AcDbEntity
  8
BEMAßUNG
 62
     7
100
AcDbVertex
100
AcDb2dVertex
 10
-3.183612737919375
 20
148.9238986172829
 30
0.0
  0
VERTEX
  5
6EB
330
6E9
100
AcDbEntity
  8
BEMAßUNG
 62
     7
100
AcDbVertex
100
AcDb2dVertex
 10
-5.108732095076983
 20
148.9238986172829
 30
0.0
  0
SEQEND
  5
6EC
330
6E9
100
AcDbEntity
  8
BEMAßUNG
  0
POLYLINE
  5
6ED
330
1F
100
AcDbEntity
  8
BEMAßUNG
 62
     7
100
AcDb2dPolyline
 66
     1
 10
0.0
 20
0.0
 30
0.0
  0
VERTEX
  5
6EE
330
6ED
100
AcDbEntity
  8
BEMAßUNG
 62
     7
100
AcDbVertex
100
AcDb2dVertex
 10
-4.649156357344656
 20
163.1132133923814
 30
0.0
  0
VERTEX
  5
6EF
330
6ED
100
AcDbEntity
  8
BEMAßUNG
 62
     7
100
AcDbVertex
100
AcDb2dVertex
 10
-12.06713595618461
 20
163.1132133923814
 30
0.0
  0
SEQEND
  5
6F0
330
6ED
100
AcDbEntity
  8
BEMAßUNG
  0
POLYLINE
  5
6F1
330
1F
100
AcDbEntity
  8
BEMAßUNG
 62
     7
100
AcDb2dPolyline
 66
     1
 10
0.0
 20
0.0
 30
0.0
  0
VERTEX
  5
6F2
330
6F1
100
AcDbEntity
  8
BEMAßUNG
 62
     7
100
AcDbVertex
100
AcDb2dVertex
 10
3.734483506010824
 20
175.2127332461274
 30
0.0
  0
VERTEX
  5
6F3
330
6F1
100
AcDbEntity
  8
BEMAßUNG
 62
     7
100
AcDbVertex
100
AcDb2dVertex
 10
-12.06713595618461
 20
175.2127332461274
 30
0.0
  0
SEQEND
  5
6F4
330
6F1
100
AcDbEntity
  8
BEMAßUNG
  0
POLYLINE
  5
6F5
330
1F
100
AcDbEntity
  8
BEMAßUNG
 62
     7
100
AcDb2dPolyline
 66
     1
 10
0.0
 20
0.0
 30
0.0
  0
VERTEX
  5
6F6
330
6F5
100
AcDbEntity
  8
BEMAßUNG
 62
     7
100
AcDbVertex
100
AcDb2dVertex
 10
-10.96694471297007
 20
163.1132133923814
 30
0.0
  0
VERTEX
  5
6F7
330
6F5
100
AcDbEntity
  8
BEMAßUNG
 62
     7
100
AcDbVertex
100
AcDb2dVertex
 10
-10.96694471297007
 20
175.2127332461274
 30
0.0
  0
SEQEND
  5
6F8
330
6F5
100
AcDbEntity
  8
BEMAßUNG
  0
POLYLINE
  5
6F9
330
1F
100
AcDbEntity
  8
BEMAßUNG
 62
     7
100
AcDb2dPolyline
 66
     1
 10
0.0
 20
0.0
 30
0.0
  0
VERTEX
  5
6FA
330
6F9
100
AcDbEntity
  8
BEMAßUNG
 62
     7
100
AcDbVertex
100
AcDb2dVertex
 10
-10.96694471297007
 20
163.1132133923814
 30
0.0
  0
VERTEX
  5
6FB
330
6F9
100
AcDbEntity
  8
BEMAßUNG
 62
     7
100
AcDbVertex
100
AcDb2dVertex
 10
-10.71355794002995
 20
165.0386772590876
 30
0.0
  0
VERTEX
  5
6FC
330
6F9
100
AcDbEntity
  8
BEMAßUNG
 62
     7
100
AcDbVertex
100
AcDb2dVertex
 10
-11.22050374068446
 20
165.0386772590876
 30
0.0
  0
VERTEX
  5
6FD
330
6F9
100
AcDbEntity
  8
BEMAßUNG
 62
     7
100
AcDbVertex
100
AcDb2dVertex
 10
-10.96694471297007
 20
163.1132133923814
 30
0.0
  0
SEQEND
  5
6FE
330
6F9
100
AcDbEntity
  8
BEMAßUNG
  0
POLYLINE
  5
6FF
330
1F
100
AcDbEntity
  8
BEMAßUNG
 62
     7
100
AcDb2dPolyline
 66
     1
 10
0.0
 20
0.0
 30
0.0
  0
VERTEX
  5
700
330
6FF
100
AcDbEntity
  8
BEMAßUNG
 62
     7
100
AcDbVertex
100
AcDb2dVertex
 10
-10.7156249973211
 20
165.0386772590876
 30
0.0
  0
VERTEX
  5
701
330
6FF
100
AcDbEntity
  8
BEMAßUNG
 62
     7
100
AcDbVertex
100
AcDb2dVertex
 10
-10.7156249973211
 20
165.0235188389525
 30
0.0
  0
SEQEND
  5
702
330
6FF
100
AcDbEntity
  8
BEMAßUNG
  0
POLYLINE
  5
703
330
1F
100
AcDbEntity
  8
BEMAßUNG
 62
     7
100
AcDb2dPolyline
 66
     1
 10
0.0
 20
0.0
 30
0.0
  0
VERTEX
  5
704
330
703
100
AcDbEntity
  8
BEMAßUNG
 62
     7
100
AcDbVertex
100
AcDb2dVertex
 10
-10.7156249973211
 20
165.0386772590876
 30
0.0
  0
VERTEX
  5
705
330
703
100
AcDbEntity
  8
BEMAßUNG
 62
     7
100
AcDbVertex
100
AcDb2dVertex
 10
-10.7156249973211
 20
165.0235188389525
 30
0.0
  0
SEQEND
  5
706
330
703
100
AcDbEntity
  8
BEMAßUNG
  0
POLYLINE
  5
707
330
1F
100
AcDbEntity
  8
BEMAßUNG
 62
     7
100
AcDb2dPolyline
 66
     1
 10
0.0
 20
0.0
 30
0.0
  0
VERTEX
  5
708
330
707
100
AcDbEntity
  8
BEMAßUNG
 62
     7
100
AcDbVertex
100
AcDb2dVertex
 10
-10.74353027075162
 20
165.0386772590876
 30
0.0
  0
VERTEX
  5
709
330
707
100
AcDbEntity
  8
BEMAßUNG
 62
     7
100
AcDbVertex
100
AcDb2dVertex
 10
-10.74353027075162
 20
164.8113009570611
 30
0.0
  0
SEQEND
  5
70A
330
707
100
AcDbEntity
  8
BEMAßUNG
  0
POLYLINE
  5
70B
330
1F
100
AcDbEntity
  8
BEMAßUNG
 62
     7
100
AcDb2dPolyline
 66
     1
 10
0.0
 20
0.0
 30
0.0
  0
VERTEX
  5
70C
330
70B
100
AcDbEntity
  8
BEMAßUNG
 62
     7
100
AcDbVertex
100
AcDb2dVertex
 10
-10.77143554418214
 20
165.0386772590876
 30
0.0
  0
VERTEX
  5
70D
330
70B
100
AcDbEntity
  8
BEMAßUNG
 62
     7
100
AcDbVertex
100
AcDb2dVertex
 10
-10.77143554418214
 20
164.5990830751697
 30
0.0
  0
SEQEND
  5
70E
330
70B
100
AcDbEntity
  8
BEMAßUNG
  0
POLYLINE
  5
70F
330
1F
100
AcDbEntity
  8
BEMAßUNG
 62
     7
100
AcDb2dPolyline
 66
     1
 10
0.0
 20
0.0
 30
0.0
  0
VERTEX
  5
710
330
70F
100
AcDbEntity
  8
BEMAßUNG
 62
     7
100
AcDbVertex
100
AcDb2dVertex
 10
-10.79934081761266
 20
165.0386772590876
 30
0.0
  0
VERTEX
  5
711
330
70F
100
AcDbEntity
  8
BEMAßUNG
 62
     7
100
AcDbVertex
100
AcDb2dVertex
 10
-10.79934081761266
 20
164.3865206837298
 30
0.0
  0
SEQEND
  5
712
330
70F
100
AcDbEntity
  8
BEMAßUNG
  0
POLYLINE
  5
713
330
1F
100
AcDbEntity
  8
BEMAßUNG
 62
     7
100
AcDb2dPolyline
 66
     1
 10
0.0
 20
0.0
 30
0.0
  0
VERTEX
  5
714
330
713
100
AcDbEntity
  8
BEMAßUNG
 62
     7
100
AcDbVertex
100
AcDb2dVertex
 10
-10.82741834581745
 20
165.0386772590876
 30
0.0
  0
VERTEX
  5
715
330
713
100
AcDbEntity
  8
BEMAßUNG
 62
     7
100
AcDbVertex
100
AcDb2dVertex
 10
-10.82741834581745
 20
164.1746473113869
 30
0.0
  0
SEQEND
  5
716
330
713
100
AcDbEntity
  8
BEMAßUNG
  0
POLYLINE
  5
717
330
1F
100
AcDbEntity
  8
BEMAßUNG
 62
     7
100
AcDb2dPolyline
 66
     1
 10
0.0
 20
0.0
 30
0.0
  0
VERTEX
  5
718
330
717
100
AcDbEntity
  8
BEMAßUNG
 62
     7
100
AcDbVertex
100
AcDb2dVertex
 10
-10.85532361924798
 20
165.0386772590876
 30
0.0
  0
VERTEX
  5
719
330
717
100
AcDbEntity
  8
BEMAßUNG
 62
     7
100
AcDbVertex
100
AcDb2dVertex
 10
-10.85532361924798
 20
163.962084919947
 30
0.0
  0
SEQEND
  5
71A
330
717
100
AcDbEntity
  8
BEMAßUNG
  0
POLYLINE
  5
71B
330
1F
100
AcDbEntity
  8
BEMAßUNG
 62
     7
100
AcDb2dPolyline
 66
     1
 10
0.0
 20
0.0
 30
0.0
  0
VERTEX
  5
71C
330
71B
100
AcDbEntity
  8
BEMAßUNG
 62
     7
100
AcDbVertex
100
AcDb2dVertex
 10
-10.88340114745276
 20
165.0386772590876
 30
0.0
  0
VERTEX
  5
71D
330
71B
100
AcDbEntity
  8
BEMAßUNG
 62
     7
100
AcDbVertex
100
AcDb2dVertex
 10
-10.88340114745276
 20
163.7502115476041
 30
0.0
  0
SEQEND
  5
71E
330
71B
100
AcDbEntity
  8
BEMAßUNG
  0
POLYLINE
  5
71F
330
1F
100
AcDbEntity
  8
BEMAßUNG
 62
     7
100
AcDb2dPolyline
 66
     1
 10
0.0
 20
0.0
 30
0.0
  0
VERTEX
  5
720
330
71F
100
AcDbEntity
  8
BEMAßUNG
 62
     7
100
AcDbVertex
100
AcDb2dVertex
 10
-10.91096191133476
 20
165.0386772590876
 30
0.0
  0
VERTEX
  5
721
330
71F
100
AcDbEntity
  8
BEMAßUNG
 62
     7
100
AcDbVertex
100
AcDb2dVertex
 10
-10.91096191133476
 20
163.5376491561642
 30
0.0
  0
SEQEND
  5
722
330
71F
100
AcDbEntity
  8
BEMAßUNG
  0
POLYLINE
  5
723
330
1F
100
AcDbEntity
  8
BEMAßUNG
 62
     7
100
AcDb2dPolyline
 66
     1
 10
0.0
 20
0.0
 30
0.0
  0
VERTEX
  5
724
330
723
100
AcDbEntity
  8
BEMAßUNG
 62
     7
100
AcDbVertex
100
AcDb2dVertex
 10
-10.93903943953955
 20
165.0386772590876
 30
0.0
  0
VERTEX
  5
725
330
723
100
AcDbEntity
  8
BEMAßUNG
 62
     7
100
AcDbVertex
100
AcDb2dVertex
 10
-10.93903943953955
 20
163.3257757838213
 30
0.0
  0
SEQEND
  5
726
330
723
100
AcDbEntity
  8
BEMAßUNG
  0
POLYLINE
  5
727
330
1F
100
AcDbEntity
  8
BEMAßUNG
 62
     7
100
AcDb2dPolyline
 66
     1
 10
0.0
 20
0.0
 30
0.0
  0
VERTEX
  5
728
330
727
100
AcDbEntity
  8
BEMAßUNG
 62
     7
100
AcDbVertex
100
AcDb2dVertex
 10
-10.96694471297007
 20
165.0386772590876
 30
0.0
  0
VERTEX
  5
729
330
727
100
AcDbEntity
  8
BEMAßUNG
 62
     7
100
AcDbVertex
100
AcDb2dVertex
 10
-10.96694471297007
 20
163.1132133923814
 30
0.0
  0
SEQEND
  5
72A
330
727
100
AcDbEntity
  8
BEMAßUNG
  0
POLYLINE
  5
72B
330
1F
100
AcDbEntity
  8
BEMAßUNG
 62
     7
100
AcDb2dPolyline
 66
     1
 10
0.0
 20
0.0
 30
0.0
  0
VERTEX
  5
72C
330
72B
100
AcDbEntity
  8
BEMAßUNG
 62
     7
100
AcDbVertex
100
AcDb2dVertex
 10
-11.21843668339331
 20
165.0386772590876
 30
0.0
  0
VERTEX
  5
72D
330
72B
100
AcDbEntity
  8
BEMAßUNG
 62
     7
100
AcDbVertex
100
AcDb2dVertex
 10
-11.21843668339331
 20
165.0235188389525
 30
0.0
  0
SEQEND
  5
72E
330
72B
100
AcDbEntity
  8
BEMAßUNG
  0
POLYLINE
  5
72F
330
1F
100
AcDbEntity
  8
BEMAßUNG
 62
     7
100
AcDb2dPolyline
 66
     1
 10
0.0
 20
0.0
 30
0.0
  0
VERTEX
  5
730
330
72F
100
AcDbEntity
  8
BEMAßUNG
 62
     7
100
AcDbVertex
100
AcDb2dVertex
 10
-11.21843668339331
 20
165.0386772590876
 30
0.0
  0
VERTEX
  5
731
330
72F
100
AcDbEntity
  8
BEMAßUNG
 62
     7
100
AcDbVertex
100
AcDb2dVertex
 10
-11.21843668339331
 20
165.0235188389525
 30
0.0
  0
SEQEND
  5
732
330
72F
100
AcDbEntity
  8
BEMAßUNG
  0
POLYLINE
  5
733
330
1F
100
AcDbEntity
  8
BEMAßUNG
 62
     7
100
AcDb2dPolyline
 66
     1
 10
0.0
 20
0.0
 30
0.0
  0
VERTEX
  5
734
330
733
100
AcDbEntity
  8
BEMAßUNG
 62
     7
100
AcDbVertex
100
AcDb2dVertex
 10
-11.19035915518852
 20
165.0386772590876
 30
0.0
  0
VERTEX
  5
735
330
733
100
AcDbEntity
  8
BEMAßUNG
 62
     7
100
AcDbVertex
100
AcDb2dVertex
 10
-11.19035915518852
 20
164.8113009570611
 30
0.0
  0
SEQEND
  5
736
330
733
100
AcDbEntity
  8
BEMAßUNG
  0
POLYLINE
  5
737
330
1F
100
AcDbEntity
  8
BEMAßUNG
 62
     7
100
AcDb2dPolyline
 66
     1
 10
0.0
 20
0.0
 30
0.0
  0
VERTEX
  5
738
330
737
100
AcDbEntity
  8
BEMAßUNG
 62
     7
100
AcDbVertex
100
AcDb2dVertex
 10
-11.16279839130652
 20
165.0386772590876
 30
0.0
  0
VERTEX
  5
739
330
737
100
AcDbEntity
  8
BEMAßUNG
 62
     7
100
AcDbVertex
100
AcDb2dVertex
 10
-11.16279839130652
 20
164.5990830751697
 30
0.0
  0
SEQEND
  5
73A
330
737
100
AcDbEntity
  8
BEMAßUNG
  0
POLYLINE
  5
73B
330
1F
100
AcDbEntity
  8
BEMAßUNG
 62
     7
100
AcDb2dPolyline
 66
     1
 10
0.0
 20
0.0
 30
0.0
  0
VERTEX
  5
73C
330
73B
100
AcDbEntity
  8
BEMAßUNG
 62
     7
100
AcDbVertex
100
AcDb2dVertex
 10
-11.13472086310174
 20
165.0386772590876
 30
0.0
  0
VERTEX
  5
73D
330
73B
100
AcDbEntity
  8
BEMAßUNG
 62
     7
100
AcDbVertex
100
AcDb2dVertex
 10
-11.13472086310174
 20
164.3865206837298
 30
0.0
  0
SEQEND
  5
73E
330
73B
100
AcDbEntity
  8
BEMAßUNG
  0
POLYLINE
  5
73F
330
1F
100
AcDbEntity
  8
BEMAßUNG
 62
     7
100
AcDb2dPolyline
 66
     1
 10
0.0
 20
0.0
 30
0.0
  0
VERTEX
  5
740
330
73F
100
AcDbEntity
  8
BEMAßUNG
 62
     7
100
AcDbVertex
100
AcDb2dVertex
 10
-11.10664333489695
 20
165.0386772590876
 30
0.0
  0
VERTEX
  5
741
330
73F
100
AcDbEntity
  8
BEMAßUNG
 62
     7
100
AcDbVertex
100
AcDb2dVertex
 10
-11.10664333489695
 20
164.1746473113869
 30
0.0
  0
SEQEND
  5
742
330
73F
100
AcDbEntity
  8
BEMAßUNG
  0
POLYLINE
  5
743
330
1F
100
AcDbEntity
  8
BEMAßUNG
 62
     7
100
AcDb2dPolyline
 66
     1
 10
0.0
 20
0.0
 30
0.0
  0
VERTEX
  5
744
330
743
100
AcDbEntity
  8
BEMAßUNG
 62
     7
100
AcDbVertex
100
AcDb2dVertex
 10
-11.07873806146643
 20
165.0386772590876
 30
0.0
  0
VERTEX
  5
745
330
743
100
AcDbEntity
  8
BEMAßUNG
 62
     7
100
AcDbVertex
100
AcDb2dVertex
 10
-11.07873806146643
 20
163.962084919947
 30
0.0
  0
SEQEND
  5
746
330
743
100
AcDbEntity
  8
BEMAßUNG
  0
POLYLINE
  5
747
330
1F
100
AcDbEntity
  8
BEMAßUNG
 62
     7
100
AcDb2dPolyline
 66
     1
 10
0.0
 20
0.0
 30
0.0
  0
VERTEX
  5
748
330
747
100
AcDbEntity
  8
BEMAßUNG
 62
     7
100
AcDbVertex
100
AcDb2dVertex
 10
-11.0508327880359
 20
165.0386772590876
 30
0.0
  0
VERTEX
  5
749
330
747
100
AcDbEntity
  8
BEMAßUNG
 62
     7
100
AcDbVertex
100
AcDb2dVertex
 10
-11.0508327880359
 20
163.7502115476041
 30
0.0
  0
SEQEND
  5
74A
330
747
100
AcDbEntity
  8
BEMAßUNG
  0
POLYLINE
  5
74B
330
1F
100
AcDbEntity
  8
BEMAßUNG
 62
     7
100
AcDb2dPolyline
 66
     1
 10
0.0
 20
0.0
 30
0.0
  0
VERTEX
  5
74C
330
74B
100
AcDbEntity
  8
BEMAßUNG
 62
     7
100
AcDbVertex
100
AcDb2dVertex
 10
-11.02292751460538
 20
165.0386772590876
 30
0.0
  0
VERTEX
  5
74D
330
74B
100
AcDbEntity
  8
BEMAßUNG
 62
     7
100
AcDbVertex
100
AcDb2dVertex
 10
-11.02292751460538
 20
163.5376491561642
 30
0.0
  0
SEQEND
  5
74E
330
74B
100
AcDbEntity
  8
BEMAßUNG
  0
POLYLINE
  5
74F
330
1F
100
AcDbEntity
  8
BEMAßUNG
 62
     7
100
AcDb2dPolyline
 66
     1
 10
0.0
 20
0.0
 30
0.0
  0
VERTEX
  5
750
330
74F
100
AcDbEntity
  8
BEMAßUNG
 62
     7
100
AcDbVertex
100
AcDb2dVertex
 10
-10.99502224117486
 20
165.0386772590876
 30
0.0
  0
VERTEX
  5
751
330
74F
100
AcDbEntity
  8
BEMAßUNG
 62
     7
100
AcDbVertex
100
AcDb2dVertex
 10
-10.99502224117486
 20
163.3257757838213
 30
0.0
  0
SEQEND
  5
752
330
74F
100
AcDbEntity
  8
BEMAßUNG
  0
POLYLINE
  5
753
330
1F
100
AcDbEntity
  8
BEMAßUNG
 62
     7
100
AcDb2dPolyline
 66
     1
 10
0.0
 20
0.0
 30
0.0
  0
VERTEX
  5
754
330
753
100
AcDbEntity
  8
BEMAßUNG
 62
     7
100
AcDbVertex
100
AcDb2dVertex
 10
-10.96694471297007
 20
165.0386772590876
 30
0.0
  0
VERTEX
  5
755
330
753
100
AcDbEntity
  8
BEMAßUNG
 62
     7
100
AcDbVertex
100
AcDb2dVertex
 10
-10.96694471297007
 20
163.1132133923814
 30
0.0
  0
SEQEND
  5
756
330
753
100
AcDbEntity
  8
BEMAßUNG
  0
POLYLINE
  5
757
330
1F
100
AcDbEntity
  8
BEMAßUNG
 62
     7
100
AcDb2dPolyline
 66
     1
 10
0.0
 20
0.0
 30
0.0
  0
VERTEX
  5
758
330
757
100
AcDbEntity
  8
BEMAßUNG
 62
     7
100
AcDbVertex
100
AcDb2dVertex
 10
-10.96694471297007
 20
175.2127332461274
 30
0.0
  0
VERTEX
  5
759
330
757
100
AcDbEntity
  8
BEMAßUNG
 62
     7
100
AcDbVertex
100
AcDb2dVertex
 10
-11.22050374068446
 20
173.2876138889698
 30
0.0
  0
VERTEX
  5
75A
330
757
100
AcDbEntity
  8
BEMAßUNG
 62
     7
100
AcDbVertex
100
AcDb2dVertex
 10
-10.71355794002995
 20
173.2876138889698
 30
0.0
  0
VERTEX
  5
75B
330
757
100
AcDbEntity
  8
BEMAßUNG
 62
     7
100
AcDbVertex
100
AcDb2dVertex
 10
-10.96694471297007
 20
175.2127332461274
 30
0.0
  0
SEQEND
  5
75C
330
757
100
AcDbEntity
  8
BEMAßUNG
  0
POLYLINE
  5
75D
330
1F
100
AcDbEntity
  8
BEMAßUNG
 62
     7
100
AcDb2dPolyline
 66
     1
 10
0.0
 20
0.0
 30
0.0
  0
VERTEX
  5
75E
330
75D
100
AcDbEntity
  8
BEMAßUNG
 62
     7
100
AcDbVertex
100
AcDb2dVertex
 10
-11.21843668339331
 20
173.2876138889698
 30
0.0
  0
VERTEX
  5
75F
330
75D
100
AcDbEntity
  8
BEMAßUNG
 62
     7
100
AcDbVertex
100
AcDb2dVertex
 10
-11.21843668339331
 20
173.3027723091049
 30
0.0
  0
SEQEND
  5
760
330
75D
100
AcDbEntity
  8
BEMAßUNG
  0
POLYLINE
  5
761
330
1F
100
AcDbEntity
  8
BEMAßUNG
 62
     7
100
AcDb2dPolyline
 66
     1
 10
0.0
 20
0.0
 30
0.0
  0
VERTEX
  5
762
330
761
100
AcDbEntity
  8
BEMAßUNG
 62
     7
100
AcDbVertex
100
AcDb2dVertex
 10
-11.21843668339331
 20
173.2876138889698
 30
0.0
  0
VERTEX
  5
763
330
761
100
AcDbEntity
  8
BEMAßUNG
 62
     7
100
AcDbVertex
100
AcDb2dVertex
 10
-11.21843668339331
 20
173.3027723091049
 30
0.0
  0
SEQEND
  5
764
330
761
100
AcDbEntity
  8
BEMAßUNG
  0
POLYLINE
  5
765
330
1F
100
AcDbEntity
  8
BEMAßUNG
 62
     7
100
AcDb2dPolyline
 66
     1
 10
0.0
 20
0.0
 30
0.0
  0
VERTEX
  5
766
330
765
100
AcDbEntity
  8
BEMAßUNG
 62
     7
100
AcDbVertex
100
AcDb2dVertex
 10
-11.19035915518852
 20
173.2876138889698
 30
0.0
  0
VERTEX
  5
767
330
765
100
AcDbEntity
  8
BEMAßUNG
 62
     7
100
AcDbVertex
100
AcDb2dVertex
 10
-11.19035915518852
 20
173.5149901909963
 30
0.0
  0
SEQEND
  5
768
330
765
100
AcDbEntity
  8
BEMAßUNG
  0
POLYLINE
  5
769
330
1F
100
AcDbEntity
  8
BEMAßUNG
 62
     7
100
AcDb2dPolyline
 66
     1
 10
0.0
 20
0.0
 30
0.0
  0
VERTEX
  5
76A
330
769
100
AcDbEntity
  8
BEMAßUNG
 62
     7
100
AcDbVertex
100
AcDb2dVertex
 10
-11.16279839130652
 20
173.2876138889698
 30
0.0
  0
VERTEX
  5
76B
330
769
100
AcDbEntity
  8
BEMAßUNG
 62
     7
100
AcDbVertex
100
AcDb2dVertex
 10
-11.16279839130652
 20
173.7272080728877
 30
0.0
  0
SEQEND
  5
76C
330
769
100
AcDbEntity
  8
BEMAßUNG
  0
POLYLINE
  5
76D
330
1F
100
AcDbEntity
  8
BEMAßUNG
 62
     7
100
AcDb2dPolyline
 66
     1
 10
0.0
 20
0.0
 30
0.0
  0
VERTEX
  5
76E
330
76D
100
AcDbEntity
  8
BEMAßUNG
 62
     7
100
AcDbVertex
100
AcDb2dVertex
 10
-11.13472086310174
 20
173.2876138889698
 30
0.0
  0
VERTEX
  5
76F
330
76D
100
AcDbEntity
  8
BEMAßUNG
 62
     7
100
AcDbVertex
100
AcDb2dVertex
 10
-11.13472086310174
 20
173.9397704643276
 30
0.0
  0
SEQEND
  5
770
330
76D
100
AcDbEntity
  8
BEMAßUNG
  0
POLYLINE
  5
771
330
1F
100
AcDbEntity
  8
BEMAßUNG
 62
     7
100
AcDb2dPolyline
 66
     1
 10
0.0
 20
0.0
 30
0.0
  0
VERTEX
  5
772
330
771
100
AcDbEntity
  8
BEMAßUNG
 62
     7
100
AcDbVertex
100
AcDb2dVertex
 10
-11.10664333489695
 20
173.2876138889698
 30
0.0
  0
VERTEX
  5
773
330
771
100
AcDbEntity
  8
BEMAßUNG
 62
     7
100
AcDbVertex
100
AcDb2dVertex
 10
-11.10664333489695
 20
174.1516438366704
 30
0.0
  0
SEQEND
  5
774
330
771
100
AcDbEntity
  8
BEMAßUNG
  0
POLYLINE
  5
775
330
1F
100
AcDbEntity
  8
BEMAßUNG
 62
     7
100
AcDb2dPolyline
 66
     1
 10
0.0
 20
0.0
 30
0.0
  0
VERTEX
  5
776
330
775
100
AcDbEntity
  8
BEMAßUNG
 62
     7
100
AcDbVertex
100
AcDb2dVertex
 10
-11.07873806146643
 20
173.2876138889698
 30
0.0
  0
VERTEX
  5
777
330
775
100
AcDbEntity
  8
BEMAßUNG
 62
     7
100
AcDbVertex
100
AcDb2dVertex
 10
-11.07873806146643
 20
174.3638617185618
 30
0.0
  0
SEQEND
  5
778
330
775
100
AcDbEntity
  8
BEMAßUNG
  0
POLYLINE
  5
779
330
1F
100
AcDbEntity
  8
BEMAßUNG
 62
     7
100
AcDb2dPolyline
 66
     1
 10
0.0
 20
0.0
 30
0.0
  0
VERTEX
  5
77A
330
779
100
AcDbEntity
  8
BEMAßUNG
 62
     7
100
AcDbVertex
100
AcDb2dVertex
 10
-11.0508327880359
 20
173.2876138889698
 30
0.0
  0
VERTEX
  5
77B
330
779
100
AcDbEntity
  8
BEMAßUNG
 62
     7
100
AcDbVertex
100
AcDb2dVertex
 10
-11.0508327880359
 20
174.5760796004532
 30
0.0
  0
SEQEND
  5
77C
330
779
100
AcDbEntity
  8
BEMAßUNG
  0
POLYLINE
  5
77D
330
1F
100
AcDbEntity
  8
BEMAßUNG
 62
     7
100
AcDb2dPolyline
 66
     1
 10
0.0
 20
0.0
 30
0.0
  0
VERTEX
  5
77E
330
77D
100
AcDbEntity
  8
BEMAßUNG
 62
     7
100
AcDbVertex
100
AcDb2dVertex
 10
-11.02292751460538
 20
173.2876138889698
 30
0.0
  0
VERTEX
  5
77F
330
77D
100
AcDbEntity
  8
BEMAßUNG
 62
     7
100
AcDbVertex
100
AcDb2dVertex
 10
-11.02292751460538
 20
174.7886419918931
 30
0.0
  0
SEQEND
  5
780
330
77D
100
AcDbEntity
  8
BEMAßUNG
  0
POLYLINE
  5
781
330
1F
100
AcDbEntity
  8
BEMAßUNG
 62
     7
100
AcDb2dPolyline
 66
     1
 10
0.0
 20
0.0
 30
0.0
  0
VERTEX
  5
782
330
781
100
AcDbEntity
  8
BEMAßUNG
 62
     7
100
AcDbVertex
100
AcDb2dVertex
 10
-10.99502224117486
 20
173.2876138889698
 30
0.0
  0
VERTEX
  5
783
330
781
100
AcDbEntity
  8
BEMAßUNG
 62
     7
100
AcDbVertex
100
AcDb2dVertex
 10
-10.99502224117486
 20
175.0008598737845
 30
0.0
  0
SEQEND
  5
784
330
781
100
AcDbEntity
  8
BEMAßUNG
  0
POLYLINE
  5
785
330
1F
100
AcDbEntity
  8
BEMAßUNG
 62
     7
100
AcDb2dPolyline
 66
     1
 10
0.0
 20
0.0
 30
0.0
  0
VERTEX
  5
786
330
785
100
AcDbEntity
  8
BEMAßUNG
 62
     7
100
AcDbVertex
100
AcDb2dVertex
 10
-10.96694471297007
 20
173.2876138889698
 30
0.0
  0
VERTEX
  5
787
330
785
100
AcDbEntity
  8
BEMAßUNG
 62
     7
100
AcDbVertex
100
AcDb2dVertex
 10
-10.96694471297007
 20
175.2127332461274
 30
0.0
  0
SEQEND
  5
788
330
785
100
AcDbEntity
  8
BEMAßUNG
  0
POLYLINE
  5
789
330
1F
100
AcDbEntity
  8
BEMAßUNG
 62
     7
100
AcDb2dPolyline
 66
     1
 10
0.0
 20
0.0
 30
0.0
  0
VERTEX
  5
78A
330
789
100
AcDbEntity
  8
BEMAßUNG
 62
     7
100
AcDbVertex
100
AcDb2dVertex
 10
-10.7156249973211
 20
173.2876138889698
 30
0.0
  0
VERTEX
  5
78B
330
789
100
AcDbEntity
  8
BEMAßUNG
 62
     7
100
AcDbVertex
100
AcDb2dVertex
 10
-10.7156249973211
 20
173.3027723091049
 30
0.0
  0
SEQEND
  5
78C
330
789
100
AcDbEntity
  8
BEMAßUNG
  0
POLYLINE
  5
78D
330
1F
100
AcDbEntity
  8
BEMAßUNG
 62
     7
100
AcDb2dPolyline
 66
     1
 10
0.0
 20
0.0
 30
0.0
  0
VERTEX
  5
78E
330
78D
100
AcDbEntity
  8
BEMAßUNG
 62
     7
100
AcDbVertex
100
AcDb2dVertex
 10
-10.7156249973211
 20
173.2876138889698
 30
0.0
  0
VERTEX
  5
78F
330
78D
100
AcDbEntity
  8
BEMAßUNG
 62
     7
100
AcDbVertex
100
AcDb2dVertex
 10
-10.7156249973211
 20
173.3027723091049
 30
0.0
  0
SEQEND
  5
790
330
78D
100
AcDbEntity
  8
BEMAßUNG
  0
POLYLINE
  5
791
330
1F
100
AcDbEntity
  8
BEMAßUNG
 62
     7
100
AcDb2dPolyline
 66
     1
 10
0.0
 20
0.0
 30
0.0
  0
VERTEX
  5
792
330
791
100
AcDbEntity
  8
BEMAßUNG
 62
     7
100
AcDbVertex
100
AcDb2dVertex
 10
-10.74353027075162
 20
173.2876138889698
 30
0.0
  0
VERTEX
  5
793
330
791
100
AcDbEntity
  8
BEMAßUNG
 62
     7
100
AcDbVertex
100
AcDb2dVertex
 10
-10.74353027075162
 20
173.5149901909963
 30
0.0
  0
SEQEND
  5
794
330
791
100
AcDbEntity
  8
BEMAßUNG
  0
POLYLINE
  5
795
330
1F
100
AcDbEntity
  8
BEMAßUNG
 62
     7
100
AcDb2dPolyline
 66
     1
 10
0.0
 20
0.0
 30
0.0
  0
VERTEX
  5
796
330
795
100
AcDbEntity
  8
BEMAßUNG
 62
     7
100
AcDbVertex
100
AcDb2dVertex
 10
-10.77143554418214
 20
173.2876138889698
 30
0.0
  0
VERTEX
  5
797
330
795
100
AcDbEntity
  8
BEMAßUNG
 62
     7
100
AcDbVertex
100
AcDb2dVertex
 10
-10.77143554418214
 20
173.7272080728877
 30
0.0
  0
SEQEND
  5
798
330
795
100
AcDbEntity
  8
BEMAßUNG
  0
POLYLINE
  5
799
330
1F
100
AcDbEntity
  8
BEMAßUNG
 62
     7
100
AcDb2dPolyline
 66
     1
 10
0.0
 20
0.0
 30
0.0
  0
VERTEX
  5
79A
330
799
100
AcDbEntity
  8
BEMAßUNG
 62
     7
100
AcDbVertex
100
AcDb2dVertex
 10
-10.79934081761266
 20
173.2876138889698
 30
0.0
  0
VERTEX
  5
79B
330
799
100
AcDbEntity
  8
BEMAßUNG
 62
     7
100
AcDbVertex
100
AcDb2dVertex
 10
-10.79934081761266
 20
173.9397704643276
 30
0.0
  0
SEQEND
  5
79C
330
799
100
AcDbEntity
  8
BEMAßUNG
  0
POLYLINE
  5
79D
330
1F
100
AcDbEntity
  8
BEMAßUNG
 62
     7
100
AcDb2dPolyline
 66
     1
 10
0.0
 20
0.0
 30
0.0
  0
VERTEX
  5
79E
330
79D
100
AcDbEntity
  8
BEMAßUNG
 62
     7
100
AcDbVertex
100
AcDb2dVertex
 10
-10.82741834581745
 20
173.2876138889698
 30
0.0
  0
VERTEX
  5
79F
330
79D
100
AcDbEntity
  8
BEMAßUNG
 62
     7
100
AcDbVertex
100
AcDb2dVertex
 10
-10.82741834581745
 20
174.1516438366704
 30
0.0
  0
SEQEND
  5
7A0
330
79D
100
AcDbEntity
  8
BEMAßUNG
  0
POLYLINE
  5
7A1
330
1F
100
AcDbEntity
  8
BEMAßUNG
 62
     7
100
AcDb2dPolyline
 66
     1
 10
0.0
 20
0.0
 30
0.0
  0
VERTEX
  5
7A2
330
7A1
100
AcDbEntity
  8
BEMAßUNG
 62
     7
100
AcDbVertex
100
AcDb2dVertex
 10
-10.85532361924798
 20
173.2876138889698
 30
0.0
  0
VERTEX
  5
7A3
330
7A1
100
AcDbEntity
  8
BEMAßUNG
 62
     7
100
AcDbVertex
100
AcDb2dVertex
 10
-10.85532361924798
 20
174.3638617185618
 30
0.0
  0
SEQEND
  5
7A4
330
7A1
100
AcDbEntity
  8
BEMAßUNG
  0
POLYLINE
  5
7A5
330
1F
100
AcDbEntity
  8
BEMAßUNG
 62
     7
100
AcDb2dPolyline
 66
     1
 10
0.0
 20
0.0
 30
0.0
  0
VERTEX
  5
7A6
330
7A5
100
AcDbEntity
  8
BEMAßUNG
 62
     7
100
AcDbVertex
100
AcDb2dVertex
 10
-10.88340114745276
 20
173.2876138889698
 30
0.0
  0
VERTEX
  5
7A7
330
7A5
100
AcDbEntity
  8
BEMAßUNG
 62
     7
100
AcDbVertex
100
AcDb2dVertex
 10
-10.88340114745276
 20
174.5760796004532
 30
0.0
  0
SEQEND
  5
7A8
330
7A5
100
AcDbEntity
  8
BEMAßUNG
  0
POLYLINE
  5
7A9
330
1F
100
AcDbEntity
  8
BEMAßUNG
 62
     7
100
AcDb2dPolyline
 66
     1
 10
0.0
 20
0.0
 30
0.0
  0
VERTEX
  5
7AA
330
7A9
100
AcDbEntity
  8
BEMAßUNG
 62
     7
100
AcDbVertex
100
AcDb2dVertex
 10
-10.91096191133476
 20
173.2876138889698
 30
0.0
  0
VERTEX
  5
7AB
330
7A9
100
AcDbEntity
  8
BEMAßUNG
 62
     7
100
AcDbVertex
100
AcDb2dVertex
 10
-10.91096191133476
 20
174.7886419918931
 30
0.0
  0
SEQEND
  5
7AC
330
7A9
100
AcDbEntity
  8
BEMAßUNG
  0
POLYLINE
  5
7AD
330
1F
100
AcDbEntity
  8
BEMAßUNG
 62
     7
100
AcDb2dPolyline
 66
     1
 10
0.0
 20
0.0
 30
0.0
  0
VERTEX
  5
7AE
330
7AD
100
AcDbEntity
  8
BEMAßUNG
 62
     7
100
AcDbVertex
100
AcDb2dVertex
 10
-10.93903943953955
 20
173.2876138889698
 30
0.0
  0
VERTEX
  5
7AF
330
7AD
100
AcDbEntity
  8
BEMAßUNG
 62
     7
100
AcDbVertex
100
AcDb2dVertex
 10
-10.93903943953955
 20
175.0008598737845
 30
0.0
  0
SEQEND
  5
7B0
330
7AD
100
AcDbEntity
  8
BEMAßUNG
  0
POLYLINE
  5
7B1
330
1F
100
AcDbEntity
  8
BEMAßUNG
 62
     7
100
AcDb2dPolyline
 66
     1
 10
0.0
 20
0.0
 30
0.0
  0
VERTEX
  5
7B2
330
7B1
100
AcDbEntity
  8
BEMAßUNG
 62
     7
100
AcDbVertex
100
AcDb2dVertex
 10
-10.96694471297007
 20
173.2876138889698
 30
0.0
  0
VERTEX
  5
7B3
330
7B1
100
AcDbEntity
  8
BEMAßUNG
 62
     7
100
AcDbVertex
100
AcDb2dVertex
 10
-10.96694471297007
 20
175.2127332461274
 30
0.0
  0
SEQEND
  5
7B4
330
7B1
100
AcDbEntity
  8
BEMAßUNG
  0
POLYLINE
  5
7B5
330
1F
100
AcDbEntity
  8
BEMAßUNG
 62
     7
100
AcDb2dPolyline
 66
     1
 10
0.0
 20
0.0
 30
0.0
  0
VERTEX
  5
7B6
330
7B5
100
AcDbEntity
  8
BEMAßUNG
 62
     7
100
AcDbVertex
100
AcDb2dVertex
 10
54.58547090649252
 20
179.4908528197106
 30
0.0
  0
VERTEX
  5
7B7
330
7B5
100
AcDbEntity
  8
BEMAßUNG
 62
     7
100
AcDbVertex
100
AcDb2dVertex
 10
78.23553464840987
 20
159.8064384908644
 30
0.0
  0
SEQEND
  5
7B8
330
7B5
100
AcDbEntity
  8
BEMAßUNG
  0
SPLINE
  5
7B9
330
1F
100
AcDbEntity
  8
BEMAßUNG
 62
     7
100
AcDbSpline
210
0.0
220
0.0
230
1.0
 70
     8
 71
     3
 72
     8
 73
     4
 74
     0
 42
0.0000000001
 43
0.0000000001
 40
0.0
 40
0.0
 40
0.0
 40
0.0
 40
1.0
 40
1.0
 40
1.0
 40
1.0
 10
55.32995604085502
 20
180.2949381059679
 30
0.0
 10
51.56756726141366
 20
176.6338351337929
 30
0.0
 10
51.12625052975316
 20
170.8460747185732
 30
0.0
 10
54.09402803552163
 20
166.6392686215346
 30
0.0
  0
SPLINE
  5
7BA
330
1F
100
AcDbEntity
  8
BEMAßUNG
 62
     7
100
AcDbSpline
210
0.0
220
0.0
230
1.0
 70
     8
 71
     3
 72
    11
 73
     7
 74
     0
 42
0.0000000001
 43
0.0000000001
 40
0.0
 40
0.0
 40
0.0
 40
0.0
 40
1.0
 40
1.0
 40
1.0
 40
2.0
 40
2.0
 40
2.0
 40
2.0
 10
56.57053492509348
 20
164.1632784962856
 30
0.0
 10
58.43639863990479
 20
162.8362277153673
 30
0.0
 10
60.58613822270069
 20
162.2037081842755
 30
0.0
 10
62.67489961540767
 20
162.2140434707312
 30
0.0
 10
66.30361869002132
 20
162.2140434707312
 30
0.0
 10
69.50342337672137
 20
164.0489013261753
 30
0.0
 10
71.42130803335995
 20
166.878358248211
 30
0.0
  0
POLYLINE
  5
7BB
330
1F
100
AcDbEntity
  8
BEMAßUNG
 62
     7
100
AcDb2dPolyline
 66
     1
 10
0.0
 20
0.0
 30
0.0
  0
VERTEX
  5
7BC
330
7BB
100
AcDbEntity
  8
BEMAßUNG
 62
     7
100
AcDbVertex
100
AcDb2dVertex
 10
70.76450057909707
 20
166.0012369376664
 30
0.0
  0
VERTEX
  5
7BD
330
7BB
100
AcDbEntity
  8
BEMAßUNG
 62
     7
100
AcDbVertex
100
AcDb2dVertex
 10
69.44830184895737
 20
167.4285399972054
 30
0.0
  0
VERTEX
  5
7BE
330
7BB
100
AcDbEntity
  8
BEMAßUNG
 62
     7
100
AcDbVertex
100
AcDb2dVertex
 10
69.12360159947258
 20
167.0395887169207
 30
0.0
  0
VERTEX
  5
7BF
330
7BB
100
AcDbEntity
  8
BEMAßUNG
 62
     7
100
AcDbVertex
100
AcDb2dVertex
 10
70.76450057909707
 20
166.0012369376664
 30
0.0
  0
SEQEND
  5
7C0
330
7BB
100
AcDbEntity
  8
BEMAßUNG
  0
POLYLINE
  5
7C1
330
1F
100
AcDbEntity
  8
BEMAßUNG
 62
     7
100
AcDb2dPolyline
 66
     1
 10
0.0
 20
0.0
 30
0.0
  0
VERTEX
  5
7C2
330
7C1
100
AcDbEntity
  8
BEMAßUNG
 62
     7
100
AcDbVertex
100
AcDb2dVertex
 10
69.44726832031179
 20
167.4275064685598
 30
0.0
  0
VERTEX
  5
7C3
330
7C1
100
AcDbEntity
  8
BEMAßUNG
 62
     7
100
AcDbVertex
100
AcDb2dVertex
 10
69.45846488063886
 20
167.4175156916526
 30
0.0
  0
SEQEND
  5
7C4
330
7C1
100
AcDbEntity
  8
BEMAßUNG
  0
POLYLINE
  5
7C5
330
1F
100
AcDbEntity
  8
BEMAßUNG
 62
     7
100
AcDb2dPolyline
 66
     1
 10
0.0
 20
0.0
 30
0.0
  0
VERTEX
  5
7C6
330
7C5
100
AcDbEntity
  8
BEMAßUNG
 62
     7
100
AcDbVertex
100
AcDb2dVertex
 10
69.44726832031179
 20
167.4275064685598
 30
0.0
  0
VERTEX
  5
7C7
330
7C5
100
AcDbEntity
  8
BEMAßUNG
 62
     7
100
AcDbVertex
100
AcDb2dVertex
 10
69.45846488063886
 20
167.4175156916526
 30
0.0
  0
SEQEND
  5
7C8
330
7C5
100
AcDbEntity
  8
BEMAßUNG
  0
POLYLINE
  5
7C9
330
1F
100
AcDbEntity
  8
BEMAßUNG
 62
     7
100
AcDb2dPolyline
 66
     1
 10
0.0
 20
0.0
 30
0.0
  0
VERTEX
  5
7CA
330
7C9
100
AcDbEntity
  8
BEMAßUNG
 62
     7
100
AcDbVertex
100
AcDb2dVertex
 10
69.42900931423998
 20
167.4061468765512
 30
0.0
  0
VERTEX
  5
7CB
330
7C9
100
AcDbEntity
  8
BEMAßUNG
 62
     7
100
AcDbVertex
100
AcDb2dVertex
 10
69.60367565534214
 20
167.2604193375252
 30
0.0
  0
SEQEND
  5
7CC
330
7C9
100
AcDbEntity
  8
BEMAßUNG
  0
POLYLINE
  5
7CD
330
1F
100
AcDbEntity
  8
BEMAßUNG
 62
     7
100
AcDb2dPolyline
 66
     1
 10
0.0
 20
0.0
 30
0.0
  0
VERTEX
  5
7CE
330
7CD
100
AcDbEntity
  8
BEMAßUNG
 62
     7
100
AcDbVertex
100
AcDb2dVertex
 10
69.41109481771667
 20
167.3844427749942
 30
0.0
  0
VERTEX
  5
7CF
330
7CD
100
AcDbEntity
  8
BEMAßUNG
 62
     7
100
AcDbVertex
100
AcDb2dVertex
 10
69.74871417527116
 20
167.1029784738493
 30
0.0
  0
SEQEND
  5
7D0
330
7CD
100
AcDbEntity
  8
BEMAßUNG
  0
POLYLINE
  5
7D1
330
1F
100
AcDbEntity
  8
BEMAßUNG
 62
     7
100
AcDb2dPolyline
 66
     1
 10
0.0
 20
0.0
 30
0.0
  0
VERTEX
  5
7D2
330
7D1
100
AcDbEntity
  8
BEMAßUNG
 62
     7
100
AcDbVertex
100
AcDb2dVertex
 10
69.39318032119337
 20
167.3630831829856
 30
0.0
  0
VERTEX
  5
7D3
330
7D1
100
AcDbEntity
  8
BEMAßUNG
 62
     7
100
AcDbVertex
100
AcDb2dVertex
 10
69.89375269520018
 20
166.9455376101733
 30
0.0
  0
SEQEND
  5
7D4
330
7D1
100
AcDbEntity
  8
BEMAßUNG
  0
POLYLINE
  5
7D5
330
1F
100
AcDbEntity
  8
BEMAßUNG
 62
     7
100
AcDb2dPolyline
 66
     1
 10
0.0
 20
0.0
 30
0.0
  0
VERTEX
  5
7D6
330
7D5
100
AcDbEntity
  8
BEMAßUNG
 62
     7
100
AcDbVertex
100
AcDb2dVertex
 10
69.3756103342186
 20
167.3417235909771
 30
0.0
  0
VERTEX
  5
7D7
330
7D5
100
AcDbEntity
  8
BEMAßUNG
 62
     7
100
AcDbVertex
100
AcDb2dVertex
 10
70.0387912151292
 20
166.788441256046
 30
0.0
  0
SEQEND
  5
7D8
330
7D5
100
AcDbEntity
  8
BEMAßUNG
  0
POLYLINE
  5
7D9
330
1F
100
AcDbEntity
  8
BEMAßUNG
 62
     7
100
AcDb2dPolyline
 66
     1
 10
0.0
 20
0.0
 30
0.0
  0
VERTEX
  5
7DA
330
7D9
100
AcDbEntity
  8
BEMAßUNG
 62
     7
100
AcDbVertex
100
AcDb2dVertex
 10
69.3576958376953
 20
167.32001948942
 30
0.0
  0
VERTEX
  5
7DB
330
7D9
100
AcDbEntity
  8
BEMAßUNG
 62
     7
100
AcDbVertex
100
AcDb2dVertex
 10
70.18417424460674
 20
166.63100039237
 30
0.0
  0
SEQEND
  5
7DC
330
7D9
100
AcDbEntity
  8
BEMAßUNG
  0
POLYLINE
  5
7DD
330
1F
100
AcDbEntity
  8
BEMAßUNG
 62
     7
100
AcDb2dPolyline
 66
     1
 10
0.0
 20
0.0
 30
0.0
  0
VERTEX
  5
7DE
330
7DD
100
AcDbEntity
  8
BEMAßUNG
 62
     7
100
AcDbVertex
100
AcDb2dVertex
 10
69.339781341172
 20
167.2986598974115
 30
0.0
  0
VERTEX
  5
7DF
330
7DD
100
AcDbEntity
  8
BEMAßUNG
 62
     7
100
AcDbVertex
100
AcDb2dVertex
 10
70.3290405097615
 20
166.4735595286941
 30
0.0
  0
SEQEND
  5
7E0
330
7DD
100
AcDbEntity
  8
BEMAßUNG
  0
POLYLINE
  5
7E1
330
1F
100
AcDbEntity
  8
BEMAßUNG
 62
     7
100
AcDb2dPolyline
 66
     1
 10
0.0
 20
0.0
 30
0.0
  0
VERTEX
  5
7E2
330
7E1
100
AcDbEntity
  8
BEMAßUNG
 62
     7
100
AcDbVertex
100
AcDb2dVertex
 10
69.32169458987444
 20
167.2773003054029
 30
0.0
  0
VERTEX
  5
7E3
330
7E1
100
AcDbEntity
  8
BEMAßUNG
 62
     7
100
AcDbVertex
100
AcDb2dVertex
 10
70.47442353923904
 20
166.3164631745667
 30
0.0
  0
SEQEND
  5
7E4
330
7E1
100
AcDbEntity
  8
BEMAßUNG
  0
POLYLINE
  5
7E5
330
1F
100
AcDbEntity
  8
BEMAßUNG
 62
     7
100
AcDb2dPolyline
 66
     1
 10
0.0
 20
0.0
 30
0.0
  0
VERTEX
  5
7E6
330
7E5
100
AcDbEntity
  8
BEMAßUNG
 62
     7
100
AcDbVertex
100
AcDb2dVertex
 10
69.30378009335114
 20
167.2555962038458
 30
0.0
  0
VERTEX
  5
7E7
330
7E5
100
AcDbEntity
  8
BEMAßUNG
 62
     7
100
AcDbVertex
100
AcDb2dVertex
 10
70.61928980439379
 20
166.1590223108908
 30
0.0
  0
SEQEND
  5
7E8
330
7E5
100
AcDbEntity
  8
BEMAßUNG
  0
POLYLINE
  5
7E9
330
1F
100
AcDbEntity
  8
BEMAßUNG
 62
     7
100
AcDb2dPolyline
 66
     1
 10
0.0
 20
0.0
 30
0.0
  0
VERTEX
  5
7EA
330
7E9
100
AcDbEntity
  8
BEMAßUNG
 62
     7
100
AcDbVertex
100
AcDb2dVertex
 10
69.2860378516021
 20
167.2342366118373
 30
0.0
  0
VERTEX
  5
7EB
330
7E9
100
AcDbEntity
  8
BEMAßUNG
 62
     7
100
AcDbVertex
100
AcDb2dVertex
 10
70.76450057909707
 20
166.0012369376664
 30
0.0
  0
SEQEND
  5
7EC
330
7E9
100
AcDbEntity
  8
BEMAßUNG
  0
POLYLINE
  5
7ED
330
1F
100
AcDbEntity
  8
BEMAßUNG
 62
     7
100
AcDb2dPolyline
 66
     1
 10
0.0
 20
0.0
 30
0.0
  0
VERTEX
  5
7EE
330
7ED
100
AcDbEntity
  8
BEMAßUNG
 62
     7
100
AcDbVertex
100
AcDb2dVertex
 10
69.12480738289241
 20
167.0413112646633
 30
0.0
  0
VERTEX
  5
7EF
330
7ED
100
AcDbEntity
  8
BEMAßUNG
 62
     7
100
AcDbVertex
100
AcDb2dVertex
 10
69.13652070754226
 20
167.0313204877561
 30
0.0
  0
SEQEND
  5
7F0
330
7ED
100
AcDbEntity
  8
BEMAßUNG
  0
POLYLINE
  5
7F1
330
1F
100
AcDbEntity
  8
BEMAßUNG
 62
     7
100
AcDb2dPolyline
 66
     1
 10
0.0
 20
0.0
 30
0.0
  0
VERTEX
  5
7F2
330
7F1
100
AcDbEntity
  8
BEMAßUNG
 62
     7
100
AcDbVertex
100
AcDb2dVertex
 10
69.12480738289241
 20
167.0413112646633
 30
0.0
  0
VERTEX
  5
7F3
330
7F1
100
AcDbEntity
  8
BEMAßUNG
 62
     7
100
AcDbVertex
100
AcDb2dVertex
 10
69.13652070754226
 20
167.0313204877561
 30
0.0
  0
SEQEND
  5
7F4
330
7F1
100
AcDbEntity
  8
BEMAßUNG
  0
POLYLINE
  5
7F5
330
1F
100
AcDbEntity
  8
BEMAßUNG
 62
     7
100
AcDb2dPolyline
 66
     1
 10
0.0
 20
0.0
 30
0.0
  0
VERTEX
  5
7F6
330
7F5
100
AcDbEntity
  8
BEMAßUNG
 62
     7
100
AcDbVertex
100
AcDb2dVertex
 10
69.14289413418997
 20
167.0623263471233
 30
0.0
  0
VERTEX
  5
7F7
330
7F5
100
AcDbEntity
  8
BEMAßUNG
 62
     7
100
AcDbVertex
100
AcDb2dVertex
 10
69.31738822051788
 20
166.9172878271943
 30
0.0
  0
SEQEND
  5
7F8
330
7F5
100
AcDbEntity
  8
BEMAßUNG
  0
POLYLINE
  5
7F9
330
1F
100
AcDbEntity
  8
BEMAßUNG
 62
     7
100
AcDb2dPolyline
 66
     1
 10
0.0
 20
0.0
 30
0.0
  0
VERTEX
  5
7FA
330
7F9
100
AcDbEntity
  8
BEMAßUNG
 62
     7
100
AcDbVertex
100
AcDb2dVertex
 10
69.16080863071328
 20
167.0840304486804
 30
0.0
  0
VERTEX
  5
7FB
330
7F9
100
AcDbEntity
  8
BEMAßUNG
 62
     7
100
AcDbVertex
100
AcDb2dVertex
 10
69.49842798826776
 20
166.8025661475355
 30
0.0
  0
SEQEND
  5
7FC
330
7F9
100
AcDbEntity
  8
BEMAßUNG
  0
POLYLINE
  5
7FD
330
1F
100
AcDbEntity
  8
BEMAßUNG
 62
     7
100
AcDb2dPolyline
 66
     1
 10
0.0
 20
0.0
 30
0.0
  0
VERTEX
  5
7FE
330
7FD
100
AcDbEntity
  8
BEMAßUNG
 62
     7
100
AcDbVertex
100
AcDb2dVertex
 10
69.17855087246231
 20
167.1057345502375
 30
0.0
  0
VERTEX
  5
7FF
330
7FD
100
AcDbEntity
  8
BEMAßUNG
 62
     7
100
AcDbVertex
100
AcDb2dVertex
 10
69.67912324646912
 20
166.6881889774252
 30
0.0
  0
SEQEND
  5
800
330
7FD
100
AcDbEntity
  8
BEMAßUNG
  0
POLYLINE
  5
801
330
1F
100
AcDbEntity
  8
BEMAßUNG
 62
     7
100
AcDb2dPolyline
 66
     1
 10
0.0
 20
0.0
 30
0.0
  0
VERTEX
  5
802
330
801
100
AcDbEntity
  8
BEMAßUNG
 62
     7
100
AcDbVertex
100
AcDb2dVertex
 10
69.19646536898561
 20
167.1267496326975
 30
0.0
  0
VERTEX
  5
803
330
801
100
AcDbEntity
  8
BEMAßUNG
 62
     7
100
AcDbVertex
100
AcDb2dVertex
 10
69.85999075944473
 20
166.5738118073149
 30
0.0
  0
SEQEND
  5
804
330
801
100
AcDbEntity
  8
BEMAßUNG
  0
POLYLINE
  5
805
330
1F
100
AcDbEntity
  8
BEMAßUNG
 62
     7
100
AcDb2dPolyline
 66
     1
 10
0.0
 20
0.0
 30
0.0
  0
VERTEX
  5
806
330
805
100
AcDbEntity
  8
BEMAßUNG
 62
     7
100
AcDbVertex
100
AcDb2dVertex
 10
69.2143798655089
 20
167.1484537342546
 30
0.0
  0
VERTEX
  5
807
330
805
100
AcDbEntity
  8
BEMAßUNG
 62
     7
100
AcDbVertex
100
AcDb2dVertex
 10
70.04085827242035
 20
166.4594346372046
 30
0.0
  0
SEQEND
  5
808
330
805
100
AcDbEntity
  8
BEMAßUNG
  0
POLYLINE
  5
809
330
1F
100
AcDbEntity
  8
BEMAßUNG
 62
     7
100
AcDb2dPolyline
 66
     1
 10
0.0
 20
0.0
 30
0.0
  0
VERTEX
  5
80A
330
809
100
AcDbEntity
  8
BEMAßUNG
 62
     7
100
AcDbVertex
100
AcDb2dVertex
 10
69.2322943620322
 20
167.1698133262631
 30
0.0
  0
VERTEX
  5
80B
330
809
100
AcDbEntity
  8
BEMAßUNG
 62
     7
100
AcDbVertex
100
AcDb2dVertex
 10
70.22172578539596
 20
166.3447129575458
 30
0.0
  0
SEQEND
  5
80C
330
809
100
AcDbEntity
  8
BEMAßUNG
  0
POLYLINE
  5
80D
330
1F
100
AcDbEntity
  8
BEMAßUNG
 62
     7
100
AcDb2dPolyline
 66
     1
 10
0.0
 20
0.0
 30
0.0
  0
VERTEX
  5
80E
330
80D
100
AcDbEntity
  8
BEMAßUNG
 62
     7
100
AcDbVertex
100
AcDb2dVertex
 10
69.25020885855551
 20
167.1911729182717
 30
0.0
  0
VERTEX
  5
80F
330
80D
100
AcDbEntity
  8
BEMAßUNG
 62
     7
100
AcDbVertex
100
AcDb2dVertex
 10
70.40259329837157
 20
166.230680296984
 30
0.0
  0
SEQEND
  5
810
330
80D
100
AcDbEntity
  8
BEMAßUNG
  0
POLYLINE
  5
811
330
1F
100
AcDbEntity
  8
BEMAßUNG
 62
     7
100
AcDb2dPolyline
 66
     1
 10
0.0
 20
0.0
 30
0.0
  0
VERTEX
  5
812
330
811
100
AcDbEntity
  8
BEMAßUNG
 62
     7
100
AcDbVertex
100
AcDb2dVertex
 10
69.2681233550788
 20
167.2128770198287
 30
0.0
  0
VERTEX
  5
813
330
811
100
AcDbEntity
  8
BEMAßUNG
 62
     7
100
AcDbVertex
100
AcDb2dVertex
 10
70.5834608113472
 20
166.1159586173252
 30
0.0
  0
SEQEND
  5
814
330
811
100
AcDbEntity
  8
BEMAßUNG
  0
POLYLINE
  5
815
330
1F
100
AcDbEntity
  8
BEMAßUNG
 62
     7
100
AcDb2dPolyline
 66
     1
 10
0.0
 20
0.0
 30
0.0
  0
VERTEX
  5
816
330
815
100
AcDbEntity
  8
BEMAßUNG
 62
     7
100
AcDbVertex
100
AcDb2dVertex
 10
69.2860378516021
 20
167.2342366118373
 30
0.0
  0
VERTEX
  5
817
330
815
100
AcDbEntity
  8
BEMAßUNG
 62
     7
100
AcDbVertex
100
AcDb2dVertex
 10
70.76450057909707
 20
166.0012369376664
 30
0.0
  0
SEQEND
  5
818
330
815
100
AcDbEntity
  8
BEMAßUNG
  0
POLYLINE
  5
819
330
1F
100
AcDbEntity
  8
BEMAßUNG
 62
     7
100
AcDb2dPolyline
 66
     1
 10
0.0
 20
0.0
 30
0.0
  0
VERTEX
  5
81A
330
819
100
AcDbEntity
  8
BEMAßUNG
 62
     7
100
AcDbVertex
100
AcDb2dVertex
 10
54.58547090649252
 20
179.4908528197106
 30
0.0
  0
VERTEX
  5
81B
330
819
100
AcDbEntity
  8
BEMAßUNG
 62
     7
100
AcDbVertex
100
AcDb2dVertex
 10
55.90184189140648
 20
178.0635497601716
 30
0.0
  0
VERTEX
  5
81C
330
819
100
AcDbEntity
  8
BEMAßUNG
 62
     7
100
AcDbVertex
100
AcDb2dVertex
 10
56.22636988611702
 20
178.4528455500049
 30
0.0
  0
VERTEX
  5
81D
330
819
100
AcDbEntity
  8
BEMAßUNG
 62
     7
100
AcDbVertex
100
AcDb2dVertex
 10
54.58547090649252
 20
179.4908528197106
 30
0.0
  0
SEQEND
  5
81E
330
819
100
AcDbEntity
  8
BEMAßUNG
  0
POLYLINE
  5
81F
330
1F
100
AcDbEntity
  8
BEMAßUNG
 62
     7
100
AcDb2dPolyline
 66
     1
 10
0.0
 20
0.0
 30
0.0
  0
VERTEX
  5
820
330
81F
100
AcDbEntity
  8
BEMAßUNG
 62
     7
100
AcDbVertex
100
AcDb2dVertex
 10
55.90287542005206
 20
178.0652723079143
 30
0.0
  0
VERTEX
  5
821
330
81F
100
AcDbEntity
  8
BEMAßUNG
 62
     7
100
AcDbVertex
100
AcDb2dVertex
 10
55.89150660495073
 20
178.0749185752729
 30
0.0
  0
SEQEND
  5
822
330
81F
100
AcDbEntity
  8
BEMAßUNG
  0
POLYLINE
  5
823
330
1F
100
AcDbEntity
  8
BEMAßUNG
 62
     7
100
AcDb2dPolyline
 66
     1
 10
0.0
 20
0.0
 30
0.0
  0
VERTEX
  5
824
330
823
100
AcDbEntity
  8
BEMAßUNG
 62
     7
100
AcDbVertex
100
AcDb2dVertex
 10
55.90287542005206
 20
178.0652723079143
 30
0.0
  0
VERTEX
  5
825
330
823
100
AcDbEntity
  8
BEMAßUNG
 62
     7
100
AcDbVertex
100
AcDb2dVertex
 10
55.89150660495073
 20
178.0749185752729
 30
0.0
  0
SEQEND
  5
826
330
823
100
AcDbEntity
  8
BEMAßUNG
  0
POLYLINE
  5
827
330
1F
100
AcDbEntity
  8
BEMAßUNG
 62
     7
100
AcDb2dPolyline
 66
     1
 10
0.0
 20
0.0
 30
0.0
  0
VERTEX
  5
828
330
827
100
AcDbEntity
  8
BEMAßUNG
 62
     7
100
AcDbVertex
100
AcDb2dVertex
 10
55.92078991657536
 20
178.0869764094713
 30
0.0
  0
VERTEX
  5
829
330
827
100
AcDbEntity
  8
BEMAßUNG
 62
     7
100
AcDbVertex
100
AcDb2dVertex
 10
55.74612357547319
 20
178.2323594389489
 30
0.0
  0
SEQEND
  5
82A
330
827
100
AcDbEntity
  8
BEMAßUNG
  0
POLYLINE
  5
82B
330
1F
100
AcDbEntity
  8
BEMAßUNG
 62
     7
100
AcDb2dPolyline
 66
     1
 10
0.0
 20
0.0
 30
0.0
  0
VERTEX
  5
82C
330
82B
100
AcDbEntity
  8
BEMAßUNG
 62
     7
100
AcDbVertex
100
AcDb2dVertex
 10
55.93870441309866
 20
178.1083360014799
 30
0.0
  0
VERTEX
  5
82D
330
82B
100
AcDbEntity
  8
BEMAßUNG
 62
     7
100
AcDbVertex
100
AcDb2dVertex
 10
55.6014295650927
 20
178.3894557930763
 30
0.0
  0
SEQEND
  5
82E
330
82B
100
AcDbEntity
  8
BEMAßUNG
  0
POLYLINE
  5
82F
330
1F
100
AcDbEntity
  8
BEMAßUNG
 62
     7
100
AcDb2dPolyline
 66
     1
 10
0.0
 20
0.0
 30
0.0
  0
VERTEX
  5
830
330
82F
100
AcDbEntity
  8
BEMAßUNG
 62
     7
100
AcDbVertex
100
AcDb2dVertex
 10
55.95661890962196
 20
178.1296955934884
 30
0.0
  0
VERTEX
  5
831
330
82F
100
AcDbEntity
  8
BEMAßUNG
 62
     7
100
AcDbVertex
100
AcDb2dVertex
 10
55.45604653561516
 20
178.5468966567522
 30
0.0
  0
SEQEND
  5
832
330
82F
100
AcDbEntity
  8
BEMAßUNG
  0
POLYLINE
  5
833
330
1F
100
AcDbEntity
  8
BEMAßUNG
 62
     7
100
AcDb2dPolyline
 66
     1
 10
0.0
 20
0.0
 30
0.0
  0
VERTEX
  5
834
330
833
100
AcDbEntity
  8
BEMAßUNG
 62
     7
100
AcDbVertex
100
AcDb2dVertex
 10
55.97453340614526
 20
178.1513996950455
 30
0.0
  0
VERTEX
  5
835
330
833
100
AcDbEntity
  8
BEMAßUNG
 62
     7
100
AcDbVertex
100
AcDb2dVertex
 10
55.3111802704604
 20
178.7043375204281
 30
0.0
  0
SEQEND
  5
836
330
833
100
AcDbEntity
  8
BEMAßUNG
  0
POLYLINE
  5
837
330
1F
100
AcDbEntity
  8
BEMAßUNG
 62
     7
100
AcDb2dPolyline
 66
     1
 10
0.0
 20
0.0
 30
0.0
  0
VERTEX
  5
838
330
837
100
AcDbEntity
  8
BEMAßUNG
 62
     7
100
AcDbVertex
100
AcDb2dVertex
 10
55.99244790266856
 20
178.172759287054
 30
0.0
  0
VERTEX
  5
839
330
837
100
AcDbEntity
  8
BEMAßUNG
 62
     7
100
AcDbVertex
100
AcDb2dVertex
 10
55.16579724098286
 20
178.861778384104
 30
0.0
  0
SEQEND
  5
83A
330
837
100
AcDbEntity
  8
BEMAßUNG
  0
POLYLINE
  5
83B
330
1F
100
AcDbEntity
  8
BEMAßUNG
 62
     7
100
AcDb2dPolyline
 66
     1
 10
0.0
 20
0.0
 30
0.0
  0
VERTEX
  5
83C
330
83B
100
AcDbEntity
  8
BEMAßUNG
 62
     7
100
AcDbVertex
100
AcDb2dVertex
 10
56.01036239919186
 20
178.1941188790626
 30
0.0
  0
VERTEX
  5
83D
330
83B
100
AcDbEntity
  8
BEMAßUNG
 62
     7
100
AcDbVertex
100
AcDb2dVertex
 10
55.0209309758281
 20
179.0188747382314
 30
0.0
  0
SEQEND
  5
83E
330
83B
100
AcDbEntity
  8
BEMAßUNG
  0
POLYLINE
  5
83F
330
1F
100
AcDbEntity
  8
BEMAßUNG
 62
     7
100
AcDb2dPolyline
 66
     1
 10
0.0
 20
0.0
 30
0.0
  0
VERTEX
  5
840
330
83F
100
AcDbEntity
  8
BEMAßUNG
 62
     7
100
AcDbVertex
100
AcDb2dVertex
 10
56.02793238616663
 20
178.2158229806197
 30
0.0
  0
VERTEX
  5
841
330
83F
100
AcDbEntity
  8
BEMAßUNG
 62
     7
100
AcDbVertex
100
AcDb2dVertex
 10
54.87572020112482
 20
179.1766601114558
 30
0.0
  0
SEQEND
  5
842
330
83F
100
AcDbEntity
  8
BEMAßUNG
  0
POLYLINE
  5
843
330
1F
100
AcDbEntity
  8
BEMAßUNG
 62
     7
100
AcDb2dPolyline
 66
     1
 10
0.0
 20
0.0
 30
0.0
  0
VERTEX
  5
844
330
843
100
AcDbEntity
  8
BEMAßUNG
 62
     7
100
AcDbVertex
100
AcDb2dVertex
 10
56.04601913746419
 20
178.2368380630797
 30
0.0
  0
VERTEX
  5
845
330
843
100
AcDbEntity
  8
BEMAßUNG
 62
     7
100
AcDbVertex
100
AcDb2dVertex
 10
54.73050942642154
 20
179.3341009751317
 30
0.0
  0
SEQEND
  5
846
330
843
100
AcDbEntity
  8
BEMAßUNG
  0
POLYLINE
  5
847
330
1F
100
AcDbEntity
  8
BEMAßUNG
 62
     7
100
AcDb2dPolyline
 66
     1
 10
0.0
 20
0.0
 30
0.0
  0
VERTEX
  5
848
330
847
100
AcDbEntity
  8
BEMAßUNG
 62
     7
100
AcDbVertex
100
AcDb2dVertex
 10
56.06410588876175
 20
178.2585421646368
 30
0.0
  0
VERTEX
  5
849
330
847
100
AcDbEntity
  8
BEMAßUNG
 62
     7
100
AcDbVertex
100
AcDb2dVertex
 10
54.58547090649252
 20
179.4908528197106
 30
0.0
  0
SEQEND
  5
84A
330
847
100
AcDbEntity
  8
BEMAßUNG
  0
POLYLINE
  5
84B
330
1F
100
AcDbEntity
  8
BEMAßUNG
 62
     7
100
AcDb2dPolyline
 66
     1
 10
0.0
 20
0.0
 30
0.0
  0
VERTEX
  5
84C
330
84B
100
AcDbEntity
  8
BEMAßUNG
 62
     7
100
AcDbVertex
100
AcDb2dVertex
 10
56.22481959314866
 20
178.4518120213593
 30
0.0
  0
VERTEX
  5
84D
330
84B
100
AcDbEntity
  8
BEMAßUNG
 62
     7
100
AcDbVertex
100
AcDb2dVertex
 10
56.21327852327307
 20
178.4611137791695
 30
0.0
  0
SEQEND
  5
84E
330
84B
100
AcDbEntity
  8
BEMAßUNG
  0
POLYLINE
  5
84F
330
1F
100
AcDbEntity
  8
BEMAßUNG
 62
     7
100
AcDb2dPolyline
 66
     1
 10
0.0
 20
0.0
 30
0.0
  0
VERTEX
  5
850
330
84F
100
AcDbEntity
  8
BEMAßUNG
 62
     7
100
AcDbVertex
100
AcDb2dVertex
 10
56.22481959314866
 20
178.4518120213593
 30
0.0
  0
VERTEX
  5
851
330
84F
100
AcDbEntity
  8
BEMAßUNG
 62
     7
100
AcDbVertex
100
AcDb2dVertex
 10
56.21327852327307
 20
178.4611137791695
 30
0.0
  0
SEQEND
  5
852
330
84F
100
AcDbEntity
  8
BEMAßUNG
  0
POLYLINE
  5
853
330
1F
100
AcDbEntity
  8
BEMAßUNG
 62
     7
100
AcDb2dPolyline
 66
     1
 10
0.0
 20
0.0
 30
0.0
  0
VERTEX
  5
854
330
853
100
AcDbEntity
  8
BEMAßUNG
 62
     7
100
AcDbVertex
100
AcDb2dVertex
 10
56.20690509662536
 20
178.4301079198022
 30
0.0
  0
VERTEX
  5
855
330
853
100
AcDbEntity
  8
BEMAßUNG
 62
     7
100
AcDbVertex
100
AcDb2dVertex
 10
56.03241101029746
 20
178.5758354588283
 30
0.0
  0
SEQEND
  5
856
330
853
100
AcDbEntity
  8
BEMAßUNG
  0
POLYLINE
  5
857
330
1F
100
AcDbEntity
  8
BEMAßUNG
 62
     7
100
AcDb2dPolyline
 66
     1
 10
0.0
 20
0.0
 30
0.0
  0
VERTEX
  5
858
330
857
100
AcDbEntity
  8
BEMAßUNG
 62
     7
100
AcDbVertex
100
AcDb2dVertex
 10
56.18916285487632
 20
178.4087483277937
 30
0.0
  0
VERTEX
  5
859
330
857
100
AcDbEntity
  8
BEMAßUNG
 62
     7
100
AcDbVertex
100
AcDb2dVertex
 10
55.85154349732184
 20
178.6902126289386
 30
0.0
  0
SEQEND
  5
85A
330
857
100
AcDbEntity
  8
BEMAßUNG
  0
POLYLINE
  5
85B
330
1F
100
AcDbEntity
  8
BEMAßUNG
 62
     7
100
AcDb2dPolyline
 66
     1
 10
0.0
 20
0.0
 30
0.0
  0
VERTEX
  5
85C
330
85B
100
AcDbEntity
  8
BEMAßUNG
 62
     7
100
AcDbVertex
100
AcDb2dVertex
 10
56.17159286790155
 20
178.3873887357851
 30
0.0
  0
VERTEX
  5
85D
330
85B
100
AcDbEntity
  8
BEMAßUNG
 62
     7
100
AcDbVertex
100
AcDb2dVertex
 10
55.67067598434623
 20
178.8042452895003
 30
0.0
  0
SEQEND
  5
85E
330
85B
100
AcDbEntity
  8
BEMAßUNG
  0
POLYLINE
  5
85F
330
1F
100
AcDbEntity
  8
BEMAßUNG
 62
     7
100
AcDb2dPolyline
 66
     1
 10
0.0
 20
0.0
 30
0.0
  0
VERTEX
  5
860
330
85F
100
AcDbEntity
  8
BEMAßUNG
 62
     7
100
AcDbVertex
100
AcDb2dVertex
 10
56.15367837137825
 20
178.365684634228
 30
0.0
  0
VERTEX
  5
861
330
85F
100
AcDbEntity
  8
BEMAßUNG
 62
     7
100
AcDbVertex
100
AcDb2dVertex
 10
55.48980847137061
 20
178.9189669691592
 30
0.0
  0
SEQEND
  5
862
330
85F
100
AcDbEntity
  8
BEMAßUNG
  0
POLYLINE
  5
863
330
1F
100
AcDbEntity
  8
BEMAßUNG
 62
     7
100
AcDb2dPolyline
 66
     1
 10
0.0
 20
0.0
 30
0.0
  0
VERTEX
  5
864
330
863
100
AcDbEntity
  8
BEMAßUNG
 62
     7
100
AcDbVertex
100
AcDb2dVertex
 10
56.13541936530643
 20
178.3443250422195
 30
0.0
  0
VERTEX
  5
865
330
863
100
AcDbEntity
  8
BEMAßUNG
 62
     7
100
AcDbVertex
100
AcDb2dVertex
 10
55.30928546794352
 20
179.0333441392694
 30
0.0
  0
SEQEND
  5
866
330
863
100
AcDbEntity
  8
BEMAßUNG
  0
POLYLINE
  5
867
330
1F
100
AcDbEntity
  8
BEMAßUNG
 62
     7
100
AcDb2dPolyline
 66
     1
 10
0.0
 20
0.0
 30
0.0
  0
VERTEX
  5
868
330
867
100
AcDbEntity
  8
BEMAßUNG
 62
     7
100
AcDbVertex
100
AcDb2dVertex
 10
56.11750486878313
 20
178.3229654502109
 30
0.0
  0
VERTEX
  5
869
330
867
100
AcDbEntity
  8
BEMAßUNG
 62
     7
100
AcDbVertex
100
AcDb2dVertex
 10
55.12807344541937
 20
179.1477213093797
 30
0.0
  0
SEQEND
  5
86A
330
867
100
AcDbEntity
  8
BEMAßUNG
  0
POLYLINE
  5
86B
330
1F
100
AcDbEntity
  8
BEMAßUNG
 62
     7
100
AcDb2dPolyline
 66
     1
 10
0.0
 20
0.0
 30
0.0
  0
VERTEX
  5
86C
330
86B
100
AcDbEntity
  8
BEMAßUNG
 62
     7
100
AcDbVertex
100
AcDb2dVertex
 10
56.09959037225983
 20
178.3012613486539
 30
0.0
  0
VERTEX
  5
86D
330
86B
100
AcDbEntity
  8
BEMAßUNG
 62
     7
100
AcDbVertex
100
AcDb2dVertex
 10
54.94737818721802
 20
179.26209847949
 30
0.0
  0
SEQEND
  5
86E
330
86B
100
AcDbEntity
  8
BEMAßUNG
  0
POLYLINE
  5
86F
330
1F
100
AcDbEntity
  8
BEMAßUNG
 62
     7
100
AcDb2dPolyline
 66
     1
 10
0.0
 20
0.0
 30
0.0
  0
VERTEX
  5
870
330
86F
100
AcDbEntity
  8
BEMAßUNG
 62
     7
100
AcDbVertex
100
AcDb2dVertex
 10
56.08167587573653
 20
178.2802462661938
 30
0.0
  0
VERTEX
  5
871
330
86F
100
AcDbEntity
  8
BEMAßUNG
 62
     7
100
AcDbVertex
100
AcDb2dVertex
 10
54.7665106742424
 20
179.3768201591488
 30
0.0
  0
SEQEND
  5
872
330
86F
100
AcDbEntity
  8
BEMAßUNG
  0
POLYLINE
  5
873
330
1F
100
AcDbEntity
  8
BEMAßUNG
 62
     7
100
AcDb2dPolyline
 66
     1
 10
0.0
 20
0.0
 30
0.0
  0
VERTEX
  5
874
330
873
100
AcDbEntity
  8
BEMAßUNG
 62
     7
100
AcDbVertex
100
AcDb2dVertex
 10
56.06410588876175
 20
178.2585421646368
 30
0.0
  0
VERTEX
  5
875
330
873
100
AcDbEntity
  8
BEMAßUNG
 62
     7
100
AcDbVertex
100
AcDb2dVertex
 10
54.58547090649252
 20
179.4908528197106
 30
0.0
  0
SEQEND
  5
876
330
873
100
AcDbEntity
  8
BEMAßUNG
  0
POLYLINE
  5
877
330
1F
100
AcDbEntity
  8
BEMAßUNG
 62
     7
100
AcDb2dPolyline
 66
     1
 10
0.0
 20
0.0
 30
0.0
  0
VERTEX
  5
878
330
877
100
AcDbEntity
  8
BEMAßUNG
 62
     7
100
AcDbVertex
100
AcDb2dVertex
 10
33.51612819257583
 20
192.0192870613702
 30
0.0
  0
VERTEX
  5
879
330
877
100
AcDbEntity
  8
BEMAßUNG
 62
     7
100
AcDbVertex
100
AcDb2dVertex
 10
30.76608072147515
 20
192.0192870613702
 30
0.0
  0
VERTEX
  5
87A
330
877
100
AcDbEntity
  8
BEMAßUNG
 62
     7
100
AcDbVertex
100
AcDb2dVertex
 10
22.11613497710985
 20
181.0928222203518
 30
0.0
  0
VERTEX
  5
87B
330
877
100
AcDbEntity
  8
BEMAßUNG
 62
     7
100
AcDbVertex
100
AcDb2dVertex
 10
23.50933159134489
 20
182.4450221983124
 30
0.0
  0
VERTEX
  5
87C
330
877
100
AcDbEntity
  8
BEMAßUNG
 62
     7
100
AcDbVertex
100
AcDb2dVertex
 10
23.11211208189559
 20
182.7595594161157
 30
0.0
  0
VERTEX
  5
87D
330
877
100
AcDbEntity
  8
BEMAßUNG
 62
     7
100
AcDbVertex
100
AcDb2dVertex
 10
22.11613497710985
 20
181.0928222203518
 30
0.0
  0
SEQEND
  5
87E
330
877
100
AcDbEntity
  8
BEMAßUNG
  0
POLYLINE
  5
87F
330
1F
100
AcDbEntity
  8
BEMAßUNG
 62
     7
100
AcDb2dPolyline
 66
     1
 10
0.0
 20
0.0
 30
0.0
  0
VERTEX
  5
880
330
87F
100
AcDbEntity
  8
BEMAßUNG
 62
     7
100
AcDbVertex
100
AcDb2dVertex
 10
23.50812580792505
 20
182.446055726958
 30
0.0
  0
VERTEX
  5
881
330
87F
100
AcDbEntity
  8
BEMAßUNG
 62
     7
100
AcDbVertex
100
AcDb2dVertex
 10
23.49882405011488
 20
182.4339978927596
 30
0.0
  0
SEQEND
  5
882
330
87F
100
AcDbEntity
  8
BEMAßUNG
  0
POLYLINE
  5
883
330
1F
100
AcDbEntity
  8
BEMAßUNG
 62
     7
100
AcDb2dPolyline
 66
     1
 10
0.0
 20
0.0
 30
0.0
  0
VERTEX
  5
884
330
883
100
AcDbEntity
  8
BEMAßUNG
 62
     7
100
AcDbVertex
100
AcDb2dVertex
 10
23.50812580792505
 20
182.446055726958
 30
0.0
  0
VERTEX
  5
885
330
883
100
AcDbEntity
  8
BEMAßUNG
 62
     7
100
AcDbVertex
100
AcDb2dVertex
 10
23.49882405011488
 20
182.4339978927596
 30
0.0
  0
SEQEND
  5
886
330
883
100
AcDbEntity
  8
BEMAßUNG
  0
POLYLINE
  5
887
330
1F
100
AcDbEntity
  8
BEMAßUNG
 62
     7
100
AcDb2dPolyline
 66
     1
 10
0.0
 20
0.0
 30
0.0
  0
VERTEX
  5
888
330
887
100
AcDbEntity
  8
BEMAßUNG
 62
     7
100
AcDbVertex
100
AcDb2dVertex
 10
23.48624945159372
 20
182.4632812043842
 30
0.0
  0
VERTEX
  5
889
330
887
100
AcDbEntity
  8
BEMAßUNG
 62
     7
100
AcDbVertex
100
AcDb2dVertex
 10
23.34500053669847
 20
182.2851697677968
 30
0.0
  0
SEQEND
  5
88A
330
887
100
AcDbEntity
  8
BEMAßUNG
  0
POLYLINE
  5
88B
330
1F
100
AcDbEntity
  8
BEMAßUNG
 62
     7
100
AcDb2dPolyline
 66
     1
 10
0.0
 20
0.0
 30
0.0
  0
VERTEX
  5
88C
330
88B
100
AcDbEntity
  8
BEMAßUNG
 62
     7
100
AcDbVertex
100
AcDb2dVertex
 10
23.46420084048812
 20
182.480851191359
 30
0.0
  0
VERTEX
  5
88D
330
88B
100
AcDbEntity
  8
BEMAßUNG
 62
     7
100
AcDbVertex
100
AcDb2dVertex
 10
23.19152153283059
 20
182.136341642834
 30
0.0
  0
SEQEND
  5
88E
330
88B
100
AcDbEntity
  8
BEMAßUNG
  0
POLYLINE
  5
88F
330
1F
100
AcDbEntity
  8
BEMAßUNG
 62
     7
100
AcDb2dPolyline
 66
     1
 10
0.0
 20
0.0
 30
0.0
  0
VERTEX
  5
890
330
88F
100
AcDbEntity
  8
BEMAßUNG
 62
     7
100
AcDbVertex
100
AcDb2dVertex
 10
23.44249673893104
 20
182.4980766687852
 30
0.0
  0
VERTEX
  5
891
330
88F
100
AcDbEntity
  8
BEMAßUNG
 62
     7
100
AcDbVertex
100
AcDb2dVertex
 10
23.03804252896271
 20
181.9871690083227
 30
0.0
  0
SEQEND
  5
892
330
88F
100
AcDbEntity
  8
BEMAßUNG
  0
POLYLINE
  5
893
330
1F
100
AcDbEntity
  8
BEMAßUNG
 62
     7
100
AcDb2dPolyline
 66
     1
 10
0.0
 20
0.0
 30
0.0
  0
VERTEX
  5
894
330
893
100
AcDbEntity
  8
BEMAßUNG
 62
     7
100
AcDbVertex
100
AcDb2dVertex
 10
23.42044812782544
 20
182.5153021462115
 30
0.0
  0
VERTEX
  5
895
330
893
100
AcDbEntity
  8
BEMAßUNG
 62
     7
100
AcDbVertex
100
AcDb2dVertex
 10
22.88404676077204
 20
181.8379963738113
 30
0.0
  0
SEQEND
  5
896
330
893
100
AcDbEntity
  8
BEMAßUNG
  0
POLYLINE
  5
897
330
1F
100
AcDbEntity
  8
BEMAßUNG
 62
     7
100
AcDb2dPolyline
 66
     1
 10
0.0
 20
0.0
 30
0.0
  0
VERTEX
  5
898
330
897
100
AcDbEntity
  8
BEMAßUNG
 62
     7
100
AcDbVertex
100
AcDb2dVertex
 10
23.39839951671985
 20
182.5328721331862
 30
0.0
  0
VERTEX
  5
899
330
897
100
AcDbEntity
  8
BEMAßUNG
 62
     7
100
AcDbVertex
100
AcDb2dVertex
 10
22.73074001167843
 20
181.6888237393
 30
0.0
  0
SEQEND
  5
89A
330
897
100
AcDbEntity
  8
BEMAßUNG
  0
POLYLINE
  5
89B
330
1F
100
AcDbEntity
  8
BEMAßUNG
 62
     7
100
AcDb2dPolyline
 66
     1
 10
0.0
 20
0.0
 30
0.0
  0
VERTEX
  5
89C
330
89B
100
AcDbEntity
  8
BEMAßUNG
 62
     7
100
AcDbVertex
100
AcDb2dVertex
 10
23.37652316038851
 20
182.5500976106125
 30
0.0
  0
VERTEX
  5
89D
330
89B
100
AcDbEntity
  8
BEMAßUNG
 62
     7
100
AcDbVertex
100
AcDb2dVertex
 10
22.57674424348776
 20
181.5399956143372
 30
0.0
  0
SEQEND
  5
89E
330
89B
100
AcDbEntity
  8
BEMAßUNG
  0
POLYLINE
  5
89F
330
1F
100
AcDbEntity
  8
BEMAßUNG
 62
     7
100
AcDb2dPolyline
 66
     1
 10
0.0
 20
0.0
 30
0.0
  0
VERTEX
  5
8A0
330
89F
100
AcDbEntity
  8
BEMAßUNG
 62
     7
100
AcDbVertex
100
AcDb2dVertex
 10
23.35464680405717
 20
182.5673230880387
 30
0.0
  0
VERTEX
  5
8A1
330
89F
100
AcDbEntity
  8
BEMAßUNG
 62
     7
100
AcDbVertex
100
AcDb2dVertex
 10
22.42343749439414
 20
181.3911674893744
 30
0.0
  0
SEQEND
  5
8A2
330
89F
100
AcDbEntity
  8
BEMAßUNG
  0
POLYLINE
  5
8A3
330
1F
100
AcDbEntity
  8
BEMAßUNG
 62
     7
100
AcDb2dPolyline
 66
     1
 10
0.0
 20
0.0
 30
0.0
  0
VERTEX
  5
8A4
330
8A3
100
AcDbEntity
  8
BEMAßUNG
 62
     7
100
AcDbVertex
100
AcDb2dVertex
 10
23.33277044772584
 20
182.5848930750135
 30
0.0
  0
VERTEX
  5
8A5
330
8A3
100
AcDbEntity
  8
BEMAßUNG
 62
     7
100
AcDbVertex
100
AcDb2dVertex
 10
22.269786235752
 20
181.2419948548631
 30
0.0
  0
SEQEND
  5
8A6
330
8A3
100
AcDbEntity
  8
BEMAßUNG
  0
POLYLINE
  5
8A7
330
1F
100
AcDbEntity
  8
BEMAßUNG
 62
     7
100
AcDb2dPolyline
 66
     1
 10
0.0
 20
0.0
 30
0.0
  0
VERTEX
  5
8A8
330
8A7
100
AcDbEntity
  8
BEMAßUNG
 62
     7
100
AcDbVertex
100
AcDb2dVertex
 10
23.3108940913945
 20
182.6021185524397
 30
0.0
  0
VERTEX
  5
8A9
330
8A7
100
AcDbEntity
  8
BEMAßUNG
 62
     7
100
AcDbVertex
100
AcDb2dVertex
 10
22.11613497710985
 20
181.0928222203518
 30
0.0
  0
SEQEND
  5
8AA
330
8A7
100
AcDbEntity
  8
BEMAßUNG
  0
POLYLINE
  5
8AB
330
1F
100
AcDbEntity
  8
BEMAßUNG
 62
     7
100
AcDb2dPolyline
 66
     1
 10
0.0
 20
0.0
 30
0.0
  0
VERTEX
  5
8AC
330
8AB
100
AcDbEntity
  8
BEMAßUNG
 62
     7
100
AcDbVertex
100
AcDb2dVertex
 10
23.11366237486395
 20
182.7585258874701
 30
0.0
  0
VERTEX
  5
8AD
330
8AB
100
AcDbEntity
  8
BEMAßUNG
 62
     7
100
AcDbVertex
100
AcDb2dVertex
 10
23.10453287182803
 20
182.7464680532717
 30
0.0
  0
SEQEND
  5
8AE
330
8AB
100
AcDbEntity
  8
BEMAßUNG
  0
POLYLINE
  5
8AF
330
1F
100
AcDbEntity
  8
BEMAßUNG
 62
     7
100
AcDb2dPolyline
 66
     1
 10
0.0
 20
0.0
 30
0.0
  0
VERTEX
  5
8B0
330
8AF
100
AcDbEntity
  8
BEMAßUNG
 62
     7
100
AcDbVertex
100
AcDb2dVertex
 10
23.11366237486395
 20
182.7585258874701
 30
0.0
  0
VERTEX
  5
8B1
330
8AF
100
AcDbEntity
  8
BEMAßUNG
 62
     7
100
AcDbVertex
100
AcDb2dVertex
 10
23.10453287182803
 20
182.7464680532717
 30
0.0
  0
SEQEND
  5
8B2
330
8AF
100
AcDbEntity
  8
BEMAßUNG
  0
POLYLINE
  5
8B3
330
1F
100
AcDbEntity
  8
BEMAßUNG
 62
     7
100
AcDb2dPolyline
 66
     1
 10
0.0
 20
0.0
 30
0.0
  0
VERTEX
  5
8B4
330
8B3
100
AcDbEntity
  8
BEMAßUNG
 62
     7
100
AcDbVertex
100
AcDb2dVertex
 10
23.13553873119528
 20
182.7406113909468
 30
0.0
  0
VERTEX
  5
8B5
330
8B3
100
AcDbEntity
  8
BEMAßUNG
 62
     7
100
AcDbVertex
100
AcDb2dVertex
 10
22.99463432584857
 20
182.5624999543594
 30
0.0
  0
SEQEND
  5
8B6
330
8B3
100
AcDbEntity
  8
BEMAßUNG
  0
POLYLINE
  5
8B7
330
1F
100
AcDbEntity
  8
BEMAßUNG
 62
     7
100
AcDb2dPolyline
 66
     1
 10
0.0
 20
0.0
 30
0.0
  0
VERTEX
  5
8B8
330
8B7
100
AcDbEntity
  8
BEMAßUNG
 62
     7
100
AcDbVertex
100
AcDb2dVertex
 10
23.15758734230088
 20
182.7237304230691
 30
0.0
  0
VERTEX
  5
8B9
330
8B7
100
AcDbEntity
  8
BEMAßUNG
 62
     7
100
AcDbVertex
100
AcDb2dVertex
 10
22.88490803464336
 20
182.3788763649956
 30
0.0
  0
SEQEND
  5
8BA
330
8B7
100
AcDbEntity
  8
BEMAßUNG
  0
POLYLINE
  5
8BB
330
1F
100
AcDbEntity
  8
BEMAßUNG
 62
     7
100
AcDb2dPolyline
 66
     1
 10
0.0
 20
0.0
 30
0.0
  0
VERTEX
  5
8BC
330
8BB
100
AcDbEntity
  8
BEMAßUNG
 62
     7
100
AcDbVertex
100
AcDb2dVertex
 10
23.17963595340648
 20
182.7061604360943
 30
0.0
  0
VERTEX
  5
8BD
330
8BB
100
AcDbEntity
  8
BEMAßUNG
 62
     7
100
AcDbVertex
100
AcDb2dVertex
 10
22.77483723388962
 20
182.1952527756318
 30
0.0
  0
SEQEND
  5
8BE
330
8BB
100
AcDbEntity
  8
BEMAßUNG
  0
POLYLINE
  5
8BF
330
1F
100
AcDbEntity
  8
BEMAßUNG
 62
     7
100
AcDb2dPolyline
 66
     1
 10
0.0
 20
0.0
 30
0.0
  0
VERTEX
  5
8C0
330
8BF
100
AcDbEntity
  8
BEMAßUNG
 62
     7
100
AcDbVertex
100
AcDb2dVertex
 10
23.20116780018929
 20
182.6885904491195
 30
0.0
  0
VERTEX
  5
8C1
330
8BF
100
AcDbEntity
  8
BEMAßUNG
 62
     7
100
AcDbVertex
100
AcDb2dVertex
 10
22.66528319745868
 20
182.0112846767194
 30
0.0
  0
SEQEND
  5
8C2
330
8BF
100
AcDbEntity
  8
BEMAßUNG
  0
POLYLINE
  5
8C3
330
1F
100
AcDbEntity
  8
BEMAßUNG
 62
     7
100
AcDb2dPolyline
 66
     1
 10
0.0
 20
0.0
 30
0.0
  0
VERTEX
  5
8C4
330
8C3
100
AcDbEntity
  8
BEMAßUNG
 62
     7
100
AcDbVertex
100
AcDb2dVertex
 10
23.22304415652063
 20
182.6717094812418
 30
0.0
  0
VERTEX
  5
8C5
330
8C3
100
AcDbEntity
  8
BEMAßUNG
 62
     7
100
AcDbVertex
100
AcDb2dVertex
 10
22.55521239670495
 20
181.8276610873556
 30
0.0
  0
SEQEND
  5
8C6
330
8C3
100
AcDbEntity
  8
BEMAßUNG
  0
POLYLINE
  5
8C7
330
1F
100
AcDbEntity
  8
BEMAßUNG
 62
     7
100
AcDb2dPolyline
 66
     1
 10
0.0
 20
0.0
 30
0.0
  0
VERTEX
  5
8C8
330
8C7
100
AcDbEntity
  8
BEMAßUNG
 62
     7
100
AcDbVertex
100
AcDb2dVertex
 10
23.24509276762623
 20
182.654139494267
 30
0.0
  0
VERTEX
  5
8C9
330
8C7
100
AcDbEntity
  8
BEMAßUNG
 62
     7
100
AcDbVertex
100
AcDb2dVertex
 10
22.44548610549974
 20
181.6440374979918
 30
0.0
  0
SEQEND
  5
8CA
330
8C7
100
AcDbEntity
  8
BEMAßUNG
  0
POLYLINE
  5
8CB
330
1F
100
AcDbEntity
  8
BEMAßUNG
 62
     7
100
AcDb2dPolyline
 66
     1
 10
0.0
 20
0.0
 30
0.0
  0
VERTEX
  5
8CC
330
8CB
100
AcDbEntity
  8
BEMAßUNG
 62
     7
100
AcDbVertex
100
AcDb2dVertex
 10
23.2667968691833
 20
182.6369140168408
 30
0.0
  0
VERTEX
  5
8CD
330
8CB
100
AcDbEntity
  8
BEMAßUNG
 62
     7
100
AcDbVertex
100
AcDb2dVertex
 10
22.33558755952027
 20
181.4600693990794
 30
0.0
  0
SEQEND
  5
8CE
330
8CB
100
AcDbEntity
  8
BEMAßUNG
  0
POLYLINE
  5
8CF
330
1F
100
AcDbEntity
  8
BEMAßUNG
 62
     7
100
AcDb2dPolyline
 66
     1
 10
0.0
 20
0.0
 30
0.0
  0
VERTEX
  5
8D0
330
8CF
100
AcDbEntity
  8
BEMAßUNG
 62
     7
100
AcDbVertex
100
AcDb2dVertex
 10
23.2888454802889
 20
182.619344029866
 30
0.0
  0
VERTEX
  5
8D1
330
8CF
100
AcDbEntity
  8
BEMAßUNG
 62
     7
100
AcDbVertex
100
AcDb2dVertex
 10
22.22603352308933
 20
181.2764458097156
 30
0.0
  0
SEQEND
  5
8D2
330
8CF
100
AcDbEntity
  8
BEMAßUNG
  0
POLYLINE
  5
8D3
330
1F
100
AcDbEntity
  8
BEMAßUNG
 62
     7
100
AcDb2dPolyline
 66
     1
 10
0.0
 20
0.0
 30
0.0
  0
VERTEX
  5
8D4
330
8D3
100
AcDbEntity
  8
BEMAßUNG
 62
     7
100
AcDbVertex
100
AcDb2dVertex
 10
23.3108940913945
 20
182.6021185524397
 30
0.0
  0
VERTEX
  5
8D5
330
8D3
100
AcDbEntity
  8
BEMAßUNG
 62
     7
100
AcDbVertex
100
AcDb2dVertex
 10
22.11613497710985
 20
181.0928222203518
 30
0.0
  0
SEQEND
  5
8D6
330
8D3
100
AcDbEntity
  8
BEMAßUNG
  0
POLYLINE
  5
8D7
330
1F
100
AcDbEntity
  8
BEMAßUNG
 62
     7
100
AcDb2dPolyline
 66
     1
 10
0.0
 20
0.0
 30
0.0
  0
VERTEX
  5
8D8
330
8D7
100
AcDbEntity
  8
BEMAßUNG
 62
     7
100
AcDbVertex
100
AcDb2dVertex
 10
33.51612819257583
 20
192.0192870613702
 30
0.0
  0
VERTEX
  5
8D9
330
8D7
100
AcDbEntity
  8
BEMAßUNG
 62
     7
100
AcDbVertex
100
AcDb2dVertex
 10
47.82257621417283
 20
192.0192870613702
 30
0.0
  0
SEQEND
  5
8DA
330
8D7
100
AcDbEntity
  8
BEMAßUNG
  0
MTEXT
  5
8DC
330
1F
100
AcDbEntity
  8
TEXT
 62
     7
100
AcDbMText
 10
34.58875867190837
 20
172.8187363934273
 30
0.0
 40
2.398888888289167
 41
0.0
 71
     7
 72
     1
  1
\fINDEX Univers 45 Light|b0|i0|c0|p34;\W1;ø32
 11
-4.371139000186241E-8
 21
0.999999999999999
 31
0.0
  0
MTEXT
  5
8DD
330
1F
100
AcDbEntity
  8
TEXT
 62
     7
100
AcDbMText
 10
-1.38596191371601
 20
156.4912231054084
 30
0.0
 40
2.398890032168527
 41
0.0
 71
     7
 72
     1
  1
\fINDEX Univers 45 Light|b0|i0|c0|p34;\W0.999997;93°
 11
0.6882620509718327
 21
0.7254621624813015
 31
0.0
  0
MTEXT
  5
8DE
330
1F
100
AcDbEntity
  8
TEXT
 62
     7
100
AcDbMText
 10
4.14686143559523
 20
149.6966335346245
 30
0.0
 40
2.398888888289167
 41
0.0
 71
     7
 72
     1
  1
\fINDEX Univers 45 Light|b0|i0|c0|p34;\W1;40
  0
MTEXT
  5
8DF
330
1F
100
AcDbEntity
  8
TEXT
 62
     7
100
AcDbMText
 10
31.21669921094583
 20
192.7834092399986
 30
0.0
 40
2.398888888289167
 41
0.0
 71
     7
 72
     1
  1
\fINDEX Univers 45 Light|b0|i0|c0|p34;\W1;CAPTO C3
  0
MTEXT
  5
8E0
330
1F
100
AcDbEntity
  8
TEXT
 62
     7
100
AcDbMText
 10
-11.63804931349674
 20
167.6097520197295
 30
0.0
 40
2.398888888289167
 41
0.0
 71
     7
 72
     1
  1
\fINDEX Univers 45 Light|b0|i0|c0|p34;\W1;22
 11
-4.371139000186241E-8
 21
0.999999999999999
 31
0.0
  0
MTEXT
  5
8E1
330
1F
100
AcDbEntity
  8
TEXT
 62
     7
100
AcDbMText
 10
72.02885062218377
 20
165.907185830919
 30
0.0
 40
2.398879966030156
 41
0.0
 71
     7
 72
     1
  1
\fINDEX Univers 45 Light|b0|i0|c0|p34;\W1;ø38,3
 11
0.7681181308132842
 21
-0.640308157933277
 31
0.0
  0
ENDSEC
  0
SECTION
  2
OBJECTS
  0
DICTIONARY
  5
C
330
0
100
AcDbDictionary
  3
ACAD_GROUP
350
D
  3
ACAD_LAYOUT
350
1A
  3
ACAD_MLINESTYLE
350
17
  3
ACAD_PLOTSETTINGS
350
19
  3
ACAD_TABLESTYLE
350
902
  3
ACAD_VISUALSTYLE
350
2A
  3
ACDBHEADERROUNDTRIPXREC
350
8E2
  0
DICTIONARY
  5
D
102
{ACAD_REACTORS
330
C
102
}
330
C
100
AcDbDictionary
  0
DICTIONARY
  5
1A
102
{ACAD_REACTORS
330
C
102
}
330
C
100
AcDbDictionary
  0
DICTIONARY
  5
17
102
{ACAD_REACTORS
330
C
102
}
330
C
100
AcDbDictionary
  3
STANDARD
350
18
  0
DICTIONARY
  5
19
102
{ACAD_REACTORS
330
C
102
}
330
C
100
AcDbDictionary
  0
DICTIONARY
  5
902
102
{ACAD_REACTORS
330
C
102
}
330
C
100
AcDbDictionary
  0
DICTIONARY
  5
2A
102
{ACAD_REACTORS
330
C
102
}
330
C
100
AcDbDictionary
  3
2DWIREFRAME
350
2F
  3
3D_HIDDEN
350
31
  3
3DWIREFRAME
350
30
  3
BASIC
350
32
  3
BRIGHTEN
350
36
  3
COLORCHANGE
350
3A
  3
CONCEPTUAL
350
34
  3
DIM
350
35
  3
FACEPATTERN
350
39
  3
FLAT
350
2B
  3
FLATWITHEDGES
350
2C
  3
GOURAUD
350
2D
  3
GOURAUDWITHEDGES
350
2E
  3
LINEPATTERN
350
38
  3
REALISTIC
350
33
  3
THICKEN
350
37
  0
DICTIONARY
  5
8E2
102
{ACAD_REACTORS
330
C
102
}
330
C
100
AcDbDictionary
  3
CEPSNTYPE
350
8EB
  3
DIMSTYLEDATA
350
901
  3
FINGERPRINTGUID
350
8EC
  3
HYPERLINKBASE
350
8E5
  3
INSUNITS
350
8EA
  3
LAYOUTDICT
350
8E7
  3
LWETCUNION
350
8E9
  3
PLOTSETDICT
350
8E8
  3
PSVPSCALE
350
8EE
  3
PUCSBASE
350
8F1
  3
PUCSORGBACK
350
8F7
  3
PUCSORGBOTTOM
350
8F3
  3
PUCSORGFRONT
350
8F6
  3
PUCSORGLEFT
350
8F4
  3
PUCSORGRIGHT
350
8F5
  3
PUCSORGTOP
350
8F2
  3
PUCSORTHOREF
350
8EF
  3
PUCSORTHOVIEW
350
8F0
  3
STYLESHEET
350
8E6
  3
TSTACKALIGN
350
8E3
  3
TSTACKSIZE
350
8E4
  3
UCSBASE
350
8FA
  3
UCSORGBACK
350
900
  3
UCSORGBOTTOM
350
8FC
  3
UCSORGFRONT
350
8FF
  3
UCSORGLEFT
350
8FD
  3
UCSORGRIGHT
350
8FE
  3
UCSORGTOP
350
8FB
  3
UCSORTHOREF
350
8F8
  3
UCSORTHOVIEW
350
8F9
  3
VERSIONGUID
350
8ED
  0
MLINESTYLE
  5
18
102
{ACAD_REACTORS
330
17
102
}
330
17
100
AcDbMlineStyle
  2
Standard
 70
     0
  3

 62
   256
 51
90.0
 52
90.0
 71
     2
 49
0.5
 62
   256
  6
BYLAYER
 49
-0.5
 62
   256
  6
BYLAYER
  0
VISUALSTYLE
  5
2F
102
{ACAD_REACTORS
330
2A
102
}
330
2A
100
AcDbVisualStyle
  2
2dWireframe
 70
     4
 71
     0
 72
     2
 73
     0
 90
        0
 40
-0.6
 41
-30.0
 62
     5
 63
     7
 74
     1
 91
        4
 64
     7
 65
   257
 75
     1
175
     1
 42
1.0
 92
        0
 66
   257
 43
1.0
 76
     1
 77
     6
 78
     2
 67
     7
 79
     5
170
     0
171
     0
290
     0
174
     0
 93
        1
 44
0.0
173
     0
291
     0
 45
0.0
1001
ACAD
1000
AcDbSavedByObjectVersion
1070
     0
  0
VISUALSTYLE
  5
31
102
{ACAD_REACTORS
330
2A
102
}
330
2A
100
AcDbVisualStyle
  2
3D Hidden
 70
     6
 71
     1
 72
     2
 73
     2
 90
        0
 40
-0.6
 41
-30.0
 62
     5
 63
     7
 74
     2
 91
        2
 64
     7
 65
   257
 75
     2
175
     1
 42
40.0
 92
        0
 66
   257
 43
1.0
 76
     1
 77
     6
 78
     2
 67
     7
 79
     3
170
     0
171
     0
290
     0
174
     0
 93
        1
 44
0.0
173
     0
291
     0
 45
0.0
1001
ACAD
1000
AcDbSavedByObjectVersion
1070
     0
  0
VISUALSTYLE
  5
30
102
{ACAD_REACTORS
330
2A
102
}
330
2A
100
AcDbVisualStyle
  2
3dWireframe
 70
     5
 71
     0
 72
     2
 73
     0
 90
        0
 40
-0.6
 41
-30.0
 62
     5
 63
     7
 74
     1
 91
        4
 64
     7
 65
   257
 75
     1
175
     1
 42
1.0
 92
        0
 66
   257
 43
1.0
 76
     1
 77
     6
 78
     2
 67
     7
 79
     5
170
     0
171
     0
290
     0
174
     0
 93
        1
 44
0.0
173
     0
291
     0
 45
0.0
1001
ACAD
1000
AcDbSavedByObjectVersion
1070
     0
  0
VISUALSTYLE
  5
32
102
{ACAD_REACTORS
330
2A
102
}
330
2A
100
AcDbVisualStyle
  2
Basic
 70
     7
 71
     1
 72
     0
 73
     1
 90
        0
 40
-0.6
 41
-30.0
 62
     5
 63
     7
 74
     0
 91
        4
 64
     7
 65
   257
 75
     1
175
     1
 42
1.0
 92
        8
 66
     7
 43
1.0
 76
     1
 77
     6
 78
     2
 67
     7
 79
     5
170
     0
171
     0
290
     0
174
     0
 93
        1
 44
0.0
173
     0
291
     1
 45
0.0
1001
ACAD
1000
AcDbSavedByObjectVersion
1070
     0
  0
VISUALSTYLE
  5
36
102
{ACAD_REACTORS
330
2A
102
}
330
2A
100
AcDbVisualStyle
  2
Brighten
 70
    12
 71
     2
 72
     2
 73
     0
 90
        0
 40
-0.6
 41
-30.0
 62
     5
 63
     7
 74
     1
 91
        4
 64
     7
 65
   257
 75
     1
175
     1
 42
1.0
 92
        8
 66
     7
 43
1.0
 76
     1
 77
     6
 78
     2
 67
     7
 79
     5
170
     0
171
     0
290
     0
174
     0
 93
        1
 44
50.0
173
     0
291
     1
 45
0.0
1001
ACAD
1000
AcDbSavedByObjectVersion
1070
     0
  0
VISUALSTYLE
  5
3A
102
{ACAD_REACTORS
330
2A
102
}
330
2A
100
AcDbVisualStyle
  2
ColorChange
 70
    16
 71
     2
 72
     2
 73
     3
 90
        0
 40
-0.6
 41
-30.0
 62
     5
 63
     8
 74
     1
 91
        4
 64
     7
 65
   257
 75
     1
175
     1
 42
1.0
 92
        8
 66
     8
 43
1.0
 76
     1
 77
     6
 78
     2
 67
     7
 79
     5
170
     0
171
     0
290
     0
174
     0
 93
        1
 44
0.0
173
     0
291
     1
 45
0.0
1001
ACAD
1000
AcDbSavedByObjectVersion
1070
     0
  0
VISUALSTYLE
  5
34
102
{ACAD_REACTORS
330
2A
102
}
330
2A
100
AcDbVisualStyle
  2
Conceptual
 70
     9
 71
     3
 72
     2
 73
     0
 90
        0
 40
-0.6
 41
-30.0
 62
     5
 63
     7
 74
     2
 91
        2
 64
     7
 65
   257
 75
     1
175
     1
 42
40.0
 92
        8
 66
     7
 43
1.0
 76
     1
 77
     6
 78
     2
 67
     7
 79
     3
170
     0
171
     0
290
     0
174
     0
 93
        1
 44
0.0
173
     0
291
     0
 45
0.0
1001
ACAD
1000
AcDbSavedByObjectVersion
1070
     0
  0
VISUALSTYLE
  5
35
102
{ACAD_REACTORS
330
2A
102
}
330
2A
100
AcDbVisualStyle
  2
Dim
 70
    11
 71
     2
 72
     2
 73
     0
 90
        0
 40
-0.6
 41
-30.0
 62
     5
 63
     7
 74
     1
 91
        4
 64
     7
 65
   257
 75
     1
175
     1
 42
1.0
 92
        8
 66
     7
 43
1.0
 76
     1
 77
     6
 78
     2
 67
     7
 79
     5
170
     0
171
     0
290
     0
174
     0
 93
        1
 44
-50.0
173
     0
291
     1
 45
0.0
1001
ACAD
1000
AcDbSavedByObjectVersion
1070
     0
  0
VISUALSTYLE
  5
39
102
{ACAD_REACTORS
330
2A
102
}
330
2A
100
AcDbVisualStyle
  2
Facepattern
 70
    15
 71
     2
 72
     2
 73
     0
 90
        0
 40
-0.6
 41
-30.0
 62
     5
 63
     7
 74
     1
 91
        4
 64
     7
 65
   257
 75
     1
175
     1
 42
1.0
 92
        8
 66
     7
 43
1.0
 76
     1
 77
     6
 78
     2
 67
     7
 79
     5
170
     0
171
     0
290
     0
174
     0
 93
        1
 44
0.0
173
     0
291
     1
 45
0.0
1001
ACAD
1000
AcDbSavedByObjectVersion
1070
     0
  0
VISUALSTYLE
  5
2B
102
{ACAD_REACTORS
330
2A
102
}
330
2A
100
AcDbVisualStyle
  2
Flat
 70
     0
 71
     2
 72
     1
 73
     1
 90
        2
 40
-0.6
 41
30.0
 62
     5
 63
     7
 74
     0
 91
        4
 64
     7
 65
   257
 75
     1
175
     1
 42
1.0
 92
        8
 66
     7
 43
1.0
 76
     1
 77
     6
 78
     2
 67
     7
 79
     5
170
     0
171
     0
290
     0
174
     0
 93
       13
 44
0.0
173
     0
291
     1
 45
0.0
1001
ACAD
1000
AcDbSavedByObjectVersion
1070
     0
  0
VISUALSTYLE
  5
2C
102
{ACAD_REACTORS
330
2A
102
}
330
2A
100
AcDbVisualStyle
  2
FlatWithEdges
 70
     1
 71
     2
 72
     1
 73
     1
 90
        2
 40
-0.6
 41
30.0
 62
     5
 63
     7
 74
     1
 91
        4
 64
     7
 65
   257
 75
     1
175
     1
 42
1.0
 92
        0
 66
   257
 43
1.0
 76
     1
 77
     6
 78
     2
 67
     7
 79
     5
170
     0
171
     0
290
     0
174
     0
 93
       13
 44
0.0
173
     0
291
     1
 45
0.0
1001
ACAD
1000
AcDbSavedByObjectVersion
1070
     0
  0
VISUALSTYLE
  5
2D
102
{ACAD_REACTORS
330
2A
102
}
330
2A
100
AcDbVisualStyle
  2
Gouraud
 70
     2
 71
     2
 72
     2
 73
     1
 90
        2
 40
-0.6
 41
30.0
 62
     5
 63
     7
 74
     0
 91
        4
 64
     7
 65
   257
 75
     1
175
     1
 42
1.0
 92
        0
 66
     7
 43
1.0
 76
     1
 77
     6
 78
     2
 67
     7
 79
     5
170
     0
171
     0
290
     0
174
     0
 93
       13
 44
0.0
173
     0
291
     1
 45
0.0
1001
ACAD
1000
AcDbSavedByObjectVersion
1070
     0
  0
VISUALSTYLE
  5
2E
102
{ACAD_REACTORS
330
2A
102
}
330
2A
100
AcDbVisualStyle
  2
GouraudWithEdges
 70
     3
 71
     2
 72
     2
 73
     1
 90
        2
 40
-0.6
 41
30.0
 62
     5
 63
     7
 74
     1
 91
        4
 64
     7
 65
   257
 75
     1
175
     1
 42
1.0
 92
        0
 66
   257
 43
1.0
 76
     1
 77
     6
 78
     2
 67
     7
 79
     5
170
     0
171
     0
290
     0
174
     0
 93
       13
 44
0.0
173
     0
291
     1
 45
0.0
1001
ACAD
1000
AcDbSavedByObjectVersion
1070
     0
  0
VISUALSTYLE
  5
38
102
{ACAD_REACTORS
330
2A
102
}
330
2A
100
AcDbVisualStyle
  2
Linepattern
 70
    14
 71
     2
 72
     2
 73
     0
 90
        0
 40
-0.6
 41
-30.0
 62
     5
 63
     7
 74
     1
 91
        4
 64
     7
 65
   257
 75
     7
175
     7
 42
1.0
 92
        8
 66
     7
 43
1.0
 76
     1
 77
     6
 78
     2
 67
     7
 79
     5
170
     0
171
     0
290
     0
174
     0
 93
        1
 44
0.0
173
     0
291
     1
 45
0.0
1001
ACAD
1000
AcDbSavedByObjectVersion
1070
     0
  0
VISUALSTYLE
  5
33
102
{ACAD_REACTORS
330
2A
102
}
330
2A
100
AcDbVisualStyle
  2
Realistic
 70
     8
 71
     2
 72
     2
 73
     0
 90
        0
 40
-0.6
 41
-30.0
 62
     5
 63
     7
 74
     1
 91
        0
 64
     7
 65
   257
 75
     1
175
     1
 42
1.0
 92
        8
 66
     8
 43
1.0
 76
     1
 77
     6
 78
     2
 67
     7
 79
     5
170
     0
171
     0
290
     0
174
     0
 93
       13
 44
0.0
173
     0
291
     0
 45
0.0
1001
ACAD
1000
AcDbSavedByObjectVersion
1070
     0
  0
VISUALSTYLE
  5
37
102
{ACAD_REACTORS
330
2A
102
}
330
2A
100
AcDbVisualStyle
  2
Thicken
 70
    13
 71
     2
 72
     2
 73
     0
 90
        0
 40
-0.6
 41
-30.0
 62
     5
 63
     7
 74
     1
 91
        4
 64
     7
 65
   257
 75
     1
175
     1
 42
1.0
 92
       12
 66
     7
 43
1.0
 76
     1
 77
     6
 78
     2
 67
     7
 79
     5
170
     0
171
     0
290
     0
174
     0
 93
        1
 44
0.0
173
     0
291
     1
 45
0.0
1001
ACAD
1000
AcDbSavedByObjectVersion
1070
     0
  0
XRECORD
  5
8EB
102
{ACAD_REACTORS
330
8E2
102
}
330
8E2
100
AcDbXrecord
 90
        0
  0
XRECORD
  5
901
102
{ACAD_REACTORS
330
8E2
102
}
330
8E2
100
AcDbXrecord
1000
DSTYLE
1002
{
1070
   340
340
11
1002
}
  0
XRECORD
  5
8EC
102
{ACAD_REACTORS
330
8E2
102
}
330
8E2
100
AcDbXrecord
  1
{04A242E0-DF7B-4064-95F7-462B634912D0}
  0
XRECORD
  5
8E5
102
{ACAD_REACTORS
330
8E2
102
}
330
8E2
100
AcDbXrecord
  1

  0
XRECORD
  5
8EA
102
{ACAD_REACTORS
330
8E2
102
}
330
8E2
100
AcDbXrecord
 90
        1
  0
XRECORD
  5
8E7
102
{ACAD_REACTORS
330
8E2
102
}
330
8E2
100
AcDbXrecord
340
1A
  0
XRECORD
  5
8E9
102
{ACAD_REACTORS
330
8E2
102
}
330
8E2
100
AcDbXrecord
 90
    10269
  0
XRECORD
  5
8E8
102
{ACAD_REACTORS
330
8E2
102
}
330
8E2
100
AcDbXrecord
340
19
  0
XRECORD
  5
8EE
102
{ACAD_REACTORS
330
8E2
102
}
330
8E2
100
AcDbXrecord
 40
0.0
  0
XRECORD
  5
8F1
102
{ACAD_REACTORS
330
8E2
102
}
330
8E2
100
AcDbXrecord
340
0
  0
XRECORD
  5
8F7
102
{ACAD_REACTORS
330
8E2
102
}
330
8E2
100
AcDbXrecord
 10
0.0
 20
0.0
 30
0.0
  0
XRECORD
  5
8F3
102
{ACAD_REACTORS
330
8E2
102
}
330
8E2
100
AcDbXrecord
 10
0.0
 20
0.0
 30
0.0
  0
XRECORD
  5
8F6
102
{ACAD_REACTORS
330
8E2
102
}
330
8E2
100
AcDbXrecord
 10
0.0
 20
0.0
 30
0.0
  0
XRECORD
  5
8F4
102
{ACAD_REACTORS
330
8E2
102
}
330
8E2
100
AcDbXrecord
 10
0.0
 20
0.0
 30
0.0
  0
XRECORD
  5
8F5
102
{ACAD_REACTORS
330
8E2
102
}
330
8E2
100
AcDbXrecord
 10
0.0
 20
0.0
 30
0.0
  0
XRECORD
  5
8F2
102
{ACAD_REACTORS
330
8E2
102
}
330
8E2
100
AcDbXrecord
 10
0.0
 20
0.0
 30
0.0
  0
XRECORD
  5
8EF
102
{ACAD_REACTORS
330
8E2
102
}
330
8E2
100
AcDbXrecord
340
0
  0
XRECORD
  5
8F0
102
{ACAD_REACTORS
330
8E2
102
}
330
8E2
100
AcDbXrecord
 70
     0
  0
XRECORD
  5
8E6
102
{ACAD_REACTORS
330
8E2
102
}
330
8E2
100
AcDbXrecord
  1

  0
XRECORD
  5
8E3
102
{ACAD_REACTORS
330
8E2
102
}
330
8E2
100
AcDbXrecord
 90
        1
  0
XRECORD
  5
8E4
102
{ACAD_REACTORS
330
8E2
102
}
330
8E2
100
AcDbXrecord
 90
       70
  0
XRECORD
  5
8FA
102
{ACAD_REACTORS
330
8E2
102
}
330
8E2
100
AcDbXrecord
340
0
  0
XRECORD
  5
900
102
{ACAD_REACTORS
330
8E2
102
}
330
8E2
100
AcDbXrecord
 10
0.0
 20
0.0
 30
0.0
  0
XRECORD
  5
8FC
102
{ACAD_REACTORS
330
8E2
102
}
330
8E2
100
AcDbXrecord
 10
0.0
 20
0.0
 30
0.0
  0
XRECORD
  5
8FF
102
{ACAD_REACTORS
330
8E2
102
}
330
8E2
100
AcDbXrecord
 10
0.0
 20
0.0
 30
0.0
  0
XRECORD
  5
8FD
102
{ACAD_REACTORS
330
8E2
102
}
330
8E2
100
AcDbXrecord
 10
0.0
 20
0.0
 30
0.0
  0
XRECORD
  5
8FE
102
{ACAD_REACTORS
330
8E2
102
}
330
8E2
100
AcDbXrecord
 10
0.0
 20
0.0
 30
0.0
  0
XRECORD
  5
8FB
102
{ACAD_REACTORS
330
8E2
102
}
330
8E2
100
AcDbXrecord
 10
0.0
 20
0.0
 30
0.0
  0
XRECORD
  5
8F8
102
{ACAD_REACTORS
330
8E2
102
}
330
8E2
100
AcDbXrecord
340
0
  0
XRECORD
  5
8F9
102
{ACAD_REACTORS
330
8E2
102
}
330
8E2
100
AcDbXrecord
 70
     0
  0
XRECORD
  5
8ED
102
{ACAD_REACTORS
330
8E2
102
}
330
8E2
100
AcDbXrecord
  1
{FAEB1C32-E019-11D5-929B-00C0DF256EC4}
  0
ENDSEC
  0
EOF
