ISO-10303-21;
HEADER;
/* Generated by software containing ST-Developer
 * from STEP Tools, Inc. (www.steptools.com) 
 */
/* OPTION: using custom schema-name function */

FILE_DESCRIPTION(
/* description */ (''),
/* implementation_level */ '2;1');

FILE_NAME(
/* name */ 'W9990794_stp.stp',
/* time_stamp */ '2017-05-29T12:50:54+02:00',
/* author */ (''),
/* organization */ (''),
/* preprocessor_version */ 'ST-DEVELOPER v15',
/* originating_system */ 'SIEMENS PLM Software NX 9.0',
/* authorisation */ '');

FILE_SCHEMA (('AUTOMOTIVE_DESIGN { 1 0 10303 214 3 1 1 1 }'));
ENDSEC;

DATA;
#10=PROPERTY_DEFINITION_REPRESENTATION(#14,#12);
#11=PROPERTY_DEFINITION_REPRESENTATION(#15,#13);
#12=REPRESENTATION('',(#16),#447);
#13=REPRESENTATION('',(#17),#447);
#14=PROPERTY_DEFINITION('pmi validation property','',#21);
#15=PROPERTY_DEFINITION('pmi validation property','',#21);
#16=VALUE_REPRESENTATION_ITEM('number of annotations',COUNT_MEASURE(0.));
#17=VALUE_REPRESENTATION_ITEM('number of views',COUNT_MEASURE(0.));
#18=SHAPE_REPRESENTATION_RELATIONSHIP('None',
'relationship between reic1C24C78Ap7is-None and reic1C24C78Ap7is-None',
#30,#19);
#19=ADVANCED_BREP_SHAPE_REPRESENTATION('reic1C24C78Ap7is-None',(#40),#447);
#20=SHAPE_DEFINITION_REPRESENTATION(#21,#30);
#21=PRODUCT_DEFINITION_SHAPE('','',#22);
#22=PRODUCT_DEFINITION(' ','',#24,#23);
#23=PRODUCT_DEFINITION_CONTEXT('part definition',#29,'design');
#24=PRODUCT_DEFINITION_FORMATION_WITH_SPECIFIED_SOURCE(' ',' ',#26,
 .NOT_KNOWN.);
#25=PRODUCT_RELATED_PRODUCT_CATEGORY('part','',(#26));
#26=PRODUCT('reic1C24C78Ap7is','reic1C24C78Ap7is',' ',(#27));
#27=PRODUCT_CONTEXT(' ',#29,'mechanical');
#28=APPLICATION_PROTOCOL_DEFINITION('international standard',
'automotive_design',2010,#29);
#29=APPLICATION_CONTEXT(
'core data for automotive mechanical design processes');
#30=SHAPE_REPRESENTATION('reic1C24C78Ap7is-None',(#233),#447);
#31=PRESENTATION_LAYER_ASSIGNMENT('210','Layer 210',(#40));
#32=STYLED_ITEM('',(#33),#40);
#33=PRESENTATION_STYLE_ASSIGNMENT((#34));
#34=SURFACE_STYLE_USAGE(.BOTH.,#35);
#35=SURFACE_SIDE_STYLE('',(#36));
#36=SURFACE_STYLE_FILL_AREA(#37);
#37=FILL_AREA_STYLE('',(#38));
#38=FILL_AREA_STYLE_COLOUR('',#39);
#39=COLOUR_RGB('RAL 7035',0.8,0.8,0.8);
#40=MANIFOLD_SOLID_BREP('',#41);
#41=CLOSED_SHELL('',(#63,#64,#65,#66,#67,#68,#69,#70,#71,#72,#73,#74,#75,
#76,#77,#78,#79,#80));
#42=FACE_OUTER_BOUND('',#128,.T.);
#43=FACE_OUTER_BOUND('',#141,.T.);
#44=FACE_OUTER_BOUND('',#142,.T.);
#45=FACE_OUTER_BOUND('',#145,.T.);
#46=CONICAL_SURFACE('',#246,5.76923752622916,24.9999999999999);
#47=CONICAL_SURFACE('',#248,11.0688088176311,75.0000000000004);
#48=CONICAL_SURFACE('',#254,10.0723145172501,8.00000000000004);
#49=CONICAL_SURFACE('',#266,3.,59.9999999999999);
#50=PLANE('',#245);
#51=PLANE('',#250);
#52=PLANE('',#256);
#53=PLANE('',#260);
#54=PLANE('',#262);
#55=PLANE('',#264);
#56=B_SPLINE_CURVE_WITH_KNOTS('',3,(#356,#357,#358,#359,#360,#361,#362,
#363,#364,#365,#366,#367,#368,#369,#370,#371,#372,#373,#374,#375,#376,#377,
#378,#379,#380,#381,#382,#383,#384,#385,#386,#387,#388,#389,#390,#391,#392,
#393,#394,#395,#396,#397,#398,#399,#400,#401,#402,#403,#404,#405,#406,#407),
 .UNSPECIFIED.,.F.,.F.,(4,3,3,3,3,3,3,3,3,3,3,3,3,3,3,3,3,4),(0.,0.0596169408103439,
0.119214041533763,0.180429515261276,0.239465911356184,0.29511471403732,
0.351414413755034,0.411001564510253,0.471529824865375,0.529359997004385,
0.585347739762728,0.642860630433884,0.703131530947119,0.76311232370278,
0.819617990015927,0.875155331450099,0.933678519337855,1.),.UNSPECIFIED.);
#57=B_SPLINE_CURVE_WITH_KNOTS('',3,(#410,#411,#412,#413),.UNSPECIFIED.,
 .F.,.F.,(4,4),(0.,1.),.UNSPECIFIED.);
#58=CYLINDRICAL_SURFACE('',#242,3.);
#59=CYLINDRICAL_SURFACE('',#252,8.);
#60=CYLINDRICAL_SURFACE('',#258,16.);
#61=CYLINDRICAL_SURFACE('',#261,25.);
#62=CYLINDRICAL_SURFACE('',#267,3.);
#63=ADVANCED_FACE('',(#84,#85),#81,.T.);
#64=ADVANCED_FACE('',(#86,#87),#82,.F.);
#65=ADVANCED_FACE('',(#88,#89),#58,.F.);
#66=ADVANCED_FACE('',(#90,#91,#92),#83,.F.);
#67=ADVANCED_FACE('',(#93,#94),#50,.F.);
#68=ADVANCED_FACE('',(#95,#96),#46,.T.);
#69=ADVANCED_FACE('',(#97,#98),#47,.T.);
#70=ADVANCED_FACE('',(#42),#51,.F.);
#71=ADVANCED_FACE('',(#99,#100),#59,.T.);
#72=ADVANCED_FACE('',(#101,#102),#48,.T.);
#73=ADVANCED_FACE('',(#103,#104),#52,.F.);
#74=ADVANCED_FACE('',(#105,#106),#60,.T.);
#75=ADVANCED_FACE('',(#107,#108),#53,.F.);
#76=ADVANCED_FACE('',(#109,#110),#61,.T.);
#77=ADVANCED_FACE('',(#43),#54,.T.);
#78=ADVANCED_FACE('',(#44),#55,.F.);
#79=ADVANCED_FACE('',(#111,#112),#49,.T.);
#80=ADVANCED_FACE('',(#45),#62,.T.);
#81=TOROIDAL_SURFACE('',#236,4.8629297391925,1.);
#82=TOROIDAL_SURFACE('',#239,11.8452659529386,3.00000000000007);
#83=TOROIDAL_SURFACE('',#244,708.5,700.);
#84=FACE_BOUND('',#113,.T.);
#85=FACE_BOUND('',#114,.T.);
#86=FACE_BOUND('',#115,.T.);
#87=FACE_BOUND('',#116,.T.);
#88=FACE_BOUND('',#117,.T.);
#89=FACE_BOUND('',#118,.T.);
#90=FACE_BOUND('',#119,.T.);
#91=FACE_BOUND('',#120,.T.);
#92=FACE_BOUND('',#121,.T.);
#93=FACE_BOUND('',#122,.T.);
#94=FACE_BOUND('',#123,.T.);
#95=FACE_BOUND('',#124,.T.);
#96=FACE_BOUND('',#125,.T.);
#97=FACE_BOUND('',#126,.T.);
#98=FACE_BOUND('',#127,.T.);
#99=FACE_BOUND('',#129,.T.);
#100=FACE_BOUND('',#130,.T.);
#101=FACE_BOUND('',#131,.T.);
#102=FACE_BOUND('',#132,.T.);
#103=FACE_BOUND('',#133,.T.);
#104=FACE_BOUND('',#134,.T.);
#105=FACE_BOUND('',#135,.T.);
#106=FACE_BOUND('',#136,.T.);
#107=FACE_BOUND('',#137,.T.);
#108=FACE_BOUND('',#138,.T.);
#109=FACE_BOUND('',#139,.T.);
#110=FACE_BOUND('',#140,.T.);
#111=FACE_BOUND('',#143,.T.);
#112=FACE_BOUND('',#144,.T.);
#113=EDGE_LOOP('',(#146));
#114=EDGE_LOOP('',(#147));
#115=EDGE_LOOP('',(#148));
#116=EDGE_LOOP('',(#149));
#117=EDGE_LOOP('',(#150));
#118=EDGE_LOOP('',(#151));
#119=EDGE_LOOP('',(#152));
#120=EDGE_LOOP('',(#153));
#121=EDGE_LOOP('',(#154,#155));
#122=EDGE_LOOP('',(#156));
#123=EDGE_LOOP('',(#157));
#124=EDGE_LOOP('',(#158));
#125=EDGE_LOOP('',(#159));
#126=EDGE_LOOP('',(#160));
#127=EDGE_LOOP('',(#161));
#128=EDGE_LOOP('',(#162));
#129=EDGE_LOOP('',(#163));
#130=EDGE_LOOP('',(#164));
#131=EDGE_LOOP('',(#165));
#132=EDGE_LOOP('',(#166));
#133=EDGE_LOOP('',(#167));
#134=EDGE_LOOP('',(#168));
#135=EDGE_LOOP('',(#169));
#136=EDGE_LOOP('',(#170));
#137=EDGE_LOOP('',(#171));
#138=EDGE_LOOP('',(#172));
#139=EDGE_LOOP('',(#173));
#140=EDGE_LOOP('',(#174));
#141=EDGE_LOOP('',(#175));
#142=EDGE_LOOP('',(#176));
#143=EDGE_LOOP('',(#177));
#144=EDGE_LOOP('',(#178,#179));
#145=EDGE_LOOP('',(#180,#181));
#146=ORIENTED_EDGE('',*,*,#199,.F.);
#147=ORIENTED_EDGE('',*,*,#200,.T.);
#148=ORIENTED_EDGE('',*,*,#201,.F.);
#149=ORIENTED_EDGE('',*,*,#202,.T.);
#150=ORIENTED_EDGE('',*,*,#203,.F.);
#151=ORIENTED_EDGE('',*,*,#204,.F.);
#152=ORIENTED_EDGE('',*,*,#202,.F.);
#153=ORIENTED_EDGE('',*,*,#205,.T.);
#154=ORIENTED_EDGE('',*,*,#206,.F.);
#155=ORIENTED_EDGE('',*,*,#207,.F.);
#156=ORIENTED_EDGE('',*,*,#203,.T.);
#157=ORIENTED_EDGE('',*,*,#200,.F.);
#158=ORIENTED_EDGE('',*,*,#205,.F.);
#159=ORIENTED_EDGE('',*,*,#199,.T.);
#160=ORIENTED_EDGE('',*,*,#208,.F.);
#161=ORIENTED_EDGE('',*,*,#201,.T.);
#162=ORIENTED_EDGE('',*,*,#209,.F.);
#163=ORIENTED_EDGE('',*,*,#210,.T.);
#164=ORIENTED_EDGE('',*,*,#209,.T.);
#165=ORIENTED_EDGE('',*,*,#210,.F.);
#166=ORIENTED_EDGE('',*,*,#211,.F.);
#167=ORIENTED_EDGE('',*,*,#212,.F.);
#168=ORIENTED_EDGE('',*,*,#211,.T.);
#169=ORIENTED_EDGE('',*,*,#212,.T.);
#170=ORIENTED_EDGE('',*,*,#213,.F.);
#171=ORIENTED_EDGE('',*,*,#213,.T.);
#172=ORIENTED_EDGE('',*,*,#214,.T.);
#173=ORIENTED_EDGE('',*,*,#214,.F.);
#174=ORIENTED_EDGE('',*,*,#208,.T.);
#175=ORIENTED_EDGE('',*,*,#204,.T.);
#176=ORIENTED_EDGE('',*,*,#215,.T.);
#177=ORIENTED_EDGE('',*,*,#215,.F.);
#178=ORIENTED_EDGE('',*,*,#216,.F.);
#179=ORIENTED_EDGE('',*,*,#207,.T.);
#180=ORIENTED_EDGE('',*,*,#216,.T.);
#181=ORIENTED_EDGE('',*,*,#206,.T.);
#182=VERTEX_POINT('',#340);
#183=VERTEX_POINT('',#342);
#184=VERTEX_POINT('',#345);
#185=VERTEX_POINT('',#347);
#186=VERTEX_POINT('',#350);
#187=VERTEX_POINT('',#352);
#188=VERTEX_POINT('',#355);
#189=VERTEX_POINT('',#408);
#190=VERTEX_POINT('',#409);
#191=VERTEX_POINT('',#418);
#192=VERTEX_POINT('',#421);
#193=VERTEX_POINT('',#424);
#194=VERTEX_POINT('',#427);
#195=VERTEX_POINT('',#430);
#196=VERTEX_POINT('',#433);
#197=VERTEX_POINT('',#436);
#198=VERTEX_POINT('',#441);
#199=EDGE_CURVE('',#182,#182,#217,.T.);
#200=EDGE_CURVE('',#183,#183,#218,.T.);
#201=EDGE_CURVE('',#184,#184,#219,.T.);
#202=EDGE_CURVE('',#185,#185,#220,.T.);
#203=EDGE_CURVE('',#186,#186,#221,.T.);
#204=EDGE_CURVE('',#187,#187,#222,.T.);
#205=EDGE_CURVE('',#188,#188,#223,.T.);
#206=EDGE_CURVE('',#189,#190,#56,.T.);
#207=EDGE_CURVE('',#190,#189,#57,.T.);
#208=EDGE_CURVE('',#191,#191,#224,.T.);
#209=EDGE_CURVE('',#192,#192,#225,.T.);
#210=EDGE_CURVE('',#193,#193,#226,.T.);
#211=EDGE_CURVE('',#194,#194,#227,.T.);
#212=EDGE_CURVE('',#195,#195,#228,.T.);
#213=EDGE_CURVE('',#196,#196,#229,.T.);
#214=EDGE_CURVE('',#197,#197,#230,.T.);
#215=EDGE_CURVE('',#198,#198,#231,.T.);
#216=EDGE_CURVE('',#190,#189,#232,.T.);
#217=CIRCLE('',#234,5.76923752622916);
#218=CIRCLE('',#235,4.8629297391925);
#219=CIRCLE('',#237,11.0688088176311);
#220=CIRCLE('',#238,8.84675203308027);
#221=CIRCLE('',#240,3.);
#222=CIRCLE('',#241,3.);
#223=CIRCLE('',#243,8.5);
#224=CIRCLE('',#247,25.);
#225=CIRCLE('',#249,8.);
#226=CIRCLE('',#251,8.);
#227=CIRCLE('',#253,10.0723145172501);
#228=CIRCLE('',#255,16.);
#229=CIRCLE('',#257,16.);
#230=CIRCLE('',#259,25.);
#231=CIRCLE('',#263,2.30717967697245);
#232=CIRCLE('',#265,3.);
#233=AXIS2_PLACEMENT_3D('',#338,#268,#269);
#234=AXIS2_PLACEMENT_3D('',#339,#270,#271);
#235=AXIS2_PLACEMENT_3D('',#341,#272,#273);
#236=AXIS2_PLACEMENT_3D('',#343,#274,#275);
#237=AXIS2_PLACEMENT_3D('',#344,#276,#277);
#238=AXIS2_PLACEMENT_3D('',#346,#278,#279);
#239=AXIS2_PLACEMENT_3D('',#348,#280,#281);
#240=AXIS2_PLACEMENT_3D('',#349,#282,#283);
#241=AXIS2_PLACEMENT_3D('',#351,#284,#285);
#242=AXIS2_PLACEMENT_3D('',#353,#286,#287);
#243=AXIS2_PLACEMENT_3D('',#354,#288,#289);
#244=AXIS2_PLACEMENT_3D('',#414,#290,#291);
#245=AXIS2_PLACEMENT_3D('',#415,#292,#293);
#246=AXIS2_PLACEMENT_3D('',#416,#294,#295);
#247=AXIS2_PLACEMENT_3D('',#417,#296,#297);
#248=AXIS2_PLACEMENT_3D('',#419,#298,#299);
#249=AXIS2_PLACEMENT_3D('',#420,#300,#301);
#250=AXIS2_PLACEMENT_3D('',#422,#302,#303);
#251=AXIS2_PLACEMENT_3D('',#423,#304,#305);
#252=AXIS2_PLACEMENT_3D('',#425,#306,#307);
#253=AXIS2_PLACEMENT_3D('',#426,#308,#309);
#254=AXIS2_PLACEMENT_3D('',#428,#310,#311);
#255=AXIS2_PLACEMENT_3D('',#429,#312,#313);
#256=AXIS2_PLACEMENT_3D('',#431,#314,#315);
#257=AXIS2_PLACEMENT_3D('',#432,#316,#317);
#258=AXIS2_PLACEMENT_3D('',#434,#318,#319);
#259=AXIS2_PLACEMENT_3D('',#435,#320,#321);
#260=AXIS2_PLACEMENT_3D('',#437,#322,#323);
#261=AXIS2_PLACEMENT_3D('',#438,#324,#325);
#262=AXIS2_PLACEMENT_3D('',#439,#326,#327);
#263=AXIS2_PLACEMENT_3D('',#440,#328,#329);
#264=AXIS2_PLACEMENT_3D('',#442,#330,#331);
#265=AXIS2_PLACEMENT_3D('',#443,#332,#333);
#266=AXIS2_PLACEMENT_3D('',#444,#334,#335);
#267=AXIS2_PLACEMENT_3D('',#445,#336,#337);
#268=DIRECTION('',(0.,0.,1.));
#269=DIRECTION('',(1.,0.,0.));
#270=DIRECTION('',(0.,0.,-1.));
#271=DIRECTION('',(-1.,0.,0.));
#272=DIRECTION('',(0.,0.,-1.));
#273=DIRECTION('',(-1.,0.,0.));
#274=DIRECTION('',(0.,0.,-1.));
#275=DIRECTION('',(1.,0.,0.));
#276=DIRECTION('',(0.,0.,-1.));
#277=DIRECTION('',(-1.,0.,0.));
#278=DIRECTION('',(0.,0.,-1.));
#279=DIRECTION('',(-1.,0.,0.));
#280=DIRECTION('',(0.,0.,-1.));
#281=DIRECTION('',(1.,0.,0.));
#282=DIRECTION('',(0.,0.,-1.));
#283=DIRECTION('',(-1.,0.,0.));
#284=DIRECTION('',(0.,0.,1.));
#285=DIRECTION('',(-1.,1.22464679914735E-016,0.));
#286=DIRECTION('',(0.,0.,-1.));
#287=DIRECTION('',(1.,0.,0.));
#288=DIRECTION('',(0.,0.,-1.));
#289=DIRECTION('',(-1.,0.,0.));
#290=DIRECTION('',(0.,0.,-1.));
#291=DIRECTION('',(1.,0.,0.));
#292=DIRECTION('',(0.,0.,-1.));
#293=DIRECTION('',(1.,0.,0.));
#294=DIRECTION('',(0.,0.,-1.));
#295=DIRECTION('',(1.,0.,-8.81919106915089E-017));
#296=DIRECTION('',(0.,0.,-1.));
#297=DIRECTION('',(-1.,0.,0.));
#298=DIRECTION('',(0.,0.,-1.));
#299=DIRECTION('',(1.,0.,5.56131885836364E-018));
#300=DIRECTION('',(0.,0.,1.));
#301=DIRECTION('',(1.,0.,0.));
#302=DIRECTION('',(0.,0.,1.));
#303=DIRECTION('',(-1.,0.,0.));
#304=DIRECTION('',(0.,0.,-1.));
#305=DIRECTION('',(1.,0.,0.));
#306=DIRECTION('',(0.,0.,-1.));
#307=DIRECTION('',(1.,0.,0.));
#308=DIRECTION('',(0.,0.,1.));
#309=DIRECTION('',(1.,0.,0.));
#310=DIRECTION('',(0.,0.,1.));
#311=DIRECTION('',(-1.,0.,2.53390335898458E-016));
#312=DIRECTION('',(0.,0.,1.));
#313=DIRECTION('',(1.,0.,0.));
#314=DIRECTION('',(0.,0.,1.));
#315=DIRECTION('',(-1.,0.,0.));
#316=DIRECTION('',(0.,0.,1.));
#317=DIRECTION('',(1.,0.,0.));
#318=DIRECTION('',(0.,0.,-1.));
#319=DIRECTION('',(1.,0.,0.));
#320=DIRECTION('',(0.,0.,-1.));
#321=DIRECTION('',(-1.,0.,0.));
#322=DIRECTION('',(0.,0.,1.));
#323=DIRECTION('',(-1.,0.,0.));
#324=DIRECTION('',(0.,0.,-1.));
#325=DIRECTION('',(1.,0.,0.));
#326=DIRECTION('',(0.,0.,1.));
#327=DIRECTION('',(1.,0.,0.));
#328=DIRECTION('',(0.,-1.,0.));
#329=DIRECTION('',(0.,0.,1.));
#330=DIRECTION('',(0.,1.,0.));
#331=DIRECTION('',(0.,0.,-1.));
#332=DIRECTION('',(0.,1.,0.));
#333=DIRECTION('',(0.,0.,1.));
#334=DIRECTION('',(0.,1.,0.));
#335=DIRECTION('',(0.,-2.79947175699191E-017,-1.));
#336=DIRECTION('',(0.,1.,0.));
#337=DIRECTION('',(0.,0.,-1.));
#338=CARTESIAN_POINT('',(0.,0.,0.));
#339=CARTESIAN_POINT('',(0.,0.,39.4226182617407));
#340=CARTESIAN_POINT('',(-5.76923752622916,0.,39.4226182617407));
#341=CARTESIAN_POINT('',(0.,0.,40.));
#342=CARTESIAN_POINT('',(-4.8629297391925,0.,40.));
#343=CARTESIAN_POINT('',(0.,0.,39.));
#344=CARTESIAN_POINT('',(0.,0.,8.73285142691924));
#345=CARTESIAN_POINT('',(-11.0688088176311,0.,8.73285142691924));
#346=CARTESIAN_POINT('',(0.,0.,11.5362134811122));
#347=CARTESIAN_POINT('',(-8.84675203308027,0.,11.5362134811122));
#348=CARTESIAN_POINT('',(0.,0.,11.6306289057865));
#349=CARTESIAN_POINT('',(0.,0.,40.));
#350=CARTESIAN_POINT('',(-3.,0.,40.));
#351=CARTESIAN_POINT('',(0.,0.,0.));
#352=CARTESIAN_POINT('',(-3.,3.67394039744206E-016,0.));
#353=CARTESIAN_POINT('',(0.,0.,-44.4524398132479));
#354=CARTESIAN_POINT('',(0.,0.,33.5664792384713));
#355=CARTESIAN_POINT('',(-8.5,0.,33.5664792384713));
#356=CARTESIAN_POINT('',(0.915673592207924,-8.6,19.1431587596555));
#357=CARTESIAN_POINT('',(1.23652520776543,-8.56370634420807,19.2459979889533));
#358=CARTESIAN_POINT('',(1.54196987905479,-8.50895119945253,19.4051120362121));
#359=CARTESIAN_POINT('',(1.8079739808176,-8.44792462150697,19.6060012354459));
#360=CARTESIAN_POINT('',(2.0740947191294,-8.38687128484078,19.8069785198737));
#361=CARTESIAN_POINT('',(2.30843934497855,-8.31818547670481,20.0551938302434));
#362=CARTESIAN_POINT('',(2.49377778460181,-8.25673322885821,20.3323452512506));
#363=CARTESIAN_POINT('',(2.68386259644323,-8.19370723709472,20.6165943029897));
#364=CARTESIAN_POINT('',(2.8276858508618,-8.13696056178092,20.9399156350969));
#365=CARTESIAN_POINT('',(2.91120044729379,-8.10068518625913,21.2754919215934));
#366=CARTESIAN_POINT('',(2.99173418466567,-8.0657045758012,21.5990905939158));
#367=CARTESIAN_POINT('',(3.01814820653936,-8.04923472700296,21.9436644800093));
#368=CARTESIAN_POINT('',(2.98714019108308,-8.05499139640152,22.2774769879038));
#369=CARTESIAN_POINT('',(2.95785091868456,-8.06042897941486,22.5927866047846));
#370=CARTESIAN_POINT('',(2.87684170246814,-8.08555956402487,22.9070010997109));
#371=CARTESIAN_POINT('',(2.75155044017834,-8.12348590510286,23.1953954053594));
#372=CARTESIAN_POINT('',(2.62470309225463,-8.16188328169777,23.4873714949864));
#373=CARTESIAN_POINT('',(2.44948655546707,-8.21394091915714,23.7606683760007));
#374=CARTESIAN_POINT('',(2.23909056596403,-8.2675797992323,23.9966154956353));
#375=CARTESIAN_POINT('',(2.01668702193923,-8.32427991530587,24.2460284038049));
#376=CARTESIAN_POINT('',(1.74879658600068,-8.38392478348419,24.4605368042837));
#377=CARTESIAN_POINT('',(1.45546418078134,-8.43244461321049,24.6232849670713));
#378=CARTESIAN_POINT('',(1.15791108371032,-8.48166258349789,24.7883748753747));
#379=CARTESIAN_POINT('',(0.825226006115987,-8.52044814946769,24.9046291504846));
#380=CARTESIAN_POINT('',(0.486449684583254,-8.53906182681347,24.9602984147496));
#381=CARTESIAN_POINT('',(0.162525730830114,-8.55685945780624,25.0135270704645));
#382=CARTESIAN_POINT('',(-0.176143625869402,-8.55659004921943,25.0127589249554));
#383=CARTESIAN_POINT('',(-0.499798488232357,-8.53831831038371,24.9580739461955));
#384=CARTESIAN_POINT('',(-0.813607080458895,-8.52060243675305,24.9050526009411));
#385=CARTESIAN_POINT('',(-1.12170721245285,-8.48572752720182,24.8002501792589));
#386=CARTESIAN_POINT('',(-1.40082334461218,-8.44131119148885,24.6528652353992));
#387=CARTESIAN_POINT('',(-1.68757699067827,-8.39567948216394,24.5014473660698));
#388=CARTESIAN_POINT('',(-1.95143142662944,-8.33906128688365,24.3013294383627));
#389=CARTESIAN_POINT('',(-2.1738875779012,-8.28396608864915,24.067416938754));
#390=CARTESIAN_POINT('',(-2.40668752814038,-8.22630906575234,23.8226279412013));
#391=CARTESIAN_POINT('',(-2.60062223723252,-8.16908956034781,23.5337699267665));
#392=CARTESIAN_POINT('',(-2.73930323224285,-8.12718975841554,23.2231998208894));
#393=CARTESIAN_POINT('',(-2.87716615150897,-8.08553712237393,22.9144617603512));
#394=CARTESIAN_POINT('',(-2.96404583135397,-8.05843039188531,22.5748705798961));
#395=CARTESIAN_POINT('',(-2.9907606328356,-8.05437544111787,22.2352675861243));
#396=CARTESIAN_POINT('',(-3.01596641297502,-8.05054953967553,21.9148475223038));
#397=CARTESIAN_POINT('',(-2.98838719053972,-8.0671596231462,21.5855893509889));
#398=CARTESIAN_POINT('',(-2.91117174084608,-8.10069765495114,21.2753765838042));
#399=CARTESIAN_POINT('',(-2.8351672940276,-8.13370969547967,20.9700290159348));
#400=CARTESIAN_POINT('',(-2.7095149555316,-8.18353646290961,20.6750540359487));
#401=CARTESIAN_POINT('',(-2.544585798934,-8.23966583182179,20.4109489901632));
#402=CARTESIAN_POINT('',(-2.37089470855666,-8.29877709807494,20.1328132479878));
#403=CARTESIAN_POINT('',(-2.14914697439595,-8.36606704064515,19.8814082017815));
#404=CARTESIAN_POINT('',(-1.89527085156807,-8.42737203812503,19.6745003979367));
#405=CARTESIAN_POINT('',(-1.60885703160512,-8.49653410943544,19.4410745293705));
#406=CARTESIAN_POINT('',(-1.2715808199043,-8.55974097124582,19.2572339994914));
#407=CARTESIAN_POINT('',(-0.915673592178347,-8.59999999999991,19.1431587596459));
#408=CARTESIAN_POINT('',(0.915673592207924,-8.6,19.1431587596555));
#409=CARTESIAN_POINT('',(-0.915673592178347,-8.59999999999991,19.1431587596459));
#410=CARTESIAN_POINT('',(-0.915673592178346,-8.59999999999996,19.1431587596459));
#411=CARTESIAN_POINT('',(-0.306903663697514,-8.66636043908258,19.0687354462648));
#412=CARTESIAN_POINT('',(0.306724404183805,-8.66637997970197,19.0687135314369));
#413=CARTESIAN_POINT('',(0.915673592208239,-8.59999999999686,19.1431587596498));
#414=CARTESIAN_POINT('',(0.,0.,33.5664792384713));
#415=CARTESIAN_POINT('',(0.,0.,40.));
#416=CARTESIAN_POINT('',(0.,0.,39.4226182617407));
#417=CARTESIAN_POINT('',(0.,0.,5.));
#418=CARTESIAN_POINT('',(-25.,0.,5.));
#419=CARTESIAN_POINT('',(0.,0.,8.73285142691924));
#420=CARTESIAN_POINT('',(0.,0.,-41.));
#421=CARTESIAN_POINT('',(8.,0.,-41.));
#422=CARTESIAN_POINT('',(0.,0.,-41.));
#423=CARTESIAN_POINT('',(0.,0.,-33.2452839712988));
#424=CARTESIAN_POINT('',(8.,0.,-33.2452839712988));
#425=CARTESIAN_POINT('',(0.,0.,-41.));
#426=CARTESIAN_POINT('',(0.,0.,-18.5));
#427=CARTESIAN_POINT('',(10.0723145172501,0.,-18.5));
#428=CARTESIAN_POINT('',(0.,0.,-18.5));
#429=CARTESIAN_POINT('',(0.,0.,-18.5));
#430=CARTESIAN_POINT('',(16.,0.,-18.5));
#431=CARTESIAN_POINT('',(0.,16.,-18.5));
#432=CARTESIAN_POINT('',(0.,0.,0.));
#433=CARTESIAN_POINT('',(16.,0.,0.));
#434=CARTESIAN_POINT('',(0.,0.,-41.));
#435=CARTESIAN_POINT('',(0.,0.,0.));
#436=CARTESIAN_POINT('',(-25.,0.,0.));
#437=CARTESIAN_POINT('',(0.,25.,0.));
#438=CARTESIAN_POINT('',(0.,0.,-41.));
#439=CARTESIAN_POINT('',(0.,0.,0.));
#440=CARTESIAN_POINT('',(0.,-9.,22.));
#441=CARTESIAN_POINT('',(0.,-9.,24.3071796769724));
#442=CARTESIAN_POINT('',(3.,-9.,22.));
#443=CARTESIAN_POINT('',(0.,-8.6,22.));
#444=CARTESIAN_POINT('',(0.,-8.6,22.));
#445=CARTESIAN_POINT('',(0.,-3.,22.));
#446=MECHANICAL_DESIGN_GEOMETRIC_PRESENTATION_REPRESENTATION('',(#32),#447);
#447=(
GEOMETRIC_REPRESENTATION_CONTEXT(3)
GLOBAL_UNCERTAINTY_ASSIGNED_CONTEXT((#448))
GLOBAL_UNIT_ASSIGNED_CONTEXT((#454,#450,#449))
REPRESENTATION_CONTEXT('W9990794_stp','TOP_LEVEL_ASSEMBLY_PART')
);
#448=UNCERTAINTY_MEASURE_WITH_UNIT(LENGTH_MEASURE(0.0508),#454,
'DISTANCE_ACCURACY_VALUE','Maximum Tolerance applied to model');
#449=(
NAMED_UNIT(*)
SI_UNIT($,.STERADIAN.)
SOLID_ANGLE_UNIT()
);
#450=(
CONVERSION_BASED_UNIT('DEGREE',#452)
NAMED_UNIT(#451)
PLANE_ANGLE_UNIT()
);
#451=DIMENSIONAL_EXPONENTS(0.,0.,0.,0.,0.,0.,0.);
#452=PLANE_ANGLE_MEASURE_WITH_UNIT(PLANE_ANGLE_MEASURE(0.0174532925),#453);
#453=(
NAMED_UNIT(*)
PLANE_ANGLE_UNIT()
SI_UNIT($,.RADIAN.)
);
#454=(
LENGTH_UNIT()
NAMED_UNIT(*)
SI_UNIT(.MILLI.,.METRE.)
);
ENDSEC;
END-ISO-10303-21;
