ISO-10303-21;
HEADER;
/* Generated by software containing ST-Developer
 * from STEP Tools, Inc. (www.steptools.com) 
 */
/* OPTION: using custom schema-name function */

FILE_DESCRIPTION(
/* description */ (''),
/* implementation_level */ '2;1');

FILE_NAME(
/* name */ 'W9990461_stp.stp',
/* time_stamp */ '2017-05-09T13:49:36+02:00',
/* author */ (''),
/* organization */ (''),
/* preprocessor_version */ 'ST-DEVELOPER v15',
/* originating_system */ 'SIEMENS PLM Software NX 9.0',
/* authorisation */ '');

FILE_SCHEMA (('AUTOMOTIVE_DESIGN { 1 0 10303 214 3 1 1 1 }'));
ENDSEC;

DATA;
#10=PROPERTY_DEFINITION_REPRESENTATION(#14,#12);
#11=PROPERTY_DEFINITION_REPRESENTATION(#15,#13);
#12=REPRESENTATION('',(#16),#561);
#13=REPRESENTATION('',(#17),#561);
#14=PROPERTY_DEFINITION('pmi validation property','',#21);
#15=PROPERTY_DEFINITION('pmi validation property','',#21);
#16=VALUE_REPRESENTATION_ITEM('number of annotations',COUNT_MEASURE(0.));
#17=VALUE_REPRESENTATION_ITEM('number of views',COUNT_MEASURE(0.));
#18=SHAPE_REPRESENTATION_RELATIONSHIP('None',
'relationship between reic119C905Eo6dn-None and reic119C905Eo6dn-None',
#30,#19);
#19=ADVANCED_BREP_SHAPE_REPRESENTATION('reic119C905Eo6dn-None',(#40),#561);
#20=SHAPE_DEFINITION_REPRESENTATION(#21,#30);
#21=PRODUCT_DEFINITION_SHAPE('','',#22);
#22=PRODUCT_DEFINITION(' ','',#24,#23);
#23=PRODUCT_DEFINITION_CONTEXT('part definition',#29,'design');
#24=PRODUCT_DEFINITION_FORMATION_WITH_SPECIFIED_SOURCE(' ',' ',#26,
 .NOT_KNOWN.);
#25=PRODUCT_RELATED_PRODUCT_CATEGORY('part','',(#26));
#26=PRODUCT('reic119C905Eo6dn','reic119C905Eo6dn',' ',(#27));
#27=PRODUCT_CONTEXT(' ',#29,'mechanical');
#28=APPLICATION_PROTOCOL_DEFINITION('international standard',
'automotive_design',2010,#29);
#29=APPLICATION_CONTEXT(
'core data for automotive mechanical design processes');
#30=SHAPE_REPRESENTATION('reic119C905Eo6dn-None',(#264),#561);
#31=PRESENTATION_LAYER_ASSIGNMENT('210','Layer 210',(#40));
#32=STYLED_ITEM('',(#33),#40);
#33=PRESENTATION_STYLE_ASSIGNMENT((#34));
#34=SURFACE_STYLE_USAGE(.BOTH.,#35);
#35=SURFACE_SIDE_STYLE('',(#36));
#36=SURFACE_STYLE_FILL_AREA(#37);
#37=FILL_AREA_STYLE('',(#38));
#38=FILL_AREA_STYLE_COLOUR('',#39);
#39=COLOUR_RGB('Orange',1.,0.499992370489052,0.);
#40=MANIFOLD_SOLID_BREP('',#41);
#41=CLOSED_SHELL('',(#61,#62,#63,#64,#65,#66,#67,#68,#69,#70,#71,#72,#73,
#74,#75,#76,#77,#78,#79,#80,#81));
#42=TOROIDAL_SURFACE('',#291,12.,2.99999999999999);
#43=B_SPLINE_CURVE_WITH_KNOTS('',3,(#420,#421,#422,#423,#424,#425,#426,
#427,#428,#429,#430,#431,#432,#433,#434,#435,#436,#437,#438,#439,#440,#441,
#442,#443,#444,#445,#446,#447,#448,#449,#450,#451,#452,#453,#454,#455,#456,
#457,#458,#459,#460,#461,#462,#463,#464,#465,#466,#467,#468,#469,#470,#471,
#472,#473,#474,#475,#476,#477),.UNSPECIFIED.,.T.,.F.,(1,3,3,3,3,3,3,3,3,
3,3,3,3,3,3,3,3,3,3,3,3,1),(-0.0416770877100441,0.,0.0528148243883423,0.105577000984355,
0.159132498996107,0.213325088216863,0.266635471789562,0.318911589123595,
0.371615937310315,0.42552641956121,0.479572238443756,0.532488505763995,
0.584781006907992,0.63785002473503,0.691959555536049,0.745760007406921,
0.79831810963308,0.850666088861226,0.904129211571322,0.958322912289956,
1.,1.05281482438834),.UNSPECIFIED.);
#44=B_SPLINE_CURVE_WITH_KNOTS('',3,(#479,#480,#481,#482,#483,#484,#485,
#486,#487,#488,#489,#490,#491,#492,#493,#494,#495,#496,#497,#498,#499,#500,
#501,#502,#503,#504,#505,#506,#507,#508,#509,#510,#511,#512,#513,#514,#515,
#516,#517,#518,#519,#520,#521,#522,#523,#524,#525,#526,#527,#528,#529,#530,
#531,#532,#533,#534,#535,#536),.UNSPECIFIED.,.T.,.F.,(1,3,3,3,3,3,3,3,3,
3,3,3,3,3,3,3,3,3,3,3,3,1),(-0.0438910899927308,0.,0.0529818872068604,0.106015480265327,
0.158366883844256,0.211043825578492,0.264882162307189,0.318982174270614,
0.371954044873485,0.424184462755268,0.477195788750306,0.531297657076249,
0.585122655209566,0.637761444738242,0.690133326244439,0.743517040363486,
0.797710002418888,0.851207113953887,0.903555944148952,0.956108910007269,
1.,1.05298188720686),.UNSPECIFIED.);
#45=CONICAL_SURFACE('',#274,4.3135099835713,8.00000000000004);
#46=CONICAL_SURFACE('',#285,9.,45.);
#47=CONICAL_SURFACE('',#292,11.2235428646924,74.9999999999999);
#48=CONICAL_SURFACE('',#298,2.,45.);
#49=CONICAL_SURFACE('',#303,2.,45.);
#50=FACE_OUTER_BOUND('',#130,.T.);
#51=FACE_OUTER_BOUND('',#155,.T.);
#52=FACE_OUTER_BOUND('',#158,.T.);
#53=FACE_OUTER_BOUND('',#163,.T.);
#54=CYLINDRICAL_SURFACE('',#270,4.);
#55=CYLINDRICAL_SURFACE('',#277,10.);
#56=CYLINDRICAL_SURFACE('',#280,15.);
#57=CYLINDRICAL_SURFACE('',#287,2.38125);
#58=CYLINDRICAL_SURFACE('',#289,9.);
#59=CYLINDRICAL_SURFACE('',#295,2.);
#60=CYLINDRICAL_SURFACE('',#300,2.);
#61=ADVANCED_FACE('',(#90,#91),#82,.F.);
#62=ADVANCED_FACE('',(#92,#93),#54,.T.);
#63=ADVANCED_FACE('',(#50),#83,.T.);
#64=ADVANCED_FACE('',(#94,#95),#45,.T.);
#65=ADVANCED_FACE('',(#96,#97),#84,.T.);
#66=ADVANCED_FACE('',(#98,#99),#55,.T.);
#67=ADVANCED_FACE('',(#100,#101),#85,.T.);
#68=ADVANCED_FACE('',(#102,#103),#56,.T.);
#69=ADVANCED_FACE('',(#104,#105),#86,.F.);
#70=ADVANCED_FACE('',(#106,#107),#46,.T.);
#71=ADVANCED_FACE('',(#108,#109),#57,.F.);
#72=ADVANCED_FACE('',(#110,#111,#112,#113),#58,.T.);
#73=ADVANCED_FACE('',(#114,#115),#42,.F.);
#74=ADVANCED_FACE('',(#116,#117),#47,.T.);
#75=ADVANCED_FACE('',(#51),#87,.F.);
#76=ADVANCED_FACE('',(#118,#119),#59,.T.);
#77=ADVANCED_FACE('',(#52),#88,.T.);
#78=ADVANCED_FACE('',(#120,#121),#48,.T.);
#79=ADVANCED_FACE('',(#122,#123),#60,.T.);
#80=ADVANCED_FACE('',(#53),#89,.T.);
#81=ADVANCED_FACE('',(#124,#125),#49,.T.);
#82=PLANE('',#267);
#83=PLANE('',#271);
#84=PLANE('',#275);
#85=PLANE('',#278);
#86=PLANE('',#283);
#87=PLANE('',#293);
#88=PLANE('',#297);
#89=PLANE('',#302);
#90=FACE_BOUND('',#126,.T.);
#91=FACE_BOUND('',#127,.T.);
#92=FACE_BOUND('',#128,.T.);
#93=FACE_BOUND('',#129,.T.);
#94=FACE_BOUND('',#131,.T.);
#95=FACE_BOUND('',#132,.T.);
#96=FACE_BOUND('',#133,.T.);
#97=FACE_BOUND('',#134,.T.);
#98=FACE_BOUND('',#135,.T.);
#99=FACE_BOUND('',#136,.T.);
#100=FACE_BOUND('',#137,.T.);
#101=FACE_BOUND('',#138,.T.);
#102=FACE_BOUND('',#139,.T.);
#103=FACE_BOUND('',#140,.T.);
#104=FACE_BOUND('',#141,.T.);
#105=FACE_BOUND('',#142,.T.);
#106=FACE_BOUND('',#143,.T.);
#107=FACE_BOUND('',#144,.T.);
#108=FACE_BOUND('',#145,.T.);
#109=FACE_BOUND('',#146,.T.);
#110=FACE_BOUND('',#147,.T.);
#111=FACE_BOUND('',#148,.T.);
#112=FACE_BOUND('',#149,.T.);
#113=FACE_BOUND('',#150,.T.);
#114=FACE_BOUND('',#151,.T.);
#115=FACE_BOUND('',#152,.T.);
#116=FACE_BOUND('',#153,.T.);
#117=FACE_BOUND('',#154,.T.);
#118=FACE_BOUND('',#156,.T.);
#119=FACE_BOUND('',#157,.T.);
#120=FACE_BOUND('',#159,.T.);
#121=FACE_BOUND('',#160,.T.);
#122=FACE_BOUND('',#161,.T.);
#123=FACE_BOUND('',#162,.T.);
#124=FACE_BOUND('',#164,.T.);
#125=FACE_BOUND('',#165,.T.);
#126=EDGE_LOOP('',(#166));
#127=EDGE_LOOP('',(#167));
#128=EDGE_LOOP('',(#168));
#129=EDGE_LOOP('',(#169));
#130=EDGE_LOOP('',(#170));
#131=EDGE_LOOP('',(#171));
#132=EDGE_LOOP('',(#172));
#133=EDGE_LOOP('',(#173));
#134=EDGE_LOOP('',(#174));
#135=EDGE_LOOP('',(#175));
#136=EDGE_LOOP('',(#176));
#137=EDGE_LOOP('',(#177));
#138=EDGE_LOOP('',(#178));
#139=EDGE_LOOP('',(#179));
#140=EDGE_LOOP('',(#180));
#141=EDGE_LOOP('',(#181));
#142=EDGE_LOOP('',(#182));
#143=EDGE_LOOP('',(#183));
#144=EDGE_LOOP('',(#184));
#145=EDGE_LOOP('',(#185));
#146=EDGE_LOOP('',(#186));
#147=EDGE_LOOP('',(#187));
#148=EDGE_LOOP('',(#188));
#149=EDGE_LOOP('',(#189));
#150=EDGE_LOOP('',(#190));
#151=EDGE_LOOP('',(#191));
#152=EDGE_LOOP('',(#192));
#153=EDGE_LOOP('',(#193));
#154=EDGE_LOOP('',(#194));
#155=EDGE_LOOP('',(#195));
#156=EDGE_LOOP('',(#196));
#157=EDGE_LOOP('',(#197));
#158=EDGE_LOOP('',(#198));
#159=EDGE_LOOP('',(#199));
#160=EDGE_LOOP('',(#200));
#161=EDGE_LOOP('',(#201));
#162=EDGE_LOOP('',(#202));
#163=EDGE_LOOP('',(#203));
#164=EDGE_LOOP('',(#204));
#165=EDGE_LOOP('',(#205));
#166=ORIENTED_EDGE('',*,*,#226,.F.);
#167=ORIENTED_EDGE('',*,*,#227,.F.);
#168=ORIENTED_EDGE('',*,*,#228,.F.);
#169=ORIENTED_EDGE('',*,*,#229,.T.);
#170=ORIENTED_EDGE('',*,*,#228,.T.);
#171=ORIENTED_EDGE('',*,*,#230,.T.);
#172=ORIENTED_EDGE('',*,*,#231,.F.);
#173=ORIENTED_EDGE('',*,*,#229,.F.);
#174=ORIENTED_EDGE('',*,*,#230,.F.);
#175=ORIENTED_EDGE('',*,*,#232,.T.);
#176=ORIENTED_EDGE('',*,*,#226,.T.);
#177=ORIENTED_EDGE('',*,*,#231,.T.);
#178=ORIENTED_EDGE('',*,*,#232,.F.);
#179=ORIENTED_EDGE('',*,*,#233,.T.);
#180=ORIENTED_EDGE('',*,*,#227,.T.);
#181=ORIENTED_EDGE('',*,*,#234,.T.);
#182=ORIENTED_EDGE('',*,*,#235,.T.);
#183=ORIENTED_EDGE('',*,*,#234,.F.);
#184=ORIENTED_EDGE('',*,*,#236,.F.);
#185=ORIENTED_EDGE('',*,*,#235,.F.);
#186=ORIENTED_EDGE('',*,*,#237,.F.);
#187=ORIENTED_EDGE('',*,*,#238,.T.);
#188=ORIENTED_EDGE('',*,*,#239,.T.);
#189=ORIENTED_EDGE('',*,*,#236,.T.);
#190=ORIENTED_EDGE('',*,*,#240,.F.);
#191=ORIENTED_EDGE('',*,*,#241,.F.);
#192=ORIENTED_EDGE('',*,*,#240,.T.);
#193=ORIENTED_EDGE('',*,*,#233,.F.);
#194=ORIENTED_EDGE('',*,*,#241,.T.);
#195=ORIENTED_EDGE('',*,*,#237,.T.);
#196=ORIENTED_EDGE('',*,*,#242,.T.);
#197=ORIENTED_EDGE('',*,*,#239,.F.);
#198=ORIENTED_EDGE('',*,*,#243,.T.);
#199=ORIENTED_EDGE('',*,*,#243,.F.);
#200=ORIENTED_EDGE('',*,*,#242,.F.);
#201=ORIENTED_EDGE('',*,*,#244,.T.);
#202=ORIENTED_EDGE('',*,*,#238,.F.);
#203=ORIENTED_EDGE('',*,*,#245,.T.);
#204=ORIENTED_EDGE('',*,*,#245,.F.);
#205=ORIENTED_EDGE('',*,*,#244,.F.);
#206=VERTEX_POINT('',#386);
#207=VERTEX_POINT('',#388);
#208=VERTEX_POINT('',#391);
#209=VERTEX_POINT('',#393);
#210=VERTEX_POINT('',#397);
#211=VERTEX_POINT('',#399);
#212=VERTEX_POINT('',#403);
#213=VERTEX_POINT('',#407);
#214=VERTEX_POINT('',#410);
#215=VERTEX_POINT('',#412);
#216=VERTEX_POINT('',#415);
#217=VERTEX_POINT('',#418);
#218=VERTEX_POINT('',#478);
#219=VERTEX_POINT('',#537);
#220=VERTEX_POINT('',#539);
#221=VERTEX_POINT('',#542);
#222=VERTEX_POINT('',#547);
#223=VERTEX_POINT('',#550);
#224=VERTEX_POINT('',#554);
#225=VERTEX_POINT('',#557);
#226=EDGE_CURVE('',#206,#206,#246,.T.);
#227=EDGE_CURVE('',#207,#207,#247,.T.);
#228=EDGE_CURVE('',#208,#208,#248,.T.);
#229=EDGE_CURVE('',#209,#209,#249,.T.);
#230=EDGE_CURVE('',#210,#210,#250,.T.);
#231=EDGE_CURVE('',#211,#211,#251,.T.);
#232=EDGE_CURVE('',#212,#212,#252,.T.);
#233=EDGE_CURVE('',#213,#213,#253,.T.);
#234=EDGE_CURVE('',#214,#214,#254,.T.);
#235=EDGE_CURVE('',#215,#215,#255,.T.);
#236=EDGE_CURVE('',#216,#216,#256,.T.);
#237=EDGE_CURVE('',#217,#217,#257,.T.);
#238=EDGE_CURVE('',#218,#218,#43,.T.);
#239=EDGE_CURVE('',#219,#219,#44,.T.);
#240=EDGE_CURVE('',#220,#220,#258,.T.);
#241=EDGE_CURVE('',#221,#221,#259,.T.);
#242=EDGE_CURVE('',#222,#222,#260,.T.);
#243=EDGE_CURVE('',#223,#223,#261,.T.);
#244=EDGE_CURVE('',#224,#224,#262,.T.);
#245=EDGE_CURVE('',#225,#225,#263,.T.);
#246=CIRCLE('',#265,10.);
#247=CIRCLE('',#266,15.);
#248=CIRCLE('',#268,4.);
#249=CIRCLE('',#269,4.);
#250=CIRCLE('',#272,4.3135099835713);
#251=CIRCLE('',#273,6.);
#252=CIRCLE('',#276,10.);
#253=CIRCLE('',#279,15.);
#254=CIRCLE('',#281,8.);
#255=CIRCLE('',#282,2.38125);
#256=CIRCLE('',#284,9.);
#257=CIRCLE('',#286,2.38125);
#258=CIRCLE('',#288,9.);
#259=CIRCLE('',#290,11.2235428646924);
#260=CIRCLE('',#294,2.);
#261=CIRCLE('',#296,1.570585);
#262=CIRCLE('',#299,2.);
#263=CIRCLE('',#301,1.570585);
#264=AXIS2_PLACEMENT_3D('',#384,#304,#305);
#265=AXIS2_PLACEMENT_3D('',#385,#306,#307);
#266=AXIS2_PLACEMENT_3D('',#387,#308,#309);
#267=AXIS2_PLACEMENT_3D('',#389,#310,#311);
#268=AXIS2_PLACEMENT_3D('',#390,#312,#313);
#269=AXIS2_PLACEMENT_3D('',#392,#314,#315);
#270=AXIS2_PLACEMENT_3D('',#394,#316,#317);
#271=AXIS2_PLACEMENT_3D('',#395,#318,#319);
#272=AXIS2_PLACEMENT_3D('',#396,#320,#321);
#273=AXIS2_PLACEMENT_3D('',#398,#322,#323);
#274=AXIS2_PLACEMENT_3D('',#400,#324,#325);
#275=AXIS2_PLACEMENT_3D('',#401,#326,#327);
#276=AXIS2_PLACEMENT_3D('',#402,#328,#329);
#277=AXIS2_PLACEMENT_3D('',#404,#330,#331);
#278=AXIS2_PLACEMENT_3D('',#405,#332,#333);
#279=AXIS2_PLACEMENT_3D('',#406,#334,#335);
#280=AXIS2_PLACEMENT_3D('',#408,#336,#337);
#281=AXIS2_PLACEMENT_3D('',#409,#338,#339);
#282=AXIS2_PLACEMENT_3D('',#411,#340,#341);
#283=AXIS2_PLACEMENT_3D('',#413,#342,#343);
#284=AXIS2_PLACEMENT_3D('',#414,#344,#345);
#285=AXIS2_PLACEMENT_3D('',#416,#346,#347);
#286=AXIS2_PLACEMENT_3D('',#417,#348,#349);
#287=AXIS2_PLACEMENT_3D('',#419,#350,#351);
#288=AXIS2_PLACEMENT_3D('',#538,#352,#353);
#289=AXIS2_PLACEMENT_3D('',#540,#354,#355);
#290=AXIS2_PLACEMENT_3D('',#541,#356,#357);
#291=AXIS2_PLACEMENT_3D('',#543,#358,#359);
#292=AXIS2_PLACEMENT_3D('',#544,#360,#361);
#293=AXIS2_PLACEMENT_3D('',#545,#362,#363);
#294=AXIS2_PLACEMENT_3D('',#546,#364,#365);
#295=AXIS2_PLACEMENT_3D('',#548,#366,#367);
#296=AXIS2_PLACEMENT_3D('',#549,#368,#369);
#297=AXIS2_PLACEMENT_3D('',#551,#370,#371);
#298=AXIS2_PLACEMENT_3D('',#552,#372,#373);
#299=AXIS2_PLACEMENT_3D('',#553,#374,#375);
#300=AXIS2_PLACEMENT_3D('',#555,#376,#377);
#301=AXIS2_PLACEMENT_3D('',#556,#378,#379);
#302=AXIS2_PLACEMENT_3D('',#558,#380,#381);
#303=AXIS2_PLACEMENT_3D('',#559,#382,#383);
#304=DIRECTION('',(0.,0.,1.));
#305=DIRECTION('',(1.,0.,0.));
#306=DIRECTION('',(0.,0.,-1.));
#307=DIRECTION('',(1.,0.,0.));
#308=DIRECTION('',(0.,0.,1.));
#309=DIRECTION('',(1.,0.,0.));
#310=DIRECTION('',(0.,0.,1.));
#311=DIRECTION('',(0.,-1.,0.));
#312=DIRECTION('',(0.,0.,-1.));
#313=DIRECTION('',(-1.,0.,0.));
#314=DIRECTION('',(0.,0.,-1.));
#315=DIRECTION('',(-1.,0.,0.));
#316=DIRECTION('',(0.,0.,-1.));
#317=DIRECTION('',(0.,1.,0.));
#318=DIRECTION('',(0.,0.,-1.));
#319=DIRECTION('',(0.,1.,0.));
#320=DIRECTION('',(0.,0.,1.));
#321=DIRECTION('',(0.,1.,0.));
#322=DIRECTION('',(0.,0.,1.));
#323=DIRECTION('',(-1.,0.,0.));
#324=DIRECTION('',(0.,0.,1.));
#325=DIRECTION('',(0.,-1.,-1.43707679302621E-016));
#326=DIRECTION('',(0.,0.,-1.));
#327=DIRECTION('',(0.,1.,0.));
#328=DIRECTION('',(0.,0.,1.));
#329=DIRECTION('',(0.,-1.,0.));
#330=DIRECTION('',(0.,0.,1.));
#331=DIRECTION('',(0.,-1.,0.));
#332=DIRECTION('',(0.,0.,-1.));
#333=DIRECTION('',(0.,1.,0.));
#334=DIRECTION('',(0.,0.,-1.));
#335=DIRECTION('',(0.,1.,0.));
#336=DIRECTION('',(0.,0.,-1.));
#337=DIRECTION('',(0.,1.,0.));
#338=DIRECTION('',(0.,0.,1.));
#339=DIRECTION('',(0.,1.,0.));
#340=DIRECTION('',(0.,0.,-1.));
#341=DIRECTION('',(-1.,0.,0.));
#342=DIRECTION('',(0.,0.,-1.));
#343=DIRECTION('',(0.,1.,0.));
#344=DIRECTION('',(0.,0.,-1.));
#345=DIRECTION('',(0.,1.,0.));
#346=DIRECTION('',(0.,0.,-1.));
#347=DIRECTION('',(0.,1.,2.75080035833785E-017));
#348=DIRECTION('',(0.,0.,1.));
#349=DIRECTION('',(-1.,0.,0.));
#350=DIRECTION('',(0.,0.,-1.));
#351=DIRECTION('',(0.,1.,0.));
#352=DIRECTION('',(0.,0.,-1.));
#353=DIRECTION('',(0.,1.,0.));
#354=DIRECTION('',(0.,0.,-1.));
#355=DIRECTION('',(0.,1.,0.));
#356=DIRECTION('',(0.,0.,-1.));
#357=DIRECTION('',(0.,1.,0.));
#358=DIRECTION('',(0.,0.,-1.));
#359=DIRECTION('',(0.,1.,0.));
#360=DIRECTION('',(0.,0.,-1.));
#361=DIRECTION('',(0.,1.,8.34163345894382E-018));
#362=DIRECTION('',(0.,0.,-1.));
#363=DIRECTION('',(0.,1.,0.));
#364=DIRECTION('',(0.,1.,0.));
#365=DIRECTION('',(-0.546944138603989,0.,0.837169104331223));
#366=DIRECTION('',(0.,1.,0.));
#367=DIRECTION('',(0.546944138603989,0.,-0.837169104331223));
#368=DIRECTION('',(0.,-1.,0.));
#369=DIRECTION('',(-0.546944138603989,0.,0.837169104331224));
#370=DIRECTION('',(0.,-1.,0.));
#371=DIRECTION('',(-0.546944138603989,0.,0.837169104331222));
#372=DIRECTION('',(0.,1.,0.));
#373=DIRECTION('',(0.546944138603989,-2.07751314488241E-017,-0.837169104331222));
#374=DIRECTION('',(0.,1.,0.));
#375=DIRECTION('',(0.,0.,0.999999999999999));
#376=DIRECTION('',(0.,1.,0.));
#377=DIRECTION('',(0.,0.,-0.999999999999999));
#378=DIRECTION('',(0.,-1.,0.));
#379=DIRECTION('',(0.,0.,0.999999999999999));
#380=DIRECTION('',(0.,-1.,0.));
#381=DIRECTION('',(0.,0.,1.));
#382=DIRECTION('',(0.,1.,0.));
#383=DIRECTION('',(0.,-2.07751314488241E-017,-1.));
#384=CARTESIAN_POINT('',(0.,0.,0.));
#385=CARTESIAN_POINT('',(-9.34807244633295E-015,-6.73533494602307E-016,
0.));
#386=CARTESIAN_POINT('',(9.99999999999999,-6.73533494602307E-016,0.));
#387=CARTESIAN_POINT('',(0.,0.,0.));
#388=CARTESIAN_POINT('',(15.,0.,0.));
#389=CARTESIAN_POINT('',(0.,15.,0.));
#390=CARTESIAN_POINT('',(0.,0.,-28.));
#391=CARTESIAN_POINT('',(-4.,0.,-28.));
#392=CARTESIAN_POINT('',(0.,0.,-23.));
#393=CARTESIAN_POINT('',(-4.,0.,-23.));
#394=CARTESIAN_POINT('',(0.,0.,-100.81126254777));
#395=CARTESIAN_POINT('',(0.,0.,-28.));
#396=CARTESIAN_POINT('',(0.,0.,-23.));
#397=CARTESIAN_POINT('',(0.,4.3135099835713,-23.));
#398=CARTESIAN_POINT('',(0.,0.,-11.));
#399=CARTESIAN_POINT('',(-6.,0.,-11.));
#400=CARTESIAN_POINT('',(0.,0.,-23.));
#401=CARTESIAN_POINT('',(-3.5,0.,-23.));
#402=CARTESIAN_POINT('',(0.,0.,-11.));
#403=CARTESIAN_POINT('',(0.,-10.,-11.));
#404=CARTESIAN_POINT('',(0.,0.,-5.5));
#405=CARTESIAN_POINT('',(-6.,0.,-11.));
#406=CARTESIAN_POINT('',(0.,0.,5.));
#407=CARTESIAN_POINT('',(0.,15.,5.));
#408=CARTESIAN_POINT('',(0.,0.,-10.));
#409=CARTESIAN_POINT('',(0.,0.,40.));
#410=CARTESIAN_POINT('',(0.,8.,40.));
#411=CARTESIAN_POINT('',(0.,0.,40.));
#412=CARTESIAN_POINT('',(-2.38125,0.,40.));
#413=CARTESIAN_POINT('',(0.,2.38125,40.));
#414=CARTESIAN_POINT('',(0.,0.,39.));
#415=CARTESIAN_POINT('',(0.,9.,39.));
#416=CARTESIAN_POINT('',(0.,0.,39.));
#417=CARTESIAN_POINT('',(2.44921270764475E-015,0.,15.));
#418=CARTESIAN_POINT('',(-2.38125,0.,15.));
#419=CARTESIAN_POINT('',(0.,0.,-10.));
#420=CARTESIAN_POINT('',(-3.07314164626958E-016,-9.,21.25));
#421=CARTESIAN_POINT('',(-0.220826177942015,-9.,21.25));
#422=CARTESIAN_POINT('',(-0.444686917112876,-8.99143175791385,21.2876574402359));
#423=CARTESIAN_POINT('',(-0.652922569010858,-8.97628498427252,21.3595788514523));
#424=CARTESIAN_POINT('',(-0.861040237506385,-8.96114679258088,21.4314595130049));
#425=CARTESIAN_POINT('',(-1.05926097711719,-8.93915018765567,21.539413942973));
#426=CARTESIAN_POINT('',(-1.23208867441443,-8.9152654194017,21.6745770414331));
#427=CARTESIAN_POINT('',(-1.40747895528706,-8.89102650238693,21.8117442557932));
#428=CARTESIAN_POINT('',(-1.561558435197,-8.86434360780249,21.9806798745294));
#429=CARTESIAN_POINT('',(-1.68208457661677,-8.84141343208811,22.1680612415169));
#430=CARTESIAN_POINT('',(-1.80396312063909,-8.81822596091111,22.3575451818167));
#431=CARTESIAN_POINT('',(-1.89487539476375,-8.79842419678947,22.5713163856316));
#432=CARTESIAN_POINT('',(-1.94673208652688,-8.78693542614754,22.7914869867859));
#433=CARTESIAN_POINT('',(-1.99774982190952,-8.77563252500686,23.0080955880448));
#434=CARTESIAN_POINT('',(-2.01232528831452,-8.77217841584872,23.2369969824721));
#435=CARTESIAN_POINT('',(-1.98909774238113,-8.77744212007429,23.4585429722007));
#436=CARTESIAN_POINT('',(-1.96630391204539,-8.78260753795353,23.6759521516258));
#437=CARTESIAN_POINT('',(-1.90657706309185,-8.79623149750376,23.8922009278816));
#438=CARTESIAN_POINT('',(-1.81509049072371,-8.81506928563153,24.089908632224));
#439=CARTESIAN_POINT('',(-1.7228363894531,-8.83406511385712,24.2892750103301));
#440=CARTESIAN_POINT('',(-1.59588993459056,-8.85870843845973,24.4752129021118));
#441=CARTESIAN_POINT('',(-1.44432276669723,-8.88335138028436,24.6334492204631));
#442=CARTESIAN_POINT('',(-1.28937929650287,-8.90854326699161,24.7952104027622));
#443=CARTESIAN_POINT('',(-1.10438258837923,-8.93425139283343,24.9324800359678));
#444=CARTESIAN_POINT('',(-0.904132658051821,-8.9544706229148,25.0339686478871));
#445=CARTESIAN_POINT('',(-0.703479061312493,-8.97473061118293,25.1356618418692));
#446=CARTESIAN_POINT('',(-0.481768735675262,-8.98988683258557,25.2041933210578));
#447=CARTESIAN_POINT('',(-0.257882180922133,-8.99630461805084,25.233304510347));
#448=CARTESIAN_POINT('',(-0.0385868474554717,-9.00259079457125,25.261818719116));
#449=CARTESIAN_POINT('',(0.188894759136634,-9.00062528487688,25.2532889433099));
#450=CARTESIAN_POINT('',(0.405323846401466,-8.9908682884101,25.2084975311545));
#451=CARTESIAN_POINT('',(0.619337079164284,-8.9812202028302,25.1642060958556));
#452=CARTESIAN_POINT('',(0.828356158478807,-8.96378559021323,25.0833653840472));
#453=CARTESIAN_POINT('',(1.01589844363748,-8.9424801007447,24.9727740281926));
#454=CARTESIAN_POINT('',(1.20621607141517,-8.92085932220475,24.8605460872717));
#455=CARTESIAN_POINT('',(1.37961447827023,-8.89481482378647,24.7146993718555));
#456=CARTESIAN_POINT('',(1.52266638647245,-8.87025856869499,24.5467216646247));
#457=CARTESIAN_POINT('',(1.66842570709649,-8.8452375598585,24.3755647972074));
#458=CARTESIAN_POINT('',(1.78670167866892,-8.82125333197724,24.1765906751301));
#459=CARTESIAN_POINT('',(1.86744757378503,-8.8041262802827,23.9659885188775));
#460=CARTESIAN_POINT('',(1.94770844554186,-8.78710210713245,23.7566514048311));
#461=CARTESIAN_POINT('',(1.99304653751685,-8.77654863031743,23.5298520412491));
#462=CARTESIAN_POINT('',(1.9992408421574,-8.7751373809787,23.3051004087985));
#463=CARTESIAN_POINT('',(2.00529588896911,-8.77375785877163,23.0854015508206));
#464=CARTESIAN_POINT('',(1.97414799522992,-8.78107271663603,22.8616141796207));
#465=CARTESIAN_POINT('',(1.9086036622035,-8.79529601893099,22.6523110670061));
#466=CARTESIAN_POINT('',(1.84328746537459,-8.80946981503752,22.4437364630823));
#467=CARTESIAN_POINT('',(1.74217034364474,-8.83073890655973,22.2438871176424));
#468=CARTESIAN_POINT('',(1.61349512086338,-8.85418734243579,22.0682075076605));
#469=CARTESIAN_POINT('',(1.48212327647911,-8.8781271826193,21.8888462142804));
#470=CARTESIAN_POINT('',(1.31845241612599,-8.90481589922052,21.7297555161444));
#471=CARTESIAN_POINT('',(1.13536531698188,-8.92809865520059,21.6035050571002));
#472=CARTESIAN_POINT('',(0.949902259908268,-8.95168355616494,21.4756162205806));
#473=CARTESIAN_POINT('',(0.73921859660572,-8.97225696859687,21.3779145364321));
#474=CARTESIAN_POINT('',(0.520863351708964,-8.98491521211227,21.3190154405468));
#475=CARTESIAN_POINT('',(0.351963058869752,-8.99470650903116,21.2734563125869));
#476=CARTESIAN_POINT('',(0.175210766099,-9.,21.25));
#477=CARTESIAN_POINT('',(-3.07314164626958E-016,-9.,21.25));
#478=CARTESIAN_POINT('',(-3.07314164626958E-016,-9.,21.25));
#479=CARTESIAN_POINT('',(1.09388827720798,-8.93327534765312,32.0756617913376));
#480=CARTESIAN_POINT('',(0.90936583426188,-8.95587030072076,31.9551085266648));
#481=CARTESIAN_POINT('',(0.701474059439816,-8.97519498963474,31.8640278042737));
#482=CARTESIAN_POINT('',(0.486867946589206,-8.98682144045291,31.8101650579021));
#483=CARTESIAN_POINT('',(0.272133454572926,-8.99845484631087,31.7562700903866));
#484=CARTESIAN_POINT('',(0.0447315852401837,-9.00259791540536,31.7382516741925));
#485=CARTESIAN_POINT('',(-0.176065780164461,-8.99827765969994,31.7577648630106));
#486=CARTESIAN_POINT('',(-0.394134129966748,-8.99401080157563,31.7770368723354));
#487=CARTESIAN_POINT('',(-0.611694155309803,-8.98142198685362,31.8333759215401));
#488=CARTESIAN_POINT('',(-0.81115548425124,-8.96337139587383,31.9218788934075));
#489=CARTESIAN_POINT('',(-1.01190468294044,-8.94520425693872,32.0109533058676));
#490=CARTESIAN_POINT('',(-1.19977841717843,-8.92114948932402,32.1349168111206));
#491=CARTESIAN_POINT('',(-1.36032087839905,-8.89660199782994,32.2838734339111));
#492=CARTESIAN_POINT('',(-1.52431652283429,-8.87152650280991,32.4360340346748));
#493=CARTESIAN_POINT('',(-1.66431374847855,-8.84541904701276,32.618498165114));
#494=CARTESIAN_POINT('',(-1.76890259151131,-8.82445372936731,32.8167349670407));
#495=CARTESIAN_POINT('',(-1.87394082579149,-8.80339832916643,33.0158235413086));
#496=CARTESIAN_POINT('',(-1.94612635948219,-8.78713374236646,33.236531092937));
#497=CARTESIAN_POINT('',(-1.978878732772,-8.77975164574618,33.4601052587875));
#498=CARTESIAN_POINT('',(-2.01095952255613,-8.77252091813612,33.6790950630482));
#499=CARTESIAN_POINT('',(-2.00607140415782,-8.7736809658752,33.9069386260612));
#500=CARTESIAN_POINT('',(-1.96466626431863,-8.78294292762103,34.1242812710359));
#501=CARTESIAN_POINT('',(-1.92381199661174,-8.79208166416738,34.3387322941796));
#502=CARTESIAN_POINT('',(-1.84641276044529,-8.80924207922205,34.5487829811832));
#503=CARTESIAN_POINT('',(-1.73899490247056,-8.83039618189249,34.7378748550203));
#504=CARTESIAN_POINT('',(-1.62997488425393,-8.85186580251209,34.9297870744503));
#505=CARTESIAN_POINT('',(-1.48714436125083,-8.87785806727711,35.1053505723979));
#506=CARTESIAN_POINT('',(-1.32173840528552,-8.90241582875083,35.2510021945331));
#507=CARTESIAN_POINT('',(-1.15304498001903,-8.92746167958312,35.3995486654883));
#508=CARTESIAN_POINT('',(-0.956103324636728,-8.95153201139957,35.5210770146602));
#509=CARTESIAN_POINT('',(-0.746925272904383,-8.96895214819974,35.6052904453742));
#510=CARTESIAN_POINT('',(-0.538878400911762,-8.9862780814941,35.6890484720634));
#511=CARTESIAN_POINT('',(-0.312797652098982,-8.9973695370756,35.7381528833061));
#512=CARTESIAN_POINT('',(-0.0880842335715456,-8.99956894344369,35.7480593504188));
#513=CARTESIAN_POINT('',(0.131802175930121,-9.00172110495003,35.757753019353));
#514=CARTESIAN_POINT('',(0.356442313910112,-8.99541638835304,35.7302071961436));
#515=CARTESIAN_POINT('',(0.567132023437087,-8.98211340765592,35.6679054377086));
#516=CARTESIAN_POINT('',(0.77686124959423,-8.96887107202664,35.6058876979046));
#517=CARTESIAN_POINT('',(0.97845751156532,-8.94845017674907,35.5078675546112));
#518=CARTESIAN_POINT('',(1.1562472789438,-8.92541832240568,35.381898351594));
#519=CARTESIAN_POINT('',(1.33742558103522,-8.9019474988286,35.2535282735237));
#520=CARTESIAN_POINT('',(1.49884964939294,-8.87528312010046,35.0926624119657));
#521=CARTESIAN_POINT('',(1.62783811308075,-8.85156161801982,34.9119565730275));
#522=CARTESIAN_POINT('',(1.7586917886435,-8.82749709590385,34.7286376734555));
#523=CARTESIAN_POINT('',(1.85976651708592,-8.80598399973518,34.5196685865702));
#524=CARTESIAN_POINT('',(1.92221111909085,-8.79233213735944,34.3023625744414));
#525=CARTESIAN_POINT('',(1.98385106114857,-8.77885619262118,34.0878567634289));
#526=CARTESIAN_POINT('',(2.00949510358676,-8.77280459171383,33.8591551161189));
#527=CARTESIAN_POINT('',(1.99674520370514,-8.77570558938029,33.6359447875785));
#528=CARTESIAN_POINT('',(1.98425991607996,-8.77854637955136,33.4173669808025));
#529=CARTESIAN_POINT('',(1.93469066926479,-8.78999681927494,33.1980827659377));
#530=CARTESIAN_POINT('',(1.85239560569365,-8.80730551985151,32.9959240621749));
#531=CARTESIAN_POINT('',(1.76975306198773,-8.82468730415082,32.7929117697449));
#532=CARTESIAN_POINT('',(1.65198433373348,-8.8482839150159,32.6016539595607));
#533=CARTESIAN_POINT('',(1.50850806465009,-8.87267735347599,32.4368345805324));
#534=CARTESIAN_POINT('',(1.38818215113328,-8.89313483250912,32.2986093362215));
#535=CARTESIAN_POINT('',(1.24745676380951,-8.91447073672325,32.1759920390574));
#536=CARTESIAN_POINT('',(1.09388827720798,-8.93327534765312,32.0756617913376));
#537=CARTESIAN_POINT('',(1.09388827720798,-8.93327534765312,32.0756617913376));
#538=CARTESIAN_POINT('',(0.,0.,8.90967611852362));
#539=CARTESIAN_POINT('',(0.,9.,8.90967611852362));
#540=CARTESIAN_POINT('',(0.,0.,-10.));
#541=CARTESIAN_POINT('',(0.,0.,6.01189863965642));
#542=CARTESIAN_POINT('',(0.,11.2235428646924,6.01189863965642));
#543=CARTESIAN_POINT('',(0.,0.,8.90967611852362));
#544=CARTESIAN_POINT('',(0.,0.,6.01189863965642));
#545=CARTESIAN_POINT('',(0.,0.,15.));
#546=CARTESIAN_POINT('',(-7.34763812293426E-016,-9.070585,33.75));
#547=CARTESIAN_POINT('',(-1.09388827720798,-9.070585,35.4243382086624));
#548=CARTESIAN_POINT('',(-7.34763812293426E-016,-9.5,33.75));
#549=CARTESIAN_POINT('',(-7.34763812293426E-016,-9.5,33.75));
#550=CARTESIAN_POINT('',(-0.859022259929346,-9.5,35.0648452377261));
#551=CARTESIAN_POINT('',(-7.34763812293426E-016,-9.5,33.75));
#552=CARTESIAN_POINT('',(-7.34763812293426E-016,-9.070585,33.75));
#553=CARTESIAN_POINT('',(-7.34763812293426E-016,-9.070585,23.25));
#554=CARTESIAN_POINT('',(-7.34763812293426E-016,-9.070585,25.25));
#555=CARTESIAN_POINT('',(-7.34763812293426E-016,-9.5,23.25));
#556=CARTESIAN_POINT('',(-7.34763812293426E-016,-9.5,23.25));
#557=CARTESIAN_POINT('',(-7.34763812293426E-016,-9.5,24.820585));
#558=CARTESIAN_POINT('',(-7.34763812293426E-016,-9.5,23.25));
#559=CARTESIAN_POINT('',(-7.34763812293426E-016,-9.070585,23.25));
#560=MECHANICAL_DESIGN_GEOMETRIC_PRESENTATION_REPRESENTATION('',(#32),#561);
#561=(
GEOMETRIC_REPRESENTATION_CONTEXT(3)
GLOBAL_UNCERTAINTY_ASSIGNED_CONTEXT((#562))
GLOBAL_UNIT_ASSIGNED_CONTEXT((#568,#564,#563))
REPRESENTATION_CONTEXT('W9990461_stp','TOP_LEVEL_ASSEMBLY_PART')
);
#562=UNCERTAINTY_MEASURE_WITH_UNIT(LENGTH_MEASURE(0.0508),#568,
'DISTANCE_ACCURACY_VALUE','Maximum Tolerance applied to model');
#563=(
NAMED_UNIT(*)
SI_UNIT($,.STERADIAN.)
SOLID_ANGLE_UNIT()
);
#564=(
CONVERSION_BASED_UNIT('DEGREE',#566)
NAMED_UNIT(#565)
PLANE_ANGLE_UNIT()
);
#565=DIMENSIONAL_EXPONENTS(0.,0.,0.,0.,0.,0.,0.);
#566=PLANE_ANGLE_MEASURE_WITH_UNIT(PLANE_ANGLE_MEASURE(0.0174532925),#567);
#567=(
NAMED_UNIT(*)
PLANE_ANGLE_UNIT()
SI_UNIT($,.RADIAN.)
);
#568=(
LENGTH_UNIT()
NAMED_UNIT(*)
SI_UNIT(.MILLI.,.METRE.)
);
ENDSEC;
END-ISO-10303-21;
