  0
SECTION
  2
HEADER
  9
$ACADVER
  1
AC1014
  9
$ACADMAINTVER
 70
     9
  9
$DWGCODEPAGE
  3
ANSI_1252
  9
$INSBASE
 10
0.0
 20
0.0
 30
0.0
  9
$EXTMIN
 10
1.000000000000000E+20
 20
1.000000000000000E+20
 30
1.000000000000000E+20
  9
$EXTMAX
 10
-1.000000000000000E+20
 20
-1.000000000000000E+20
 30
-1.000000000000000E+20
  9
$LIMMIN
 10
0.0
 20
0.0
  9
$LIMMAX
 10
12.0
 20
9.0
  9
$ORTHOMODE
 70
     0
  9
$REGENMODE
 70
     1
  9
$FILLMODE
 70
     1
  9
$QTEXTMODE
 70
     0
  9
$MIRRTEXT
 70
     1
  9
$DRAGMODE
 70
     2
  9
$LTSCALE
 40
1.0
  9
$OSMODE
 70
    37
  9
$ATTMODE
 70
     1
  9
$TEXTSIZE
 40
0.2
  9
$TRACEWID
 40
0.05
  9
$TEXTSTYLE
  7
STANDARD
  9
$CLAYER
  8
0
  9
$CELTYPE
  6
BYLAYER
  9
$CECOLOR
 62
   256
  9
$CELTSCALE
 40
1.0
  9
$DELOBJ
 70
     1
  9
$DISPSILH
 70
     0
  9
$DIMSCALE
 40
1.0
  9
$DIMASZ
 40
0.18
  9
$DIMEXO
 40
0.0625
  9
$DIMDLI
 40
0.38
  9
$DIMRND
 40
0.0
  9
$DIMDLE
 40
0.0
  9
$DIMEXE
 40
0.18
  9
$DIMTP
 40
0.0
  9
$DIMTM
 40
0.0
  9
$DIMTXT
 40
0.18
  9
$DIMCEN
 40
0.09
  9
$DIMTSZ
 40
0.0
  9
$DIMTOL
 70
     0
  9
$DIMLIM
 70
     0
  9
$DIMTIH
 70
     1
  9
$DIMTOH
 70
     1
  9
$DIMSE1
 70
     0
  9
$DIMSE2
 70
     0
  9
$DIMTAD
 70
     0
  9
$DIMZIN
 70
     0
  9
$DIMBLK
  1

  9
$DIMASO
 70
     1
  9
$DIMSHO
 70
     1
  9
$DIMPOST
  1

  9
$DIMAPOST
  1

  9
$DIMALT
 70
     0
  9
$DIMALTD
 70
     2
  9
$DIMALTF
 40
25.4
  9
$DIMLFAC
 40
1.0
  9
$DIMTOFL
 70
     0
  9
$DIMTVP
 40
0.0
  9
$DIMTIX
 70
     0
  9
$DIMSOXD
 70
     0
  9
$DIMSAH
 70
     0
  9
$DIMBLK1
  1

  9
$DIMBLK2
  1

  9
$DIMSTYLE
  2
STANDARD
  9
$DIMCLRD
 70
     0
  9
$DIMCLRE
 70
     0
  9
$DIMCLRT
 70
     0
  9
$DIMTFAC
 40
1.0
  9
$DIMGAP
 40
0.09
  9
$DIMJUST
 70
     0
  9
$DIMSD1
 70
     0
  9
$DIMSD2
 70
     0
  9
$DIMTOLJ
 70
     1
  9
$DIMTZIN
 70
     0
  9
$DIMALTZ
 70
     0
  9
$DIMALTTZ
 70
     0
  9
$DIMFIT
 70
     3
  9
$DIMUPT
 70
     0
  9
$DIMUNIT
 70
     2
  9
$DIMDEC
 70
     4
  9
$DIMTDEC
 70
     4
  9
$DIMALTU
 70
     2
  9
$DIMALTTD
 70
     2
  9
$DIMTXSTY
  7
STANDARD
  9
$DIMAUNIT
 70
     0
  9
$LUNITS
 70
     2
  9
$LUPREC
 70
     4
  9
$SKETCHINC
 40
0.1
  9
$FILLETRAD
 40
0.5
  9
$AUNITS
 70
     0
  9
$AUPREC
 70
     0
  9
$MENU
  1
.
  9
$ELEVATION
 40
0.0
  9
$PELEVATION
 40
0.0
  9
$THICKNESS
 40
0.0
  9
$LIMCHECK
 70
     0
  9
$CHAMFERA
 40
0.5
  9
$CHAMFERB
 40
0.5
  9
$CHAMFERC
 40
1.0
  9
$CHAMFERD
 40
0.0
  9
$SKPOLY
 70
     0
  9
$TDCREATE
 40
2458442.354448322
  9
$TDUPDATE
 40
2458442.354448333
  9
$TDINDWG
 40
0.0000000116
  9
$TDUSRTIMER
 40
0.0000000116
  9
$USRTIMER
 70
     1
  9
$ANGBASE
 50
0.0
  9
$ANGDIR
 70
     0
  9
$PDMODE
 70
     0
  9
$PDSIZE
 40
0.0
  9
$PLINEWID
 40
0.0
  9
$COORDS
 70
     1
  9
$SPLFRAME
 70
     0
  9
$SPLINETYPE
 70
     6
  9
$SPLINESEGS
 70
     8
  9
$ATTDIA
 70
     0
  9
$ATTREQ
 70
     1
  9
$HANDLING
 70
     1
  9
$HANDSEED
  5
25F
  9
$SURFTAB1
 70
     6
  9
$SURFTAB2
 70
     6
  9
$SURFTYPE
 70
     6
  9
$SURFU
 70
     6
  9
$SURFV
 70
     6
  9
$UCSNAME
  2

  9
$UCSORG
 10
0.0
 20
0.0
 30
0.0
  9
$UCSXDIR
 10
1.0
 20
0.0
 30
0.0
  9
$UCSYDIR
 10
0.0
 20
1.0
 30
0.0
  9
$PUCSNAME
  2

  9
$PUCSORG
 10
0.0
 20
0.0
 30
0.0
  9
$PUCSXDIR
 10
1.0
 20
0.0
 30
0.0
  9
$PUCSYDIR
 10
0.0
 20
1.0
 30
0.0
  9
$USERI1
 70
     0
  9
$USERI2
 70
     0
  9
$USERI3
 70
     0
  9
$USERI4
 70
     0
  9
$USERI5
 70
     0
  9
$USERR1
 40
0.0
  9
$USERR2
 40
0.0
  9
$USERR3
 40
0.0
  9
$USERR4
 40
0.0
  9
$USERR5
 40
0.0
  9
$WORLDVIEW
 70
     1
  9
$SHADEDGE
 70
     3
  9
$SHADEDIF
 70
    70
  9
$TILEMODE
 70
     1
  9
$MAXACTVP
 70
    64
  9
$PINSBASE
 10
0.0
 20
0.0
 30
0.0
  9
$PLIMCHECK
 70
     0
  9
$PEXTMIN
 10
1.000000000000000E+20
 20
1.000000000000000E+20
 30
1.000000000000000E+20
  9
$PEXTMAX
 10
-1.000000000000000E+20
 20
-1.000000000000000E+20
 30
-1.000000000000000E+20
  9
$PLIMMIN
 10
0.0
 20
0.0
  9
$PLIMMAX
 10
12.0
 20
9.0
  9
$UNITMODE
 70
     0
  9
$VISRETAIN
 70
     1
  9
$PLINEGEN
 70
     0
  9
$PSLTSCALE
 70
     1
  9
$TREEDEPTH
 70
  3020
  9
$PICKSTYLE
 70
     1
  9
$CMLSTYLE
  2
STANDARD
  9
$CMLJUST
 70
     0
  9
$CMLSCALE
 40
1.0
  9
$PROXYGRAPHICS
 70
     1
  9
$MEASUREMENT
 70
     0
  0
ENDSEC
  0
SECTION
  2
CLASSES
  0
CLASS
  1
ACDBDICTIONARYWDFLT
  2
AcDbDictionaryWithDefault
  3
ObjectDBX Classes
 90
        0
280
     0
281
     0
  0
CLASS
  1
VISUALSTYLE
  2
AcDbVisualStyle
  3
ObjectDBX Classes
 90
     4095
280
     0
281
     0
  0
CLASS
  1
XRECORD
  2
AcDbXrecord
  3
AutoCAD 2000
 90
        0
280
     0
281
     0
  0
CLASS
  1
LWPOLYLINE
  2
AcDbPolyline
  3
AutoCAD 2000
 90
        0
280
     0
281
     1
  0
CLASS
  1
HATCH
  2
AcDbHatch
  3
AutoCAD 2000
 90
        0
280
     0
281
     1
  0
CLASS
  1
ACDBPLACEHOLDER
  2
AcDbPlaceHolder
  3
ObjectDBX Classes
 90
        0
280
     0
281
     0
  0
CLASS
  1
LAYOUT
  2
AcDbLayout
  3
ObjectDBX Classes
 90
        0
280
     0
281
     0
  0
ENDSEC
  0
SECTION
  2
TABLES
  0
TABLE
  2
VPORT
  5
8
330
0
100
AcDbSymbolTable
 70
     1
  0
VPORT
  5
29
330
8
100
AcDbSymbolTableRecord
100
AcDbViewportTableRecord
  2
*ACTIVE
 70
     0
 10
0.0
 20
0.0
 11
1.0
 21
1.0
 12
0.0
 22
0.0
 13
0.0
 23
0.0
 14
0.5
 24
0.5
 15
0.5
 25
0.5
 16
0.0
 26
0.0
 36
1.0
 17
72.70718992322946
 27
-19.46616752985568
 37
0.0
 40
44.53750541421284
 41
2.187031049366482
 42
50.0
 43
0.0
 44
0.0
 50
0.0
 51
0.0
 71
     0
 72
   100
 73
     1
 74
     3
 75
     0
 76
     0
 77
     0
 78
     0
  0
ENDTAB
  0
TABLE
  2
LTYPE
  5
5
330
0
100
AcDbSymbolTable
 70
     1
  0
LTYPE
  5
14
330
5
100
AcDbSymbolTableRecord
100
AcDbLinetypeTableRecord
  2
BYBLOCK
 70
     0
  3

 72
    65
 73
     0
 40
0.0
  0
LTYPE
  5
15
330
5
100
AcDbSymbolTableRecord
100
AcDbLinetypeTableRecord
  2
BYLAYER
 70
     0
  3

 72
    65
 73
     0
 40
0.0
  0
LTYPE
  5
16
330
5
100
AcDbSymbolTableRecord
100
AcDbLinetypeTableRecord
  2
CONTINUOUS
 70
     0
  3
Solid line
 72
    65
 73
     0
 40
0.0
  0
ENDTAB
  0
TABLE
  2
LAYER
  5
2
330
0
100
AcDbSymbolTable
 70
     5
  0
LAYER
  5
10
330
2
100
AcDbSymbolTableRecord
100
AcDbLayerTableRecord
  2
0
 70
     0
 62
     7
  6
CONTINUOUS
  0
LAYER
  5
3B
330
2
100
AcDbSymbolTableRecord
100
AcDbLayerTableRecord
  2
GRAU_10_
 70
     1
 62
     7
  6
CONTINUOUS
  0
LAYER
  5
40
330
2
100
AcDbSymbolTableRecord
100
AcDbLayerTableRecord
  2
STANDARDEBENE
 70
     0
 62
     7
  6
CONTINUOUS
  0
LAYER
  5
10A
330
2
100
AcDbSymbolTableRecord
100
AcDbLayerTableRecord
  2
BEMAßUNG
 70
     1
 62
     7
  6
CONTINUOUS
  0
LAYER
  5
23B
330
2
100
AcDbSymbolTableRecord
100
AcDbLayerTableRecord
  2
TEXT
 70
     1
 62
     7
  6
CONTINUOUS
  0
ENDTAB
  0
TABLE
  2
STYLE
  5
3
330
0
100
AcDbSymbolTable
 70
     1
  0
STYLE
  5
11
330
3
100
AcDbSymbolTableRecord
100
AcDbTextStyleTableRecord
  2
STANDARD
 70
     0
 40
0.0
 41
1.0
 50
0.0
 71
     0
 42
0.2
  3
txt
  4

  0
ENDTAB
  0
TABLE
  2
VIEW
  5
6
330
0
100
AcDbSymbolTable
 70
     0
  0
ENDTAB
  0
TABLE
  2
UCS
  5
7
330
0
100
AcDbSymbolTable
 70
     0
  0
ENDTAB
  0
TABLE
  2
APPID
  5
9
330
0
100
AcDbSymbolTable
 70
     1
  0
APPID
  5
12
330
9
100
AcDbSymbolTableRecord
100
AcDbRegAppTableRecord
  2
ACAD
 70
     0
  0
ENDTAB
  0
TABLE
  2
DIMSTYLE
  5
A
330
0
100
AcDbSymbolTable
 70
     1
  0
DIMSTYLE
105
27
330
A
100
AcDbSymbolTableRecord
100
AcDbDimStyleTableRecord
  2
STANDARD
 70
     0
  3

  4

  5

  6

  7

 40
1.0
 41
0.18
 42
0.0625
 43
0.38
 44
0.18
 45
0.0
 46
0.0
 47
0.0
 48
0.0
140
0.18
141
0.09
142
0.0
143
25.4
144
1.0
145
0.0
146
1.0
147
0.09
 71
     0
 72
     0
 73
     1
 74
     1
 75
     0
 76
     0
 77
     0
 78
     0
170
     0
171
     2
172
     0
173
     0
174
     0
175
     0
176
     0
177
     0
178
     0
270
     2
271
     4
272
     4
273
     2
274
     2
340
11
275
     0
280
     0
281
     0
282
     0
283
     1
284
     0
285
     0
286
     0
287
     3
288
     0
  0
ENDTAB
  0
TABLE
  2
BLOCK_RECORD
  5
1
330
0
100
AcDbSymbolTable
 70
     1
  0
BLOCK_RECORD
  5
1F
330
1
100
AcDbSymbolTableRecord
100
AcDbBlockTableRecord
  2
*MODEL_SPACE
  0
BLOCK_RECORD
  5
1B
330
1
100
AcDbSymbolTableRecord
100
AcDbBlockTableRecord
  2
*PAPER_SPACE
  0
ENDTAB
  0
ENDSEC
  0
SECTION
  2
BLOCKS
  0
BLOCK
  5
20
330
1F
100
AcDbEntity
  8
0
100
AcDbBlockBegin
  2
*MODEL_SPACE
 70
     0
 71
     0
 10
0.0
 20
0.0
 30
0.0
  3
*MODEL_SPACE
  1

  0
ENDBLK
  5
21
330
1F
100
AcDbEntity
  8
0
100
AcDbBlockEnd
  0
BLOCK
  5
1C
330
1B
100
AcDbEntity
 67
     1
  8
0
100
AcDbBlockBegin
  2
*PAPER_SPACE
 70
     0
 71
     0
 10
0.0
 20
0.0
 30
0.0
  3
*PAPER_SPACE
  1

  0
ENDBLK
  5
1D
330
1B
100
AcDbEntity
 67
     1
  8
0
100
AcDbBlockEnd
  0
ENDSEC
  0
SECTION
  2
ENTITIES
  0
SPLINE
  5
3C
330
1F
100
AcDbEntity
  8
GRAU_10_
100
AcDbSpline
210
0.0
220
0.0
230
1.0
 70
    11
 71
     3
 72
    50
 73
    46
 74
     0
 42
0.0000000001
 43
0.0000000001
 40
0.0
 40
0.0
 40
0.0
 40
0.0
 40
1.0
 40
1.0
 40
1.0
 40
2.0
 40
2.0
 40
2.0
 40
3.0
 40
3.0
 40
3.0
 40
4.0
 40
4.0
 40
4.0
 40
5.0
 40
5.0
 40
5.0
 40
6.0
 40
6.0
 40
6.0
 40
7.0
 40
7.0
 40
7.0
 40
8.0
 40
8.0
 40
8.0
 40
9.0
 40
9.0
 40
9.0
 40
10.0
 40
10.0
 40
10.0
 40
11.0
 40
11.0
 40
11.0
 40
12.0
 40
12.0
 40
12.0
 40
13.0
 40
13.0
 40
13.0
 40
14.0
 40
14.0
 40
14.0
 40
15.0
 40
15.0
 40
15.0
 40
15.0
 10
33.21468233761647
 20
-8.915218096729529
 30
0.0
 10
33.21468233761647
 20
-8.915218096729529
 30
0.0
 10
33.21468233761647
 20
-0.2537312824886505
 30
0.0
 10
33.21468233761647
 20
-0.2537312824886505
 30
0.0
 10
33.21468233761647
 20
-0.2537312824886505
 30
0.0
 10
33.54127738961815
 20
-0.2537312824886505
 30
0.0
 10
33.54127738961815
 20
-0.2537312824886505
 30
0.0
 10
33.54127738961815
 20
-0.2537312824886505
 30
0.0
 10
33.54127738961815
 20
2.607420518011339
 30
0.0
 10
33.54127738961815
 20
2.607420518011339
 30
0.0
 10
33.54127738961815
 20
2.607420518011339
 30
0.0
 10
36.50681558332121
 20
2.607420518011339
 30
0.0
 10
36.50681558332121
 20
2.607420518011339
 30
0.0
 10
36.50681558332121
 20
2.607420518011339
 30
0.0
 10
36.50681558332121
 20
-0.2537312824886505
 30
0.0
 10
36.50681558332121
 20
-0.2537312824886505
 30
0.0
 10
36.50681558332121
 20
-0.2537312824886505
 30
0.0
 10
39.79894882902596
 20
-0.2537312824886505
 30
0.0
 10
39.79894882902596
 20
-0.2537312824886505
 30
0.0
 10
39.79894882902596
 20
-0.2537312824886505
 30
0.0
 10
39.79894882902596
 20
2.607420518011339
 30
0.0
 10
39.79894882902596
 20
2.607420518011339
 30
0.0
 10
39.79894882902596
 20
2.607420518011339
 30
0.0
 10
42.81668021933056
 20
2.607420518011339
 30
0.0
 10
42.81668021933056
 20
2.607420518011339
 30
0.0
 10
42.81668021933056
 20
2.607420518011339
 30
0.0
 10
42.81668021933056
 20
-0.201365831112853
 30
0.0
 10
42.81668021933056
 20
-0.201365831112853
 30
0.0
 10
42.81668021933056
 20
-0.201365831112853
 30
0.0
 10
43.15636663417619
 20
-0.201365831112853
 30
0.0
 10
43.15636663417619
 20
-0.201365831112853
 30
0.0
 10
43.15636663417619
 20
-0.201365831112853
 30
0.0
 10
43.15636663417619
 20
-4.629863822627256
 30
0.0
 10
43.15636663417619
 20
-4.629863822627256
 30
0.0
 10
43.15636663417619
 20
-4.629863822627256
 30
0.0
 10
42.96034070106547
 20
-6.119350855675024
 30
0.0
 10
44.14924315302519
 20
-6.171544052276559
 30
0.0
 10
45.33814560498491
 20
-6.223737248878094
 30
0.0
 10
121.2528916797562
 20
-6.171544052276559
 30
0.0
 10
121.2528916797562
 20
-6.171544052276559
 30
0.0
 10
121.2528916797562
 20
-6.171544052276559
 30
0.0
 10
121.2528916797562
 20
-8.888863116267368
 30
0.0
 10
121.2528916797562
 20
-8.888863116267368
 30
0.0
 10
121.2528916797562
 20
-8.888863116267368
 30
0.0
 10
33.21468233761647
 20
-8.915218096729529
 30
0.0
 10
33.21468233761647
 20
-8.915218096729529
 30
0.0
  0
HATCH
  5
3D
330
1F
100
AcDbEntity
  8
GRAU_10_
 62
   255
100
AcDbHatch
 10
0.0
 20
0.0
 30
0.0
210
0.0
220
0.0
230
1.0
  2
SOLID
 70
     1
 71
     0
 91
        1
 92
        1
 93
        1
 72
     4
 94
        3
 73
     0
 74
     1
 95
       50
 96
       46
 40
0.0
 40
0.0
 40
0.0
 40
0.0
 40
1.0
 40
1.0
 40
1.0
 40
2.0
 40
2.0
 40
2.0
 40
3.0
 40
3.0
 40
3.0
 40
4.0
 40
4.0
 40
4.0
 40
5.0
 40
5.0
 40
5.0
 40
6.0
 40
6.0
 40
6.0
 40
7.0
 40
7.0
 40
7.0
 40
8.0
 40
8.0
 40
8.0
 40
9.0
 40
9.0
 40
9.0
 40
10.0
 40
10.0
 40
10.0
 40
11.0
 40
11.0
 40
11.0
 40
12.0
 40
12.0
 40
12.0
 40
13.0
 40
13.0
 40
13.0
 40
14.0
 40
14.0
 40
14.0
 40
15.0
 40
15.0
 40
15.0
 40
15.0
 10
33.21468233761647
 20
-8.915218096729529
 10
33.21468233761647
 20
-8.915218096729529
 10
33.21468233761647
 20
-0.2537312824886505
 10
33.21468233761647
 20
-0.2537312824886505
 10
33.21468233761647
 20
-0.2537312824886505
 10
33.54127738961815
 20
-0.2537312824886505
 10
33.54127738961815
 20
-0.2537312824886505
 10
33.54127738961815
 20
-0.2537312824886505
 10
33.54127738961815
 20
2.607420518011339
 10
33.54127738961815
 20
2.607420518011339
 10
33.54127738961815
 20
2.607420518011339
 10
36.50681558332121
 20
2.607420518011339
 10
36.50681558332121
 20
2.607420518011339
 10
36.50681558332121
 20
2.607420518011339
 10
36.50681558332121
 20
-0.2537312824886505
 10
36.50681558332121
 20
-0.2537312824886505
 10
36.50681558332121
 20
-0.2537312824886505
 10
39.79894882902596
 20
-0.2537312824886505
 10
39.79894882902596
 20
-0.2537312824886505
 10
39.79894882902596
 20
-0.2537312824886505
 10
39.79894882902596
 20
2.607420518011339
 10
39.79894882902596
 20
2.607420518011339
 10
39.79894882902596
 20
2.607420518011339
 10
42.81668021933056
 20
2.607420518011339
 10
42.81668021933056
 20
2.607420518011339
 10
42.81668021933056
 20
2.607420518011339
 10
42.81668021933056
 20
-0.201365831112853
 10
42.81668021933056
 20
-0.201365831112853
 10
42.81668021933056
 20
-0.201365831112853
 10
43.15636663417619
 20
-0.201365831112853
 10
43.15636663417619
 20
-0.201365831112853
 10
43.15636663417619
 20
-0.201365831112853
 10
43.15636663417619
 20
-4.629863822627256
 10
43.15636663417619
 20
-4.629863822627256
 10
43.15636663417619
 20
-4.629863822627256
 10
42.96034070106547
 20
-6.119350855675024
 10
44.14924315302519
 20
-6.171544052276559
 10
45.33814560498491
 20
-6.223737248878094
 10
121.2528916797562
 20
-6.171544052276559
 10
121.2528916797562
 20
-6.171544052276559
 10
121.2528916797562
 20
-6.171544052276559
 10
121.2528916797562
 20
-8.888863116267368
 10
121.2528916797562
 20
-8.888863116267368
 10
121.2528916797562
 20
-8.888863116267368
 10
33.21468233761647
 20
-8.915218096729529
 10
33.21468233761647
 20
-8.915218096729529
 97
        0
 75
     0
 76
     1
 98
        0
  0
SPLINE
  5
3E
330
1F
100
AcDbEntity
  8
GRAU_10_
100
AcDbSpline
210
0.0
220
0.0
230
1.0
 70
    11
 71
     3
 72
    41
 73
    37
 74
     0
 42
0.0000000001
 43
0.0000000001
 40
0.0
 40
0.0
 40
0.0
 40
0.0
 40
1.0
 40
1.0
 40
1.0
 40
2.0
 40
2.0
 40
2.0
 40
3.0
 40
3.0
 40
3.0
 40
4.0
 40
4.0
 40
4.0
 40
5.0
 40
5.0
 40
5.0
 40
6.0
 40
6.0
 40
6.0
 40
7.0
 40
7.0
 40
7.0
 40
8.0
 40
8.0
 40
8.0
 40
9.0
 40
9.0
 40
9.0
 40
10.0
 40
10.0
 40
10.0
 40
11.0
 40
11.0
 40
11.0
 40
12.0
 40
12.0
 40
12.0
 40
12.0
 10
41.16647948189588
 20
-34.00515949670704
 30
0.0
 10
40.33741725337051
 20
-34.64009059463859
 30
0.0
 10
39.30078802185884
 20
-35.01698404072492
 30
0.0
 10
38.17596434592476
 20
-35.01698404072492
 30
0.0
 10
35.45640596986854
 20
-35.01698404072492
 30
0.0
 10
33.25171711408291
 20
-32.81212293016502
 30
0.0
 10
33.25171711408291
 20
-30.0925645541088
 30
0.0
 10
33.25171711408291
 20
-27.37300617805258
 30
0.0
 10
35.45640596986854
 20
-25.16848957704121
 30
0.0
 10
38.17596434592476
 20
-25.16848957704121
 30
0.0
 10
39.2982042002449
 20
-25.16848957704121
 30
0.0
 10
40.33276637446542
 20
-25.54366047538492
 30
0.0
 10
41.16096732911948
 20
-26.17583549692826
 30
0.0
 10
41.16096732911948
 20
-26.17583549692826
 30
0.0
 10
41.77987873304462
 20
-26.67089571815866
 30
0.0
 10
41.77987873304462
 20
-26.67089571815866
 30
0.0
 10
41.77987873304462
 20
-26.67089571815866
 30
0.0
 10
42.42049423852682
 20
-27.34992403830141
 30
0.0
 10
43.57356769743994
 20
-27.36301540114536
 30
0.0
 10
44.72664115635306
 20
-27.37576225444078
 30
0.0
 10
118.485446476455
 20
-27.37576225444078
 30
0.0
 10
118.485446476455
 20
-27.37576225444078
 30
0.0
 10
118.485446476455
 20
-27.37576225444078
 30
0.0
 10
121.111642764861
 20
-27.6448242118388
 30
0.0
 10
121.2139621007729
 20
-29.74598794829267
 30
0.0
 10
121.3166259462333
 20
-31.84715168474655
 30
0.0
 10
119.9075818927662
 20
-32.87206759160837
 30
0.0
 10
118.6263508818018
 20
-32.87206759160837
 30
0.0
 10
117.3447753612888
 20
-32.87206759160837
 30
0.0
 10
43.84314641916075
 20
-32.87206759160837
 30
0.0
 10
43.84314641916075
 20
-32.87206759160837
 30
0.0
 10
43.84314641916075
 20
-32.87206759160837
 30
0.0
 10
42.63856878274314
 20
-32.85897622876443
 30
0.0
 10
42.1133639760168
 20
-33.25654024776225
 30
0.0
 10
41.58815916929046
 20
-33.65375975721156
 30
0.0
 10
41.16647948189588
 20
-34.00515949670704
 30
0.0
 10
41.16647948189588
 20
-34.00515949670704
 30
0.0
  0
HATCH
  5
3F
330
1F
100
AcDbEntity
  8
GRAU_10_
 62
   255
100
AcDbHatch
 10
0.0
 20
0.0
 30
0.0
210
0.0
220
0.0
230
1.0
  2
SOLID
 70
     1
 71
     0
 91
        1
 92
        1
 93
        1
 72
     4
 94
        3
 73
     0
 74
     1
 95
       41
 96
       37
 40
0.0
 40
0.0
 40
0.0
 40
0.0
 40
1.0
 40
1.0
 40
1.0
 40
2.0
 40
2.0
 40
2.0
 40
3.0
 40
3.0
 40
3.0
 40
4.0
 40
4.0
 40
4.0
 40
5.0
 40
5.0
 40
5.0
 40
6.0
 40
6.0
 40
6.0
 40
7.0
 40
7.0
 40
7.0
 40
8.0
 40
8.0
 40
8.0
 40
9.0
 40
9.0
 40
9.0
 40
10.0
 40
10.0
 40
10.0
 40
11.0
 40
11.0
 40
11.0
 40
12.0
 40
12.0
 40
12.0
 40
12.0
 10
41.16647948189588
 20
-34.00515949670704
 10
40.33741725337051
 20
-34.64009059463859
 10
39.30078802185884
 20
-35.01698404072492
 10
38.17596434592476
 20
-35.01698404072492
 10
35.45640596986854
 20
-35.01698404072492
 10
33.25171711408291
 20
-32.81212293016502
 10
33.25171711408291
 20
-30.0925645541088
 10
33.25171711408291
 20
-27.37300617805258
 10
35.45640596986854
 20
-25.16848957704121
 10
38.17596434592476
 20
-25.16848957704121
 10
39.2982042002449
 20
-25.16848957704121
 10
40.33276637446542
 20
-25.54366047538492
 10
41.16096732911948
 20
-26.17583549692826
 10
41.16096732911948
 20
-26.17583549692826
 10
41.77987873304462
 20
-26.67089571815866
 10
41.77987873304462
 20
-26.67089571815866
 10
41.77987873304462
 20
-26.67089571815866
 10
42.42049423852682
 20
-27.34992403830141
 10
43.57356769743994
 20
-27.36301540114536
 10
44.72664115635306
 20
-27.37576225444078
 10
118.485446476455
 20
-27.37576225444078
 10
118.485446476455
 20
-27.37576225444078
 10
118.485446476455
 20
-27.37576225444078
 10
121.111642764861
 20
-27.6448242118388
 10
121.2139621007729
 20
-29.74598794829267
 10
121.3166259462333
 20
-31.84715168474655
 10
119.9075818927662
 20
-32.87206759160837
 10
118.6263508818018
 20
-32.87206759160837
 10
117.3447753612888
 20
-32.87206759160837
 10
43.84314641916075
 20
-32.87206759160837
 10
43.84314641916075
 20
-32.87206759160837
 10
43.84314641916075
 20
-32.87206759160837
 10
42.63856878274314
 20
-32.85897622876443
 10
42.1133639760168
 20
-33.25654024776225
 10
41.58815916929046
 20
-33.65375975721156
 10
41.16647948189588
 20
-34.00515949670704
 10
41.16647948189588
 20
-34.00515949670704
 97
        0
 75
     0
 76
     1
 98
        0
  0
POLYLINE
  5
41
330
1F
100
AcDbEntity
  8
STANDARDEBENE
 62
     7
100
AcDb2dPolyline
 66
     1
 10
0.0
 20
0.0
 30
0.0
  0
VERTEX
  5
42
330
41
100
AcDbEntity
  8
STANDARDEBENE
 62
     7
100
AcDbVertex
100
AcDb2dVertex
 10
42.29939913222029
 20
-8.923486325894128
 30
0.0
  0
VERTEX
  5
43
330
41
100
AcDbEntity
  8
STANDARDEBENE
 62
     7
100
AcDbVertex
100
AcDb2dVertex
 10
42.29939913222029
 20
-5.677000595368945
 30
0.0
  0
SEQEND
  5
44
330
41
100
AcDbEntity
  8
STANDARDEBENE
  0
SPLINE
  5
45
330
1F
100
AcDbEntity
  8
STANDARDEBENE
 62
   250
100
AcDbSpline
210
0.0
220
0.0
230
1.0
 70
    11
 71
     3
 72
    17
 73
    13
 74
     0
 42
0.0000000001
 43
0.0000000001
 40
0.0
 40
0.0
 40
0.0
 40
0.0
 40
1.0
 40
1.0
 40
1.0
 40
2.0
 40
2.0
 40
2.0
 40
3.0
 40
3.0
 40
3.0
 40
4.0
 40
4.0
 40
4.0
 40
4.0
 10
43.13362900397354
 20
-30.1008327832734
 30
0.0
 10
43.13362900397354
 20
-27.36714951572766
 30
0.0
 10
40.91722682353806
 20
-25.15091959006644
 30
0.0
 10
38.18371581076657
 20
-25.15091959006644
 30
0.0
 10
35.44986028844657
 20
-25.15091959006644
 30
0.0
 10
33.23345810801108
 20
-27.36714951572766
 30
0.0
 10
33.23345810801108
 20
-30.1008327832734
 30
0.0
 10
33.23345810801108
 20
-32.83451605081915
 30
0.0
 10
35.44986028844657
 20
-35.05074597648037
 30
0.0
 10
38.18371581076657
 20
-35.05074597648037
 30
0.0
 10
40.91722682353806
 20
-35.05074597648037
 30
0.0
 10
43.13362900397354
 20
-32.83451605081915
 30
0.0
 10
43.13362900397354
 20
-30.1008327832734
 30
0.0
  0
POLYLINE
  5
46
330
1F
100
AcDbEntity
  8
STANDARDEBENE
 62
   250
100
AcDb2dPolyline
 66
     1
 10
0.0
 20
0.0
 30
0.0
  0
VERTEX
  5
47
330
46
100
AcDbEntity
  8
STANDARDEBENE
 62
   250
100
AcDbVertex
100
AcDb2dVertex
 10
39.86113280253472
 20
-25.44375270631268
 30
0.0
  0
VERTEX
  5
48
330
46
100
AcDbEntity
  8
STANDARDEBENE
 62
   250
100
AcDbVertex
100
AcDb2dVertex
 10
39.86113280253472
 20
-27.25897351749081
 30
0.0
  0
SEQEND
  5
49
330
46
100
AcDbEntity
  8
STANDARDEBENE
  0
POLYLINE
  5
4A
330
1F
100
AcDbEntity
  8
STANDARDEBENE
 62
   250
100
AcDb2dPolyline
 66
     1
 10
0.0
 20
0.0
 30
0.0
  0
VERTEX
  5
4B
330
4A
100
AcDbEntity
  8
STANDARDEBENE
 62
   250
100
AcDbVertex
100
AcDb2dVertex
 10
41.02557507654917
 20
-28.42307128195673
 30
0.0
  0
VERTEX
  5
4C
330
4A
100
AcDbEntity
  8
STANDARDEBENE
 62
   250
100
AcDbVertex
100
AcDb2dVertex
 10
42.84062363295304
 20
-28.42307128195673
 30
0.0
  0
SEQEND
  5
4D
330
4A
100
AcDbEntity
  8
STANDARDEBENE
  0
SPLINE
  5
4E
330
1F
100
AcDbEntity
  8
STANDARDEBENE
 62
   250
100
AcDbSpline
210
0.0
220
0.0
230
1.0
 70
     8
 71
     3
 72
     8
 73
     4
 74
     0
 42
0.0000000001
 43
0.0000000001
 40
0.0
 40
0.0
 40
0.0
 40
0.0
 40
1.0
 40
1.0
 40
1.0
 40
1.0
 10
41.02557507654917
 20
-28.42307128195673
 30
0.0
 10
40.72774657184932
 20
-27.91939832201321
 30
0.0
 10
40.31743569955606
 20
-27.523556850758
 30
0.0
 10
39.86113280253472
 20
-27.25897351749081
 30
0.0
  0
POLYLINE
  5
4F
330
1F
100
AcDbEntity
  8
STANDARDEBENE
 62
   250
100
AcDb2dPolyline
 66
     1
 10
0.0
 20
0.0
 30
0.0
  0
VERTEX
  5
50
330
4F
100
AcDbEntity
  8
STANDARDEBENE
 62
   250
100
AcDbVertex
100
AcDb2dVertex
 10
36.5059543094499
 20
-27.25897351749081
 30
0.0
  0
VERTEX
  5
51
330
4F
100
AcDbEntity
  8
STANDARDEBENE
 62
   250
100
AcDbVertex
100
AcDb2dVertex
 10
36.5059543094499
 20
-25.44375270631268
 30
0.0
  0
SEQEND
  5
52
330
4F
100
AcDbEntity
  8
STANDARDEBENE
  0
SPLINE
  5
53
330
1F
100
AcDbEntity
  8
STANDARDEBENE
 62
   250
100
AcDbSpline
210
0.0
220
0.0
230
1.0
 70
     8
 71
     3
 72
     8
 73
     4
 74
     0
 42
0.0000000001
 43
0.0000000001
 40
0.0
 40
0.0
 40
0.0
 40
0.0
 40
1.0
 40
1.0
 40
1.0
 40
1.0
 10
36.5059543094499
 20
-27.25897351749081
 30
0.0
 10
36.00210909473211
 20
-27.5566297674164
 30
0.0
 10
35.60661213302543
 20
-27.96728514925818
 30
0.0
 10
35.34168429020972
 20
-28.42307128195673
 30
0.0
  0
POLYLINE
  5
54
330
1F
100
AcDbEntity
  8
STANDARDEBENE
 62
   250
100
AcDb2dPolyline
 66
     1
 10
0.0
 20
0.0
 30
0.0
  0
VERTEX
  5
55
330
54
100
AcDbEntity
  8
STANDARDEBENE
 62
   250
100
AcDbVertex
100
AcDb2dVertex
 10
33.52646347903158
 20
-28.42307128195673
 30
0.0
  0
VERTEX
  5
56
330
54
100
AcDbEntity
  8
STANDARDEBENE
 62
   250
100
AcDbVertex
100
AcDb2dVertex
 10
35.34168429020972
 20
-28.42307128195673
 30
0.0
  0
SEQEND
  5
57
330
54
100
AcDbEntity
  8
STANDARDEBENE
  0
POLYLINE
  5
58
330
1F
100
AcDbEntity
  8
STANDARDEBENE
 62
   250
100
AcDb2dPolyline
 66
     1
 10
0.0
 20
0.0
 30
0.0
  0
VERTEX
  5
59
330
58
100
AcDbEntity
  8
STANDARDEBENE
 62
   250
100
AcDbVertex
100
AcDb2dVertex
 10
35.34168429020972
 20
-31.77824977504155
 30
0.0
  0
VERTEX
  5
5A
330
58
100
AcDbEntity
  8
STANDARDEBENE
 62
   250
100
AcDbVertex
100
AcDb2dVertex
 10
33.52646347903158
 20
-31.77824977504155
 30
0.0
  0
SEQEND
  5
5B
330
58
100
AcDbEntity
  8
STANDARDEBENE
  0
SPLINE
  5
5C
330
1F
100
AcDbEntity
  8
STANDARDEBENE
 62
   250
100
AcDbSpline
210
0.0
220
0.0
230
1.0
 70
     8
 71
     3
 72
     8
 73
     4
 74
     0
 42
0.0000000001
 43
0.0000000001
 40
0.0
 40
0.0
 40
0.0
 40
0.0
 40
1.0
 40
1.0
 40
1.0
 40
1.0
 10
35.34168429020972
 20
-31.77824977504155
 30
0.0
 10
35.63934054013531
 20
-32.2822672445336
 30
0.0
 10
36.04965141242856
 20
-32.67810871578881
 30
0.0
 10
36.5059543094499
 20
-32.94269204905599
 30
0.0
  0
POLYLINE
  5
5D
330
1F
100
AcDbEntity
  8
STANDARDEBENE
 62
   250
100
AcDb2dPolyline
 66
     1
 10
0.0
 20
0.0
 30
0.0
  0
VERTEX
  5
5E
330
5D
100
AcDbEntity
  8
STANDARDEBENE
 62
   250
100
AcDbVertex
100
AcDb2dVertex
 10
36.5059543094499
 20
-34.75825736978266
 30
0.0
  0
VERTEX
  5
5F
330
5D
100
AcDbEntity
  8
STANDARDEBENE
 62
   250
100
AcDbVertex
100
AcDb2dVertex
 10
36.5059543094499
 20
-32.94269204905599
 30
0.0
  0
SEQEND
  5
60
330
5D
100
AcDbEntity
  8
STANDARDEBENE
  0
POLYLINE
  5
61
330
1F
100
AcDbEntity
  8
STANDARDEBENE
 62
   250
100
AcDb2dPolyline
 66
     1
 10
0.0
 20
0.0
 30
0.0
  0
VERTEX
  5
62
330
61
100
AcDbEntity
  8
STANDARDEBENE
 62
   250
100
AcDbVertex
100
AcDb2dVertex
 10
39.86113280253472
 20
-32.94269204905599
 30
0.0
  0
VERTEX
  5
63
330
61
100
AcDbEntity
  8
STANDARDEBENE
 62
   250
100
AcDbVertex
100
AcDb2dVertex
 10
39.86113280253472
 20
-34.75825736978266
 30
0.0
  0
SEQEND
  5
64
330
61
100
AcDbEntity
  8
STANDARDEBENE
  0
SPLINE
  5
65
330
1F
100
AcDbEntity
  8
STANDARDEBENE
 62
   250
100
AcDbSpline
210
0.0
220
0.0
230
1.0
 70
     8
 71
     3
 72
     8
 73
     4
 74
     0
 42
0.0000000001
 43
0.0000000001
 40
0.0
 40
0.0
 40
0.0
 40
0.0
 40
1.0
 40
1.0
 40
1.0
 40
1.0
 10
39.86113280253472
 20
-32.94269204905599
 30
0.0
 10
40.3649780172525
 20
-32.64538030867893
 30
0.0
 10
40.76064723373345
 20
-32.23472492683715
 30
0.0
 10
41.02557507654917
 20
-31.77824977504155
 30
0.0
  0
POLYLINE
  5
66
330
1F
100
AcDbEntity
  8
STANDARDEBENE
 62
   250
100
AcDb2dPolyline
 66
     1
 10
0.0
 20
0.0
 30
0.0
  0
VERTEX
  5
67
330
66
100
AcDbEntity
  8
STANDARDEBENE
 62
   250
100
AcDbVertex
100
AcDb2dVertex
 10
42.84062363295304
 20
-31.77824977504155
 30
0.0
  0
VERTEX
  5
68
330
66
100
AcDbEntity
  8
STANDARDEBENE
 62
   250
100
AcDbVertex
100
AcDb2dVertex
 10
41.02557507654917
 20
-31.77824977504155
 30
0.0
  0
SEQEND
  5
69
330
66
100
AcDbEntity
  8
STANDARDEBENE
  0
SPLINE
  5
6A
330
1F
100
AcDbEntity
  8
STANDARDEBENE
 62
   250
100
AcDbSpline
210
0.0
220
0.0
230
1.0
 70
     8
 71
     3
 72
     8
 73
     4
 74
     0
 42
0.0000000001
 43
0.0000000001
 40
0.0
 40
0.0
 40
0.0
 40
0.0
 40
1.0
 40
1.0
 40
1.0
 40
1.0
 10
41.48360052131313
 20
-30.1008327832734
 30
0.0
 10
41.48360052131313
 20
-29.48243814367106
 30
0.0
 10
41.31341280434179
 20
-28.90331759260056
 30
0.0
 10
41.02557507654917
 20
-28.42307128195673
 30
0.0
  0
SPLINE
  5
6B
330
1F
100
AcDbEntity
  8
STANDARDEBENE
 62
   250
100
AcDbSpline
210
0.0
220
0.0
230
1.0
 70
     8
 71
     3
 72
     8
 73
     4
 74
     0
 42
0.0000000001
 43
0.0000000001
 40
0.0
 40
0.0
 40
0.0
 40
0.0
 40
1.0
 40
1.0
 40
1.0
 40
1.0
 10
39.86113280253472
 20
-27.25897351749081
 30
0.0
 10
38.79573702372121
 20
-26.62989908188419
 30
0.0
 10
37.52070718463024
 20
-26.66848415131899
 30
0.0
 10
36.5059543094499
 20
-27.25897351749081
 30
0.0
  0
SPLINE
  5
6C
330
1F
100
AcDbEntity
  8
STANDARDEBENE
 62
   250
100
AcDbSpline
210
0.0
220
0.0
230
1.0
 70
     8
 71
     3
 72
     8
 73
     4
 74
     0
 42
0.0000000001
 43
0.0000000001
 40
0.0
 40
0.0
 40
0.0
 40
0.0
 40
1.0
 40
1.0
 40
1.0
 40
1.0
 10
35.34168429020972
 20
-28.42307128195673
 30
0.0
 10
34.71278210937736
 20
-29.48898382509303
 30
0.0
 10
34.7511949240379
 20
-30.76366915463547
 30
0.0
 10
35.34168429020972
 20
-31.77824977504155
 30
0.0
  0
SPLINE
  5
6D
330
1F
100
AcDbEntity
  8
STANDARDEBENE
 62
   250
100
AcDbSpline
210
0.0
220
0.0
230
1.0
 70
     8
 71
     3
 72
     8
 73
     4
 74
     0
 42
0.0000000001
 43
0.0000000001
 40
0.0
 40
0.0
 40
0.0
 40
0.0
 40
1.0
 40
1.0
 40
1.0
 40
1.0
 10
41.02557507654917
 20
-31.77824977504155
 30
0.0
 10
41.33976778480395
 20
-31.2452935034734
 30
0.0
 10
41.4873901263469
 20
-30.6606607996265
 30
0.0
 10
41.48360052131313
 20
-30.1008327832734
 30
0.0
  0
POLYLINE
  5
6E
330
1F
100
AcDbEntity
  8
STANDARDEBENE
 62
   250
100
AcDb2dPolyline
 66
     1
 10
0.0
 20
0.0
 30
0.0
  0
VERTEX
  5
6F
330
6E
100
AcDbEntity
  8
STANDARDEBENE
 62
   250
100
AcDbVertex
100
AcDb2dVertex
 10
118.4837239287124
 20
-32.85070799959983
 30
0.0
  0
VERTEX
  5
70
330
6E
100
AcDbEntity
  8
STANDARDEBENE
 62
   250
100
AcDbVertex
100
AcDb2dVertex
 10
43.57270642356863
 20
-32.85070799959983
 30
0.0
  0
SEQEND
  5
71
330
6E
100
AcDbEntity
  8
STANDARDEBENE
  0
SPLINE
  5
72
330
1F
100
AcDbEntity
  8
STANDARDEBENE
 62
   250
100
AcDbSpline
210
0.0
220
0.0
230
1.0
 70
     8
 71
     3
 72
     8
 73
     4
 74
     0
 42
0.0000000001
 43
0.0000000001
 40
0.0
 40
0.0
 40
0.0
 40
0.0
 40
1.0
 40
1.0
 40
1.0
 40
1.0
 10
36.5059543094499
 20
-32.94269204905599
 30
0.0
 10
37.5718668525862
 20
-33.57176648466262
 30
0.0
 10
38.84655218212864
 20
-33.53318141522782
 30
0.0
 10
39.86113280253472
 20
-32.94269204905599
 30
0.0
  0
POLYLINE
  5
73
330
1F
100
AcDbEntity
  8
STANDARDEBENE
 62
   250
100
AcDb2dPolyline
 66
     1
 10
0.0
 20
0.0
 30
0.0
  0
VERTEX
  5
74
330
73
100
AcDbEntity
  8
STANDARDEBENE
 62
   250
100
AcDbVertex
100
AcDb2dVertex
 10
43.57270642356863
 20
-27.35095756694698
 30
0.0
  0
VERTEX
  5
75
330
73
100
AcDbEntity
  8
STANDARDEBENE
 62
   250
100
AcDbVertex
100
AcDb2dVertex
 10
118.4837239287124
 20
-27.35095756694698
 30
0.0
  0
SEQEND
  5
76
330
73
100
AcDbEntity
  8
STANDARDEBENE
  0
SPLINE
  5
77
330
1F
100
AcDbEntity
  8
STANDARDEBENE
 62
   250
100
AcDbSpline
210
0.0
220
0.0
230
1.0
 70
     8
 71
     3
 72
     8
 73
     4
 74
     0
 42
0.0000000001
 43
0.0000000001
 40
0.0
 40
0.0
 40
0.0
 40
0.0
 40
1.0
 40
1.0
 40
1.0
 40
1.0
 10
121.2332546354903
 20
-30.1008327832734
 30
0.0
 10
121.2332546354903
 20
-28.58223469337528
 30
0.0
 10
120.0023220186105
 20
-27.35095756694698
 30
0.0
 10
118.4837239287124
 20
-27.35095756694698
 30
0.0
  0
SPLINE
  5
78
330
1F
100
AcDbEntity
  8
STANDARDEBENE
 62
   250
100
AcDbSpline
210
0.0
220
0.0
230
1.0
 70
     8
 71
     3
 72
     8
 73
     4
 74
     0
 42
0.0000000001
 43
0.0000000001
 40
0.0
 40
0.0
 40
0.0
 40
0.0
 40
1.0
 40
1.0
 40
1.0
 40
1.0
 10
118.4837239287124
 20
-32.85070799959983
 30
0.0
 10
120.0023220186105
 20
-32.85070799959983
 30
0.0
 10
121.2332546354903
 20
-31.61977538272006
 30
0.0
 10
121.2332546354903
 20
-30.1008327832734
 30
0.0
  0
SPLINE
  5
79
330
1F
100
AcDbEntity
  8
STANDARDEBENE
 62
   250
100
AcDbSpline
210
0.0
220
0.0
230
1.0
 70
    11
 71
     3
 72
    17
 73
    13
 74
     0
 42
0.0000000001
 43
0.0000000001
 40
0.0
 40
0.0
 40
0.0
 40
0.0
 40
1.0
 40
1.0
 40
1.0
 40
2.0
 40
2.0
 40
2.0
 40
3.0
 40
3.0
 40
3.0
 40
4.0
 40
4.0
 40
4.0
 40
4.0
 10
40.93376328186726
 20
-30.1008327832734
 30
0.0
 10
40.93376328186726
 20
-28.58223469337528
 30
0.0
 10
39.70248615543896
 20
-27.35095756694698
 30
0.0
 10
38.18371581076657
 20
-27.35095756694698
 30
0.0
 10
36.66477321131992
 20
-27.35095756694698
 30
0.0
 10
35.43384059444016
 20
-28.58223469337528
 30
0.0
 10
35.43384059444016
 20
-30.1008327832734
 30
0.0
 10
35.43384059444016
 20
-31.61977538272006
 30
0.0
 10
36.66477321131992
 20
-32.85070799959983
 30
0.0
 10
38.18371581076657
 20
-32.85070799959983
 30
0.0
 10
39.70248615543896
 20
-32.85070799959983
 30
0.0
 10
40.93376328186726
 20
-31.61977538272006
 30
0.0
 10
40.93376328186726
 20
-30.1008327832734
 30
0.0
  0
POLYLINE
  5
7A
330
1F
100
AcDbEntity
  8
STANDARDEBENE
 62
   250
100
AcDb2dPolyline
 66
     1
 10
0.0
 20
0.0
 30
0.0
  0
VERTEX
  5
7B
330
7A
100
AcDbEntity
  8
STANDARDEBENE
 62
   250
100
AcDbVertex
100
AcDb2dVertex
 10
41.64775932118528
 20
-26.5651312867615
 30
0.0
  0
VERTEX
  5
7C
330
7A
100
AcDbEntity
  8
STANDARDEBENE
 62
   250
100
AcDbVertex
100
AcDb2dVertex
 10
41.65120441667053
 20
-26.56823187269822
 30
0.0
  0
VERTEX
  5
7D
330
7A
100
AcDbEntity
  8
STANDARDEBENE
 62
   250
100
AcDbVertex
100
AcDb2dVertex
 10
42.00019258932635
 20
-26.85727538391068
 30
0.0
  0
VERTEX
  5
7E
330
7A
100
AcDbEntity
  8
STANDARDEBENE
 62
   250
100
AcDbVertex
100
AcDb2dVertex
 10
42.40843640432845
 20
-27.09257540555325
 30
0.0
  0
VERTEX
  5
7F
330
7A
100
AcDbEntity
  8
STANDARDEBENE
 62
   250
100
AcDbVertex
100
AcDb2dVertex
 10
42.70109726580042
 20
-27.20901963295469
 30
0.0
  0
VERTEX
  5
80
330
7A
100
AcDbEntity
  8
STANDARDEBENE
 62
   250
100
AcDbVertex
100
AcDb2dVertex
 10
43.02269692934849
 20
-27.29549152963446
 30
0.0
  0
VERTEX
  5
81
330
7A
100
AcDbEntity
  8
STANDARDEBENE
 62
   250
100
AcDbVertex
100
AcDb2dVertex
 10
43.2922756510693
 20
-27.33648816590894
 30
0.0
  0
VERTEX
  5
82
330
7A
100
AcDbEntity
  8
STANDARDEBENE
 62
   250
100
AcDbVertex
100
AcDb2dVertex
 10
43.57270642356863
 20
-27.35095756694698
 30
0.0
  0
SEQEND
  5
83
330
7A
100
AcDbEntity
  8
STANDARDEBENE
  0
POLYLINE
  5
84
330
1F
100
AcDbEntity
  8
STANDARDEBENE
 62
   250
100
AcDb2dPolyline
 66
     1
 10
0.0
 20
0.0
 30
0.0
  0
VERTEX
  5
85
330
84
100
AcDbEntity
  8
STANDARDEBENE
 62
   250
100
AcDbVertex
100
AcDb2dVertex
 10
43.57270642356863
 20
-32.85070799959983
 30
0.0
  0
VERTEX
  5
86
330
84
100
AcDbEntity
  8
STANDARDEBENE
 62
   250
100
AcDbVertex
100
AcDb2dVertex
 10
43.2922756510693
 20
-32.86517740063788
 30
0.0
  0
VERTEX
  5
87
330
84
100
AcDbEntity
  8
STANDARDEBENE
 62
   250
100
AcDbVertex
100
AcDb2dVertex
 10
43.02269692934849
 20
-32.90617403691235
 30
0.0
  0
VERTEX
  5
88
330
84
100
AcDbEntity
  8
STANDARDEBENE
 62
   250
100
AcDbVertex
100
AcDb2dVertex
 10
42.70109726580042
 20
-32.99264593359212
 30
0.0
  0
VERTEX
  5
89
330
84
100
AcDbEntity
  8
STANDARDEBENE
 62
   250
100
AcDbVertex
100
AcDb2dVertex
 10
42.40843640432845
 20
-33.10909016099356
 30
0.0
  0
VERTEX
  5
8A
330
84
100
AcDbEntity
  8
STANDARDEBENE
 62
   250
100
AcDbVertex
100
AcDb2dVertex
 10
42.00019258932635
 20
-33.3440456730876
 30
0.0
  0
VERTEX
  5
8B
330
84
100
AcDbEntity
  8
STANDARDEBENE
 62
   250
100
AcDbVertex
100
AcDb2dVertex
 10
41.65120441667053
 20
-33.63308918430006
 30
0.0
  0
VERTEX
  5
8C
330
84
100
AcDbEntity
  8
STANDARDEBENE
 62
   250
100
AcDbVertex
100
AcDb2dVertex
 10
41.64775932118528
 20
-33.63653427978532
 30
0.0
  0
SEQEND
  5
8D
330
84
100
AcDbEntity
  8
STANDARDEBENE
  0
POLYLINE
  5
8E
330
1F
100
AcDbEntity
  8
STANDARDEBENE
 62
   250
100
AcDb2dPolyline
 66
     1
 10
0.0
 20
0.0
 30
0.0
  0
VERTEX
  5
8F
330
8E
100
AcDbEntity
  8
STANDARDEBENE
 62
   250
100
AcDbVertex
100
AcDb2dVertex
 10
33.23345810801108
 20
-0.2337497286742015
 30
0.0
  0
VERTEX
  5
90
330
8E
100
AcDbEntity
  8
STANDARDEBENE
 62
   250
100
AcDbVertex
100
AcDb2dVertex
 10
33.23345810801108
 20
-8.923486325894128
 30
0.0
  0
SEQEND
  5
91
330
8E
100
AcDbEntity
  8
STANDARDEBENE
  0
POLYLINE
  5
92
330
1F
100
AcDbEntity
  8
STANDARDEBENE
 62
   250
100
AcDb2dPolyline
 66
     1
 10
0.0
 20
0.0
 30
0.0
  0
VERTEX
  5
93
330
92
100
AcDbEntity
  8
STANDARDEBENE
 62
   250
100
AcDbVertex
100
AcDb2dVertex
 10
43.13362900397354
 20
-5.073592121127436
 30
0.0
  0
VERTEX
  5
94
330
92
100
AcDbEntity
  8
STANDARDEBENE
 62
   250
100
AcDbVertex
100
AcDb2dVertex
 10
43.13362900397354
 20
-0.2337497286742015
 30
0.0
  0
SEQEND
  5
95
330
92
100
AcDbEntity
  8
STANDARDEBENE
  0
POLYLINE
  5
96
330
1F
100
AcDbEntity
  8
STANDARDEBENE
 62
   250
100
AcDb2dPolyline
 66
     1
 10
0.0
 20
0.0
 30
0.0
  0
VERTEX
  5
97
330
96
100
AcDbEntity
  8
STANDARDEBENE
 62
   250
100
AcDbVertex
100
AcDb2dVertex
 10
121.2332546354903
 20
-8.923486325894128
 30
0.0
  0
VERTEX
  5
98
330
96
100
AcDbEntity
  8
STANDARDEBENE
 62
   250
100
AcDbVertex
100
AcDb2dVertex
 10
121.2332546354903
 20
-6.173611109567709
 30
0.0
  0
SEQEND
  5
99
330
96
100
AcDbEntity
  8
STANDARDEBENE
  0
SPLINE
  5
9A
330
1F
100
AcDbEntity
  8
STANDARDEBENE
 62
   250
100
AcDbSpline
210
0.0
220
0.0
230
1.0
 70
     8
 71
     3
 72
     8
 73
     4
 74
     0
 42
0.0000000001
 43
0.0000000001
 40
0.0
 40
0.0
 40
0.0
 40
0.0
 40
1.0
 40
1.0
 40
1.0
 40
1.0
 10
43.13362900397354
 20
-5.073592121127436
 30
0.0
 10
43.13362900397354
 20
-5.681134709951245
 30
0.0
 10
43.62593314881574
 20
-6.173611109567709
 30
0.0
 10
44.23364799241381
 20
-6.173611109567709
 30
0.0
  0
POLYLINE
  5
9B
330
1F
100
AcDbEntity
  8
STANDARDEBENE
 62
   250
100
AcDb2dPolyline
 66
     1
 10
0.0
 20
0.0
 30
0.0
  0
VERTEX
  5
9C
330
9B
100
AcDbEntity
  8
STANDARDEBENE
 62
   250
100
AcDbVertex
100
AcDb2dVertex
 10
33.23345810801108
 20
-8.923486325894128
 30
0.0
  0
VERTEX
  5
9D
330
9B
100
AcDbEntity
  8
STANDARDEBENE
 62
   250
100
AcDbVertex
100
AcDb2dVertex
 10
33.29409178855148
 20
-8.923486325894128
 30
0.0
  0
VERTEX
  5
9E
330
9B
100
AcDbEntity
  8
STANDARDEBENE
 62
   250
100
AcDbVertex
100
AcDb2dVertex
 10
33.47392577288152
 20
-8.923486325894128
 30
0.0
  0
VERTEX
  5
9F
330
9B
100
AcDbEntity
  8
STANDARDEBENE
 62
   250
100
AcDbVertex
100
AcDb2dVertex
 10
33.76865369164464
 20
-8.923486325894128
 30
0.0
  0
VERTEX
  5
A0
330
9B
100
AcDbEntity
  8
STANDARDEBENE
 62
   250
100
AcDbVertex
100
AcDb2dVertex
 10
34.17104084432182
 20
-8.923486325894128
 30
0.0
  0
VERTEX
  5
A1
330
9B
100
AcDbEntity
  8
STANDARDEBENE
 62
   250
100
AcDbVertex
100
AcDb2dVertex
 10
34.67161321832862
 20
-8.923486325894128
 30
0.0
  0
VERTEX
  5
A2
330
9B
100
AcDbEntity
  8
STANDARDEBENE
 62
   250
100
AcDbVertex
100
AcDb2dVertex
 10
35.25779621514388
 20
-8.923486325894128
 30
0.0
  0
VERTEX
  5
A3
330
9B
100
AcDbEntity
  8
STANDARDEBENE
 62
   250
100
AcDbVertex
100
AcDb2dVertex
 10
35.91546494327808
 20
-8.923486325894128
 30
0.0
  0
VERTEX
  5
A4
330
9B
100
AcDbEntity
  8
STANDARDEBENE
 62
   250
100
AcDbVertex
100
AcDb2dVertex
 10
36.62825519917627
 20
-8.923486325894128
 30
0.0
  0
VERTEX
  5
A5
330
9B
100
AcDbEntity
  8
STANDARDEBENE
 62
   250
100
AcDbVertex
100
AcDb2dVertex
 10
37.37928601496073
 20
-8.923486325894128
 30
0.0
  0
VERTEX
  5
A6
330
9B
100
AcDbEntity
  8
STANDARDEBENE
 62
   250
100
AcDbVertex
100
AcDb2dVertex
 10
38.14978162023687
 20
-8.923486325894128
 30
0.0
  0
VERTEX
  5
A7
330
9B
100
AcDbEntity
  8
STANDARDEBENE
 62
   250
100
AcDbVertex
100
AcDb2dVertex
 10
38.92131075415856
 20
-8.923486325894128
 30
0.0
  0
VERTEX
  5
A8
330
9B
100
AcDbEntity
  8
STANDARDEBENE
 62
   250
100
AcDbVertex
100
AcDb2dVertex
 10
39.67475313678271
 20
-8.923486325894128
 30
0.0
  0
VERTEX
  5
A9
330
9B
100
AcDbEntity
  8
STANDARDEBENE
 62
   250
100
AcDbVertex
100
AcDb2dVertex
 10
40.39184976203746
 20
-8.923486325894128
 30
0.0
  0
VERTEX
  5
AA
330
9B
100
AcDbEntity
  8
STANDARDEBENE
 62
   250
100
AcDbVertex
100
AcDb2dVertex
 10
41.05503064294805
 20
-8.923486325894128
 30
0.0
  0
VERTEX
  5
AB
330
9B
100
AcDbEntity
  8
STANDARDEBENE
 62
   250
100
AcDbVertex
100
AcDb2dVertex
 10
41.64775932118528
 20
-8.923486325894128
 30
0.0
  0
SEQEND
  5
AC
330
9B
100
AcDbEntity
  8
STANDARDEBENE
  0
POLYLINE
  5
AD
330
1F
100
AcDbEntity
  8
STANDARDEBENE
 62
   250
100
AcDb2dPolyline
 66
     1
 10
0.0
 20
0.0
 30
0.0
  0
VERTEX
  5
AE
330
AD
100
AcDbEntity
  8
STANDARDEBENE
 62
   250
100
AcDbVertex
100
AcDb2dVertex
 10
39.86113280253472
 20
2.626196288405951
 30
0.0
  0
VERTEX
  5
AF
330
AD
100
AcDbEntity
  8
STANDARDEBENE
 62
   250
100
AcDbVertex
100
AcDb2dVertex
 10
39.86113280253472
 20
-0.2337497286742015
 30
0.0
  0
SEQEND
  5
B0
330
AD
100
AcDbEntity
  8
STANDARDEBENE
  0
POLYLINE
  5
B1
330
1F
100
AcDbEntity
  8
STANDARDEBENE
 62
   250
100
AcDb2dPolyline
 66
     1
 10
0.0
 20
0.0
 30
0.0
  0
VERTEX
  5
B2
330
B1
100
AcDbEntity
  8
STANDARDEBENE
 62
   250
100
AcDbVertex
100
AcDb2dVertex
 10
42.84062363295304
 20
2.626196288405951
 30
0.0
  0
VERTEX
  5
B3
330
B1
100
AcDbEntity
  8
STANDARDEBENE
 62
   250
100
AcDbVertex
100
AcDb2dVertex
 10
42.4752712567423
 20
2.626196288405951
 30
0.0
  0
VERTEX
  5
B4
330
B1
100
AcDbEntity
  8
STANDARDEBENE
 62
   250
100
AcDbVertex
100
AcDb2dVertex
 10
41.97779946867222
 20
2.626196288405951
 30
0.0
  0
VERTEX
  5
B5
330
B1
100
AcDbEntity
  8
STANDARDEBENE
 62
   250
100
AcDbVertex
100
AcDb2dVertex
 10
41.36302217932938
 20
2.626196288405951
 30
0.0
  0
VERTEX
  5
B6
330
B1
100
AcDbEntity
  8
STANDARDEBENE
 62
   250
100
AcDbVertex
100
AcDb2dVertex
 10
40.65023192343119
 20
2.626196288405951
 30
0.0
  0
VERTEX
  5
B7
330
B1
100
AcDbEntity
  8
STANDARDEBENE
 62
   250
100
AcDbVertex
100
AcDb2dVertex
 10
39.86113280253472
 20
2.626196288405951
 30
0.0
  0
SEQEND
  5
B8
330
B1
100
AcDbEntity
  8
STANDARDEBENE
  0
POLYLINE
  5
B9
330
1F
100
AcDbEntity
  8
STANDARDEBENE
 62
   250
100
AcDb2dPolyline
 66
     1
 10
0.0
 20
0.0
 30
0.0
  0
VERTEX
  5
BA
330
B9
100
AcDbEntity
  8
STANDARDEBENE
 62
   250
100
AcDbVertex
100
AcDb2dVertex
 10
36.5059543094499
 20
-0.2337497286742015
 30
0.0
  0
VERTEX
  5
BB
330
B9
100
AcDbEntity
  8
STANDARDEBENE
 62
   250
100
AcDbVertex
100
AcDb2dVertex
 10
36.5059543094499
 20
2.626196288405951
 30
0.0
  0
SEQEND
  5
BC
330
B9
100
AcDbEntity
  8
STANDARDEBENE
  0
POLYLINE
  5
BD
330
1F
100
AcDbEntity
  8
STANDARDEBENE
 62
   250
100
AcDb2dPolyline
 66
     1
 10
0.0
 20
0.0
 30
0.0
  0
VERTEX
  5
BE
330
BD
100
AcDbEntity
  8
STANDARDEBENE
 62
   250
100
AcDbVertex
100
AcDb2dVertex
 10
36.5059543094499
 20
-0.2337497286742015
 30
0.0
  0
VERTEX
  5
BF
330
BD
100
AcDbEntity
  8
STANDARDEBENE
 62
   250
100
AcDbVertex
100
AcDb2dVertex
 10
37.33226046158708
 20
-0.2337497286742015
 30
0.0
  0
VERTEX
  5
C0
330
BD
100
AcDbEntity
  8
STANDARDEBENE
 62
   250
100
AcDbVertex
100
AcDb2dVertex
 10
38.18371581076657
 20
-0.2337497286742015
 30
0.0
  0
VERTEX
  5
C1
330
BD
100
AcDbEntity
  8
STANDARDEBENE
 62
   250
100
AcDbVertex
100
AcDb2dVertex
 10
39.03499890517181
 20
-0.2337497286742015
 30
0.0
  0
VERTEX
  5
C2
330
BD
100
AcDbEntity
  8
STANDARDEBENE
 62
   250
100
AcDbVertex
100
AcDb2dVertex
 10
39.86113280253472
 20
-0.2337497286742015
 30
0.0
  0
SEQEND
  5
C3
330
BD
100
AcDbEntity
  8
STANDARDEBENE
  0
POLYLINE
  5
C4
330
1F
100
AcDbEntity
  8
STANDARDEBENE
 62
   250
100
AcDb2dPolyline
 66
     1
 10
0.0
 20
0.0
 30
0.0
  0
VERTEX
  5
C5
330
C4
100
AcDbEntity
  8
STANDARDEBENE
 62
   250
100
AcDbVertex
100
AcDb2dVertex
 10
33.52646347903158
 20
2.626196288405951
 30
0.0
  0
VERTEX
  5
C6
330
C4
100
AcDbEntity
  8
STANDARDEBENE
 62
   250
100
AcDbVertex
100
AcDb2dVertex
 10
33.52646347903158
 20
-0.2337497286742015
 30
0.0
  0
SEQEND
  5
C7
330
C4
100
AcDbEntity
  8
STANDARDEBENE
  0
POLYLINE
  5
C8
330
1F
100
AcDbEntity
  8
STANDARDEBENE
 62
   250
100
AcDb2dPolyline
 66
     1
 10
0.0
 20
0.0
 30
0.0
  0
VERTEX
  5
C9
330
C8
100
AcDbEntity
  8
STANDARDEBENE
 62
   250
100
AcDbVertex
100
AcDb2dVertex
 10
36.5059543094499
 20
2.626196288405951
 30
0.0
  0
VERTEX
  5
CA
330
C8
100
AcDbEntity
  8
STANDARDEBENE
 62
   250
100
AcDbVertex
100
AcDb2dVertex
 10
35.71737195287621
 20
2.626196288405951
 30
0.0
  0
VERTEX
  5
CB
330
C8
100
AcDbEntity
  8
STANDARDEBENE
 62
   250
100
AcDbVertex
100
AcDb2dVertex
 10
35.0042371874295
 20
2.626196288405951
 30
0.0
  0
VERTEX
  5
CC
330
C8
100
AcDbEntity
  8
STANDARDEBENE
 62
   250
100
AcDbVertex
100
AcDb2dVertex
 10
34.38945989808666
 20
2.626196288405951
 30
0.0
  0
VERTEX
  5
CD
330
C8
100
AcDbEntity
  8
STANDARDEBENE
 62
   250
100
AcDbVertex
100
AcDb2dVertex
 10
33.89181585524233
 20
2.626196288405951
 30
0.0
  0
VERTEX
  5
CE
330
C8
100
AcDbEntity
  8
STANDARDEBENE
 62
   250
100
AcDbVertex
100
AcDb2dVertex
 10
33.52646347903158
 20
2.626196288405951
 30
0.0
  0
SEQEND
  5
CF
330
C8
100
AcDbEntity
  8
STANDARDEBENE
  0
POLYLINE
  5
D0
330
1F
100
AcDbEntity
  8
STANDARDEBENE
 62
   250
100
AcDb2dPolyline
 66
     1
 10
0.0
 20
0.0
 30
0.0
  0
VERTEX
  5
D1
330
D0
100
AcDbEntity
  8
STANDARDEBENE
 62
   250
100
AcDbVertex
100
AcDb2dVertex
 10
33.23345810801108
 20
-0.2337497286742015
 30
0.0
  0
VERTEX
  5
D2
330
D0
100
AcDbEntity
  8
STANDARDEBENE
 62
   250
100
AcDbVertex
100
AcDb2dVertex
 10
33.30735540616969
 20
-0.2337497286742015
 30
0.0
  0
VERTEX
  5
D3
330
D0
100
AcDbEntity
  8
STANDARDEBENE
 62
   250
100
AcDbVertex
100
AcDb2dVertex
 10
33.52646347903158
 20
-0.2337497286742015
 30
0.0
  0
SEQEND
  5
D4
330
D0
100
AcDbEntity
  8
STANDARDEBENE
  0
POLYLINE
  5
D5
330
1F
100
AcDbEntity
  8
STANDARDEBENE
 62
   250
100
AcDb2dPolyline
 66
     1
 10
0.0
 20
0.0
 30
0.0
  0
VERTEX
  5
D6
330
D5
100
AcDbEntity
  8
STANDARDEBENE
 62
   250
100
AcDbVertex
100
AcDb2dVertex
 10
42.84062363295304
 20
-0.2337497286742015
 30
0.0
  0
VERTEX
  5
D7
330
D5
100
AcDbEntity
  8
STANDARDEBENE
 62
   250
100
AcDbVertex
100
AcDb2dVertex
 10
42.84062363295304
 20
2.626196288405951
 30
0.0
  0
SEQEND
  5
D8
330
D5
100
AcDbEntity
  8
STANDARDEBENE
  0
POLYLINE
  5
D9
330
1F
100
AcDbEntity
  8
STANDARDEBENE
 62
   250
100
AcDb2dPolyline
 66
     1
 10
0.0
 20
0.0
 30
0.0
  0
VERTEX
  5
DA
330
D9
100
AcDbEntity
  8
STANDARDEBENE
 62
   250
100
AcDbVertex
100
AcDb2dVertex
 10
42.84062363295304
 20
-0.2337497286742015
 30
0.0
  0
VERTEX
  5
DB
330
D9
100
AcDbEntity
  8
STANDARDEBENE
 62
   250
100
AcDbVertex
100
AcDb2dVertex
 10
43.0599039605892
 20
-0.2337497286742015
 30
0.0
  0
VERTEX
  5
DC
330
D9
100
AcDbEntity
  8
STANDARDEBENE
 62
   250
100
AcDbVertex
100
AcDb2dVertex
 10
43.13362900397354
 20
-0.2337497286742015
 30
0.0
  0
SEQEND
  5
DD
330
D9
100
AcDbEntity
  8
STANDARDEBENE
  0
POLYLINE
  5
DE
330
1F
100
AcDbEntity
  8
STANDARDEBENE
 62
   250
100
AcDb2dPolyline
 66
     1
 10
0.0
 20
0.0
 30
0.0
  0
VERTEX
  5
DF
330
DE
100
AcDbEntity
  8
STANDARDEBENE
 62
   250
100
AcDbVertex
100
AcDb2dVertex
 10
118.4837239287124
 20
-6.173611109567709
 30
0.0
  0
VERTEX
  5
E0
330
DE
100
AcDbEntity
  8
STANDARDEBENE
 62
   250
100
AcDbVertex
100
AcDb2dVertex
 10
43.57270642356863
 20
-6.173611109567709
 30
0.0
  0
SEQEND
  5
E1
330
DE
100
AcDbEntity
  8
STANDARDEBENE
  0
POLYLINE
  5
E2
330
1F
100
AcDbEntity
  8
STANDARDEBENE
 62
   250
100
AcDb2dPolyline
 66
     1
 10
0.0
 20
0.0
 30
0.0
  0
VERTEX
  5
E3
330
E2
100
AcDbEntity
  8
STANDARDEBENE
 62
   250
100
AcDbVertex
100
AcDb2dVertex
 10
118.4837239287124
 20
-8.923486325894128
 30
0.0
  0
VERTEX
  5
E4
330
E2
100
AcDbEntity
  8
STANDARDEBENE
 62
   250
100
AcDbVertex
100
AcDb2dVertex
 10
43.57270642356863
 20
-8.923486325894128
 30
0.0
  0
SEQEND
  5
E5
330
E2
100
AcDbEntity
  8
STANDARDEBENE
  0
POLYLINE
  5
E6
330
1F
100
AcDbEntity
  8
STANDARDEBENE
 62
   250
100
AcDb2dPolyline
 66
     1
 10
0.0
 20
0.0
 30
0.0
  0
VERTEX
  5
E7
330
E6
100
AcDbEntity
  8
STANDARDEBENE
 62
   250
100
AcDbVertex
100
AcDb2dVertex
 10
121.2332546354903
 20
-8.923486325894128
 30
0.0
  0
VERTEX
  5
E8
330
E6
100
AcDbEntity
  8
STANDARDEBENE
 62
   250
100
AcDbVertex
100
AcDb2dVertex
 10
121.1646972353338
 20
-8.923486325894128
 30
0.0
  0
VERTEX
  5
E9
330
E6
100
AcDbEntity
  8
STANDARDEBENE
 62
   250
100
AcDbVertex
100
AcDb2dVertex
 10
120.9610920921556
 20
-8.923486325894128
 30
0.0
  0
VERTEX
  5
EA
330
E6
100
AcDbEntity
  8
STANDARDEBENE
 62
   250
100
AcDbVertex
100
AcDb2dVertex
 10
120.6338080210568
 20
-8.923486325894128
 30
0.0
  0
VERTEX
  5
EB
330
E6
100
AcDbEntity
  8
STANDARDEBENE
 62
   250
100
AcDbVertex
100
AcDb2dVertex
 10
120.1980034421727
 20
-8.923486325894128
 30
0.0
  0
VERTEX
  5
EC
330
E6
100
AcDbEntity
  8
STANDARDEBENE
 62
   250
100
AcDbVertex
100
AcDb2dVertex
 10
119.6767604952544
 20
-8.923486325894128
 30
0.0
  0
VERTEX
  5
ED
330
E6
100
AcDbEntity
  8
STANDARDEBENE
 62
   250
100
AcDbVertex
100
AcDb2dVertex
 10
119.0955728868928
 20
-8.923486325894128
 30
0.0
  0
VERTEX
  5
EE
330
E6
100
AcDbEntity
  8
STANDARDEBENE
 62
   250
100
AcDbVertex
100
AcDb2dVertex
 10
118.4837239287124
 20
-8.923486325894128
 30
0.0
  0
SEQEND
  5
EF
330
E6
100
AcDbEntity
  8
STANDARDEBENE
  0
POLYLINE
  5
F0
330
1F
100
AcDbEntity
  8
STANDARDEBENE
 62
   250
100
AcDb2dPolyline
 66
     1
 10
0.0
 20
0.0
 30
0.0
  0
VERTEX
  5
F1
330
F0
100
AcDbEntity
  8
STANDARDEBENE
 62
   250
100
AcDbVertex
100
AcDb2dVertex
 10
43.57270642356863
 20
-8.923486325894128
 30
0.0
  0
VERTEX
  5
F2
330
F0
100
AcDbEntity
  8
STANDARDEBENE
 62
   250
100
AcDbVertex
100
AcDb2dVertex
 10
42.8697346898034
 20
-8.923486325894128
 30
0.0
  0
VERTEX
  5
F3
330
F0
100
AcDbEntity
  8
STANDARDEBENE
 62
   250
100
AcDbVertex
100
AcDb2dVertex
 10
42.2139607641861
 20
-8.923486325894128
 30
0.0
  0
VERTEX
  5
F4
330
F0
100
AcDbEntity
  8
STANDARDEBENE
 62
   250
100
AcDbVertex
100
AcDb2dVertex
 10
41.64775932118528
 20
-8.923486325894128
 30
0.0
  0
SEQEND
  5
F5
330
F0
100
AcDbEntity
  8
STANDARDEBENE
  0
POLYLINE
  5
F6
330
1F
100
AcDbEntity
  8
STANDARDEBENE
 62
   250
100
AcDb2dPolyline
 66
     1
 10
0.0
 20
0.0
 30
0.0
  0
VERTEX
  5
F7
330
F6
100
AcDbEntity
  8
STANDARDEBENE
 62
   250
100
AcDbVertex
100
AcDb2dVertex
 10
118.4837239287124
 20
-6.173611109567709
 30
0.0
  0
VERTEX
  5
F8
330
F6
100
AcDbEntity
  8
STANDARDEBENE
 62
   250
100
AcDbVertex
100
AcDb2dVertex
 10
119.0955728868928
 20
-6.173611109567709
 30
0.0
  0
VERTEX
  5
F9
330
F6
100
AcDbEntity
  8
STANDARDEBENE
 62
   250
100
AcDbVertex
100
AcDb2dVertex
 10
119.6767604952544
 20
-6.173611109567709
 30
0.0
  0
VERTEX
  5
FA
330
F6
100
AcDbEntity
  8
STANDARDEBENE
 62
   250
100
AcDbVertex
100
AcDb2dVertex
 10
120.1980034421727
 20
-6.173611109567709
 30
0.0
  0
VERTEX
  5
FB
330
F6
100
AcDbEntity
  8
STANDARDEBENE
 62
   250
100
AcDbVertex
100
AcDb2dVertex
 10
120.6338080210568
 20
-6.173611109567709
 30
0.0
  0
VERTEX
  5
FC
330
F6
100
AcDbEntity
  8
STANDARDEBENE
 62
   250
100
AcDbVertex
100
AcDb2dVertex
 10
120.9610920921556
 20
-6.173611109567709
 30
0.0
  0
VERTEX
  5
FD
330
F6
100
AcDbEntity
  8
STANDARDEBENE
 62
   250
100
AcDbVertex
100
AcDb2dVertex
 10
121.1646972353338
 20
-6.173611109567709
 30
0.0
  0
VERTEX
  5
FE
330
F6
100
AcDbEntity
  8
STANDARDEBENE
 62
   250
100
AcDbVertex
100
AcDb2dVertex
 10
121.2332546354903
 20
-6.173611109567709
 30
0.0
  0
SEQEND
  5
FF
330
F6
100
AcDbEntity
  8
STANDARDEBENE
  0
POLYLINE
  5
100
330
1F
100
AcDbEntity
  8
STANDARDEBENE
 62
   250
100
AcDb2dPolyline
 66
     1
 10
0.0
 20
0.0
 30
0.0
  0
VERTEX
  5
101
330
100
100
AcDbEntity
  8
STANDARDEBENE
 62
   250
100
AcDbVertex
100
AcDb2dVertex
 10
43.57270642356863
 20
-6.173611109567709
 30
0.0
  0
VERTEX
  5
102
330
100
100
AcDbEntity
  8
STANDARDEBENE
 62
   250
100
AcDbVertex
100
AcDb2dVertex
 10
43.2922756510693
 20
-6.146567110008498
 30
0.0
  0
VERTEX
  5
103
330
100
100
AcDbEntity
  8
STANDARDEBENE
 62
   250
100
AcDbVertex
100
AcDb2dVertex
 10
43.02269692934849
 20
-6.074564614366776
 30
0.0
  0
VERTEX
  5
104
330
100
100
AcDbEntity
  8
STANDARDEBENE
 62
   250
100
AcDbVertex
100
AcDb2dVertex
 10
42.70109726580042
 20
-5.933660209020058
 30
0.0
  0
VERTEX
  5
105
330
100
100
AcDbEntity
  8
STANDARDEBENE
 62
   250
100
AcDbVertex
100
AcDb2dVertex
 10
42.40843640432845
 20
-5.755204262884116
 30
0.0
  0
VERTEX
  5
106
330
100
100
AcDbEntity
  8
STANDARDEBENE
 62
   250
100
AcDbVertex
100
AcDb2dVertex
 10
42.00019258932635
 20
-5.429125975205219
 30
0.0
  0
VERTEX
  5
107
330
100
100
AcDbEntity
  8
STANDARDEBENE
 62
   250
100
AcDbVertex
100
AcDb2dVertex
 10
41.65120441667053
 20
-5.077553980935473
 30
0.0
  0
VERTEX
  5
108
330
100
100
AcDbEntity
  8
STANDARDEBENE
 62
   250
100
AcDbVertex
100
AcDb2dVertex
 10
41.64775932118528
 20
-5.073592121127436
 30
0.0
  0
SEQEND
  5
109
330
100
100
AcDbEntity
  8
STANDARDEBENE
  0
POLYLINE
  5
10B
330
1F
100
AcDbEntity
  8
BEMAßUNG
 62
     7
100
AcDb2dPolyline
 66
     1
 10
0.0
 20
0.0
 30
0.0
  0
VERTEX
  5
10C
330
10B
100
AcDbEntity
  8
BEMAßUNG
 62
     7
100
AcDbVertex
100
AcDb2dVertex
 10
38.18371581076657
 20
-25.15091959006644
 30
0.0
  0
VERTEX
  5
10D
330
10B
100
AcDbEntity
  8
BEMAßUNG
 62
     7
100
AcDbVertex
100
AcDb2dVertex
 10
26.6390285849201
 20
-25.15091959006644
 30
0.0
  0
SEQEND
  5
10E
330
10B
100
AcDbEntity
  8
BEMAßUNG
  0
POLYLINE
  5
10F
330
1F
100
AcDbEntity
  8
BEMAßUNG
 62
     7
100
AcDb2dPolyline
 66
     1
 10
0.0
 20
0.0
 30
0.0
  0
VERTEX
  5
110
330
10F
100
AcDbEntity
  8
BEMAßUNG
 62
     7
100
AcDbVertex
100
AcDb2dVertex
 10
38.18371581076657
 20
-35.05074597648037
 30
0.0
  0
VERTEX
  5
111
330
10F
100
AcDbEntity
  8
BEMAßUNG
 62
     7
100
AcDbVertex
100
AcDb2dVertex
 10
26.6390285849201
 20
-35.05074597648037
 30
0.0
  0
SEQEND
  5
112
330
10F
100
AcDbEntity
  8
BEMAßUNG
  0
POLYLINE
  5
113
330
1F
100
AcDbEntity
  8
BEMAßUNG
 62
     7
100
AcDb2dPolyline
 66
     1
 10
0.0
 20
0.0
 30
0.0
  0
VERTEX
  5
114
330
113
100
AcDbEntity
  8
BEMAßUNG
 62
     7
100
AcDbVertex
100
AcDb2dVertex
 10
27.73904757336038
 20
-25.15091959006644
 30
0.0
  0
VERTEX
  5
115
330
113
100
AcDbEntity
  8
BEMAßUNG
 62
     7
100
AcDbVertex
100
AcDb2dVertex
 10
27.73904757336038
 20
-35.05074597648037
 30
0.0
  0
SEQEND
  5
116
330
113
100
AcDbEntity
  8
BEMAßUNG
  0
POLYLINE
  5
117
330
1F
100
AcDbEntity
  8
BEMAßUNG
 62
     7
100
AcDb2dPolyline
 66
     1
 10
0.0
 20
0.0
 30
0.0
  0
VERTEX
  5
118
330
117
100
AcDbEntity
  8
BEMAßUNG
 62
     7
100
AcDbVertex
100
AcDb2dVertex
 10
27.73904757336038
 20
-25.15091959006644
 30
0.0
  0
VERTEX
  5
119
330
117
100
AcDbEntity
  8
BEMAßUNG
 62
     7
100
AcDbVertex
100
AcDb2dVertex
 10
27.5580078056105
 20
-26.52585719822965
 30
0.0
  0
VERTEX
  5
11A
330
117
100
AcDbEntity
  8
BEMAßUNG
 62
     7
100
AcDbVertex
100
AcDb2dVertex
 10
27.91991508633599
 20
-26.52585719822965
 30
0.0
  0
VERTEX
  5
11B
330
117
100
AcDbEntity
  8
BEMAßUNG
 62
     7
100
AcDbVertex
100
AcDb2dVertex
 10
27.73904757336038
 20
-25.15091959006644
 30
0.0
  0
SEQEND
  5
11C
330
117
100
AcDbEntity
  8
BEMAßUNG
  0
POLYLINE
  5
11D
330
1F
100
AcDbEntity
  8
BEMAßUNG
 62
     7
100
AcDb2dPolyline
 66
     1
 10
0.0
 20
0.0
 30
0.0
  0
VERTEX
  5
11E
330
11D
100
AcDbEntity
  8
BEMAßUNG
 62
     7
100
AcDbVertex
100
AcDb2dVertex
 10
27.57127142322871
 20
-26.52585719822965
 30
0.0
  0
VERTEX
  5
11F
330
11D
100
AcDbEntity
  8
BEMAßUNG
 62
     7
100
AcDbVertex
100
AcDb2dVertex
 10
27.57127142322871
 20
-26.42422688141478
 30
0.0
  0
SEQEND
  5
120
330
11D
100
AcDbEntity
  8
BEMAßUNG
  0
POLYLINE
  5
121
330
1F
100
AcDbEntity
  8
BEMAßUNG
 62
     7
100
AcDb2dPolyline
 66
     1
 10
0.0
 20
0.0
 30
0.0
  0
VERTEX
  5
122
330
121
100
AcDbEntity
  8
BEMAßUNG
 62
     7
100
AcDbVertex
100
AcDb2dVertex
 10
27.57127142322871
 20
-26.52585719822965
 30
0.0
  0
VERTEX
  5
123
330
121
100
AcDbEntity
  8
BEMAßUNG
 62
     7
100
AcDbVertex
100
AcDb2dVertex
 10
27.57127142322871
 20
-26.42422688141478
 30
0.0
  0
SEQEND
  5
124
330
121
100
AcDbEntity
  8
BEMAßUNG
  0
POLYLINE
  5
125
330
1F
100
AcDbEntity
  8
BEMAßUNG
 62
     7
100
AcDb2dPolyline
 66
     1
 10
0.0
 20
0.0
 30
0.0
  0
VERTEX
  5
126
330
125
100
AcDbEntity
  8
BEMAßUNG
 62
     7
100
AcDbVertex
100
AcDb2dVertex
 10
27.59917669665924
 20
-26.52585719822965
 30
0.0
  0
VERTEX
  5
127
330
125
100
AcDbEntity
  8
BEMAßUNG
 62
     7
100
AcDbVertex
100
AcDb2dVertex
 10
27.59917669665924
 20
-26.21200899952339
 30
0.0
  0
SEQEND
  5
128
330
125
100
AcDbEntity
  8
BEMAßUNG
  0
POLYLINE
  5
129
330
1F
100
AcDbEntity
  8
BEMAßUNG
 62
     7
100
AcDb2dPolyline
 66
     1
 10
0.0
 20
0.0
 30
0.0
  0
VERTEX
  5
12A
330
129
100
AcDbEntity
  8
BEMAßUNG
 62
     7
100
AcDbVertex
100
AcDb2dVertex
 10
27.62725422486402
 20
-26.52585719822965
 30
0.0
  0
VERTEX
  5
12B
330
129
100
AcDbEntity
  8
BEMAßUNG
 62
     7
100
AcDbVertex
100
AcDb2dVertex
 10
27.62725422486402
 20
-25.999791117632
 30
0.0
  0
SEQEND
  5
12C
330
129
100
AcDbEntity
  8
BEMAßUNG
  0
POLYLINE
  5
12D
330
1F
100
AcDbEntity
  8
BEMAßUNG
 62
     7
100
AcDb2dPolyline
 66
     1
 10
0.0
 20
0.0
 30
0.0
  0
VERTEX
  5
12E
330
12D
100
AcDbEntity
  8
BEMAßUNG
 62
     7
100
AcDbVertex
100
AcDb2dVertex
 10
27.65498724352028
 20
-26.52585719822965
 30
0.0
  0
VERTEX
  5
12F
330
12D
100
AcDbEntity
  8
BEMAßUNG
 62
     7
100
AcDbVertex
100
AcDb2dVertex
 10
27.65498724352028
 20
-25.78722872619208
 30
0.0
  0
SEQEND
  5
130
330
12D
100
AcDbEntity
  8
BEMAßUNG
  0
POLYLINE
  5
131
330
1F
100
AcDbEntity
  8
BEMAßUNG
 62
     7
100
AcDb2dPolyline
 66
     1
 10
0.0
 20
0.0
 30
0.0
  0
VERTEX
  5
132
330
131
100
AcDbEntity
  8
BEMAßUNG
 62
     7
100
AcDbVertex
100
AcDb2dVertex
 10
27.68306477172507
 20
-26.52585719822965
 30
0.0
  0
VERTEX
  5
133
330
131
100
AcDbEntity
  8
BEMAßUNG
 62
     7
100
AcDbVertex
100
AcDb2dVertex
 10
27.68306477172507
 20
-25.57535535384922
 30
0.0
  0
SEQEND
  5
134
330
131
100
AcDbEntity
  8
BEMAßUNG
  0
POLYLINE
  5
135
330
1F
100
AcDbEntity
  8
BEMAßUNG
 62
     7
100
AcDb2dPolyline
 66
     1
 10
0.0
 20
0.0
 30
0.0
  0
VERTEX
  5
136
330
135
100
AcDbEntity
  8
BEMAßUNG
 62
     7
100
AcDbVertex
100
AcDb2dVertex
 10
27.71097004515559
 20
-26.52585719822965
 30
0.0
  0
VERTEX
  5
137
330
135
100
AcDbEntity
  8
BEMAßUNG
 62
     7
100
AcDbVertex
100
AcDb2dVertex
 10
27.71097004515559
 20
-25.36313747195783
 30
0.0
  0
SEQEND
  5
138
330
135
100
AcDbEntity
  8
BEMAßUNG
  0
POLYLINE
  5
139
330
1F
100
AcDbEntity
  8
BEMAßUNG
 62
     7
100
AcDb2dPolyline
 66
     1
 10
0.0
 20
0.0
 30
0.0
  0
VERTEX
  5
13A
330
139
100
AcDbEntity
  8
BEMAßUNG
 62
     7
100
AcDbVertex
100
AcDb2dVertex
 10
27.73904757336038
 20
-26.52585719822965
 30
0.0
  0
VERTEX
  5
13B
330
139
100
AcDbEntity
  8
BEMAßUNG
 62
     7
100
AcDbVertex
100
AcDb2dVertex
 10
27.73904757336038
 20
-25.15091959006644
 30
0.0
  0
SEQEND
  5
13C
330
139
100
AcDbEntity
  8
BEMAßUNG
  0
POLYLINE
  5
13D
330
1F
100
AcDbEntity
  8
BEMAßUNG
 62
     7
100
AcDb2dPolyline
 66
     1
 10
0.0
 20
0.0
 30
0.0
  0
VERTEX
  5
13E
330
13D
100
AcDbEntity
  8
BEMAßUNG
 62
     7
100
AcDbVertex
100
AcDb2dVertex
 10
27.90682372349205
 20
-26.52585719822965
 30
0.0
  0
VERTEX
  5
13F
330
13D
100
AcDbEntity
  8
BEMAßUNG
 62
     7
100
AcDbVertex
100
AcDb2dVertex
 10
27.90682372349205
 20
-26.42422688141478
 30
0.0
  0
SEQEND
  5
140
330
13D
100
AcDbEntity
  8
BEMAßUNG
  0
POLYLINE
  5
141
330
1F
100
AcDbEntity
  8
BEMAßUNG
 62
     7
100
AcDb2dPolyline
 66
     1
 10
0.0
 20
0.0
 30
0.0
  0
VERTEX
  5
142
330
141
100
AcDbEntity
  8
BEMAßUNG
 62
     7
100
AcDbVertex
100
AcDb2dVertex
 10
27.90682372349205
 20
-26.52585719822965
 30
0.0
  0
VERTEX
  5
143
330
141
100
AcDbEntity
  8
BEMAßUNG
 62
     7
100
AcDbVertex
100
AcDb2dVertex
 10
27.90682372349205
 20
-26.42422688141478
 30
0.0
  0
SEQEND
  5
144
330
141
100
AcDbEntity
  8
BEMAßUNG
  0
POLYLINE
  5
145
330
1F
100
AcDbEntity
  8
BEMAßUNG
 62
     7
100
AcDb2dPolyline
 66
     1
 10
0.0
 20
0.0
 30
0.0
  0
VERTEX
  5
146
330
145
100
AcDbEntity
  8
BEMAßUNG
 62
     7
100
AcDbVertex
100
AcDb2dVertex
 10
27.87874619528726
 20
-26.52585719822965
 30
0.0
  0
VERTEX
  5
147
330
145
100
AcDbEntity
  8
BEMAßUNG
 62
     7
100
AcDbVertex
100
AcDb2dVertex
 10
27.87874619528726
 20
-26.21200899952339
 30
0.0
  0
SEQEND
  5
148
330
145
100
AcDbEntity
  8
BEMAßUNG
  0
POLYLINE
  5
149
330
1F
100
AcDbEntity
  8
BEMAßUNG
 62
     7
100
AcDb2dPolyline
 66
     1
 10
0.0
 20
0.0
 30
0.0
  0
VERTEX
  5
14A
330
149
100
AcDbEntity
  8
BEMAßUNG
 62
     7
100
AcDbVertex
100
AcDb2dVertex
 10
27.85084092185674
 20
-26.52585719822965
 30
0.0
  0
VERTEX
  5
14B
330
149
100
AcDbEntity
  8
BEMAßUNG
 62
     7
100
AcDbVertex
100
AcDb2dVertex
 10
27.85084092185674
 20
-25.999791117632
 30
0.0
  0
SEQEND
  5
14C
330
149
100
AcDbEntity
  8
BEMAßUNG
  0
POLYLINE
  5
14D
330
1F
100
AcDbEntity
  8
BEMAßUNG
 62
     7
100
AcDb2dPolyline
 66
     1
 10
0.0
 20
0.0
 30
0.0
  0
VERTEX
  5
14E
330
14D
100
AcDbEntity
  8
BEMAßUNG
 62
     7
100
AcDbVertex
100
AcDb2dVertex
 10
27.82293564842621
 20
-26.52585719822965
 30
0.0
  0
VERTEX
  5
14F
330
14D
100
AcDbEntity
  8
BEMAßUNG
 62
     7
100
AcDbVertex
100
AcDb2dVertex
 10
27.82293564842621
 20
-25.78722872619208
 30
0.0
  0
SEQEND
  5
150
330
14D
100
AcDbEntity
  8
BEMAßUNG
  0
POLYLINE
  5
151
330
1F
100
AcDbEntity
  8
BEMAßUNG
 62
     7
100
AcDb2dPolyline
 66
     1
 10
0.0
 20
0.0
 30
0.0
  0
VERTEX
  5
152
330
151
100
AcDbEntity
  8
BEMAßUNG
 62
     7
100
AcDbVertex
100
AcDb2dVertex
 10
27.79503037499569
 20
-26.52585719822965
 30
0.0
  0
VERTEX
  5
153
330
151
100
AcDbEntity
  8
BEMAßUNG
 62
     7
100
AcDbVertex
100
AcDb2dVertex
 10
27.79503037499569
 20
-25.57535535384922
 30
0.0
  0
SEQEND
  5
154
330
151
100
AcDbEntity
  8
BEMAßUNG
  0
POLYLINE
  5
155
330
1F
100
AcDbEntity
  8
BEMAßUNG
 62
     7
100
AcDb2dPolyline
 66
     1
 10
0.0
 20
0.0
 30
0.0
  0
VERTEX
  5
156
330
155
100
AcDbEntity
  8
BEMAßUNG
 62
     7
100
AcDbVertex
100
AcDb2dVertex
 10
27.7669528467909
 20
-26.52585719822965
 30
0.0
  0
VERTEX
  5
157
330
155
100
AcDbEntity
  8
BEMAßUNG
 62
     7
100
AcDbVertex
100
AcDb2dVertex
 10
27.7669528467909
 20
-25.36313747195783
 30
0.0
  0
SEQEND
  5
158
330
155
100
AcDbEntity
  8
BEMAßUNG
  0
POLYLINE
  5
159
330
1F
100
AcDbEntity
  8
BEMAßUNG
 62
     7
100
AcDb2dPolyline
 66
     1
 10
0.0
 20
0.0
 30
0.0
  0
VERTEX
  5
15A
330
159
100
AcDbEntity
  8
BEMAßUNG
 62
     7
100
AcDbVertex
100
AcDb2dVertex
 10
27.73904757336038
 20
-26.52585719822965
 30
0.0
  0
VERTEX
  5
15B
330
159
100
AcDbEntity
  8
BEMAßUNG
 62
     7
100
AcDbVertex
100
AcDb2dVertex
 10
27.73904757336038
 20
-25.15091959006644
 30
0.0
  0
SEQEND
  5
15C
330
159
100
AcDbEntity
  8
BEMAßUNG
  0
POLYLINE
  5
15D
330
1F
100
AcDbEntity
  8
BEMAßUNG
 62
     7
100
AcDb2dPolyline
 66
     1
 10
0.0
 20
0.0
 30
0.0
  0
VERTEX
  5
15E
330
15D
100
AcDbEntity
  8
BEMAßUNG
 62
     7
100
AcDbVertex
100
AcDb2dVertex
 10
27.73904757336038
 20
-35.05074597648037
 30
0.0
  0
VERTEX
  5
15F
330
15D
100
AcDbEntity
  8
BEMAßUNG
 62
     7
100
AcDbVertex
100
AcDb2dVertex
 10
27.91991508633599
 20
-33.67615287786568
 30
0.0
  0
VERTEX
  5
160
330
15D
100
AcDbEntity
  8
BEMAßUNG
 62
     7
100
AcDbVertex
100
AcDb2dVertex
 10
27.5580078056105
 20
-33.67615287786568
 30
0.0
  0
VERTEX
  5
161
330
15D
100
AcDbEntity
  8
BEMAßUNG
 62
     7
100
AcDbVertex
100
AcDb2dVertex
 10
27.73904757336038
 20
-35.05074597648037
 30
0.0
  0
SEQEND
  5
162
330
15D
100
AcDbEntity
  8
BEMAßUNG
  0
POLYLINE
  5
163
330
1F
100
AcDbEntity
  8
BEMAßUNG
 62
     7
100
AcDb2dPolyline
 66
     1
 10
0.0
 20
0.0
 30
0.0
  0
VERTEX
  5
164
330
163
100
AcDbEntity
  8
BEMAßUNG
 62
     7
100
AcDbVertex
100
AcDb2dVertex
 10
27.90682372349205
 20
-33.67615287786568
 30
0.0
  0
VERTEX
  5
165
330
163
100
AcDbEntity
  8
BEMAßUNG
 62
     7
100
AcDbVertex
100
AcDb2dVertex
 10
27.90682372349205
 20
-33.77778319468056
 30
0.0
  0
SEQEND
  5
166
330
163
100
AcDbEntity
  8
BEMAßUNG
  0
POLYLINE
  5
167
330
1F
100
AcDbEntity
  8
BEMAßUNG
 62
     7
100
AcDb2dPolyline
 66
     1
 10
0.0
 20
0.0
 30
0.0
  0
VERTEX
  5
168
330
167
100
AcDbEntity
  8
BEMAßUNG
 62
     7
100
AcDbVertex
100
AcDb2dVertex
 10
27.90682372349205
 20
-33.67615287786568
 30
0.0
  0
VERTEX
  5
169
330
167
100
AcDbEntity
  8
BEMAßUNG
 62
     7
100
AcDbVertex
100
AcDb2dVertex
 10
27.90682372349205
 20
-33.77778319468056
 30
0.0
  0
SEQEND
  5
16A
330
167
100
AcDbEntity
  8
BEMAßUNG
  0
POLYLINE
  5
16B
330
1F
100
AcDbEntity
  8
BEMAßUNG
 62
     7
100
AcDb2dPolyline
 66
     1
 10
0.0
 20
0.0
 30
0.0
  0
VERTEX
  5
16C
330
16B
100
AcDbEntity
  8
BEMAßUNG
 62
     7
100
AcDbVertex
100
AcDb2dVertex
 10
27.87874619528726
 20
-33.67615287786568
 30
0.0
  0
VERTEX
  5
16D
330
16B
100
AcDbEntity
  8
BEMAßUNG
 62
     7
100
AcDbVertex
100
AcDb2dVertex
 10
27.87874619528726
 20
-33.98965656702342
 30
0.0
  0
SEQEND
  5
16E
330
16B
100
AcDbEntity
  8
BEMAßUNG
  0
POLYLINE
  5
16F
330
1F
100
AcDbEntity
  8
BEMAßUNG
 62
     7
100
AcDb2dPolyline
 66
     1
 10
0.0
 20
0.0
 30
0.0
  0
VERTEX
  5
170
330
16F
100
AcDbEntity
  8
BEMAßUNG
 62
     7
100
AcDbVertex
100
AcDb2dVertex
 10
27.85084092185674
 20
-33.67615287786568
 30
0.0
  0
VERTEX
  5
171
330
16F
100
AcDbEntity
  8
BEMAßUNG
 62
     7
100
AcDbVertex
100
AcDb2dVertex
 10
27.85084092185674
 20
-34.20221895846333
 30
0.0
  0
SEQEND
  5
172
330
16F
100
AcDbEntity
  8
BEMAßUNG
  0
POLYLINE
  5
173
330
1F
100
AcDbEntity
  8
BEMAßUNG
 62
     7
100
AcDb2dPolyline
 66
     1
 10
0.0
 20
0.0
 30
0.0
  0
VERTEX
  5
174
330
173
100
AcDbEntity
  8
BEMAßUNG
 62
     7
100
AcDbVertex
100
AcDb2dVertex
 10
27.82293564842621
 20
-33.67615287786568
 30
0.0
  0
VERTEX
  5
175
330
173
100
AcDbEntity
  8
BEMAßUNG
 62
     7
100
AcDbVertex
100
AcDb2dVertex
 10
27.82293564842621
 20
-34.4140923308062
 30
0.0
  0
SEQEND
  5
176
330
173
100
AcDbEntity
  8
BEMAßUNG
  0
POLYLINE
  5
177
330
1F
100
AcDbEntity
  8
BEMAßUNG
 62
     7
100
AcDb2dPolyline
 66
     1
 10
0.0
 20
0.0
 30
0.0
  0
VERTEX
  5
178
330
177
100
AcDbEntity
  8
BEMAßUNG
 62
     7
100
AcDbVertex
100
AcDb2dVertex
 10
27.79503037499569
 20
-33.67615287786568
 30
0.0
  0
VERTEX
  5
179
330
177
100
AcDbEntity
  8
BEMAßUNG
 62
     7
100
AcDbVertex
100
AcDb2dVertex
 10
27.79503037499569
 20
-34.62665472224612
 30
0.0
  0
SEQEND
  5
17A
330
177
100
AcDbEntity
  8
BEMAßUNG
  0
POLYLINE
  5
17B
330
1F
100
AcDbEntity
  8
BEMAßUNG
 62
     7
100
AcDb2dPolyline
 66
     1
 10
0.0
 20
0.0
 30
0.0
  0
VERTEX
  5
17C
330
17B
100
AcDbEntity
  8
BEMAßUNG
 62
     7
100
AcDbVertex
100
AcDb2dVertex
 10
27.7669528467909
 20
-33.67615287786568
 30
0.0
  0
VERTEX
  5
17D
330
17B
100
AcDbEntity
  8
BEMAßUNG
 62
     7
100
AcDbVertex
100
AcDb2dVertex
 10
27.7669528467909
 20
-34.83887260413751
 30
0.0
  0
SEQEND
  5
17E
330
17B
100
AcDbEntity
  8
BEMAßUNG
  0
POLYLINE
  5
17F
330
1F
100
AcDbEntity
  8
BEMAßUNG
 62
     7
100
AcDb2dPolyline
 66
     1
 10
0.0
 20
0.0
 30
0.0
  0
VERTEX
  5
180
330
17F
100
AcDbEntity
  8
BEMAßUNG
 62
     7
100
AcDbVertex
100
AcDb2dVertex
 10
27.73904757336038
 20
-33.67615287786568
 30
0.0
  0
VERTEX
  5
181
330
17F
100
AcDbEntity
  8
BEMAßUNG
 62
     7
100
AcDbVertex
100
AcDb2dVertex
 10
27.73904757336038
 20
-35.05074597648037
 30
0.0
  0
SEQEND
  5
182
330
17F
100
AcDbEntity
  8
BEMAßUNG
  0
POLYLINE
  5
183
330
1F
100
AcDbEntity
  8
BEMAßUNG
 62
     7
100
AcDb2dPolyline
 66
     1
 10
0.0
 20
0.0
 30
0.0
  0
VERTEX
  5
184
330
183
100
AcDbEntity
  8
BEMAßUNG
 62
     7
100
AcDbVertex
100
AcDb2dVertex
 10
27.57127142322871
 20
-33.67615287786568
 30
0.0
  0
VERTEX
  5
185
330
183
100
AcDbEntity
  8
BEMAßUNG
 62
     7
100
AcDbVertex
100
AcDb2dVertex
 10
27.57127142322871
 20
-33.77778319468056
 30
0.0
  0
SEQEND
  5
186
330
183
100
AcDbEntity
  8
BEMAßUNG
  0
POLYLINE
  5
187
330
1F
100
AcDbEntity
  8
BEMAßUNG
 62
     7
100
AcDb2dPolyline
 66
     1
 10
0.0
 20
0.0
 30
0.0
  0
VERTEX
  5
188
330
187
100
AcDbEntity
  8
BEMAßUNG
 62
     7
100
AcDbVertex
100
AcDb2dVertex
 10
27.57127142322871
 20
-33.67615287786568
 30
0.0
  0
VERTEX
  5
189
330
187
100
AcDbEntity
  8
BEMAßUNG
 62
     7
100
AcDbVertex
100
AcDb2dVertex
 10
27.57127142322871
 20
-33.77778319468056
 30
0.0
  0
SEQEND
  5
18A
330
187
100
AcDbEntity
  8
BEMAßUNG
  0
POLYLINE
  5
18B
330
1F
100
AcDbEntity
  8
BEMAßUNG
 62
     7
100
AcDb2dPolyline
 66
     1
 10
0.0
 20
0.0
 30
0.0
  0
VERTEX
  5
18C
330
18B
100
AcDbEntity
  8
BEMAßUNG
 62
     7
100
AcDbVertex
100
AcDb2dVertex
 10
27.59917669665924
 20
-33.67615287786568
 30
0.0
  0
VERTEX
  5
18D
330
18B
100
AcDbEntity
  8
BEMAßUNG
 62
     7
100
AcDbVertex
100
AcDb2dVertex
 10
27.59917669665924
 20
-33.98965656702342
 30
0.0
  0
SEQEND
  5
18E
330
18B
100
AcDbEntity
  8
BEMAßUNG
  0
POLYLINE
  5
18F
330
1F
100
AcDbEntity
  8
BEMAßUNG
 62
     7
100
AcDb2dPolyline
 66
     1
 10
0.0
 20
0.0
 30
0.0
  0
VERTEX
  5
190
330
18F
100
AcDbEntity
  8
BEMAßUNG
 62
     7
100
AcDbVertex
100
AcDb2dVertex
 10
27.62725422486402
 20
-33.67615287786568
 30
0.0
  0
VERTEX
  5
191
330
18F
100
AcDbEntity
  8
BEMAßUNG
 62
     7
100
AcDbVertex
100
AcDb2dVertex
 10
27.62725422486402
 20
-34.20221895846333
 30
0.0
  0
SEQEND
  5
192
330
18F
100
AcDbEntity
  8
BEMAßUNG
  0
POLYLINE
  5
193
330
1F
100
AcDbEntity
  8
BEMAßUNG
 62
     7
100
AcDb2dPolyline
 66
     1
 10
0.0
 20
0.0
 30
0.0
  0
VERTEX
  5
194
330
193
100
AcDbEntity
  8
BEMAßUNG
 62
     7
100
AcDbVertex
100
AcDb2dVertex
 10
27.65498724352028
 20
-33.67615287786568
 30
0.0
  0
VERTEX
  5
195
330
193
100
AcDbEntity
  8
BEMAßUNG
 62
     7
100
AcDbVertex
100
AcDb2dVertex
 10
27.65498724352028
 20
-34.4140923308062
 30
0.0
  0
SEQEND
  5
196
330
193
100
AcDbEntity
  8
BEMAßUNG
  0
POLYLINE
  5
197
330
1F
100
AcDbEntity
  8
BEMAßUNG
 62
     7
100
AcDb2dPolyline
 66
     1
 10
0.0
 20
0.0
 30
0.0
  0
VERTEX
  5
198
330
197
100
AcDbEntity
  8
BEMAßUNG
 62
     7
100
AcDbVertex
100
AcDb2dVertex
 10
27.68306477172507
 20
-33.67615287786568
 30
0.0
  0
VERTEX
  5
199
330
197
100
AcDbEntity
  8
BEMAßUNG
 62
     7
100
AcDbVertex
100
AcDb2dVertex
 10
27.68306477172507
 20
-34.62665472224612
 30
0.0
  0
SEQEND
  5
19A
330
197
100
AcDbEntity
  8
BEMAßUNG
  0
POLYLINE
  5
19B
330
1F
100
AcDbEntity
  8
BEMAßUNG
 62
     7
100
AcDb2dPolyline
 66
     1
 10
0.0
 20
0.0
 30
0.0
  0
VERTEX
  5
19C
330
19B
100
AcDbEntity
  8
BEMAßUNG
 62
     7
100
AcDbVertex
100
AcDb2dVertex
 10
27.71097004515559
 20
-33.67615287786568
 30
0.0
  0
VERTEX
  5
19D
330
19B
100
AcDbEntity
  8
BEMAßUNG
 62
     7
100
AcDbVertex
100
AcDb2dVertex
 10
27.71097004515559
 20
-34.83887260413751
 30
0.0
  0
SEQEND
  5
19E
330
19B
100
AcDbEntity
  8
BEMAßUNG
  0
POLYLINE
  5
19F
330
1F
100
AcDbEntity
  8
BEMAßUNG
 62
     7
100
AcDb2dPolyline
 66
     1
 10
0.0
 20
0.0
 30
0.0
  0
VERTEX
  5
1A0
330
19F
100
AcDbEntity
  8
BEMAßUNG
 62
     7
100
AcDbVertex
100
AcDb2dVertex
 10
27.73904757336038
 20
-33.67615287786568
 30
0.0
  0
VERTEX
  5
1A1
330
19F
100
AcDbEntity
  8
BEMAßUNG
 62
     7
100
AcDbVertex
100
AcDb2dVertex
 10
27.73904757336038
 20
-35.05074597648037
 30
0.0
  0
SEQEND
  5
1A2
330
19F
100
AcDbEntity
  8
BEMAßUNG
  0
POLYLINE
  5
1A3
330
1F
100
AcDbEntity
  8
BEMAßUNG
 62
     7
100
AcDb2dPolyline
 66
     1
 10
0.0
 20
0.0
 30
0.0
  0
VERTEX
  5
1A4
330
1A3
100
AcDbEntity
  8
BEMAßUNG
 62
     7
100
AcDbVertex
100
AcDb2dVertex
 10
33.23345810801108
 20
-30.1008327832734
 30
0.0
  0
VERTEX
  5
1A5
330
1A3
100
AcDbEntity
  8
BEMAßUNG
 62
     7
100
AcDbVertex
100
AcDb2dVertex
 10
33.23345810801108
 20
-41.6908230147509
 30
0.0
  0
SEQEND
  5
1A6
330
1A3
100
AcDbEntity
  8
BEMAßUNG
  0
POLYLINE
  5
1A7
330
1F
100
AcDbEntity
  8
BEMAßUNG
 62
     7
100
AcDb2dPolyline
 66
     1
 10
0.0
 20
0.0
 30
0.0
  0
VERTEX
  5
1A8
330
1A7
100
AcDbEntity
  8
BEMAßUNG
 62
     7
100
AcDbVertex
100
AcDb2dVertex
 10
121.2332546354903
 20
-30.1008327832734
 30
0.0
  0
VERTEX
  5
1A9
330
1A7
100
AcDbEntity
  8
BEMAßUNG
 62
     7
100
AcDbVertex
100
AcDb2dVertex
 10
121.2332546354903
 20
-41.6908230147509
 30
0.0
  0
SEQEND
  5
1AA
330
1A7
100
AcDbEntity
  8
BEMAßUNG
  0
POLYLINE
  5
1AB
330
1F
100
AcDbEntity
  8
BEMAßUNG
 62
     7
100
AcDb2dPolyline
 66
     1
 10
0.0
 20
0.0
 30
0.0
  0
VERTEX
  5
1AC
330
1AB
100
AcDbEntity
  8
BEMAßUNG
 62
     7
100
AcDbVertex
100
AcDb2dVertex
 10
33.23345810801108
 20
-40.59080402631064
 30
0.0
  0
VERTEX
  5
1AD
330
1AB
100
AcDbEntity
  8
BEMAßUNG
 62
     7
100
AcDbVertex
100
AcDb2dVertex
 10
121.2332546354903
 20
-40.59080402631064
 30
0.0
  0
SEQEND
  5
1AE
330
1AB
100
AcDbEntity
  8
BEMAßUNG
  0
POLYLINE
  5
1AF
330
1F
100
AcDbEntity
  8
BEMAßUNG
 62
     7
100
AcDb2dPolyline
 66
     1
 10
0.0
 20
0.0
 30
0.0
  0
VERTEX
  5
1B0
330
1AF
100
AcDbEntity
  8
BEMAßUNG
 62
     7
100
AcDbVertex
100
AcDb2dVertex
 10
33.23345810801108
 20
-40.59080402631064
 30
0.0
  0
VERTEX
  5
1B1
330
1AF
100
AcDbEntity
  8
BEMAßUNG
 62
     7
100
AcDbVertex
100
AcDb2dVertex
 10
34.60856797094856
 20
-40.77167153928625
 30
0.0
  0
VERTEX
  5
1B2
330
1AF
100
AcDbEntity
  8
BEMAßUNG
 62
     7
100
AcDbVertex
100
AcDb2dVertex
 10
34.60856797094856
 20
-40.40959200378649
 30
0.0
  0
VERTEX
  5
1B3
330
1AF
100
AcDbEntity
  8
BEMAßUNG
 62
     7
100
AcDbVertex
100
AcDb2dVertex
 10
33.23345810801108
 20
-40.59080402631064
 30
0.0
  0
SEQEND
  5
1B4
330
1AF
100
AcDbEntity
  8
BEMAßUNG
  0
POLYLINE
  5
1B5
330
1F
100
AcDbEntity
  8
BEMAßUNG
 62
     7
100
AcDb2dPolyline
 66
     1
 10
0.0
 20
0.0
 30
0.0
  0
VERTEX
  5
1B6
330
1B5
100
AcDbEntity
  8
BEMAßUNG
 62
     7
100
AcDbVertex
100
AcDb2dVertex
 10
34.60856797094856
 20
-40.7585801764423
 30
0.0
  0
VERTEX
  5
1B7
330
1B5
100
AcDbEntity
  8
BEMAßUNG
 62
     7
100
AcDbVertex
100
AcDb2dVertex
 10
34.50693765413369
 20
-40.7585801764423
 30
0.0
  0
SEQEND
  5
1B8
330
1B5
100
AcDbEntity
  8
BEMAßUNG
  0
POLYLINE
  5
1B9
330
1F
100
AcDbEntity
  8
BEMAßUNG
 62
     7
100
AcDb2dPolyline
 66
     1
 10
0.0
 20
0.0
 30
0.0
  0
VERTEX
  5
1BA
330
1B9
100
AcDbEntity
  8
BEMAßUNG
 62
     7
100
AcDbVertex
100
AcDb2dVertex
 10
34.60856797094856
 20
-40.7585801764423
 30
0.0
  0
VERTEX
  5
1BB
330
1B9
100
AcDbEntity
  8
BEMAßUNG
 62
     7
100
AcDbVertex
100
AcDb2dVertex
 10
34.50693765413369
 20
-40.7585801764423
 30
0.0
  0
SEQEND
  5
1BC
330
1B9
100
AcDbEntity
  8
BEMAßUNG
  0
POLYLINE
  5
1BD
330
1F
100
AcDbEntity
  8
BEMAßUNG
 62
     7
100
AcDb2dPolyline
 66
     1
 10
0.0
 20
0.0
 30
0.0
  0
VERTEX
  5
1BE
330
1BD
100
AcDbEntity
  8
BEMAßUNG
 62
     7
100
AcDbVertex
100
AcDb2dVertex
 10
34.60856797094856
 20
-40.73033039346326
 30
0.0
  0
VERTEX
  5
1BF
330
1BD
100
AcDbEntity
  8
BEMAßUNG
 62
     7
100
AcDbVertex
100
AcDb2dVertex
 10
34.29489202701656
 20
-40.73033039346326
 30
0.0
  0
SEQEND
  5
1C0
330
1BD
100
AcDbEntity
  8
BEMAßUNG
  0
POLYLINE
  5
1C1
330
1F
100
AcDbEntity
  8
BEMAßUNG
 62
     7
100
AcDb2dPolyline
 66
     1
 10
0.0
 20
0.0
 30
0.0
  0
VERTEX
  5
1C2
330
1C1
100
AcDbEntity
  8
BEMAßUNG
 62
     7
100
AcDbVertex
100
AcDb2dVertex
 10
34.60856797094856
 20
-40.70242512003273
 30
0.0
  0
VERTEX
  5
1C3
330
1C1
100
AcDbEntity
  8
BEMAßUNG
 62
     7
100
AcDbVertex
100
AcDb2dVertex
 10
34.08232963557664
 20
-40.70242512003273
 30
0.0
  0
SEQEND
  5
1C4
330
1C1
100
AcDbEntity
  8
BEMAßUNG
  0
POLYLINE
  5
1C5
330
1F
100
AcDbEntity
  8
BEMAßUNG
 62
     7
100
AcDb2dPolyline
 66
     1
 10
0.0
 20
0.0
 30
0.0
  0
VERTEX
  5
1C6
330
1C5
100
AcDbEntity
  8
BEMAßUNG
 62
     7
100
AcDbVertex
100
AcDb2dVertex
 10
34.60856797094856
 20
-40.6745198466022
 30
0.0
  0
VERTEX
  5
1C7
330
1C5
100
AcDbEntity
  8
BEMAßUNG
 62
     7
100
AcDbVertex
100
AcDb2dVertex
 10
33.87028400845951
 20
-40.6745198466022
 30
0.0
  0
SEQEND
  5
1C8
330
1C5
100
AcDbEntity
  8
BEMAßUNG
  0
POLYLINE
  5
1C9
330
1F
100
AcDbEntity
  8
BEMAßUNG
 62
     7
100
AcDb2dPolyline
 66
     1
 10
0.0
 20
0.0
 30
0.0
  0
VERTEX
  5
1CA
330
1C9
100
AcDbEntity
  8
BEMAßUNG
 62
     7
100
AcDbVertex
100
AcDb2dVertex
 10
34.60856797094856
 20
-40.64661457317168
 30
0.0
  0
VERTEX
  5
1CB
330
1C9
100
AcDbEntity
  8
BEMAßUNG
 62
     7
100
AcDbVertex
100
AcDb2dVertex
 10
33.65806612656812
 20
-40.64661457317168
 30
0.0
  0
SEQEND
  5
1CC
330
1C9
100
AcDbEntity
  8
BEMAßUNG
  0
POLYLINE
  5
1CD
330
1F
100
AcDbEntity
  8
BEMAßUNG
 62
     7
100
AcDb2dPolyline
 66
     1
 10
0.0
 20
0.0
 30
0.0
  0
VERTEX
  5
1CE
330
1CD
100
AcDbEntity
  8
BEMAßUNG
 62
     7
100
AcDbVertex
100
AcDb2dVertex
 10
34.60856797094856
 20
-40.61870929974116
 30
0.0
  0
VERTEX
  5
1CF
330
1CD
100
AcDbEntity
  8
BEMAßUNG
 62
     7
100
AcDbVertex
100
AcDb2dVertex
 10
33.446020499451
 20
-40.61870929974116
 30
0.0
  0
SEQEND
  5
1D0
330
1CD
100
AcDbEntity
  8
BEMAßUNG
  0
POLYLINE
  5
1D1
330
1F
100
AcDbEntity
  8
BEMAßUNG
 62
     7
100
AcDb2dPolyline
 66
     1
 10
0.0
 20
0.0
 30
0.0
  0
VERTEX
  5
1D2
330
1D1
100
AcDbEntity
  8
BEMAßUNG
 62
     7
100
AcDbVertex
100
AcDb2dVertex
 10
34.60856797094856
 20
-40.59080402631064
 30
0.0
  0
VERTEX
  5
1D3
330
1D1
100
AcDbEntity
  8
BEMAßUNG
 62
     7
100
AcDbVertex
100
AcDb2dVertex
 10
33.23345810801108
 20
-40.59080402631064
 30
0.0
  0
SEQEND
  5
1D4
330
1D1
100
AcDbEntity
  8
BEMAßUNG
  0
POLYLINE
  5
1D5
330
1F
100
AcDbEntity
  8
BEMAßUNG
 62
     7
100
AcDb2dPolyline
 66
     1
 10
0.0
 20
0.0
 30
0.0
  0
VERTEX
  5
1D6
330
1D5
100
AcDbEntity
  8
BEMAßUNG
 62
     7
100
AcDbVertex
100
AcDb2dVertex
 10
34.60856797094856
 20
-40.42302787617897
 30
0.0
  0
VERTEX
  5
1D7
330
1D5
100
AcDbEntity
  8
BEMAßUNG
 62
     7
100
AcDbVertex
100
AcDb2dVertex
 10
34.50693765413369
 20
-40.42302787617897
 30
0.0
  0
SEQEND
  5
1D8
330
1D5
100
AcDbEntity
  8
BEMAßUNG
  0
POLYLINE
  5
1D9
330
1F
100
AcDbEntity
  8
BEMAßUNG
 62
     7
100
AcDb2dPolyline
 66
     1
 10
0.0
 20
0.0
 30
0.0
  0
VERTEX
  5
1DA
330
1D9
100
AcDbEntity
  8
BEMAßUNG
 62
     7
100
AcDbVertex
100
AcDb2dVertex
 10
34.60856797094856
 20
-40.42302787617897
 30
0.0
  0
VERTEX
  5
1DB
330
1D9
100
AcDbEntity
  8
BEMAßUNG
 62
     7
100
AcDbVertex
100
AcDb2dVertex
 10
34.50693765413369
 20
-40.42302787617897
 30
0.0
  0
SEQEND
  5
1DC
330
1D9
100
AcDbEntity
  8
BEMAßUNG
  0
POLYLINE
  5
1DD
330
1F
100
AcDbEntity
  8
BEMAßUNG
 62
     7
100
AcDb2dPolyline
 66
     1
 10
0.0
 20
0.0
 30
0.0
  0
VERTEX
  5
1DE
330
1DD
100
AcDbEntity
  8
BEMAßUNG
 62
     7
100
AcDbVertex
100
AcDb2dVertex
 10
34.60856797094856
 20
-40.45127765915802
 30
0.0
  0
VERTEX
  5
1DF
330
1DD
100
AcDbEntity
  8
BEMAßUNG
 62
     7
100
AcDbVertex
100
AcDb2dVertex
 10
34.29489202701656
 20
-40.45127765915802
 30
0.0
  0
SEQEND
  5
1E0
330
1DD
100
AcDbEntity
  8
BEMAßUNG
  0
POLYLINE
  5
1E1
330
1F
100
AcDbEntity
  8
BEMAßUNG
 62
     7
100
AcDb2dPolyline
 66
     1
 10
0.0
 20
0.0
 30
0.0
  0
VERTEX
  5
1E2
330
1E1
100
AcDbEntity
  8
BEMAßUNG
 62
     7
100
AcDbVertex
100
AcDb2dVertex
 10
34.60856797094856
 20
-40.47918293258854
 30
0.0
  0
VERTEX
  5
1E3
330
1E1
100
AcDbEntity
  8
BEMAßUNG
 62
     7
100
AcDbVertex
100
AcDb2dVertex
 10
34.08232963557664
 20
-40.47918293258854
 30
0.0
  0
SEQEND
  5
1E4
330
1E1
100
AcDbEntity
  8
BEMAßUNG
  0
POLYLINE
  5
1E5
330
1F
100
AcDbEntity
  8
BEMAßUNG
 62
     7
100
AcDb2dPolyline
 66
     1
 10
0.0
 20
0.0
 30
0.0
  0
VERTEX
  5
1E6
330
1E5
100
AcDbEntity
  8
BEMAßUNG
 62
     7
100
AcDbVertex
100
AcDb2dVertex
 10
34.60856797094856
 20
-40.50708820601906
 30
0.0
  0
VERTEX
  5
1E7
330
1E5
100
AcDbEntity
  8
BEMAßUNG
 62
     7
100
AcDbVertex
100
AcDb2dVertex
 10
33.87028400845951
 20
-40.50708820601906
 30
0.0
  0
SEQEND
  5
1E8
330
1E5
100
AcDbEntity
  8
BEMAßUNG
  0
POLYLINE
  5
1E9
330
1F
100
AcDbEntity
  8
BEMAßUNG
 62
     7
100
AcDb2dPolyline
 66
     1
 10
0.0
 20
0.0
 30
0.0
  0
VERTEX
  5
1EA
330
1E9
100
AcDbEntity
  8
BEMAßUNG
 62
     7
100
AcDbVertex
100
AcDb2dVertex
 10
34.60856797094856
 20
-40.53499347944959
 30
0.0
  0
VERTEX
  5
1EB
330
1E9
100
AcDbEntity
  8
BEMAßUNG
 62
     7
100
AcDbVertex
100
AcDb2dVertex
 10
33.65806612656812
 20
-40.53499347944959
 30
0.0
  0
SEQEND
  5
1EC
330
1E9
100
AcDbEntity
  8
BEMAßUNG
  0
POLYLINE
  5
1ED
330
1F
100
AcDbEntity
  8
BEMAßUNG
 62
     7
100
AcDb2dPolyline
 66
     1
 10
0.0
 20
0.0
 30
0.0
  0
VERTEX
  5
1EE
330
1ED
100
AcDbEntity
  8
BEMAßUNG
 62
     7
100
AcDbVertex
100
AcDb2dVertex
 10
34.60856797094856
 20
-40.56289875288011
 30
0.0
  0
VERTEX
  5
1EF
330
1ED
100
AcDbEntity
  8
BEMAßUNG
 62
     7
100
AcDbVertex
100
AcDb2dVertex
 10
33.446020499451
 20
-40.56289875288011
 30
0.0
  0
SEQEND
  5
1F0
330
1ED
100
AcDbEntity
  8
BEMAßUNG
  0
POLYLINE
  5
1F1
330
1F
100
AcDbEntity
  8
BEMAßUNG
 62
     7
100
AcDb2dPolyline
 66
     1
 10
0.0
 20
0.0
 30
0.0
  0
VERTEX
  5
1F2
330
1F1
100
AcDbEntity
  8
BEMAßUNG
 62
     7
100
AcDbVertex
100
AcDb2dVertex
 10
34.60856797094856
 20
-40.59080402631064
 30
0.0
  0
VERTEX
  5
1F3
330
1F1
100
AcDbEntity
  8
BEMAßUNG
 62
     7
100
AcDbVertex
100
AcDb2dVertex
 10
33.23345810801108
 20
-40.59080402631064
 30
0.0
  0
SEQEND
  5
1F4
330
1F1
100
AcDbEntity
  8
BEMAßUNG
  0
POLYLINE
  5
1F5
330
1F
100
AcDbEntity
  8
BEMAßUNG
 62
     7
100
AcDb2dPolyline
 66
     1
 10
0.0
 20
0.0
 30
0.0
  0
VERTEX
  5
1F6
330
1F5
100
AcDbEntity
  8
BEMAßUNG
 62
     7
100
AcDbVertex
100
AcDb2dVertex
 10
121.2332546354903
 20
-40.59080402631064
 30
0.0
  0
VERTEX
  5
1F7
330
1F5
100
AcDbEntity
  8
BEMAßUNG
 62
     7
100
AcDbVertex
100
AcDb2dVertex
 10
119.8583170273271
 20
-40.40959200378649
 30
0.0
  0
VERTEX
  5
1F8
330
1F5
100
AcDbEntity
  8
BEMAßUNG
 62
     7
100
AcDbVertex
100
AcDb2dVertex
 10
119.8583170273271
 20
-40.77167153928625
 30
0.0
  0
VERTEX
  5
1F9
330
1F5
100
AcDbEntity
  8
BEMAßUNG
 62
     7
100
AcDbVertex
100
AcDb2dVertex
 10
121.2332546354903
 20
-40.59080402631064
 30
0.0
  0
SEQEND
  5
1FA
330
1F5
100
AcDbEntity
  8
BEMAßUNG
  0
POLYLINE
  5
1FB
330
1F
100
AcDbEntity
  8
BEMAßUNG
 62
     7
100
AcDb2dPolyline
 66
     1
 10
0.0
 20
0.0
 30
0.0
  0
VERTEX
  5
1FC
330
1FB
100
AcDbEntity
  8
BEMAßUNG
 62
     7
100
AcDbVertex
100
AcDb2dVertex
 10
119.8583170273271
 20
-40.42302787617897
 30
0.0
  0
VERTEX
  5
1FD
330
1FB
100
AcDbEntity
  8
BEMAßUNG
 62
     7
100
AcDbVertex
100
AcDb2dVertex
 10
119.9602918536905
 20
-40.42302787617897
 30
0.0
  0
SEQEND
  5
1FE
330
1FB
100
AcDbEntity
  8
BEMAßUNG
  0
POLYLINE
  5
1FF
330
1F
100
AcDbEntity
  8
BEMAßUNG
 62
     7
100
AcDb2dPolyline
 66
     1
 10
0.0
 20
0.0
 30
0.0
  0
VERTEX
  5
200
330
1FF
100
AcDbEntity
  8
BEMAßUNG
 62
     7
100
AcDbVertex
100
AcDb2dVertex
 10
119.8583170273271
 20
-40.42302787617897
 30
0.0
  0
VERTEX
  5
201
330
1FF
100
AcDbEntity
  8
BEMAßUNG
 62
     7
100
AcDbVertex
100
AcDb2dVertex
 10
119.9602918536905
 20
-40.42302787617897
 30
0.0
  0
SEQEND
  5
202
330
1FF
100
AcDbEntity
  8
BEMAßUNG
  0
POLYLINE
  5
203
330
1F
100
AcDbEntity
  8
BEMAßUNG
 62
     7
100
AcDb2dPolyline
 66
     1
 10
0.0
 20
0.0
 30
0.0
  0
VERTEX
  5
204
330
203
100
AcDbEntity
  8
BEMAßUNG
 62
     7
100
AcDbVertex
100
AcDb2dVertex
 10
119.8583170273271
 20
-40.45127765915802
 30
0.0
  0
VERTEX
  5
205
330
203
100
AcDbEntity
  8
BEMAßUNG
 62
     7
100
AcDbVertex
100
AcDb2dVertex
 10
120.1725097355819
 20
-40.45127765915802
 30
0.0
  0
SEQEND
  5
206
330
203
100
AcDbEntity
  8
BEMAßUNG
  0
POLYLINE
  5
207
330
1F
100
AcDbEntity
  8
BEMAßUNG
 62
     7
100
AcDb2dPolyline
 66
     1
 10
0.0
 20
0.0
 30
0.0
  0
VERTEX
  5
208
330
207
100
AcDbEntity
  8
BEMAßUNG
 62
     7
100
AcDbVertex
100
AcDb2dVertex
 10
119.8583170273271
 20
-40.47918293258854
 30
0.0
  0
VERTEX
  5
209
330
207
100
AcDbEntity
  8
BEMAßUNG
 62
     7
100
AcDbVertex
100
AcDb2dVertex
 10
120.3847276174733
 20
-40.47918293258854
 30
0.0
  0
SEQEND
  5
20A
330
207
100
AcDbEntity
  8
BEMAßUNG
  0
POLYLINE
  5
20B
330
1F
100
AcDbEntity
  8
BEMAßUNG
 62
     7
100
AcDb2dPolyline
 66
     1
 10
0.0
 20
0.0
 30
0.0
  0
VERTEX
  5
20C
330
20B
100
AcDbEntity
  8
BEMAßUNG
 62
     7
100
AcDbVertex
100
AcDb2dVertex
 10
119.8583170273271
 20
-40.50708820601906
 30
0.0
  0
VERTEX
  5
20D
330
20B
100
AcDbEntity
  8
BEMAßUNG
 62
     7
100
AcDbVertex
100
AcDb2dVertex
 10
120.5969454993647
 20
-40.50708820601906
 30
0.0
  0
SEQEND
  5
20E
330
20B
100
AcDbEntity
  8
BEMAßUNG
  0
POLYLINE
  5
20F
330
1F
100
AcDbEntity
  8
BEMAßUNG
 62
     7
100
AcDb2dPolyline
 66
     1
 10
0.0
 20
0.0
 30
0.0
  0
VERTEX
  5
210
330
20F
100
AcDbEntity
  8
BEMAßUNG
 62
     7
100
AcDbVertex
100
AcDb2dVertex
 10
119.8583170273271
 20
-40.53499347944959
 30
0.0
  0
VERTEX
  5
211
330
20F
100
AcDbEntity
  8
BEMAßUNG
 62
     7
100
AcDbVertex
100
AcDb2dVertex
 10
120.809163381256
 20
-40.53499347944959
 30
0.0
  0
SEQEND
  5
212
330
20F
100
AcDbEntity
  8
BEMAßUNG
  0
POLYLINE
  5
213
330
1F
100
AcDbEntity
  8
BEMAßUNG
 62
     7
100
AcDb2dPolyline
 66
     1
 10
0.0
 20
0.0
 30
0.0
  0
VERTEX
  5
214
330
213
100
AcDbEntity
  8
BEMAßUNG
 62
     7
100
AcDbVertex
100
AcDb2dVertex
 10
119.8583170273271
 20
-40.56289875288011
 30
0.0
  0
VERTEX
  5
215
330
213
100
AcDbEntity
  8
BEMAßUNG
 62
     7
100
AcDbVertex
100
AcDb2dVertex
 10
121.0213812631474
 20
-40.56289875288011
 30
0.0
  0
SEQEND
  5
216
330
213
100
AcDbEntity
  8
BEMAßUNG
  0
POLYLINE
  5
217
330
1F
100
AcDbEntity
  8
BEMAßUNG
 62
     7
100
AcDb2dPolyline
 66
     1
 10
0.0
 20
0.0
 30
0.0
  0
VERTEX
  5
218
330
217
100
AcDbEntity
  8
BEMAßUNG
 62
     7
100
AcDbVertex
100
AcDb2dVertex
 10
119.8583170273271
 20
-40.59080402631064
 30
0.0
  0
VERTEX
  5
219
330
217
100
AcDbEntity
  8
BEMAßUNG
 62
     7
100
AcDbVertex
100
AcDb2dVertex
 10
121.2332546354903
 20
-40.59080402631064
 30
0.0
  0
SEQEND
  5
21A
330
217
100
AcDbEntity
  8
BEMAßUNG
  0
POLYLINE
  5
21B
330
1F
100
AcDbEntity
  8
BEMAßUNG
 62
     7
100
AcDb2dPolyline
 66
     1
 10
0.0
 20
0.0
 30
0.0
  0
VERTEX
  5
21C
330
21B
100
AcDbEntity
  8
BEMAßUNG
 62
     7
100
AcDbVertex
100
AcDb2dVertex
 10
119.8583170273271
 20
-40.7585801764423
 30
0.0
  0
VERTEX
  5
21D
330
21B
100
AcDbEntity
  8
BEMAßUNG
 62
     7
100
AcDbVertex
100
AcDb2dVertex
 10
119.9602918536905
 20
-40.7585801764423
 30
0.0
  0
SEQEND
  5
21E
330
21B
100
AcDbEntity
  8
BEMAßUNG
  0
POLYLINE
  5
21F
330
1F
100
AcDbEntity
  8
BEMAßUNG
 62
     7
100
AcDb2dPolyline
 66
     1
 10
0.0
 20
0.0
 30
0.0
  0
VERTEX
  5
220
330
21F
100
AcDbEntity
  8
BEMAßUNG
 62
     7
100
AcDbVertex
100
AcDb2dVertex
 10
119.8583170273271
 20
-40.7585801764423
 30
0.0
  0
VERTEX
  5
221
330
21F
100
AcDbEntity
  8
BEMAßUNG
 62
     7
100
AcDbVertex
100
AcDb2dVertex
 10
119.9602918536905
 20
-40.7585801764423
 30
0.0
  0
SEQEND
  5
222
330
21F
100
AcDbEntity
  8
BEMAßUNG
  0
POLYLINE
  5
223
330
1F
100
AcDbEntity
  8
BEMAßUNG
 62
     7
100
AcDb2dPolyline
 66
     1
 10
0.0
 20
0.0
 30
0.0
  0
VERTEX
  5
224
330
223
100
AcDbEntity
  8
BEMAßUNG
 62
     7
100
AcDbVertex
100
AcDb2dVertex
 10
119.8583170273271
 20
-40.73033039346326
 30
0.0
  0
VERTEX
  5
225
330
223
100
AcDbEntity
  8
BEMAßUNG
 62
     7
100
AcDbVertex
100
AcDb2dVertex
 10
120.1725097355819
 20
-40.73033039346326
 30
0.0
  0
SEQEND
  5
226
330
223
100
AcDbEntity
  8
BEMAßUNG
  0
POLYLINE
  5
227
330
1F
100
AcDbEntity
  8
BEMAßUNG
 62
     7
100
AcDb2dPolyline
 66
     1
 10
0.0
 20
0.0
 30
0.0
  0
VERTEX
  5
228
330
227
100
AcDbEntity
  8
BEMAßUNG
 62
     7
100
AcDbVertex
100
AcDb2dVertex
 10
119.8583170273271
 20
-40.70242512003273
 30
0.0
  0
VERTEX
  5
229
330
227
100
AcDbEntity
  8
BEMAßUNG
 62
     7
100
AcDbVertex
100
AcDb2dVertex
 10
120.3847276174733
 20
-40.70242512003273
 30
0.0
  0
SEQEND
  5
22A
330
227
100
AcDbEntity
  8
BEMAßUNG
  0
POLYLINE
  5
22B
330
1F
100
AcDbEntity
  8
BEMAßUNG
 62
     7
100
AcDb2dPolyline
 66
     1
 10
0.0
 20
0.0
 30
0.0
  0
VERTEX
  5
22C
330
22B
100
AcDbEntity
  8
BEMAßUNG
 62
     7
100
AcDbVertex
100
AcDb2dVertex
 10
119.8583170273271
 20
-40.6745198466022
 30
0.0
  0
VERTEX
  5
22D
330
22B
100
AcDbEntity
  8
BEMAßUNG
 62
     7
100
AcDbVertex
100
AcDb2dVertex
 10
120.5969454993647
 20
-40.6745198466022
 30
0.0
  0
SEQEND
  5
22E
330
22B
100
AcDbEntity
  8
BEMAßUNG
  0
POLYLINE
  5
22F
330
1F
100
AcDbEntity
  8
BEMAßUNG
 62
     7
100
AcDb2dPolyline
 66
     1
 10
0.0
 20
0.0
 30
0.0
  0
VERTEX
  5
230
330
22F
100
AcDbEntity
  8
BEMAßUNG
 62
     7
100
AcDbVertex
100
AcDb2dVertex
 10
119.8583170273271
 20
-40.64661457317168
 30
0.0
  0
VERTEX
  5
231
330
22F
100
AcDbEntity
  8
BEMAßUNG
 62
     7
100
AcDbVertex
100
AcDb2dVertex
 10
120.809163381256
 20
-40.64661457317168
 30
0.0
  0
SEQEND
  5
232
330
22F
100
AcDbEntity
  8
BEMAßUNG
  0
POLYLINE
  5
233
330
1F
100
AcDbEntity
  8
BEMAßUNG
 62
     7
100
AcDb2dPolyline
 66
     1
 10
0.0
 20
0.0
 30
0.0
  0
VERTEX
  5
234
330
233
100
AcDbEntity
  8
BEMAßUNG
 62
     7
100
AcDbVertex
100
AcDb2dVertex
 10
119.8583170273271
 20
-40.61870929974116
 30
0.0
  0
VERTEX
  5
235
330
233
100
AcDbEntity
  8
BEMAßUNG
 62
     7
100
AcDbVertex
100
AcDb2dVertex
 10
121.0213812631474
 20
-40.61870929974116
 30
0.0
  0
SEQEND
  5
236
330
233
100
AcDbEntity
  8
BEMAßUNG
  0
POLYLINE
  5
237
330
1F
100
AcDbEntity
  8
BEMAßUNG
 62
     7
100
AcDb2dPolyline
 66
     1
 10
0.0
 20
0.0
 30
0.0
  0
VERTEX
  5
238
330
237
100
AcDbEntity
  8
BEMAßUNG
 62
     7
100
AcDbVertex
100
AcDb2dVertex
 10
119.8583170273271
 20
-40.59080402631064
 30
0.0
  0
VERTEX
  5
239
330
237
100
AcDbEntity
  8
BEMAßUNG
 62
     7
100
AcDbVertex
100
AcDb2dVertex
 10
121.2332546354903
 20
-40.59080402631064
 30
0.0
  0
SEQEND
  5
23A
330
237
100
AcDbEntity
  8
BEMAßUNG
  0
MTEXT
  5
23C
330
1F
100
AcDbEntity
  8
TEXT
 62
     7
100
AcDbMText
 10
27.04744465469647
 20
-31.2907687638787
 30
0.0
 40
2.398888888289167
 41
0.0
 71
     7
 72
     1
  1
\fINDEX Univers 45 Light|b0|i0|c0|p34;\W1;A
 11
-4.371139000186241E-8
 21
0.999999999999999
 31
0.0
  0
MTEXT
  5
23D
330
1F
100
AcDbEntity
  8
TEXT
 62
     7
100
AcDbMText
 10
76.85112302766223
 20
-39.88076984680064
 30
0.0
 40
2.398888888289167
 41
0.0
 71
     7
 72
     1
  1
\fINDEX Univers 45 Light|b0|i0|c0|p34;\W1;B
  0
ENDSEC
  0
SECTION
  2
OBJECTS
  0
DICTIONARY
  5
C
330
0
100
AcDbDictionary
  3
ACAD_GROUP
350
D
  3
ACAD_LAYOUT
350
1A
  3
ACAD_MLINESTYLE
350
17
  3
ACAD_PLOTSETTINGS
350
19
  3
ACAD_TABLESTYLE
350
25E
  3
ACAD_VISUALSTYLE
350
2A
  3
ACDBHEADERROUNDTRIPXREC
350
23E
  0
DICTIONARY
  5
D
102
{ACAD_REACTORS
330
C
102
}
330
C
100
AcDbDictionary
  0
DICTIONARY
  5
1A
102
{ACAD_REACTORS
330
C
102
}
330
C
100
AcDbDictionary
  0
DICTIONARY
  5
17
102
{ACAD_REACTORS
330
C
102
}
330
C
100
AcDbDictionary
  3
STANDARD
350
18
  0
DICTIONARY
  5
19
102
{ACAD_REACTORS
330
C
102
}
330
C
100
AcDbDictionary
  0
DICTIONARY
  5
25E
102
{ACAD_REACTORS
330
C
102
}
330
C
100
AcDbDictionary
  0
DICTIONARY
  5
2A
102
{ACAD_REACTORS
330
C
102
}
330
C
100
AcDbDictionary
  3
2DWIREFRAME
350
2F
  3
3D_HIDDEN
350
31
  3
3DWIREFRAME
350
30
  3
BASIC
350
32
  3
BRIGHTEN
350
36
  3
COLORCHANGE
350
3A
  3
CONCEPTUAL
350
34
  3
DIM
350
35
  3
FACEPATTERN
350
39
  3
FLAT
350
2B
  3
FLATWITHEDGES
350
2C
  3
GOURAUD
350
2D
  3
GOURAUDWITHEDGES
350
2E
  3
LINEPATTERN
350
38
  3
REALISTIC
350
33
  3
THICKEN
350
37
  0
DICTIONARY
  5
23E
102
{ACAD_REACTORS
330
C
102
}
330
C
100
AcDbDictionary
  3
CEPSNTYPE
350
247
  3
DIMSTYLEDATA
350
25D
  3
FINGERPRINTGUID
350
248
  3
HYPERLINKBASE
350
241
  3
INSUNITS
350
246
  3
LAYOUTDICT
350
243
  3
LWETCUNION
350
245
  3
PLOTSETDICT
350
244
  3
PSVPSCALE
350
24A
  3
PUCSBASE
350
24D
  3
PUCSORGBACK
350
253
  3
PUCSORGBOTTOM
350
24F
  3
PUCSORGFRONT
350
252
  3
PUCSORGLEFT
350
250
  3
PUCSORGRIGHT
350
251
  3
PUCSORGTOP
350
24E
  3
PUCSORTHOREF
350
24B
  3
PUCSORTHOVIEW
350
24C
  3
STYLESHEET
350
242
  3
TSTACKALIGN
350
23F
  3
TSTACKSIZE
350
240
  3
UCSBASE
350
256
  3
UCSORGBACK
350
25C
  3
UCSORGBOTTOM
350
258
  3
UCSORGFRONT
350
25B
  3
UCSORGLEFT
350
259
  3
UCSORGRIGHT
350
25A
  3
UCSORGTOP
350
257
  3
UCSORTHOREF
350
254
  3
UCSORTHOVIEW
350
255
  3
VERSIONGUID
350
249
  0
MLINESTYLE
  5
18
102
{ACAD_REACTORS
330
17
102
}
330
17
100
AcDbMlineStyle
  2
Standard
 70
     0
  3

 62
   256
 51
90.0
 52
90.0
 71
     2
 49
0.5
 62
   256
  6
BYLAYER
 49
-0.5
 62
   256
  6
BYLAYER
  0
VISUALSTYLE
  5
2F
102
{ACAD_REACTORS
330
2A
102
}
330
2A
100
AcDbVisualStyle
  2
2dWireframe
 70
     4
 71
     0
 72
     2
 73
     0
 90
        0
 40
-0.6
 41
-30.0
 62
     5
 63
     7
 74
     1
 91
        4
 64
     7
 65
   257
 75
     1
175
     1
 42
1.0
 92
        0
 66
   257
 43
1.0
 76
     1
 77
     6
 78
     2
 67
     7
 79
     5
170
     0
171
     0
290
     0
174
     0
 93
        1
 44
0.0
173
     0
291
     0
 45
0.0
1001
ACAD
1000
AcDbSavedByObjectVersion
1070
     0
  0
VISUALSTYLE
  5
31
102
{ACAD_REACTORS
330
2A
102
}
330
2A
100
AcDbVisualStyle
  2
3D Hidden
 70
     6
 71
     1
 72
     2
 73
     2
 90
        0
 40
-0.6
 41
-30.0
 62
     5
 63
     7
 74
     2
 91
        2
 64
     7
 65
   257
 75
     2
175
     1
 42
40.0
 92
        0
 66
   257
 43
1.0
 76
     1
 77
     6
 78
     2
 67
     7
 79
     3
170
     0
171
     0
290
     0
174
     0
 93
        1
 44
0.0
173
     0
291
     0
 45
0.0
1001
ACAD
1000
AcDbSavedByObjectVersion
1070
     0
  0
VISUALSTYLE
  5
30
102
{ACAD_REACTORS
330
2A
102
}
330
2A
100
AcDbVisualStyle
  2
3dWireframe
 70
     5
 71
     0
 72
     2
 73
     0
 90
        0
 40
-0.6
 41
-30.0
 62
     5
 63
     7
 74
     1
 91
        4
 64
     7
 65
   257
 75
     1
175
     1
 42
1.0
 92
        0
 66
   257
 43
1.0
 76
     1
 77
     6
 78
     2
 67
     7
 79
     5
170
     0
171
     0
290
     0
174
     0
 93
        1
 44
0.0
173
     0
291
     0
 45
0.0
1001
ACAD
1000
AcDbSavedByObjectVersion
1070
     0
  0
VISUALSTYLE
  5
32
102
{ACAD_REACTORS
330
2A
102
}
330
2A
100
AcDbVisualStyle
  2
Basic
 70
     7
 71
     1
 72
     0
 73
     1
 90
        0
 40
-0.6
 41
-30.0
 62
     5
 63
     7
 74
     0
 91
        4
 64
     7
 65
   257
 75
     1
175
     1
 42
1.0
 92
        8
 66
     7
 43
1.0
 76
     1
 77
     6
 78
     2
 67
     7
 79
     5
170
     0
171
     0
290
     0
174
     0
 93
        1
 44
0.0
173
     0
291
     1
 45
0.0
1001
ACAD
1000
AcDbSavedByObjectVersion
1070
     0
  0
VISUALSTYLE
  5
36
102
{ACAD_REACTORS
330
2A
102
}
330
2A
100
AcDbVisualStyle
  2
Brighten
 70
    12
 71
     2
 72
     2
 73
     0
 90
        0
 40
-0.6
 41
-30.0
 62
     5
 63
     7
 74
     1
 91
        4
 64
     7
 65
   257
 75
     1
175
     1
 42
1.0
 92
        8
 66
     7
 43
1.0
 76
     1
 77
     6
 78
     2
 67
     7
 79
     5
170
     0
171
     0
290
     0
174
     0
 93
        1
 44
50.0
173
     0
291
     1
 45
0.0
1001
ACAD
1000
AcDbSavedByObjectVersion
1070
     0
  0
VISUALSTYLE
  5
3A
102
{ACAD_REACTORS
330
2A
102
}
330
2A
100
AcDbVisualStyle
  2
ColorChange
 70
    16
 71
     2
 72
     2
 73
     3
 90
        0
 40
-0.6
 41
-30.0
 62
     5
 63
     8
 74
     1
 91
        4
 64
     7
 65
   257
 75
     1
175
     1
 42
1.0
 92
        8
 66
     8
 43
1.0
 76
     1
 77
     6
 78
     2
 67
     7
 79
     5
170
     0
171
     0
290
     0
174
     0
 93
        1
 44
0.0
173
     0
291
     1
 45
0.0
1001
ACAD
1000
AcDbSavedByObjectVersion
1070
     0
  0
VISUALSTYLE
  5
34
102
{ACAD_REACTORS
330
2A
102
}
330
2A
100
AcDbVisualStyle
  2
Conceptual
 70
     9
 71
     3
 72
     2
 73
     0
 90
        0
 40
-0.6
 41
-30.0
 62
     5
 63
     7
 74
     2
 91
        2
 64
     7
 65
   257
 75
     1
175
     1
 42
40.0
 92
        8
 66
     7
 43
1.0
 76
     1
 77
     6
 78
     2
 67
     7
 79
     3
170
     0
171
     0
290
     0
174
     0
 93
        1
 44
0.0
173
     0
291
     0
 45
0.0
1001
ACAD
1000
AcDbSavedByObjectVersion
1070
     0
  0
VISUALSTYLE
  5
35
102
{ACAD_REACTORS
330
2A
102
}
330
2A
100
AcDbVisualStyle
  2
Dim
 70
    11
 71
     2
 72
     2
 73
     0
 90
        0
 40
-0.6
 41
-30.0
 62
     5
 63
     7
 74
     1
 91
        4
 64
     7
 65
   257
 75
     1
175
     1
 42
1.0
 92
        8
 66
     7
 43
1.0
 76
     1
 77
     6
 78
     2
 67
     7
 79
     5
170
     0
171
     0
290
     0
174
     0
 93
        1
 44
-50.0
173
     0
291
     1
 45
0.0
1001
ACAD
1000
AcDbSavedByObjectVersion
1070
     0
  0
VISUALSTYLE
  5
39
102
{ACAD_REACTORS
330
2A
102
}
330
2A
100
AcDbVisualStyle
  2
Facepattern
 70
    15
 71
     2
 72
     2
 73
     0
 90
        0
 40
-0.6
 41
-30.0
 62
     5
 63
     7
 74
     1
 91
        4
 64
     7
 65
   257
 75
     1
175
     1
 42
1.0
 92
        8
 66
     7
 43
1.0
 76
     1
 77
     6
 78
     2
 67
     7
 79
     5
170
     0
171
     0
290
     0
174
     0
 93
        1
 44
0.0
173
     0
291
     1
 45
0.0
1001
ACAD
1000
AcDbSavedByObjectVersion
1070
     0
  0
VISUALSTYLE
  5
2B
102
{ACAD_REACTORS
330
2A
102
}
330
2A
100
AcDbVisualStyle
  2
Flat
 70
     0
 71
     2
 72
     1
 73
     1
 90
        2
 40
-0.6
 41
30.0
 62
     5
 63
     7
 74
     0
 91
        4
 64
     7
 65
   257
 75
     1
175
     1
 42
1.0
 92
        8
 66
     7
 43
1.0
 76
     1
 77
     6
 78
     2
 67
     7
 79
     5
170
     0
171
     0
290
     0
174
     0
 93
       13
 44
0.0
173
     0
291
     1
 45
0.0
1001
ACAD
1000
AcDbSavedByObjectVersion
1070
     0
  0
VISUALSTYLE
  5
2C
102
{ACAD_REACTORS
330
2A
102
}
330
2A
100
AcDbVisualStyle
  2
FlatWithEdges
 70
     1
 71
     2
 72
     1
 73
     1
 90
        2
 40
-0.6
 41
30.0
 62
     5
 63
     7
 74
     1
 91
        4
 64
     7
 65
   257
 75
     1
175
     1
 42
1.0
 92
        0
 66
   257
 43
1.0
 76
     1
 77
     6
 78
     2
 67
     7
 79
     5
170
     0
171
     0
290
     0
174
     0
 93
       13
 44
0.0
173
     0
291
     1
 45
0.0
1001
ACAD
1000
AcDbSavedByObjectVersion
1070
     0
  0
VISUALSTYLE
  5
2D
102
{ACAD_REACTORS
330
2A
102
}
330
2A
100
AcDbVisualStyle
  2
Gouraud
 70
     2
 71
     2
 72
     2
 73
     1
 90
        2
 40
-0.6
 41
30.0
 62
     5
 63
     7
 74
     0
 91
        4
 64
     7
 65
   257
 75
     1
175
     1
 42
1.0
 92
        0
 66
     7
 43
1.0
 76
     1
 77
     6
 78
     2
 67
     7
 79
     5
170
     0
171
     0
290
     0
174
     0
 93
       13
 44
0.0
173
     0
291
     1
 45
0.0
1001
ACAD
1000
AcDbSavedByObjectVersion
1070
     0
  0
VISUALSTYLE
  5
2E
102
{ACAD_REACTORS
330
2A
102
}
330
2A
100
AcDbVisualStyle
  2
GouraudWithEdges
 70
     3
 71
     2
 72
     2
 73
     1
 90
        2
 40
-0.6
 41
30.0
 62
     5
 63
     7
 74
     1
 91
        4
 64
     7
 65
   257
 75
     1
175
     1
 42
1.0
 92
        0
 66
   257
 43
1.0
 76
     1
 77
     6
 78
     2
 67
     7
 79
     5
170
     0
171
     0
290
     0
174
     0
 93
       13
 44
0.0
173
     0
291
     1
 45
0.0
1001
ACAD
1000
AcDbSavedByObjectVersion
1070
     0
  0
VISUALSTYLE
  5
38
102
{ACAD_REACTORS
330
2A
102
}
330
2A
100
AcDbVisualStyle
  2
Linepattern
 70
    14
 71
     2
 72
     2
 73
     0
 90
        0
 40
-0.6
 41
-30.0
 62
     5
 63
     7
 74
     1
 91
        4
 64
     7
 65
   257
 75
     7
175
     7
 42
1.0
 92
        8
 66
     7
 43
1.0
 76
     1
 77
     6
 78
     2
 67
     7
 79
     5
170
     0
171
     0
290
     0
174
     0
 93
        1
 44
0.0
173
     0
291
     1
 45
0.0
1001
ACAD
1000
AcDbSavedByObjectVersion
1070
     0
  0
VISUALSTYLE
  5
33
102
{ACAD_REACTORS
330
2A
102
}
330
2A
100
AcDbVisualStyle
  2
Realistic
 70
     8
 71
     2
 72
     2
 73
     0
 90
        0
 40
-0.6
 41
-30.0
 62
     5
 63
     7
 74
     1
 91
        0
 64
     7
 65
   257
 75
     1
175
     1
 42
1.0
 92
        8
 66
     8
 43
1.0
 76
     1
 77
     6
 78
     2
 67
     7
 79
     5
170
     0
171
     0
290
     0
174
     0
 93
       13
 44
0.0
173
     0
291
     0
 45
0.0
1001
ACAD
1000
AcDbSavedByObjectVersion
1070
     0
  0
VISUALSTYLE
  5
37
102
{ACAD_REACTORS
330
2A
102
}
330
2A
100
AcDbVisualStyle
  2
Thicken
 70
    13
 71
     2
 72
     2
 73
     0
 90
        0
 40
-0.6
 41
-30.0
 62
     5
 63
     7
 74
     1
 91
        4
 64
     7
 65
   257
 75
     1
175
     1
 42
1.0
 92
       12
 66
     7
 43
1.0
 76
     1
 77
     6
 78
     2
 67
     7
 79
     5
170
     0
171
     0
290
     0
174
     0
 93
        1
 44
0.0
173
     0
291
     1
 45
0.0
1001
ACAD
1000
AcDbSavedByObjectVersion
1070
     0
  0
XRECORD
  5
247
102
{ACAD_REACTORS
330
23E
102
}
330
23E
100
AcDbXrecord
 90
        0
  0
XRECORD
  5
25D
102
{ACAD_REACTORS
330
23E
102
}
330
23E
100
AcDbXrecord
1000
DSTYLE
1002
{
1070
   340
340
11
1002
}
  0
XRECORD
  5
248
102
{ACAD_REACTORS
330
23E
102
}
330
23E
100
AcDbXrecord
  1
{34B36744-9BCE-4DE5-A574-9C0C2745CD7E}
  0
XRECORD
  5
241
102
{ACAD_REACTORS
330
23E
102
}
330
23E
100
AcDbXrecord
  1

  0
XRECORD
  5
246
102
{ACAD_REACTORS
330
23E
102
}
330
23E
100
AcDbXrecord
 90
        1
  0
XRECORD
  5
243
102
{ACAD_REACTORS
330
23E
102
}
330
23E
100
AcDbXrecord
340
1A
  0
XRECORD
  5
245
102
{ACAD_REACTORS
330
23E
102
}
330
23E
100
AcDbXrecord
 90
    10269
  0
XRECORD
  5
244
102
{ACAD_REACTORS
330
23E
102
}
330
23E
100
AcDbXrecord
340
19
  0
XRECORD
  5
24A
102
{ACAD_REACTORS
330
23E
102
}
330
23E
100
AcDbXrecord
 40
0.0
  0
XRECORD
  5
24D
102
{ACAD_REACTORS
330
23E
102
}
330
23E
100
AcDbXrecord
340
0
  0
XRECORD
  5
253
102
{ACAD_REACTORS
330
23E
102
}
330
23E
100
AcDbXrecord
 10
0.0
 20
0.0
 30
0.0
  0
XRECORD
  5
24F
102
{ACAD_REACTORS
330
23E
102
}
330
23E
100
AcDbXrecord
 10
0.0
 20
0.0
 30
0.0
  0
XRECORD
  5
252
102
{ACAD_REACTORS
330
23E
102
}
330
23E
100
AcDbXrecord
 10
0.0
 20
0.0
 30
0.0
  0
XRECORD
  5
250
102
{ACAD_REACTORS
330
23E
102
}
330
23E
100
AcDbXrecord
 10
0.0
 20
0.0
 30
0.0
  0
XRECORD
  5
251
102
{ACAD_REACTORS
330
23E
102
}
330
23E
100
AcDbXrecord
 10
0.0
 20
0.0
 30
0.0
  0
XRECORD
  5
24E
102
{ACAD_REACTORS
330
23E
102
}
330
23E
100
AcDbXrecord
 10
0.0
 20
0.0
 30
0.0
  0
XRECORD
  5
24B
102
{ACAD_REACTORS
330
23E
102
}
330
23E
100
AcDbXrecord
340
0
  0
XRECORD
  5
24C
102
{ACAD_REACTORS
330
23E
102
}
330
23E
100
AcDbXrecord
 70
     0
  0
XRECORD
  5
242
102
{ACAD_REACTORS
330
23E
102
}
330
23E
100
AcDbXrecord
  1

  0
XRECORD
  5
23F
102
{ACAD_REACTORS
330
23E
102
}
330
23E
100
AcDbXrecord
 90
        1
  0
XRECORD
  5
240
102
{ACAD_REACTORS
330
23E
102
}
330
23E
100
AcDbXrecord
 90
       70
  0
XRECORD
  5
256
102
{ACAD_REACTORS
330
23E
102
}
330
23E
100
AcDbXrecord
340
0
  0
XRECORD
  5
25C
102
{ACAD_REACTORS
330
23E
102
}
330
23E
100
AcDbXrecord
 10
0.0
 20
0.0
 30
0.0
  0
XRECORD
  5
258
102
{ACAD_REACTORS
330
23E
102
}
330
23E
100
AcDbXrecord
 10
0.0
 20
0.0
 30
0.0
  0
XRECORD
  5
25B
102
{ACAD_REACTORS
330
23E
102
}
330
23E
100
AcDbXrecord
 10
0.0
 20
0.0
 30
0.0
  0
XRECORD
  5
259
102
{ACAD_REACTORS
330
23E
102
}
330
23E
100
AcDbXrecord
 10
0.0
 20
0.0
 30
0.0
  0
XRECORD
  5
25A
102
{ACAD_REACTORS
330
23E
102
}
330
23E
100
AcDbXrecord
 10
0.0
 20
0.0
 30
0.0
  0
XRECORD
  5
257
102
{ACAD_REACTORS
330
23E
102
}
330
23E
100
AcDbXrecord
 10
0.0
 20
0.0
 30
0.0
  0
XRECORD
  5
254
102
{ACAD_REACTORS
330
23E
102
}
330
23E
100
AcDbXrecord
340
0
  0
XRECORD
  5
255
102
{ACAD_REACTORS
330
23E
102
}
330
23E
100
AcDbXrecord
 70
     0
  0
XRECORD
  5
249
102
{ACAD_REACTORS
330
23E
102
}
330
23E
100
AcDbXrecord
  1
{FAEB1C32-E019-11D5-929B-00C0DF256EC4}
  0
ENDSEC
  0
EOF
