  0
SECTION
  2
HEADER
  9
$ACADVER
  1
AC1032
  9
$ACADMAINTVER
 90
      228
  9
$DWGCODEPAGE
  3
ANSI_1252
  9
$REQUIREDVERSIONS
160
                 0
  9
$INSBASE
 10
0.0
 20
0.0
 30
0.0
  9
$EXTMIN
 10
1.000000000000000E+20
 20
1.000000000000000E+20
 30
1.000000000000000E+20
  9
$EXTMAX
 10
-1.000000000000000E+20
 20
-1.000000000000000E+20
 30
-1.000000000000000E+20
  9
$LIMMIN
 10
0.0
 20
0.0
  9
$LIMMAX
 10
12.0
 20
9.0
  9
$ORTHOMODE
 70
     0
  9
$REGENMODE
 70
     1
  9
$FILLMODE
 70
     1
  9
$QTEXTMODE
 70
     0
  9
$MIRRTEXT
 70
     0
  9
$LTSCALE
 40
1.0
  9
$ATTMODE
 70
     1
  9
$TEXTSIZE
 40
0.2
  9
$TRACEWID
 40
0.05
  9
$TEXTSTYLE
  7
Standard
  9
$CLAYER
  8
0
  9
$CELTYPE
  6
ByLayer
  9
$CECOLOR
 62
   256
  9
$CELTSCALE
 40
1.0
  9
$DISPSILH
 70
     0
  9
$DIMSCALE
 40
1.0
  9
$DIMASZ
 40
0.18
  9
$DIMEXO
 40
0.0625
  9
$DIMDLI
 40
0.38
  9
$DIMRND
 40
0.0
  9
$DIMDLE
 40
0.0
  9
$DIMEXE
 40
0.18
  9
$DIMTP
 40
0.0
  9
$DIMTM
 40
0.0
  9
$DIMTXT
 40
0.18
  9
$DIMCEN
 40
0.09
  9
$DIMTSZ
 40
0.0
  9
$DIMTOL
 70
     0
  9
$DIMLIM
 70
     0
  9
$DIMTIH
 70
     1
  9
$DIMTOH
 70
     1
  9
$DIMSE1
 70
     0
  9
$DIMSE2
 70
     0
  9
$DIMTAD
 70
     0
  9
$DIMZIN
 70
     0
  9
$DIMBLK
  1

  9
$DIMASO
 70
     1
  9
$DIMSHO
 70
     1
  9
$DIMPOST
  1

  9
$DIMAPOST
  1

  9
$DIMALT
 70
     0
  9
$DIMALTD
 70
     2
  9
$DIMALTF
 40
25.4
  9
$DIMLFAC
 40
1.0
  9
$DIMTOFL
 70
     0
  9
$DIMTVP
 40
0.0
  9
$DIMTIX
 70
     0
  9
$DIMSOXD
 70
     0
  9
$DIMSAH
 70
     0
  9
$DIMBLK1
  1

  9
$DIMBLK2
  1

  9
$DIMSTYLE
  2
Standard
  9
$DIMCLRD
 70
     0
  9
$DIMCLRE
 70
     0
  9
$DIMCLRT
 70
     0
  9
$DIMTFAC
 40
1.0
  9
$DIMGAP
 40
0.09
  9
$DIMJUST
 70
     0
  9
$DIMSD1
 70
     0
  9
$DIMSD2
 70
     0
  9
$DIMTOLJ
 70
     1
  9
$DIMTZIN
 70
     0
  9
$DIMALTZ
 70
     0
  9
$DIMALTTZ
 70
     0
  9
$DIMUPT
 70
     0
  9
$DIMDEC
 70
     4
  9
$DIMTDEC
 70
     4
  9
$DIMALTU
 70
     2
  9
$DIMALTTD
 70
     2
  9
$DIMTXSTY
  7
Standard
  9
$DIMAUNIT
 70
     0
  9
$DIMADEC
 70
     0
  9
$DIMALTRND
 40
0.0
  9
$DIMAZIN
 70
     0
  9
$DIMDSEP
 70
    46
  9
$DIMATFIT
 70
     3
  9
$DIMFRAC
 70
     0
  9
$DIMLDRBLK
  1

  9
$DIMLUNIT
 70
     2
  9
$DIMLWD
 70
    -2
  9
$DIMLWE
 70
    -2
  9
$DIMTMOVE
 70
     0
  9
$DIMFXL
 40
1.0
  9
$DIMFXLON
 70
     0
  9
$DIMJOGANG
 40
0.7853981633974483
  9
$DIMTFILL
 70
     0
  9
$DIMTFILLCLR
 70
     0
  9
$DIMARCSYM
 70
     0
  9
$DIMLTYPE
  6

  9
$DIMLTEX1
  6

  9
$DIMLTEX2
  6

  9
$DIMTXTDIRECTION
 70
     0
  9
$LUNITS
 70
     2
  9
$LUPREC
 70
     4
  9
$SKETCHINC
 40
0.1
  9
$FILLETRAD
 40
0.0
  9
$AUNITS
 70
     0
  9
$AUPREC
 70
     0
  9
$MENU
  1
.
  9
$ELEVATION
 40
0.0
  9
$PELEVATION
 40
0.0
  9
$THICKNESS
 40
0.0
  9
$LIMCHECK
 70
     0
  9
$CHAMFERA
 40
0.0
  9
$CHAMFERB
 40
0.0
  9
$CHAMFERC
 40
0.0
  9
$CHAMFERD
 40
0.0
  9
$SKPOLY
 70
     0
  9
$TDCREATE
 40
2460095.403472223
  9
$TDUCREATE
 40
2460095.320138889
  9
$TDUPDATE
 40
2460095.403472223
  9
$TDUUPDATE
 40
2460095.320138889
  9
$TDINDWG
 40
0.0000000000
  9
$TDUSRTIMER
 40
0.0000000000
  9
$USRTIMER
 70
     1
  9
$ANGBASE
 50
0.0
  9
$ANGDIR
 70
     0
  9
$PDMODE
 70
     0
  9
$PDSIZE
 40
0.0
  9
$PLINEWID
 40
0.0
  9
$SPLFRAME
 70
     0
  9
$SPLINETYPE
 70
     6
  9
$SPLINESEGS
 70
     8
  9
$HANDSEED
  5
1DB
  9
$SURFTAB1
 70
     6
  9
$SURFTAB2
 70
     6
  9
$SURFTYPE
 70
     6
  9
$SURFU
 70
     6
  9
$SURFV
 70
     6
  9
$UCSBASE
  2

  9
$UCSNAME
  2

  9
$UCSORG
 10
0.0
 20
0.0
 30
0.0
  9
$UCSXDIR
 10
1.0
 20
0.0
 30
0.0
  9
$UCSYDIR
 10
0.0
 20
1.0
 30
0.0
  9
$UCSORTHOREF
  2

  9
$UCSORTHOVIEW
 70
     0
  9
$UCSORGTOP
 10
0.0
 20
0.0
 30
0.0
  9
$UCSORGBOTTOM
 10
0.0
 20
0.0
 30
0.0
  9
$UCSORGLEFT
 10
0.0
 20
0.0
 30
0.0
  9
$UCSORGRIGHT
 10
0.0
 20
0.0
 30
0.0
  9
$UCSORGFRONT
 10
0.0
 20
0.0
 30
0.0
  9
$UCSORGBACK
 10
0.0
 20
0.0
 30
0.0
  9
$PUCSBASE
  2

  9
$PUCSNAME
  2

  9
$PUCSORG
 10
0.0
 20
0.0
 30
0.0
  9
$PUCSXDIR
 10
1.0
 20
0.0
 30
0.0
  9
$PUCSYDIR
 10
0.0
 20
1.0
 30
0.0
  9
$PUCSORTHOREF
  2

  9
$PUCSORTHOVIEW
 70
     0
  9
$PUCSORGTOP
 10
0.0
 20
0.0
 30
0.0
  9
$PUCSORGBOTTOM
 10
0.0
 20
0.0
 30
0.0
  9
$PUCSORGLEFT
 10
0.0
 20
0.0
 30
0.0
  9
$PUCSORGRIGHT
 10
0.0
 20
0.0
 30
0.0
  9
$PUCSORGFRONT
 10
0.0
 20
0.0
 30
0.0
  9
$PUCSORGBACK
 10
0.0
 20
0.0
 30
0.0
  9
$USERI1
 70
     0
  9
$USERI2
 70
     0
  9
$USERI3
 70
     0
  9
$USERI4
 70
     0
  9
$USERI5
 70
     0
  9
$USERR1
 40
0.0
  9
$USERR2
 40
0.0
  9
$USERR3
 40
0.0
  9
$USERR4
 40
0.0
  9
$USERR5
 40
0.0
  9
$WORLDVIEW
 70
     1
  9
$SHADEDGE
 70
     3
  9
$SHADEDIF
 70
    70
  9
$TILEMODE
 70
     1
  9
$MAXACTVP
 70
    64
  9
$PINSBASE
 10
0.0
 20
0.0
 30
0.0
  9
$PLIMCHECK
 70
     0
  9
$PEXTMIN
 10
1.000000000000000E+20
 20
1.000000000000000E+20
 30
1.000000000000000E+20
  9
$PEXTMAX
 10
-1.000000000000000E+20
 20
-1.000000000000000E+20
 30
-1.000000000000000E+20
  9
$PLIMMIN
 10
0.0
 20
0.0
  9
$PLIMMAX
 10
12.0
 20
9.0
  9
$UNITMODE
 70
     0
  9
$VISRETAIN
 70
     1
  9
$PLINEGEN
 70
     0
  9
$PSLTSCALE
 70
     1
  9
$TREEDEPTH
 70
  3020
  9
$CMLSTYLE
  2
Standard
  9
$CMLJUST
 70
     0
  9
$CMLSCALE
 40
1.0
  9
$PROXYGRAPHICS
 70
     1
  9
$MEASUREMENT
 70
     0
  9
$CELWEIGHT
370
    -1
  9
$ENDCAPS
280
     0
  9
$JOINSTYLE
280
     0
  9
$LWDISPLAY
290
     1
  9
$INSUNITS
 70
     4
  9
$HYPERLINKBASE
  1

  9
$STYLESHEET
  1

  9
$XEDIT
290
     1
  9
$CEPSNTYPE
380
     0
  9
$PSTYLEMODE
290
     1
  9
$FINGERPRINTGUID
  2
{2B3AC4A9-8A32-B24D-9D3F-D6B9E4EF343D}
  9
$VERSIONGUID
  2
{181035CA-50CD-494E-9302-F745166DD87D}
  9
$EXTNAMES
290
     1
  9
$PSVPSCALE
 40
0.0
  9
$OLESTARTUP
290
     0
  9
$SORTENTS
280
   127
  9
$INDEXCTL
280
     0
  9
$HIDETEXT
280
     1
  9
$XCLIPFRAME
280
     2
  9
$HALOGAP
280
     0
  9
$OBSCOLOR
 70
   257
  9
$OBSLTYPE
280
     0
  9
$INTERSECTIONDISPLAY
280
     0
  9
$INTERSECTIONCOLOR
 70
   257
  9
$DIMASSOC
280
     2
  9
$PROJECTNAME
  1

  9
$CAMERADISPLAY
290
     0
  9
$LENSLENGTH
 40
50.0
  9
$CAMERAHEIGHT
 40
0.0
  9
$STEPSPERSEC
 40
2.0
  9
$STEPSIZE
 40
6.0
  9
$3DDWFPREC
 40
2.0
  9
$PSOLWIDTH
 40
0.25
  9
$PSOLHEIGHT
 40
4.0
  9
$LOFTANG1
 40
1.570796326794896
  9
$LOFTANG2
 40
1.570796326794896
  9
$LOFTMAG1
 40
0.0
  9
$LOFTMAG2
 40
0.0
  9
$LOFTPARAM
 70
     7
  9
$LOFTNORMALS
280
     1
  9
$LATITUDE
 40
37.795
  9
$LONGITUDE
 40
-122.394
  9
$NORTHDIRECTION
 40
0.0
  9
$TIMEZONE
 70
 -8000
  9
$LIGHTGLYPHDISPLAY
280
     1
  9
$TILEMODELIGHTSYNCH
280
     1
  9
$CMATERIAL
347
11
  9
$SOLIDHIST
280
     0
  9
$SHOWHIST
280
     1
  9
$DWFFRAME
280
     2
  9
$DGNFRAME
280
     0
  9
$REALWORLDSCALE
290
     1
  9
$INTERFERECOLOR
 62
     1
  9
$INTERFEREOBJVS
345
33
  9
$INTERFEREVPVS
346
30
  9
$CSHADOW
280
     0
  9
$SHADOWPLANELOCATION
 40
0.0
  0
ENDSEC
  0
SECTION
  2
CLASSES
  0
CLASS
  1
ACDBDICTIONARYWDFLT
  2
AcDbDictionaryWithDefault
  3
ObjectDBX Classes
 90
        0
 91
        1
280
     0
281
     0
  0
CLASS
  1
MATERIAL
  2
AcDbMaterial
  3
ObjectDBX Classes
 90
     1153
 91
        3
280
     0
281
     0
  0
CLASS
  1
VISUALSTYLE
  2
AcDbVisualStyle
  3
ObjectDBX Classes
 90
     4095
 91
       24
280
     0
281
     0
  0
CLASS
  1
SCALE
  2
AcDbScale
  3
ObjectDBX Classes
 90
     1153
 91
       17
280
     0
281
     0
  0
CLASS
  1
TABLESTYLE
  2
AcDbTableStyle
  3
ObjectDBX Classes
 90
     4095
 91
        1
280
     0
281
     0
  0
CLASS
  1
MLEADERSTYLE
  2
AcDbMLeaderStyle
  3
ACDB_MLEADERSTYLE_CLASS
 90
     4095
 91
        1
280
     0
281
     0
  0
CLASS
  1
ACDBSECTIONVIEWSTYLE
  2
AcDbSectionViewStyle
  3
ObjectDBX Classes
 90
     1025
 91
        1
280
     0
281
     0
  0
CLASS
  1
ACDBDETAILVIEWSTYLE
  2
AcDbDetailViewStyle
  3
ObjectDBX Classes
 90
     1025
 91
        1
280
     0
281
     0
  0
CLASS
  1
DICTIONARYVAR
  2
AcDbDictionaryVar
  3
ObjectDBX Classes
 90
        0
 91
        5
280
     0
281
     0
  0
CLASS
  1
CELLSTYLEMAP
  2
AcDbCellStyleMap
  3
ObjectDBX Classes
 90
     1152
 91
        1
280
     0
281
     0
  0
ENDSEC
  0
SECTION
  2
TABLES
  0
TABLE
  2
VPORT
  5
8
330
0
100
AcDbSymbolTable
 70
     1
  0
VPORT
  5
57
330
8
100
AcDbSymbolTableRecord
100
AcDbViewportTableRecord
  2
*Active
 70
     0
 10
0.0
 20
0.0
 11
1.0
 21
1.0
 12
0.0
 22
0.0
 13
0.0
 23
0.0
 14
1.0
 24
1.0
 15
0.0
 25
0.0
 16
0.0
 26
0.0
 36
1.0
 17
226.0748135080435
 27
133.4618743519629
 37
0.0
 40
135.2098043867942
 41
1.439317841378505
 42
50.0
 43
0.0
 44
0.0
 50
0.0
 51
0.0
 71
     0
 72
   100
 73
     1
 74
     1
 75
     0
 76
     0
 77
     0
 78
     0
281
     0
 65
     1
110
0.0
120
0.0
130
0.0
111
1.0
121
0.0
131
0.0
112
0.0
122
1.0
132
0.0
 79
     0
146
0.0
 60
     3
 61
     5
292
     1
282
     1
141
0.0
142
0.0
 63
   250
421
  3355443
  0
ENDTAB
  0
TABLE
  2
LTYPE
  5
5
330
0
100
AcDbSymbolTable
 70
     1
  0
LTYPE
  5
5B
330
5
100
AcDbSymbolTableRecord
100
AcDbLinetypeTableRecord
  2
ByBlock
 70
     0
  3

 72
    65
 73
     0
 40
0.0
  0
LTYPE
  5
5C
330
5
100
AcDbSymbolTableRecord
100
AcDbLinetypeTableRecord
  2
ByLayer
 70
     0
  3

 72
    65
 73
     0
 40
0.0
  0
LTYPE
  5
5D
330
5
100
AcDbSymbolTableRecord
100
AcDbLinetypeTableRecord
  2
Continuous
 70
     0
  3
Solid line
 72
    65
 73
     0
 40
0.0
  0
ENDTAB
  0
TABLE
  2
LAYER
  5
2
330
0
100
AcDbSymbolTable
 70
     5
  0
LAYER
  5
54
330
2
100
AcDbSymbolTableRecord
100
AcDbLayerTableRecord
  2
0
 70
     0
 62
     7
  6
Continuous
370
    -3
390
F
347
21
348
0
  0
LAYER
  5
78
330
2
100
AcDbSymbolTableRecord
100
AcDbLayerTableRecord
  2
grau 10%
 70
     0
 62
     7
  6
Continuous
370
     0
390
F
347
21
348
0
  0
LAYER
  5
9D
330
2
100
AcDbSymbolTableRecord
100
AcDbLayerTableRecord
  2
Standardebene
 70
     0
 62
     7
  6
Continuous
370
     0
390
F
347
21
348
0
  0
LAYER
  5
A5
330
2
100
AcDbSymbolTableRecord
100
AcDbLayerTableRecord
  2
Bemaßung
 70
     1
 62
     7
  6
Continuous
370
     0
390
F
347
21
348
0
  0
LAYER
  5
1CB
330
2
100
AcDbSymbolTableRecord
100
AcDbLayerTableRecord
  2
Text
 70
     1
 62
     7
  6
Continuous
370
     0
390
F
347
21
348
0
  0
ENDTAB
  0
TABLE
  2
STYLE
  5
3
330
0
100
AcDbSymbolTable
 70
     2
  0
STYLE
  5
55
330
3
100
AcDbSymbolTableRecord
100
AcDbTextStyleTableRecord
  2
Standard
 70
     0
 40
0.0
 41
1.0
 50
0.0
 71
     0
 42
0.2
  3
txt
  4

  0
STYLE
  5
5A
330
3
100
AcDbSymbolTableRecord
100
AcDbTextStyleTableRecord
  2
Annotative
 70
     0
 40
0.0
 41
1.0
 50
0.0
 71
     0
 42
0.2
  3
txt
  4

1001
AcadAnnotative
1000
AnnotativeData
1002
{
1070
     1
1070
     1
1002
}
  0
ENDTAB
  0
TABLE
  2
VIEW
  5
6
330
0
100
AcDbSymbolTable
 70
     0
  0
ENDTAB
  0
TABLE
  2
UCS
  5
7
330
0
100
AcDbSymbolTable
 70
     0
  0
ENDTAB
  0
TABLE
  2
APPID
  5
9
330
0
100
AcDbSymbolTable
 70
     2
  0
APPID
  5
56
330
9
100
AcDbSymbolTableRecord
100
AcDbRegAppTableRecord
  2
ACAD
 70
     0
  0
APPID
  5
5E
330
9
100
AcDbSymbolTableRecord
100
AcDbRegAppTableRecord
  2
AcadAnnotative
 70
     0
  0
ENDTAB
  0
TABLE
  2
DIMSTYLE
  5
A
330
0
100
AcDbSymbolTable
 70
     2
100
AcDbDimStyleTable
 71
     0
  0
DIMSTYLE
105
58
330
A
100
AcDbSymbolTableRecord
100
AcDbDimStyleTableRecord
  2
Standard
 70
     0
340
55
  0
DIMSTYLE
105
59
330
A
100
AcDbSymbolTableRecord
100
AcDbDimStyleTableRecord
  2
Annotative
 70
     0
340
55
1001
AcadAnnotative
1000
AnnotativeData
1002
{
1070
     1
1070
     1
1002
}
  0
ENDTAB
  0
TABLE
  2
BLOCK_RECORD
  5
1
330
0
100
AcDbSymbolTable
 70
     1
  0
BLOCK_RECORD
  5
70
330
1
100
AcDbSymbolTableRecord
100
AcDbBlockTableRecord
  2
*Model_Space
340
73
 70
     0
280
     1
281
     0
  0
BLOCK_RECORD
  5
6C
330
1
100
AcDbSymbolTableRecord
100
AcDbBlockTableRecord
  2
*Paper_Space
340
6F
 70
     0
280
     1
281
     0
  0
BLOCK_RECORD
  5
74
330
1
100
AcDbSymbolTableRecord
100
AcDbBlockTableRecord
  2
*Paper_Space0
340
77
 70
     0
280
     1
281
     0
  0
ENDTAB
  0
ENDSEC
  0
SECTION
  2
BLOCKS
  0
BLOCK
  5
71
330
70
100
AcDbEntity
  8
0
100
AcDbBlockBegin
  2
*Model_Space
 70
     0
 10
0.0
 20
0.0
 30
0.0
  3
*Model_Space
  1

  0
ENDBLK
  5
72
330
70
100
AcDbEntity
  8
0
100
AcDbBlockEnd
  0
BLOCK
  5
6D
330
6C
100
AcDbEntity
 67
     1
  8
0
100
AcDbBlockBegin
  2
*Paper_Space
 70
     0
 10
0.0
 20
0.0
 30
0.0
  3
*Paper_Space
  1

  0
ENDBLK
  5
6E
330
6C
100
AcDbEntity
 67
     1
  8
0
100
AcDbBlockEnd
  0
BLOCK
  5
75
330
74
100
AcDbEntity
 67
     1
  8
0
100
AcDbBlockBegin
  2
*Paper_Space0
 70
     0
 10
0.0
 20
0.0
 30
0.0
  3
*Paper_Space0
  1

  0
ENDBLK
  5
76
330
74
100
AcDbEntity
 67
     1
  8
0
100
AcDbBlockEnd
  0
ENDSEC
  0
SECTION
  2
ENTITIES
  0
LINE
  5
79
330
70
100
AcDbEntity
  8
grau 10%
 62
     7
370
    35
100
AcDbLine
 10
158.6332112233625
 20
138.0654041321503
 30
0.0
 11
156.6336667794178
 21
136.0648013548729
 31
0.0
  0
LWPOLYLINE
  5
7A
330
70
100
AcDbEntity
  8
grau 10%
 62
     7
370
    35
100
AcDbPolyline
 90
        4
 70
     0
 43
0.0
 10
158.6332112233625
 20
138.0654041321503
 10
176.6333445521956
 20
138.0654041321503
 10
176.6333445521956
 20
121.5652819140532
 10
158.6332112233625
 20
121.5652819140532
  0
LINE
  5
7B
330
70
100
AcDbEntity
  8
grau 10%
 62
     7
370
    35
100
AcDbLine
 10
156.6336667794178
 20
123.5651791357754
 30
0.0
 11
158.6332112233625
 21
121.5652819140532
 31
0.0
  0
LINE
  5
7C
330
70
100
AcDbEntity
  8
grau 10%
 62
     7
370
    35
100
AcDbLine
 10
156.6336667794178
 20
123.5651791357754
 30
0.0
 11
156.6336667794178
 21
136.0648013548729
 31
0.0
  0
LINE
  5
7D
330
70
100
AcDbEntity
  8
grau 10%
 62
     7
370
    35
100
AcDbLine
 10
158.6332112233625
 20
199.5648013389976
 30
0.0
 11
156.6336667794178
 21
197.5649041172754
 31
0.0
  0
LWPOLYLINE
  5
7E
330
70
100
AcDbEntity
  8
grau 10%
 62
     7
370
    35
100
AcDbPolyline
 90
        4
 70
     0
 43
0.0
 10
158.6332112233625
 20
199.5648013389976
 10
176.6333445521956
 20
199.5648013389976
 10
176.6333445521956
 20
183.0650318986782
 10
158.6332112233625
 20
183.0650318986782
  0
LINE
  5
7F
330
70
100
AcDbEntity
  8
grau 10%
 62
     7
370
    35
100
AcDbLine
 10
156.6336667794178
 20
185.0649291204007
 30
0.0
 11
158.6332112233625
 21
183.0650318986782
 31
0.0
  0
LINE
  5
80
330
70
100
AcDbEntity
  8
grau 10%
 62
     7
370
    35
100
AcDbLine
 10
156.6336667794178
 20
185.0649291204007
 30
0.0
 11
156.6336667794178
 21
197.5649041172754
 31
0.0
  0
LINE
  5
81
330
70
100
AcDbEntity
  8
grau 10%
 62
     7
370
    35
100
AcDbLine
 10
178.6335945516956
 20
138.0654041321503
 30
0.0
 11
176.6333445521956
 21
138.0654041321503
 31
0.0
  0
SPLINE
  5
82
330
70
100
AcDbEntity
  8
grau 10%
 62
     7
370
    35
100
AcDbSpline
210
0.0
220
0.0
230
1.0
 70
     8
 71
     3
 72
     8
 73
     4
 74
     0
 42
0.0000000001
 43
0.0000000001
 40
0.0
 40
0.0
 40
0.0
 40
0.0
 40
1.0
 40
1.0
 40
1.0
 40
1.0
 10
201.1337612127372
 20
160.5652180154144
 30
0.0
 10
201.1337612127372
 20
172.9911096789746
 30
0.0
 10
191.0598389930335
 20
183.0650318986782
 30
0.0
 10
178.6335945516956
 20
183.0650318986782
 30
0.0
  0
SPLINE
  5
83
330
70
100
AcDbEntity
  8
grau 10%
 62
     7
370
    35
100
AcDbSpline
210
0.0
220
0.0
230
1.0
 70
     8
 71
     3
 72
     8
 73
     4
 74
     0
 42
0.0000000001
 43
0.0000000001
 40
0.0
 40
0.0
 40
0.0
 40
0.0
 40
1.0
 40
1.0
 40
1.0
 40
1.0
 10
178.6335945516956
 20
138.0654041321503
 30
0.0
 10
191.0598389930335
 20
138.0654041321503
 30
0.0
 10
201.1337612127372
 20
148.1386207962987
 30
0.0
 10
201.1337612127372
 20
160.5652180154144
 30
0.0
  0
LINE
  5
84
330
70
100
AcDbEntity
  8
grau 10%
 62
     7
370
    35
100
AcDbLine
 10
176.6333445521956
 20
183.0650318986782
 30
0.0
 11
178.6335945516956
 21
183.0650318986782
 31
0.0
  0
LINE
  5
85
330
70
100
AcDbEntity
  8
grau 10%
 62
     7
370
    35
100
AcDbLine
 10
213.3543362096822
 20
199.5648013389976
 30
0.0
 11
176.6333445521956
 21
199.5648013389976
 31
0.0
  0
SPLINE
  5
86
330
70
100
AcDbEntity
  8
grau 10%
 62
     7
370
    35
100
AcDbSpline
210
0.0
220
0.0
230
1.0
 70
     8
 71
     3
 72
     8
 73
     4
 74
     0
 42
0.0000000001
 43
0.0000000001
 40
0.0
 40
0.0
 40
0.0
 40
0.0
 40
1.0
 40
1.0
 40
1.0
 40
1.0
 10
215.6925473202086
 20
197.9494318949571
 30
0.0
 10
215.3161334314138
 20
198.9435596724865
 30
0.0
 10
214.3745695427604
 20
199.5584513389992
 30
0.0
 10
213.3543362096822
 20
199.5648013389976
 30
0.0
  0
SPLINE
  5
87
330
70
100
AcDbEntity
  8
grau 10%
 62
     7
370
    35
100
AcDbSpline
210
0.0
220
0.0
230
1.0
 70
     8
 71
     3
 72
     8
 73
     4
 74
     0
 42
0.0000000001
 43
0.0000000001
 40
0.0
 40
0.0
 40
0.0
 40
0.0
 40
1.0
 40
1.0
 40
1.0
 40
1.0
 10
215.6925473202086
 20
197.9494318949571
 30
0.0
 10
220.2049278746362
 20
186.0213096757169
 30
0.0
 10
231.5040473162556
 20
178.6471957886715
 30
0.0
 10
243.7517862020829
 20
178.5653513442475
 30
0.0
  0
LINE
  5
88
330
70
100
AcDbEntity
  8
grau 10%
 62
     7
370
    35
100
AcDbLine
 10
301.6334472987235
 20
178.5653513442475
 30
0.0
 11
243.7517862020829
 21
178.5653513442475
 31
0.0
  0
LINE
  5
89
330
70
100
AcDbEntity
  8
grau 10%
 62
     7
370
    35
100
AcDbLine
 10
303.6333445204456
 20
176.5654541225253
 30
0.0
 11
301.6334472987235
 21
178.5653513442475
 31
0.0
  0
LINE
  5
8A
330
70
100
AcDbEntity
  8
grau 10%
 62
     7
370
    35
100
AcDbLine
 10
303.6333445204456
 20
144.5649819083032
 30
0.0
 11
303.6333445204456
 21
176.5654541225253
 31
0.0
  0
LINE
  5
8B
330
70
100
AcDbEntity
  8
grau 10%
 62
     7
370
    35
100
AcDbLine
 10
301.6334472987235
 20
142.565084686581
 30
0.0
 11
303.6333445204456
 21
144.5649819083032
 31
0.0
  0
LINE
  5
8C
330
70
100
AcDbEntity
  8
grau 10%
 62
     7
370
    35
100
AcDbLine
 10
243.7517862020829
 20
142.565084686581
 30
0.0
 11
301.6334472987235
 21
142.565084686581
 31
0.0
  0
SPLINE
  5
8D
330
70
100
AcDbEntity
  8
grau 10%
 62
     7
370
    35
100
AcDbSpline
210
0.0
220
0.0
230
1.0
 70
     8
 71
     3
 72
     8
 73
     4
 74
     0
 42
0.0000000001
 43
0.0000000001
 40
0.0
 40
0.0
 40
0.0
 40
0.0
 40
1.0
 40
1.0
 40
1.0
 40
1.0
 10
243.7517862020829
 20
142.565084686581
 30
0.0
 10
230.9985167608268
 20
142.565084686581
 30
0.0
 10
220.1029750968839
 20
134.6064180219042
 30
0.0
 10
215.6925473202086
 20
123.1802985803162
 30
0.0
  0
SPLINE
  5
8E
330
70
100
AcDbEntity
  8
grau 10%
 62
     7
370
    35
100
AcDbSpline
210
0.0
220
0.0
230
1.0
 70
     8
 71
     3
 72
     8
 73
     4
 74
     0
 42
0.0000000001
 43
0.0000000001
 40
0.0
 40
0.0
 40
0.0
 40
0.0
 40
1.0
 40
1.0
 40
1.0
 40
1.0
 10
213.3543362096822
 20
121.5652819140532
 30
0.0
 10
214.4172556538609
 20
121.5652819140532
 30
0.0
 10
215.3253056536337
 20
122.2285041361096
 30
0.0
 10
215.6925473202086
 20
123.1802985803162
 30
0.0
  0
LINE
  5
8F
330
70
100
AcDbEntity
  8
grau 10%
 62
     7
370
    35
100
AcDbLine
 10
176.6333445521956
 20
121.5652819140532
 30
0.0
 11
213.3543362096822
 21
121.5652819140532
 31
0.0
  0
LWPOLYLINE
  5
90
330
70
100
AcDbEntity
  8
grau 10%
 62
     7
370
    35
100
AcDbPolyline
 90
        5
 70
     0
 43
0.0
 10
158.6332112233625
 20
89.88460650826171
 10
158.6332112233625
 20
88.43610095306836
 10
156.6336667794178
 20
89.16352873066424
 10
156.6336667794178
 20
89.88460650826171
 10
158.6332112233625
 20
89.88460650826171
  0
LINE
  5
91
330
70
100
AcDbEntity
  8
grau 10%
 62
     7
370
    35
100
AcDbLine
 10
158.6332112233625
 20
88.43610095306836
 30
0.0
 11
176.6333445521956
 21
81.88431206581737
 31
0.0
  0
LINE
  5
92
330
70
100
AcDbEntity
  8
grau 10%
 62
     7
370
    35
100
AcDbLine
 10
213.3543362096822
 20
89.88460650826171
 30
0.0
 11
158.6332112233625
 21
89.88460650826171
 31
0.0
  0
LINE
  5
93
330
70
100
AcDbEntity
  8
grau 10%
 62
     7
370
    35
100
AcDbLine
 10
213.3543362096822
 20
81.88431206581737
 30
0.0
 11
176.6333445521956
 21
81.88431206581737
 31
0.0
  0
LWPOLYLINE
  5
94
330
70
100
AcDbEntity
  8
grau 10%
 62
     7
370
    35
100
AcDbPolyline
 90
        5
 70
     0
 43
0.0
 10
215.6925473202086
 20
81.88431206581737
 10
215.32283620919
 20
81.88431206581737
 10
214.7749723204381
 20
81.88431206581737
 10
214.0983445428293
 20
81.88431206581737
 10
213.3543362096822
 20
81.88431206581737
  0
LWPOLYLINE
  5
95
330
70
100
AcDbEntity
  8
grau 10%
 62
     7
370
    35
100
AcDbPolyline
 90
        5
 70
     0
 43
0.0
 10
213.3543362096822
 20
89.88460650826171
 10
214.0983445428293
 20
89.88460650826171
 10
214.7749723204381
 20
89.88460650826171
 10
215.32283620919
 20
89.88460650826171
 10
215.6925473202086
 20
89.88460650826171
  0
LWPOLYLINE
  5
96
330
70
100
AcDbEntity
  8
grau 10%
 62
     7
370
    35
100
AcDbPolyline
 90
       15
 70
     0
 43
0.0
 10
243.7517862020829
 20
89.88460650826171
 10
241.163808424952
 20
89.88460650826171
 10
238.5952334255942
 20
89.88460650826171
 10
236.0654639817821
 20
89.88460650826171
 10
233.592491760178
 20
89.88460650826171
 10
231.1953667607772
 20
89.88460650826171
 10
228.8920806502421
 20
89.88460650826171
 10
226.6999195396791
 20
89.88460650826171
 10
224.634052873529
 20
89.88460650826171
 10
222.7114139851208
 20
89.88460650826171
 10
220.9450556522289
 20
89.88460650826171
 10
219.3490889859611
 20
89.88460650826171
 10
217.9348028752035
 20
89.88460650826171
 10
216.7127806532868
 20
89.88460650826171
 10
215.6925473202086
 20
89.88460650826171
  0
LWPOLYLINE
  5
97
330
70
100
AcDbEntity
  8
grau 10%
 62
     7
370
    35
100
AcDbPolyline
 90
       15
 70
     0
 43
0.0
 10
243.7517862020829
 20
81.88431206581737
 10
241.163808424952
 20
81.88431206581737
 10
238.5952334255942
 20
81.88431206581737
 10
236.0654639817821
 20
81.88431206581737
 10
233.592491760178
 20
81.88431206581737
 10
231.1953667607772
 20
81.88431206581737
 10
228.8920806502421
 20
81.88431206581737
 10
226.6999195396791
 20
81.88431206581737
 10
224.634052873529
 20
81.88431206581737
 10
222.7114139851208
 20
81.88431206581737
 10
220.9450556522289
 20
81.88431206581737
 10
219.3490889859611
 20
81.88431206581737
 10
217.9348028752035
 20
81.88431206581737
 10
216.7127806532868
 20
81.88431206581737
 10
215.6925473202086
 20
81.88431206581737
  0
LWPOLYLINE
  5
98
330
70
100
AcDbEntity
  8
grau 10%
 62
     7
370
    35
100
AcDbPolyline
 90
        3
 70
     0
 43
0.0
 10
301.6334472987235
 20
81.88431206581737
 10
301.6334472987235
 20
89.88460650826171
 10
243.7517862020829
 20
89.88460650826171
  0
LINE
  5
99
330
70
100
AcDbEntity
  8
grau 10%
 62
     7
370
    35
100
AcDbLine
 10
301.6334472987235
 20
81.88431206581737
 30
0.0
 11
243.7517862020829
 21
81.88431206581737
 31
0.0
  0
LINE
  5
9A
330
70
100
AcDbEntity
  8
grau 10%
 62
     7
370
    35
100
AcDbLine
 10
303.6333445204456
 20
89.88460650826171
 30
0.0
 11
303.6333445204456
 21
81.88431206581737
 31
0.0
  0
LINE
  5
9B
330
70
100
AcDbEntity
  8
grau 10%
 62
     7
370
    35
100
AcDbLine
 10
301.6334472987235
 20
89.88460650826171
 30
0.0
 11
303.6333445204456
 21
89.88460650826171
 31
0.0
  0
LINE
  5
9C
330
70
100
AcDbEntity
  8
grau 10%
 62
     7
370
    35
100
AcDbLine
 10
303.6333445204456
 20
81.88431206581737
 30
0.0
 11
301.6334472987235
 21
81.88431206581737
 31
0.0
  0
LINE
  5
9E
330
70
100
AcDbEntity
  8
Standardebene
 62
     7
370
     9
100
AcDbLine
 10
201.1337612127372
 20
81.88431206581737
 30
0.0
 11
201.1337612127372
 21
82.38455095458141
 31
0.0
  0
LINE
  5
9F
330
70
100
AcDbEntity
  8
Standardebene
 62
     7
370
     9
100
AcDbLine
 10
201.1337612127372
 20
83.38432317655362
 30
0.0
 11
201.1337612127372
 21
84.38409539852584
 31
0.0
  0
LINE
  5
A0
330
70
100
AcDbEntity
  8
Standardebene
 62
     7
370
     9
100
AcDbLine
 10
201.1337612127372
 20
85.38422039827583
 30
0.0
 11
201.1337612127372
 21
86.38469817580357
 31
0.0
  0
LINE
  5
A1
330
70
100
AcDbEntity
  8
Standardebene
 62
     7
370
     9
100
AcDbLine
 10
201.1337612127372
 20
87.38447039777579
 30
0.0
 11
201.1337612127372
 21
88.384242619748
 31
0.0
  0
LINE
  5
A2
330
70
100
AcDbEntity
  8
Standardebene
 62
     7
370
     9
100
AcDbLine
 10
201.1337612127372
 20
89.384367619498
 30
0.0
 11
201.1337612127372
 21
89.88460650826171
 31
0.0
  0
LINE
  5
A3
330
70
100
AcDbEntity
  8
Standardebene
 62
     7
370
     9
100
AcDbLine
 10
215.1337473203484
 20
81.88431206581737
 30
0.0
 11
215.1337473203484
 21
82.38455095458141
 31
0.0
  0
LWPOLYLINE
  5
A4
330
70
100
AcDbEntity
  8
Standardebene
 62
     7
370
     9
100
AcDbPolyline
 90
        3
 70
     0
 43
0.0
 10
215.1337473203484
 20
89.384367619498
 10
215.1337473203484
 20
89.88460650826171
 10
215.1337473203484
 20
81.88431206581737
  0
LINE
  5
A6
330
70
100
AcDbEntity
  8
Bemaßung
 62
     7
370
     9
100
AcDbLine
 10
156.6336667794178
 20
123.5651791357754
 30
0.0
 11
156.6336667794178
 21
109.5651930281644
 31
0.0
  0
LINE
  5
A7
330
70
100
AcDbEntity
  8
Bemaßung
 62
     7
370
     9
100
AcDbLine
 10
303.6333445204456
 20
144.5649819083032
 30
0.0
 11
303.6333445204456
 21
109.5651930281644
 31
0.0
  0
LINE
  5
A8
330
70
100
AcDbEntity
  8
Bemaßung
 62
     7
370
     9
100
AcDbLine
 10
156.6336667794178
 20
111.5654430276644
 30
0.0
 11
303.6333445204456
 21
111.5654430276644
 31
0.0
  0
LWPOLYLINE
  5
A9
330
70
100
AcDbEntity
  8
Bemaßung
 62
     7
370
     9
100
AcDbPolyline
 90
        4
 70
     0
 43
0.0
 10
156.6336667794178
 20
111.5654430276644
 10
160.1335751118762
 20
111.1043624722239
 10
160.1335751118762
 20
112.0261708053268
 10
156.6336667794178
 20
111.5654430276644
  0
LINE
  5
AA
330
70
100
AcDbEntity
  8
Bemaßung
 62
     7
370
     9
100
AcDbLine
 10
160.1335751118762
 20
111.1078902500008
 30
0.0
 11
160.106411222994
 21
111.1078902500008
 31
0.0
  0
LINE
  5
AB
330
70
100
AcDbEntity
  8
Bemaßung
 62
     7
370
     9
100
AcDbLine
 10
160.1335751118762
 20
111.1078902500008
 30
0.0
 11
160.106411222994
 21
111.1078902500008
 31
0.0
  0
LINE
  5
AC
330
70
100
AcDbEntity
  8
Bemaßung
 62
     7
370
     9
100
AcDbLine
 10
160.1335751118762
 20
111.1586902499882
 30
0.0
 11
159.7204723342016
 21
111.1586902499882
 31
0.0
  0
LINE
  5
AD
330
70
100
AcDbEntity
  8
Bemaßung
 62
     7
370
     9
100
AcDbLine
 10
160.1335751118762
 20
111.2094902499756
 30
0.0
 11
159.3341806676317
 21
111.2094902499756
 31
0.0
  0
LINE
  5
AE
330
70
100
AcDbEntity
  8
Bemaßung
 62
     7
370
     9
100
AcDbLine
 10
160.1335751118762
 20
111.2602902499627
 30
0.0
 11
158.9485945566168
 21
111.2602902499627
 31
0.0
  0
LINE
  5
AF
330
70
100
AcDbEntity
  8
Bemaßung
 62
     7
370
     9
100
AcDbLine
 10
160.1335751118762
 20
111.31109024995
 30
0.0
 11
158.5630084456021
 21
111.31109024995
 31
0.0
  0
LINE
  5
B0
330
70
100
AcDbEntity
  8
Bemaßung
 62
     7
370
     9
100
AcDbLine
 10
160.1335751118762
 20
111.3618902499374
 30
0.0
 11
158.1770695568097
 21
111.3618902499374
 31
0.0
  0
LINE
  5
B1
330
70
100
AcDbEntity
  8
Bemaßung
 62
     7
370
     9
100
AcDbLine
 10
160.1335751118762
 20
111.4130430277022
 30
0.0
 11
157.7907778902398
 21
111.4130430277022
 31
0.0
  0
LINE
  5
B2
330
70
100
AcDbEntity
  8
Bemaßung
 62
     7
370
     9
100
AcDbLine
 10
160.1335751118762
 20
111.4638430276896
 30
0.0
 11
157.4048390014474
 21
111.4638430276896
 31
0.0
  0
LINE
  5
B3
330
70
100
AcDbEntity
  8
Bemaßung
 62
     7
370
     9
100
AcDbLine
 10
160.1335751118762
 20
111.514643027677
 30
0.0
 11
157.0196056682102
 21
111.514643027677
 31
0.0
  0
LINE
  5
B4
330
70
100
AcDbEntity
  8
Bemaßung
 62
     7
370
     9
100
AcDbLine
 10
160.1335751118762
 20
111.5654430276644
 30
0.0
 11
156.6336667794178
 21
111.5654430276644
 31
0.0
  0
LINE
  5
B5
330
70
100
AcDbEntity
  8
Bemaßung
 62
     7
370
     9
100
AcDbLine
 10
160.1335751118762
 20
112.0226430275499
 30
0.0
 11
160.106411222994
 21
112.0226430275499
 31
0.0
  0
LINE
  5
B6
330
70
100
AcDbEntity
  8
Bemaßung
 62
     7
370
     9
100
AcDbLine
 10
160.1335751118762
 20
112.0226430275499
 30
0.0
 11
160.106411222994
 21
112.0226430275499
 31
0.0
  0
LINE
  5
B7
330
70
100
AcDbEntity
  8
Bemaßung
 62
     7
370
     9
100
AcDbLine
 10
160.1335751118762
 20
111.9718430275628
 30
0.0
 11
159.7204723342016
 21
111.9718430275628
 31
0.0
  0
LINE
  5
B8
330
70
100
AcDbEntity
  8
Bemaßung
 62
     7
370
     9
100
AcDbLine
 10
160.1335751118762
 20
111.9210430275754
 30
0.0
 11
159.3341806676317
 21
111.9210430275754
 31
0.0
  0
LINE
  5
B9
330
70
100
AcDbEntity
  8
Bemaßung
 62
     7
370
     9
100
AcDbLine
 10
160.1335751118762
 20
111.8698902498103
 30
0.0
 11
158.9485945566168
 21
111.8698902498103
 31
0.0
  0
LINE
  5
BA
330
70
100
AcDbEntity
  8
Bemaßung
 62
     7
370
     9
100
AcDbLine
 10
160.1335751118762
 20
111.8190902498232
 30
0.0
 11
158.5630084456021
 21
111.8190902498232
 31
0.0
  0
LINE
  5
BB
330
70
100
AcDbEntity
  8
Bemaßung
 62
     7
370
     9
100
AcDbLine
 10
160.1335751118762
 20
111.7682902498358
 30
0.0
 11
158.1770695568097
 21
111.7682902498358
 31
0.0
  0
LINE
  5
BC
330
70
100
AcDbEntity
  8
Bemaßung
 62
     7
370
     9
100
AcDbLine
 10
160.1335751118762
 20
111.7174902498485
 30
0.0
 11
157.7907778902398
 21
111.7174902498485
 31
0.0
  0
LINE
  5
BD
330
70
100
AcDbEntity
  8
Bemaßung
 62
     7
370
     9
100
AcDbLine
 10
160.1335751118762
 20
111.6666902498611
 30
0.0
 11
157.4048390014474
 21
111.6666902498611
 31
0.0
  0
LINE
  5
BE
330
70
100
AcDbEntity
  8
Bemaßung
 62
     7
370
     9
100
AcDbLine
 10
160.1335751118762
 20
111.6162430276514
 30
0.0
 11
157.0196056682102
 21
111.6162430276514
 31
0.0
  0
LINE
  5
BF
330
70
100
AcDbEntity
  8
Bemaßung
 62
     7
370
     9
100
AcDbLine
 10
160.1335751118762
 20
111.5654430276644
 30
0.0
 11
156.6336667794178
 21
111.5654430276644
 31
0.0
  0
LWPOLYLINE
  5
C0
330
70
100
AcDbEntity
  8
Bemaßung
 62
     7
370
     9
100
AcDbPolyline
 90
        4
 70
     0
 43
0.0
 10
303.6333445204456
 20
111.5654430276644
 10
300.1334361879875
 20
112.0261708053268
 10
300.1334361879875
 20
111.1043624722239
 10
303.6333445204456
 20
111.5654430276644
  0
LINE
  5
C1
330
70
100
AcDbEntity
  8
Bemaßung
 62
     7
370
     9
100
AcDbLine
 10
300.1334361879875
 20
112.0226430275499
 30
0.0
 11
300.1609528546471
 21
112.0226430275499
 31
0.0
  0
LINE
  5
C2
330
70
100
AcDbEntity
  8
Bemaßung
 62
     7
370
     9
100
AcDbLine
 10
300.1334361879875
 20
112.0226430275499
 30
0.0
 11
300.1609528546471
 21
112.0226430275499
 31
0.0
  0
LINE
  5
C3
330
70
100
AcDbEntity
  8
Bemaßung
 62
     7
370
     9
100
AcDbLine
 10
300.1334361879875
 20
111.9718430275628
 30
0.0
 11
300.5465389656618
 21
111.9718430275628
 31
0.0
  0
LINE
  5
C4
330
70
100
AcDbEntity
  8
Bemaßung
 62
     7
370
     9
100
AcDbLine
 10
300.1334361879875
 20
111.9210430275754
 30
0.0
 11
300.9321250766765
 21
111.9210430275754
 31
0.0
  0
LINE
  5
C5
330
70
100
AcDbEntity
  8
Bemaßung
 62
     7
370
     9
100
AcDbLine
 10
300.1334361879875
 20
111.8698902498103
 30
0.0
 11
301.3184167432466
 21
111.8698902498103
 31
0.0
  0
LINE
  5
C6
330
70
100
AcDbEntity
  8
Bemaßung
 62
     7
370
     9
100
AcDbLine
 10
300.1334361879875
 20
111.8190902498232
 30
0.0
 11
301.704355632039
 21
111.8190902498232
 31
0.0
  0
LINE
  5
C7
330
70
100
AcDbEntity
  8
Bemaßung
 62
     7
370
     9
100
AcDbLine
 10
300.1334361879875
 20
111.7682902498358
 30
0.0
 11
302.0899417430537
 21
111.7682902498358
 31
0.0
  0
LINE
  5
C8
330
70
100
AcDbEntity
  8
Bemaßung
 62
     7
370
     9
100
AcDbLine
 10
300.1334361879875
 20
111.7174902498485
 30
0.0
 11
302.4755278540684
 21
111.7174902498485
 31
0.0
  0
LINE
  5
C9
330
70
100
AcDbEntity
  8
Bemaßung
 62
     7
370
     9
100
AcDbLine
 10
300.1334361879875
 20
111.6666902498611
 30
0.0
 11
302.8618195206385
 21
111.6666902498611
 31
0.0
  0
LINE
  5
CA
330
70
100
AcDbEntity
  8
Bemaßung
 62
     7
370
     9
100
AcDbLine
 10
300.1334361879875
 20
111.6162430276514
 30
0.0
 11
303.2477584094309
 21
111.6162430276514
 31
0.0
  0
LINE
  5
CB
330
70
100
AcDbEntity
  8
Bemaßung
 62
     7
370
     9
100
AcDbLine
 10
300.1334361879875
 20
111.5654430276644
 30
0.0
 11
303.6333445204456
 21
111.5654430276644
 31
0.0
  0
LINE
  5
CC
330
70
100
AcDbEntity
  8
Bemaßung
 62
     7
370
     9
100
AcDbLine
 10
300.1334361879875
 20
111.1078902500008
 30
0.0
 11
300.1609528546471
 21
111.1078902500008
 31
0.0
  0
LINE
  5
CD
330
70
100
AcDbEntity
  8
Bemaßung
 62
     7
370
     9
100
AcDbLine
 10
300.1334361879875
 20
111.1078902500008
 30
0.0
 11
300.1609528546471
 21
111.1078902500008
 31
0.0
  0
LINE
  5
CE
330
70
100
AcDbEntity
  8
Bemaßung
 62
     7
370
     9
100
AcDbLine
 10
300.1334361879875
 20
111.1586902499882
 30
0.0
 11
300.5465389656618
 21
111.1586902499882
 31
0.0
  0
LINE
  5
CF
330
70
100
AcDbEntity
  8
Bemaßung
 62
     7
370
     9
100
AcDbLine
 10
300.1334361879875
 20
111.2094902499756
 30
0.0
 11
300.9321250766765
 21
111.2094902499756
 31
0.0
  0
LINE
  5
D0
330
70
100
AcDbEntity
  8
Bemaßung
 62
     7
370
     9
100
AcDbLine
 10
300.1334361879875
 20
111.2602902499627
 30
0.0
 11
301.3184167432466
 21
111.2602902499627
 31
0.0
  0
LINE
  5
D1
330
70
100
AcDbEntity
  8
Bemaßung
 62
     7
370
     9
100
AcDbLine
 10
300.1334361879875
 20
111.31109024995
 30
0.0
 11
301.704355632039
 21
111.31109024995
 31
0.0
  0
LINE
  5
D2
330
70
100
AcDbEntity
  8
Bemaßung
 62
     7
370
     9
100
AcDbLine
 10
300.1334361879875
 20
111.3618902499374
 30
0.0
 11
302.0899417430537
 21
111.3618902499374
 31
0.0
  0
LINE
  5
D3
330
70
100
AcDbEntity
  8
Bemaßung
 62
     7
370
     9
100
AcDbLine
 10
300.1334361879875
 20
111.4130430277022
 30
0.0
 11
302.4755278540684
 21
111.4130430277022
 31
0.0
  0
LINE
  5
D4
330
70
100
AcDbEntity
  8
Bemaßung
 62
     7
370
     9
100
AcDbLine
 10
300.1334361879875
 20
111.4638430276896
 30
0.0
 11
302.8618195206385
 21
111.4638430276896
 31
0.0
  0
LINE
  5
D5
330
70
100
AcDbEntity
  8
Bemaßung
 62
     7
370
     9
100
AcDbLine
 10
300.1334361879875
 20
111.514643027677
 30
0.0
 11
303.2477584094309
 21
111.514643027677
 31
0.0
  0
LINE
  5
D6
330
70
100
AcDbEntity
  8
Bemaßung
 62
     7
370
     9
100
AcDbLine
 10
300.1334361879875
 20
111.5654430276644
 30
0.0
 11
303.6333445204456
 21
111.5654430276644
 31
0.0
  0
LINE
  5
D7
330
70
100
AcDbEntity
  8
Bemaßung
 62
     7
370
     9
100
AcDbLine
 10
301.6334472987235
 20
178.5653513442475
 30
0.0
 11
321.4277181403473
 21
178.5653513442475
 31
0.0
  0
LINE
  5
D8
330
70
100
AcDbEntity
  8
Bemaßung
 62
     7
370
     9
100
AcDbLine
 10
301.6334472987235
 20
142.565084686581
 30
0.0
 11
321.4277181403473
 21
142.565084686581
 31
0.0
  0
LINE
  5
D9
330
70
100
AcDbEntity
  8
Bemaßung
 62
     7
370
     9
100
AcDbLine
 10
319.4274681408473
 20
178.5653513442475
 30
0.0
 11
319.4274681408473
 21
142.565084686581
 31
0.0
  0
LWPOLYLINE
  5
DA
330
70
100
AcDbEntity
  8
Bemaßung
 62
     7
370
     9
100
AcDbPolyline
 90
        4
 70
     0
 43
0.0
 10
319.4274681408473
 20
178.5653513442475
 10
318.9667403631845
 20
175.0650902340116
 10
319.8889014740653
 20
175.0650902340116
 10
319.4274681408473
 20
178.5653513442475
  0
LINE
  5
DB
330
70
100
AcDbEntity
  8
Bemaßung
 62
     7
370
     9
100
AcDbLine
 10
318.9702681409615
 20
175.0650902340116
 30
0.0
 11
318.9702681409615
 21
175.0922541228938
 31
0.0
  0
LINE
  5
DC
330
70
100
AcDbEntity
  8
Bemaßung
 62
     7
370
     9
100
AcDbLine
 10
318.9702681409615
 20
175.0650902340116
 30
0.0
 11
318.9702681409615
 21
175.0922541228938
 31
0.0
  0
LINE
  5
DD
330
70
100
AcDbEntity
  8
Bemaßung
 62
     7
370
     9
100
AcDbLine
 10
319.0210681409489
 20
175.0650902340116
 30
0.0
 11
319.0210681409489
 21
175.4785457894637
 31
0.0
  0
LINE
  5
DE
330
70
100
AcDbEntity
  8
Bemaßung
 62
     7
370
     9
100
AcDbLine
 10
319.0718681409363
 20
175.0650902340116
 30
0.0
 11
319.0718681409363
 21
175.8637791227009
 31
0.0
  0
LINE
  5
DF
330
70
100
AcDbEntity
  8
Bemaßung
 62
     7
370
     9
100
AcDbLine
 10
319.1226681409233
 20
175.0650902340116
 30
0.0
 11
319.1226681409233
 21
176.2500707892708
 31
0.0
  0
LINE
  5
E0
330
70
100
AcDbEntity
  8
Bemaßung
 62
     7
370
     9
100
AcDbLine
 10
319.1734681409107
 20
175.0650902340116
 30
0.0
 11
319.1734681409107
 21
176.6356569002858
 31
0.0
  0
LINE
  5
E1
330
70
100
AcDbEntity
  8
Bemaßung
 62
     7
370
     9
100
AcDbLine
 10
319.2242681408981
 20
175.0650902340116
 30
0.0
 11
319.2242681408981
 21
177.0219485668556
 31
0.0
  0
LINE
  5
E2
330
70
100
AcDbEntity
  8
Bemaßung
 62
     7
370
     9
100
AcDbLine
 10
319.2750681408851
 20
175.0650902340116
 30
0.0
 11
319.2750681408851
 21
177.4075346778706
 31
0.0
  0
LINE
  5
E3
330
70
100
AcDbEntity
  8
Bemaßung
 62
     7
370
     9
100
AcDbLine
 10
319.3258681408726
 20
175.0650902340116
 30
0.0
 11
319.3258681408726
 21
177.7934735666627
 31
0.0
  0
LINE
  5
E4
330
70
100
AcDbEntity
  8
Bemaßung
 62
     7
370
     9
100
AcDbLine
 10
319.3766681408599
 20
175.0650902340116
 30
0.0
 11
319.3766681408599
 21
178.1790596776777
 31
0.0
  0
LINE
  5
E5
330
70
100
AcDbEntity
  8
Bemaßung
 62
     7
370
     9
100
AcDbLine
 10
319.4274681408473
 20
175.0650902340116
 30
0.0
 11
319.4274681408473
 21
178.5653513442475
 31
0.0
  0
LINE
  5
E6
330
70
100
AcDbEntity
  8
Bemaßung
 62
     7
370
     9
100
AcDbLine
 10
319.8850209185105
 20
175.0650902340116
 30
0.0
 11
319.8850209185105
 21
175.0922541228938
 31
0.0
  0
LINE
  5
E7
330
70
100
AcDbEntity
  8
Bemaßung
 62
     7
370
     9
100
AcDbLine
 10
319.8850209185105
 20
175.0650902340116
 30
0.0
 11
319.8850209185105
 21
175.0922541228938
 31
0.0
  0
LINE
  5
E8
330
70
100
AcDbEntity
  8
Bemaßung
 62
     7
370
     9
100
AcDbLine
 10
319.8342209185235
 20
175.0650902340116
 30
0.0
 11
319.8342209185235
 21
175.4785457894637
 31
0.0
  0
LINE
  5
E9
330
70
100
AcDbEntity
  8
Bemaßung
 62
     7
370
     9
100
AcDbLine
 10
319.7834209185361
 20
175.0650902340116
 30
0.0
 11
319.7834209185361
 21
175.8637791227009
 31
0.0
  0
LINE
  5
EA
330
70
100
AcDbEntity
  8
Bemaßung
 62
     7
370
     9
100
AcDbLine
 10
319.7326209185487
 20
175.0650902340116
 30
0.0
 11
319.7326209185487
 21
176.2500707892708
 31
0.0
  0
LINE
  5
EB
330
70
100
AcDbEntity
  8
Bemaßung
 62
     7
370
     9
100
AcDbLine
 10
319.6818209185613
 20
175.0650902340116
 30
0.0
 11
319.6818209185613
 21
176.6356569002858
 31
0.0
  0
LINE
  5
EC
330
70
100
AcDbEntity
  8
Bemaßung
 62
     7
370
     9
100
AcDbLine
 10
319.6310209185739
 20
175.0650902340116
 30
0.0
 11
319.6310209185739
 21
177.0219485668556
 31
0.0
  0
LINE
  5
ED
330
70
100
AcDbEntity
  8
Bemaßung
 62
     7
370
     9
100
AcDbLine
 10
319.5802209185869
 20
175.0650902340116
 30
0.0
 11
319.5802209185869
 21
177.4075346778706
 31
0.0
  0
LINE
  5
EE
330
70
100
AcDbEntity
  8
Bemaßung
 62
     7
370
     9
100
AcDbLine
 10
319.5294209185995
 20
175.0650902340116
 30
0.0
 11
319.5294209185995
 21
177.7934735666627
 31
0.0
  0
LINE
  5
EF
330
70
100
AcDbEntity
  8
Bemaßung
 62
     7
370
     9
100
AcDbLine
 10
319.4786209186121
 20
175.0650902340116
 30
0.0
 11
319.4786209186121
 21
178.1790596776777
 31
0.0
  0
LINE
  5
F0
330
70
100
AcDbEntity
  8
Bemaßung
 62
     7
370
     9
100
AcDbLine
 10
319.4274681408473
 20
175.0650902340116
 30
0.0
 11
319.4274681408473
 21
178.5653513442475
 31
0.0
  0
LWPOLYLINE
  5
F1
330
70
100
AcDbEntity
  8
Bemaßung
 62
     7
370
     9
100
AcDbPolyline
 90
        4
 70
     0
 43
0.0
 10
319.4274681408473
 20
142.565084686581
 10
319.8889014740653
 20
146.0653457968172
 10
318.9667403631845
 20
146.0653457968172
 10
319.4274681408473
 20
142.565084686581
  0
LINE
  5
F2
330
70
100
AcDbEntity
  8
Bemaßung
 62
     7
370
     9
100
AcDbLine
 10
319.8850209185105
 20
146.0653457968172
 30
0.0
 11
319.8850209185105
 21
146.038181907935
 31
0.0
  0
LINE
  5
F3
330
70
100
AcDbEntity
  8
Bemaßung
 62
     7
370
     9
100
AcDbLine
 10
319.8850209185105
 20
146.0653457968172
 30
0.0
 11
319.8850209185105
 21
146.038181907935
 31
0.0
  0
LINE
  5
F4
330
70
100
AcDbEntity
  8
Bemaßung
 62
     7
370
     9
100
AcDbLine
 10
319.8342209185235
 20
146.0653457968172
 30
0.0
 11
319.8342209185235
 21
145.6518902413648
 31
0.0
  0
LINE
  5
F5
330
70
100
AcDbEntity
  8
Bemaßung
 62
     7
370
     9
100
AcDbLine
 10
319.7834209185361
 20
146.0653457968172
 30
0.0
 11
319.7834209185361
 21
145.2663041303502
 31
0.0
  0
LINE
  5
F6
330
70
100
AcDbEntity
  8
Bemaßung
 62
     7
370
     9
100
AcDbLine
 10
319.7326209185487
 20
146.0653457968172
 30
0.0
 11
319.7326209185487
 21
144.8803652415578
 31
0.0
  0
LINE
  5
F7
330
70
100
AcDbEntity
  8
Bemaßung
 62
     7
370
     9
100
AcDbLine
 10
319.6818209185613
 20
146.0653457968172
 30
0.0
 11
319.6818209185613
 21
144.4947791305431
 31
0.0
  0
LINE
  5
F8
330
70
100
AcDbEntity
  8
Bemaßung
 62
     7
370
     9
100
AcDbLine
 10
319.6310209185739
 20
146.0653457968172
 30
0.0
 11
319.6310209185739
 21
144.1084874639729
 31
0.0
  0
LINE
  5
F9
330
70
100
AcDbEntity
  8
Bemaßung
 62
     7
370
     9
100
AcDbLine
 10
319.5802209185869
 20
146.0653457968172
 30
0.0
 11
319.5802209185869
 21
143.7229013529583
 31
0.0
  0
LINE
  5
FA
330
70
100
AcDbEntity
  8
Bemaßung
 62
     7
370
     9
100
AcDbLine
 10
319.5294209185995
 20
146.0653457968172
 30
0.0
 11
319.5294209185995
 21
143.3369624641659
 31
0.0
  0
LINE
  5
FB
330
70
100
AcDbEntity
  8
Bemaßung
 62
     7
370
     9
100
AcDbLine
 10
319.4786209186121
 20
146.0653457968172
 30
0.0
 11
319.4786209186121
 21
142.9506707975956
 31
0.0
  0
LINE
  5
FC
330
70
100
AcDbEntity
  8
Bemaßung
 62
     7
370
     9
100
AcDbLine
 10
319.4274681408473
 20
146.0653457968172
 30
0.0
 11
319.4274681408473
 21
142.565084686581
 31
0.0
  0
LINE
  5
FD
330
70
100
AcDbEntity
  8
Bemaßung
 62
     7
370
     9
100
AcDbLine
 10
318.9702681409615
 20
146.0653457968172
 30
0.0
 11
318.9702681409615
 21
146.038181907935
 31
0.0
  0
LINE
  5
FE
330
70
100
AcDbEntity
  8
Bemaßung
 62
     7
370
     9
100
AcDbLine
 10
318.9702681409615
 20
146.0653457968172
 30
0.0
 11
318.9702681409615
 21
146.038181907935
 31
0.0
  0
LINE
  5
FF
330
70
100
AcDbEntity
  8
Bemaßung
 62
     7
370
     9
100
AcDbLine
 10
319.0210681409489
 20
146.0653457968172
 30
0.0
 11
319.0210681409489
 21
145.6518902413648
 31
0.0
  0
LINE
  5
100
330
70
100
AcDbEntity
  8
Bemaßung
 62
     7
370
     9
100
AcDbLine
 10
319.0718681409363
 20
146.0653457968172
 30
0.0
 11
319.0718681409363
 21
145.2663041303502
 31
0.0
  0
LINE
  5
101
330
70
100
AcDbEntity
  8
Bemaßung
 62
     7
370
     9
100
AcDbLine
 10
319.1226681409233
 20
146.0653457968172
 30
0.0
 11
319.1226681409233
 21
144.8803652415578
 31
0.0
  0
LINE
  5
102
330
70
100
AcDbEntity
  8
Bemaßung
 62
     7
370
     9
100
AcDbLine
 10
319.1734681409107
 20
146.0653457968172
 30
0.0
 11
319.1734681409107
 21
144.4947791305431
 31
0.0
  0
LINE
  5
103
330
70
100
AcDbEntity
  8
Bemaßung
 62
     7
370
     9
100
AcDbLine
 10
319.2242681408981
 20
146.0653457968172
 30
0.0
 11
319.2242681408981
 21
144.1084874639729
 31
0.0
  0
LINE
  5
104
330
70
100
AcDbEntity
  8
Bemaßung
 62
     7
370
     9
100
AcDbLine
 10
319.2750681408851
 20
146.0653457968172
 30
0.0
 11
319.2750681408851
 21
143.7229013529583
 31
0.0
  0
LINE
  5
105
330
70
100
AcDbEntity
  8
Bemaßung
 62
     7
370
     9
100
AcDbLine
 10
319.3258681408726
 20
146.0653457968172
 30
0.0
 11
319.3258681408726
 21
143.3369624641659
 31
0.0
  0
LINE
  5
106
330
70
100
AcDbEntity
  8
Bemaßung
 62
     7
370
     9
100
AcDbLine
 10
319.3766681408599
 20
146.0653457968172
 30
0.0
 11
319.3766681408599
 21
142.9506707975956
 31
0.0
  0
LINE
  5
107
330
70
100
AcDbEntity
  8
Bemaßung
 62
     7
370
     9
100
AcDbLine
 10
319.4274681408473
 20
146.0653457968172
 30
0.0
 11
319.4274681408473
 21
142.565084686581
 31
0.0
  0
LINE
  5
108
330
70
100
AcDbEntity
  8
Bemaßung
 62
     7
370
     9
100
AcDbLine
 10
176.6333445521956
 20
199.5648013389976
 30
0.0
 11
134.6337390071399
 21
199.5648013389976
 31
0.0
  0
LINE
  5
109
330
70
100
AcDbEntity
  8
Bemaßung
 62
     7
370
     9
100
AcDbLine
 10
176.6333445521956
 20
121.5652819140532
 30
0.0
 11
134.6337390071399
 21
121.5652819140532
 31
0.0
  0
LINE
  5
10A
330
70
100
AcDbEntity
  8
Bemaßung
 62
     7
370
     9
100
AcDbLine
 10
136.6332834510847
 20
199.5648013389976
 30
0.0
 11
136.6332834510847
 21
121.5652819140532
 31
0.0
  0
LWPOLYLINE
  5
10B
330
70
100
AcDbEntity
  8
Bemaßung
 62
     7
370
     9
100
AcDbPolyline
 90
        4
 70
     0
 43
0.0
 10
136.6332834510847
 20
199.5648013389976
 10
136.1729084511997
 20
196.0652457843169
 10
137.0943640065249
 20
196.0652457843169
 10
136.6332834510847
 20
199.5648013389976
  0
LINE
  5
10C
330
70
100
AcDbEntity
  8
Bemaßung
 62
     7
370
     9
100
AcDbLine
 10
136.1764362289767
 20
196.0652457843169
 30
0.0
 11
136.1764362289767
 21
196.0924096731994
 31
0.0
  0
LINE
  5
10D
330
70
100
AcDbEntity
  8
Bemaßung
 62
     7
370
     9
100
AcDbLine
 10
136.1764362289767
 20
196.0652457843169
 30
0.0
 11
136.1764362289767
 21
196.0924096731994
 31
0.0
  0
LINE
  5
10E
330
70
100
AcDbEntity
  8
Bemaßung
 62
     7
370
     9
100
AcDbLine
 10
136.227236228964
 20
196.0652457843169
 30
0.0
 11
136.227236228964
 21
196.4779957842138
 31
0.0
  0
LINE
  5
10F
330
70
100
AcDbEntity
  8
Bemaßung
 62
     7
370
     9
100
AcDbLine
 10
136.2776834511737
 20
196.0652457843169
 30
0.0
 11
136.2776834511737
 21
196.8639346730065
 31
0.0
  0
LINE
  5
110
330
70
100
AcDbEntity
  8
Bemaßung
 62
     7
370
     9
100
AcDbLine
 10
136.3284834511607
 20
196.0652457843169
 30
0.0
 11
136.3284834511607
 21
197.2502263395764
 31
0.0
  0
LINE
  5
111
330
70
100
AcDbEntity
  8
Bemaßung
 62
     7
370
     9
100
AcDbLine
 10
136.3792834511481
 20
196.0652457843169
 30
0.0
 11
136.3792834511481
 21
197.6358124505914
 31
0.0
  0
LINE
  5
112
330
70
100
AcDbEntity
  8
Bemaßung
 62
     7
370
     9
100
AcDbLine
 10
136.4304362289129
 20
196.0652457843169
 30
0.0
 11
136.4304362289129
 21
198.0213985616057
 31
0.0
  0
LINE
  5
113
330
70
100
AcDbEntity
  8
Bemaßung
 62
     7
370
     9
100
AcDbLine
 10
136.4812362289003
 20
196.0652457843169
 30
0.0
 11
136.4812362289003
 21
198.4073374503984
 31
0.0
  0
LINE
  5
114
330
70
100
AcDbEntity
  8
Bemaßung
 62
     7
370
     9
100
AcDbLine
 10
136.5316834511099
 20
196.0652457843169
 30
0.0
 11
136.5316834511099
 21
198.7936291169683
 31
0.0
  0
LINE
  5
115
330
70
100
AcDbEntity
  8
Bemaßung
 62
     7
370
     9
100
AcDbLine
 10
136.5824834510973
 20
196.0652457843169
 30
0.0
 11
136.5824834510973
 21
199.1792152279833
 31
0.0
  0
LINE
  5
116
330
70
100
AcDbEntity
  8
Bemaßung
 62
     7
370
     9
100
AcDbLine
 10
136.6332834510847
 20
196.0652457843169
 30
0.0
 11
136.6332834510847
 21
199.5648013389976
 31
0.0
  0
LINE
  5
117
330
70
100
AcDbEntity
  8
Bemaßung
 62
     7
370
     9
100
AcDbLine
 10
137.0904834509702
 20
196.0652457843169
 30
0.0
 11
137.0904834509702
 21
196.0924096731994
 31
0.0
  0
LINE
  5
118
330
70
100
AcDbEntity
  8
Bemaßung
 62
     7
370
     9
100
AcDbLine
 10
137.0904834509702
 20
196.0652457843169
 30
0.0
 11
137.0904834509702
 21
196.0924096731994
 31
0.0
  0
LINE
  5
119
330
70
100
AcDbEntity
  8
Bemaßung
 62
     7
370
     9
100
AcDbLine
 10
137.0400362287605
 20
196.0652457843169
 30
0.0
 11
137.0400362287605
 21
196.4779957842138
 31
0.0
  0
LINE
  5
11A
330
70
100
AcDbEntity
  8
Bemaßung
 62
     7
370
     9
100
AcDbLine
 10
136.9892362287735
 20
196.0652457843169
 30
0.0
 11
136.9892362287735
 21
196.8639346730065
 31
0.0
  0
LINE
  5
11B
330
70
100
AcDbEntity
  8
Bemaßung
 62
     7
370
     9
100
AcDbLine
 10
136.9384362287861
 20
196.0652457843169
 30
0.0
 11
136.9384362287861
 21
197.2502263395764
 31
0.0
  0
LINE
  5
11C
330
70
100
AcDbEntity
  8
Bemaßung
 62
     7
370
     9
100
AcDbLine
 10
136.8872834510209
 20
196.0652457843169
 30
0.0
 11
136.8872834510209
 21
197.6358124505914
 31
0.0
  0
LINE
  5
11D
330
70
100
AcDbEntity
  8
Bemaßung
 62
     7
370
     9
100
AcDbLine
 10
136.8364834510339
 20
196.0652457843169
 30
0.0
 11
136.8364834510339
 21
198.0213985616057
 31
0.0
  0
LINE
  5
11E
330
70
100
AcDbEntity
  8
Bemaßung
 62
     7
370
     9
100
AcDbLine
 10
136.7860362288243
 20
196.0652457843169
 30
0.0
 11
136.7860362288243
 21
198.4073374503984
 31
0.0
  0
LINE
  5
11F
330
70
100
AcDbEntity
  8
Bemaßung
 62
     7
370
     9
100
AcDbLine
 10
136.7352362288369
 20
196.0652457843169
 30
0.0
 11
136.7352362288369
 21
198.7936291169683
 31
0.0
  0
LINE
  5
120
330
70
100
AcDbEntity
  8
Bemaßung
 62
     7
370
     9
100
AcDbLine
 10
136.6844362288495
 20
196.0652457843169
 30
0.0
 11
136.6844362288495
 21
199.1792152279833
 31
0.0
  0
LINE
  5
121
330
70
100
AcDbEntity
  8
Bemaßung
 62
     7
370
     9
100
AcDbLine
 10
136.6332834510847
 20
196.0652457843169
 30
0.0
 11
136.6332834510847
 21
199.5648013389976
 31
0.0
  0
LWPOLYLINE
  5
122
330
70
100
AcDbEntity
  8
Bemaßung
 62
     7
370
     9
100
AcDbPolyline
 90
        4
 70
     0
 43
0.0
 10
136.6332834510847
 20
121.5652819140532
 10
137.0943640065249
 20
125.0651902465116
 10
136.1729084511997
 20
125.0651902465116
 10
136.6332834510847
 20
121.5652819140532
  0
LINE
  5
123
330
70
100
AcDbEntity
  8
Bemaßung
 62
     7
370
     9
100
AcDbLine
 10
137.0904834509702
 20
125.0651902465116
 30
0.0
 11
137.0904834509702
 21
125.0380263576294
 31
0.0
  0
LINE
  5
124
330
70
100
AcDbEntity
  8
Bemaßung
 62
     7
370
     9
100
AcDbLine
 10
137.0904834509702
 20
125.0651902465116
 30
0.0
 11
137.0904834509702
 21
125.0380263576294
 31
0.0
  0
LINE
  5
125
330
70
100
AcDbEntity
  8
Bemaßung
 62
     7
370
     9
100
AcDbLine
 10
137.0400362287605
 20
125.0651902465116
 30
0.0
 11
137.0400362287605
 21
124.652087468837
 31
0.0
  0
LINE
  5
126
330
70
100
AcDbEntity
  8
Bemaßung
 62
     7
370
     9
100
AcDbLine
 10
136.9892362287735
 20
125.0651902465116
 30
0.0
 11
136.9892362287735
 21
124.2665013578224
 31
0.0
  0
LINE
  5
127
330
70
100
AcDbEntity
  8
Bemaßung
 62
     7
370
     9
100
AcDbLine
 10
136.9384362287861
 20
125.0651902465116
 30
0.0
 11
136.9384362287861
 21
123.8805624690299
 31
0.0
  0
LINE
  5
128
330
70
100
AcDbEntity
  8
Bemaßung
 62
     7
370
     9
100
AcDbLine
 10
136.8872834510209
 20
125.0651902465116
 30
0.0
 11
136.8872834510209
 21
123.4946235802375
 31
0.0
  0
LINE
  5
129
330
70
100
AcDbEntity
  8
Bemaßung
 62
     7
370
     9
100
AcDbLine
 10
136.8364834510339
 20
125.0651902465116
 30
0.0
 11
136.8364834510339
 21
123.1086846914451
 31
0.0
  0
LINE
  5
12A
330
70
100
AcDbEntity
  8
Bemaßung
 62
     7
370
     9
100
AcDbLine
 10
136.7860362288243
 20
125.0651902465116
 30
0.0
 11
136.7860362288243
 21
122.7223930248749
 31
0.0
  0
LINE
  5
12B
330
70
100
AcDbEntity
  8
Bemaßung
 62
     7
370
     9
100
AcDbLine
 10
136.7352362288369
 20
125.0651902465116
 30
0.0
 11
136.7352362288369
 21
122.337159691638
 31
0.0
  0
LINE
  5
12C
330
70
100
AcDbEntity
  8
Bemaßung
 62
     7
370
     9
100
AcDbLine
 10
136.6844362288495
 20
125.0651902465116
 30
0.0
 11
136.6844362288495
 21
121.9512208028456
 31
0.0
  0
LINE
  5
12D
330
70
100
AcDbEntity
  8
Bemaßung
 62
     7
370
     9
100
AcDbLine
 10
136.6332834510847
 20
125.0651902465116
 30
0.0
 11
136.6332834510847
 21
121.5652819140532
 31
0.0
  0
LINE
  5
12E
330
70
100
AcDbEntity
  8
Bemaßung
 62
     7
370
     9
100
AcDbLine
 10
136.1764362289767
 20
125.0651902465116
 30
0.0
 11
136.1764362289767
 21
125.0380263576294
 31
0.0
  0
LINE
  5
12F
330
70
100
AcDbEntity
  8
Bemaßung
 62
     7
370
     9
100
AcDbLine
 10
136.1764362289767
 20
125.0651902465116
 30
0.0
 11
136.1764362289767
 21
125.0380263576294
 31
0.0
  0
LINE
  5
130
330
70
100
AcDbEntity
  8
Bemaßung
 62
     7
370
     9
100
AcDbLine
 10
136.227236228964
 20
125.0651902465116
 30
0.0
 11
136.227236228964
 21
124.652087468837
 31
0.0
  0
LINE
  5
131
330
70
100
AcDbEntity
  8
Bemaßung
 62
     7
370
     9
100
AcDbLine
 10
136.2776834511737
 20
125.0651902465116
 30
0.0
 11
136.2776834511737
 21
124.2665013578224
 31
0.0
  0
LINE
  5
132
330
70
100
AcDbEntity
  8
Bemaßung
 62
     7
370
     9
100
AcDbLine
 10
136.3284834511607
 20
125.0651902465116
 30
0.0
 11
136.3284834511607
 21
123.8805624690299
 31
0.0
  0
LINE
  5
133
330
70
100
AcDbEntity
  8
Bemaßung
 62
     7
370
     9
100
AcDbLine
 10
136.3792834511481
 20
125.0651902465116
 30
0.0
 11
136.3792834511481
 21
123.4946235802375
 31
0.0
  0
LINE
  5
134
330
70
100
AcDbEntity
  8
Bemaßung
 62
     7
370
     9
100
AcDbLine
 10
136.4304362289129
 20
125.0651902465116
 30
0.0
 11
136.4304362289129
 21
123.1086846914451
 31
0.0
  0
LINE
  5
135
330
70
100
AcDbEntity
  8
Bemaßung
 62
     7
370
     9
100
AcDbLine
 10
136.4812362289003
 20
125.0651902465116
 30
0.0
 11
136.4812362289003
 21
122.7223930248749
 31
0.0
  0
LINE
  5
136
330
70
100
AcDbEntity
  8
Bemaßung
 62
     7
370
     9
100
AcDbLine
 10
136.5316834511099
 20
125.0651902465116
 30
0.0
 11
136.5316834511099
 21
122.337159691638
 31
0.0
  0
LINE
  5
137
330
70
100
AcDbEntity
  8
Bemaßung
 62
     7
370
     9
100
AcDbLine
 10
136.5824834510973
 20
125.0651902465116
 30
0.0
 11
136.5824834510973
 21
121.9512208028456
 31
0.0
  0
LINE
  5
138
330
70
100
AcDbEntity
  8
Bemaßung
 62
     7
370
     9
100
AcDbLine
 10
136.6332834510847
 20
125.0651902465116
 30
0.0
 11
136.6332834510847
 21
121.5652819140532
 31
0.0
  0
LINE
  5
139
330
70
100
AcDbEntity
  8
Bemaßung
 62
     7
370
     9
100
AcDbLine
 10
158.6332112233625
 20
183.0650318986782
 30
0.0
 11
144.6332251157513
 21
183.0650318986782
 31
0.0
  0
LINE
  5
13A
330
70
100
AcDbEntity
  8
Bemaßung
 62
     7
370
     9
100
AcDbLine
 10
158.6332112233625
 20
138.0654041321503
 30
0.0
 11
144.6332251157513
 21
138.0654041321503
 31
0.0
  0
LINE
  5
13B
330
70
100
AcDbEntity
  8
Bemaßung
 62
     7
370
     9
100
AcDbLine
 10
146.6334751152512
 20
183.0650318986782
 30
0.0
 11
146.6334751152512
 21
138.0654041321503
 31
0.0
  0
LWPOLYLINE
  5
13C
330
70
100
AcDbEntity
  8
Bemaßung
 62
     7
370
     9
100
AcDbPolyline
 90
        4
 70
     0
 43
0.0
 10
146.6334751152512
 20
183.0650318986782
 10
146.172394559811
 20
179.5654763439978
 10
147.0942028929137
 20
179.5654763439978
 10
146.6334751152512
 20
183.0650318986782
  0
LINE
  5
13D
330
70
100
AcDbEntity
  8
Bemaßung
 62
     7
370
     9
100
AcDbLine
 10
146.1762751153654
 20
179.5654763439978
 30
0.0
 11
146.1762751153654
 21
179.5926402328797
 31
0.0
  0
LINE
  5
13E
330
70
100
AcDbEntity
  8
Bemaßung
 62
     7
370
     9
100
AcDbLine
 10
146.1762751153654
 20
179.5654763439978
 30
0.0
 11
146.1762751153654
 21
179.5926402328797
 31
0.0
  0
LINE
  5
13F
330
70
100
AcDbEntity
  8
Bemaßung
 62
     7
370
     9
100
AcDbLine
 10
146.2270751153528
 20
179.5654763439978
 30
0.0
 11
146.2270751153528
 21
179.9782263438943
 31
0.0
  0
LINE
  5
140
330
70
100
AcDbEntity
  8
Bemaßung
 62
     7
370
     9
100
AcDbLine
 10
146.2775223375624
 20
179.5654763439978
 30
0.0
 11
146.2775223375624
 21
180.363812454909
 31
0.0
  0
LINE
  5
141
330
70
100
AcDbEntity
  8
Bemaßung
 62
     7
370
     9
100
AcDbLine
 10
146.3283223375498
 20
179.5654763439978
 30
0.0
 11
146.3283223375498
 21
180.7497513437017
 31
0.0
  0
LINE
  5
142
330
70
100
AcDbEntity
  8
Bemaßung
 62
     7
370
     9
100
AcDbLine
 10
146.3794751153146
 20
179.5654763439978
 30
0.0
 11
146.3794751153146
 21
181.1360430102716
 31
0.0
  0
LINE
  5
143
330
70
100
AcDbEntity
  8
Bemaßung
 62
     7
370
     9
100
AcDbLine
 10
146.430275115302
 20
179.5654763439978
 30
0.0
 11
146.430275115302
 21
181.5216291212863
 31
0.0
  0
LINE
  5
144
330
70
100
AcDbEntity
  8
Bemaßung
 62
     7
370
     9
100
AcDbLine
 10
146.4810751152894
 20
179.5654763439978
 30
0.0
 11
146.4810751152894
 21
181.9072152323009
 31
0.0
  0
LINE
  5
145
330
70
100
AcDbEntity
  8
Bemaßung
 62
     7
370
     9
100
AcDbLine
 10
146.531522337499
 20
179.5654763439978
 30
0.0
 11
146.531522337499
 21
182.2931541210937
 31
0.0
  0
LINE
  5
146
330
70
100
AcDbEntity
  8
Bemaßung
 62
     7
370
     9
100
AcDbLine
 10
146.5823223374861
 20
179.5654763439978
 30
0.0
 11
146.5823223374861
 21
182.6794457876635
 31
0.0
  0
LINE
  5
147
330
70
100
AcDbEntity
  8
Bemaßung
 62
     7
370
     9
100
AcDbLine
 10
146.6334751152512
 20
179.5654763439978
 30
0.0
 11
146.6334751152512
 21
183.0650318986782
 31
0.0
  0
LINE
  5
148
330
70
100
AcDbEntity
  8
Bemaßung
 62
     7
370
     9
100
AcDbLine
 10
147.0903223373593
 20
179.5654763439978
 30
0.0
 11
147.0903223373593
 21
179.5926402328797
 31
0.0
  0
LINE
  5
149
330
70
100
AcDbEntity
  8
Bemaßung
 62
     7
370
     9
100
AcDbLine
 10
147.0903223373593
 20
179.5654763439978
 30
0.0
 11
147.0903223373593
 21
179.5926402328797
 31
0.0
  0
LINE
  5
14A
330
70
100
AcDbEntity
  8
Bemaßung
 62
     7
370
     9
100
AcDbLine
 10
147.0395223373719
 20
179.5654763439978
 30
0.0
 11
147.0395223373719
 21
179.9782263438943
 31
0.0
  0
LINE
  5
14B
330
70
100
AcDbEntity
  8
Bemaßung
 62
     7
370
     9
100
AcDbLine
 10
146.9890751151623
 20
179.5654763439978
 30
0.0
 11
146.9890751151623
 21
180.363812454909
 31
0.0
  0
LINE
  5
14C
330
70
100
AcDbEntity
  8
Bemaßung
 62
     7
370
     9
100
AcDbLine
 10
146.9382751151749
 20
179.5654763439978
 30
0.0
 11
146.9382751151749
 21
180.7497513437017
 31
0.0
  0
LINE
  5
14D
330
70
100
AcDbEntity
  8
Bemaßung
 62
     7
370
     9
100
AcDbLine
 10
146.88712233741
 20
179.5654763439978
 30
0.0
 11
146.88712233741
 21
181.1360430102716
 31
0.0
  0
LINE
  5
14E
330
70
100
AcDbEntity
  8
Bemaßung
 62
     7
370
     9
100
AcDbLine
 10
146.8363223374227
 20
179.5654763439978
 30
0.0
 11
146.8363223374227
 21
181.5216291212863
 31
0.0
  0
LINE
  5
14F
330
70
100
AcDbEntity
  8
Bemaßung
 62
     7
370
     9
100
AcDbLine
 10
146.7855223374353
 20
179.5654763439978
 30
0.0
 11
146.7855223374353
 21
181.9072152323009
 31
0.0
  0
LINE
  5
150
330
70
100
AcDbEntity
  8
Bemaßung
 62
     7
370
     9
100
AcDbLine
 10
146.7350751152257
 20
179.5654763439978
 30
0.0
 11
146.7350751152257
 21
182.2931541210937
 31
0.0
  0
LINE
  5
151
330
70
100
AcDbEntity
  8
Bemaßung
 62
     7
370
     9
100
AcDbLine
 10
146.6842751152386
 20
179.5654763439978
 30
0.0
 11
146.6842751152386
 21
182.6794457876635
 31
0.0
  0
LINE
  5
152
330
70
100
AcDbEntity
  8
Bemaßung
 62
     7
370
     9
100
AcDbLine
 10
146.6334751152512
 20
179.5654763439978
 30
0.0
 11
146.6334751152512
 21
183.0650318986782
 31
0.0
  0
LWPOLYLINE
  5
153
330
70
100
AcDbEntity
  8
Bemaßung
 62
     7
370
     9
100
AcDbPolyline
 90
        4
 70
     0
 43
0.0
 10
146.6334751152512
 20
138.0654041321503
 10
147.0942028929137
 20
141.564959686831
 10
146.172394559811
 20
141.564959686831
 10
146.6334751152512
 20
138.0654041321503
  0
LINE
  5
154
330
70
100
AcDbEntity
  8
Bemaßung
 62
     7
370
     9
100
AcDbLine
 10
147.0903223373593
 20
141.564959686831
 30
0.0
 11
147.0903223373593
 21
141.5377957979488
 31
0.0
  0
LINE
  5
155
330
70
100
AcDbEntity
  8
Bemaßung
 62
     7
370
     9
100
AcDbLine
 10
147.0903223373593
 20
141.564959686831
 30
0.0
 11
147.0903223373593
 21
141.5377957979488
 31
0.0
  0
LINE
  5
156
330
70
100
AcDbEntity
  8
Bemaßung
 62
     7
370
     9
100
AcDbLine
 10
147.0395223373719
 20
141.564959686831
 30
0.0
 11
147.0395223373719
 21
141.1522096869342
 31
0.0
  0
LINE
  5
157
330
70
100
AcDbEntity
  8
Bemaßung
 62
     7
370
     9
100
AcDbLine
 10
146.9890751151623
 20
141.564959686831
 30
0.0
 11
146.9890751151623
 21
140.765918020364
 31
0.0
  0
LINE
  5
158
330
70
100
AcDbEntity
  8
Bemaßung
 62
     7
370
     9
100
AcDbLine
 10
146.9382751151749
 20
141.564959686831
 30
0.0
 11
146.9382751151749
 21
140.3803319093493
 31
0.0
  0
LINE
  5
159
330
70
100
AcDbEntity
  8
Bemaßung
 62
     7
370
     9
100
AcDbLine
 10
146.88712233741
 20
141.564959686831
 30
0.0
 11
146.88712233741
 21
139.9943930205569
 31
0.0
  0
LINE
  5
15A
330
70
100
AcDbEntity
  8
Bemaßung
 62
     7
370
     9
100
AcDbLine
 10
146.8363223374227
 20
141.564959686831
 30
0.0
 11
146.8363223374227
 21
139.6088069095422
 31
0.0
  0
LINE
  5
15B
330
70
100
AcDbEntity
  8
Bemaßung
 62
     7
370
     9
100
AcDbLine
 10
146.7855223374353
 20
141.564959686831
 30
0.0
 11
146.7855223374353
 21
139.2225152429721
 31
0.0
  0
LINE
  5
15C
330
70
100
AcDbEntity
  8
Bemaßung
 62
     7
370
     9
100
AcDbLine
 10
146.7350751152257
 20
141.564959686831
 30
0.0
 11
146.7350751152257
 21
138.8369291319574
 31
0.0
  0
LINE
  5
15D
330
70
100
AcDbEntity
  8
Bemaßung
 62
     7
370
     9
100
AcDbLine
 10
146.6842751152386
 20
141.564959686831
 30
0.0
 11
146.6842751152386
 21
138.450990243165
 31
0.0
  0
LINE
  5
15E
330
70
100
AcDbEntity
  8
Bemaßung
 62
     7
370
     9
100
AcDbLine
 10
146.6334751152512
 20
141.564959686831
 30
0.0
 11
146.6334751152512
 21
138.0654041321503
 31
0.0
  0
LINE
  5
15F
330
70
100
AcDbEntity
  8
Bemaßung
 62
     7
370
     9
100
AcDbLine
 10
146.1762751153654
 20
141.564959686831
 30
0.0
 11
146.1762751153654
 21
141.5377957979488
 31
0.0
  0
LINE
  5
160
330
70
100
AcDbEntity
  8
Bemaßung
 62
     7
370
     9
100
AcDbLine
 10
146.1762751153654
 20
141.564959686831
 30
0.0
 11
146.1762751153654
 21
141.5377957979488
 31
0.0
  0
LINE
  5
161
330
70
100
AcDbEntity
  8
Bemaßung
 62
     7
370
     9
100
AcDbLine
 10
146.2270751153528
 20
141.564959686831
 30
0.0
 11
146.2270751153528
 21
141.1522096869342
 31
0.0
  0
LINE
  5
162
330
70
100
AcDbEntity
  8
Bemaßung
 62
     7
370
     9
100
AcDbLine
 10
146.2775223375624
 20
141.564959686831
 30
0.0
 11
146.2775223375624
 21
140.765918020364
 31
0.0
  0
LINE
  5
163
330
70
100
AcDbEntity
  8
Bemaßung
 62
     7
370
     9
100
AcDbLine
 10
146.3283223375498
 20
141.564959686831
 30
0.0
 11
146.3283223375498
 21
140.3803319093493
 31
0.0
  0
LINE
  5
164
330
70
100
AcDbEntity
  8
Bemaßung
 62
     7
370
     9
100
AcDbLine
 10
146.3794751153146
 20
141.564959686831
 30
0.0
 11
146.3794751153146
 21
139.9943930205569
 31
0.0
  0
LINE
  5
165
330
70
100
AcDbEntity
  8
Bemaßung
 62
     7
370
     9
100
AcDbLine
 10
146.430275115302
 20
141.564959686831
 30
0.0
 11
146.430275115302
 21
139.6088069095422
 31
0.0
  0
LINE
  5
166
330
70
100
AcDbEntity
  8
Bemaßung
 62
     7
370
     9
100
AcDbLine
 10
146.4810751152894
 20
141.564959686831
 30
0.0
 11
146.4810751152894
 21
139.2225152429721
 31
0.0
  0
LINE
  5
167
330
70
100
AcDbEntity
  8
Bemaßung
 62
     7
370
     9
100
AcDbLine
 10
146.531522337499
 20
141.564959686831
 30
0.0
 11
146.531522337499
 21
138.8369291319574
 31
0.0
  0
LINE
  5
168
330
70
100
AcDbEntity
  8
Bemaßung
 62
     7
370
     9
100
AcDbLine
 10
146.5823223374861
 20
141.564959686831
 30
0.0
 11
146.5823223374861
 21
138.450990243165
 31
0.0
  0
LINE
  5
169
330
70
100
AcDbEntity
  8
Bemaßung
 62
     7
370
     9
100
AcDbLine
 10
146.6334751152512
 20
141.564959686831
 30
0.0
 11
146.6334751152512
 21
138.0654041321503
 31
0.0
  0
LINE
  5
16A
330
70
100
AcDbEntity
  8
Bemaßung
 62
     7
370
     9
100
AcDbLine
 10
301.6334472987235
 20
81.88431206581737
 30
0.0
 11
321.1473993440813
 21
81.88431206581737
 31
0.0
  0
LINE
  5
16B
330
70
100
AcDbEntity
  8
Bemaßung
 62
     7
370
     9
100
AcDbLine
 10
301.6334472987235
 20
89.88460650826171
 30
0.0
 11
321.1473993440813
 21
89.88460650826171
 31
0.0
  0
LINE
  5
16C
330
70
100
AcDbEntity
  8
Bemaßung
 62
     7
370
     9
100
AcDbLine
 10
319.1475021223588
 20
101.2868016692313
 30
0.0
 11
319.1475021223588
 21
67.22665569829461
 31
0.0
  0
LWPOLYLINE
  5
16D
330
70
100
AcDbEntity
  8
Bemaßung
 62
     7
370
     9
100
AcDbPolyline
 90
        4
 70
     0
 43
0.0
 10
319.1475021223588
 20
89.96566347010151
 10
319.6085826777994
 20
93.46557180255997
 10
318.6871271224741
 20
93.46557180255997
 10
319.1475021223588
 20
89.96566347010151
  0
LINE
  5
16E
330
70
100
AcDbEntity
  8
Bemaßung
 62
     7
370
     9
100
AcDbLine
 10
319.6050549000224
 20
93.46557180255997
 30
0.0
 11
319.6050549000224
 21
93.4384079136778
 31
0.0
  0
LINE
  5
16F
330
70
100
AcDbEntity
  8
Bemaßung
 62
     7
370
     9
100
AcDbLine
 10
319.6050549000224
 20
93.46557180255997
 30
0.0
 11
319.6050549000224
 21
93.4384079136778
 31
0.0
  0
LINE
  5
170
330
70
100
AcDbEntity
  8
Bemaßung
 62
     7
370
     9
100
AcDbLine
 10
319.554254900035
 20
93.46557180255997
 30
0.0
 11
319.554254900035
 21
93.05246902488537
 31
0.0
  0
LINE
  5
171
330
70
100
AcDbEntity
  8
Bemaßung
 62
     7
370
     9
100
AcDbLine
 10
319.5034549000476
 20
93.46557180255997
 30
0.0
 11
319.5034549000476
 21
92.66653013609294
 31
0.0
  0
LINE
  5
172
330
70
100
AcDbEntity
  8
Bemaßung
 62
     7
370
     9
100
AcDbLine
 10
319.4526549000605
 20
93.46557180255997
 30
0.0
 11
319.4526549000605
 21
92.28059124730052
 31
0.0
  0
LINE
  5
173
330
70
100
AcDbEntity
  8
Bemaßung
 62
     7
370
     9
100
AcDbLine
 10
319.4018549000731
 20
93.46557180255997
 30
0.0
 11
319.4018549000731
 21
91.89500513628585
 31
0.0
  0
LINE
  5
174
330
70
100
AcDbEntity
  8
Bemaßung
 62
     7
370
     9
100
AcDbLine
 10
319.3510549000858
 20
93.46557180255997
 30
0.0
 11
319.3510549000858
 21
91.50906624749344
 31
0.0
  0
LINE
  5
175
330
70
100
AcDbEntity
  8
Bemaßung
 62
     7
370
     9
100
AcDbLine
 10
319.2999021223209
 20
93.46557180255997
 30
0.0
 11
319.2999021223209
 21
91.12312735870103
 31
0.0
  0
LINE
  5
176
330
70
100
AcDbEntity
  8
Bemaßung
 62
     7
370
     9
100
AcDbLine
 10
319.2491021223336
 20
93.46557180255997
 30
0.0
 11
319.2491021223336
 21
90.7371884699086
 31
0.0
  0
LINE
  5
177
330
70
100
AcDbEntity
  8
Bemaßung
 62
     7
370
     9
100
AcDbLine
 10
319.1983021223462
 20
93.46557180255997
 30
0.0
 11
319.1983021223462
 21
90.35160235889394
 31
0.0
  0
LINE
  5
178
330
70
100
AcDbEntity
  8
Bemaßung
 62
     7
370
     9
100
AcDbLine
 10
319.1475021223588
 20
93.46557180255997
 30
0.0
 11
319.1475021223588
 21
89.96566347010151
 31
0.0
  0
LINE
  5
179
330
70
100
AcDbEntity
  8
Bemaßung
 62
     7
370
     9
100
AcDbLine
 10
318.6906549002511
 20
93.46557180255997
 30
0.0
 11
318.6906549002511
 21
93.4384079136778
 31
0.0
  0
LINE
  5
17A
330
70
100
AcDbEntity
  8
Bemaßung
 62
     7
370
     9
100
AcDbLine
 10
318.6906549002511
 20
93.46557180255997
 30
0.0
 11
318.6906549002511
 21
93.4384079136778
 31
0.0
  0
LINE
  5
17B
330
70
100
AcDbEntity
  8
Bemaßung
 62
     7
370
     9
100
AcDbLine
 10
318.7414549002381
 20
93.46557180255997
 30
0.0
 11
318.7414549002381
 21
93.05246902488537
 31
0.0
  0
LINE
  5
17C
330
70
100
AcDbEntity
  8
Bemaßung
 62
     7
370
     9
100
AcDbLine
 10
318.7922549002256
 20
93.46557180255997
 30
0.0
 11
318.7922549002256
 21
92.66653013609294
 31
0.0
  0
LINE
  5
17D
330
70
100
AcDbEntity
  8
Bemaßung
 62
     7
370
     9
100
AcDbLine
 10
318.8427021224351
 20
93.46557180255997
 30
0.0
 11
318.8427021224351
 21
92.28059124730052
 31
0.0
  0
LINE
  5
17E
330
70
100
AcDbEntity
  8
Bemaßung
 62
     7
370
     9
100
AcDbLine
 10
318.8935021224225
 20
93.46557180255997
 30
0.0
 11
318.8935021224225
 21
91.89500513628585
 31
0.0
  0
LINE
  5
17F
330
70
100
AcDbEntity
  8
Bemaßung
 62
     7
370
     9
100
AcDbLine
 10
318.9443021224099
 20
93.46557180255997
 30
0.0
 11
318.9443021224099
 21
91.50906624749344
 31
0.0
  0
LINE
  5
180
330
70
100
AcDbEntity
  8
Bemaßung
 62
     7
370
     9
100
AcDbLine
 10
318.995102122397
 20
93.46557180255997
 30
0.0
 11
318.995102122397
 21
91.12312735870103
 31
0.0
  0
LINE
  5
181
330
70
100
AcDbEntity
  8
Bemaßung
 62
     7
370
     9
100
AcDbLine
 10
319.0459021223844
 20
93.46557180255997
 30
0.0
 11
319.0459021223844
 21
90.7371884699086
 31
0.0
  0
LINE
  5
182
330
70
100
AcDbEntity
  8
Bemaßung
 62
     7
370
     9
100
AcDbLine
 10
319.0967021223717
 20
93.46557180255997
 30
0.0
 11
319.0967021223717
 21
90.35160235889394
 31
0.0
  0
LINE
  5
183
330
70
100
AcDbEntity
  8
Bemaßung
 62
     7
370
     9
100
AcDbLine
 10
319.1475021223588
 20
93.46557180255997
 30
0.0
 11
319.1475021223588
 21
89.96566347010151
 31
0.0
  0
LWPOLYLINE
  5
184
330
70
100
AcDbEntity
  8
Bemaßung
 62
     7
370
     9
100
AcDbPolyline
 90
        4
 70
     0
 43
0.0
 10
319.1475021223588
 20
81.76094436364083
 10
318.6871271224741
 20
78.26103603118269
 10
319.6085826777994
 20
78.26103603118269
 10
319.1475021223588
 20
81.76094436364083
  0
LINE
  5
185
330
70
100
AcDbEntity
  8
Bemaßung
 62
     7
370
     9
100
AcDbLine
 10
318.6906549002511
 20
78.26103603118269
 30
0.0
 11
318.6906549002511
 21
78.28819992006455
 31
0.0
  0
LINE
  5
186
330
70
100
AcDbEntity
  8
Bemaßung
 62
     7
370
     9
100
AcDbLine
 10
318.6906549002511
 20
78.26103603118269
 30
0.0
 11
318.6906549002511
 21
78.28819992006455
 31
0.0
  0
LINE
  5
187
330
70
100
AcDbEntity
  8
Bemaßung
 62
     7
370
     9
100
AcDbLine
 10
318.7414549002381
 20
78.26103603118269
 30
0.0
 11
318.7414549002381
 21
78.67413880885698
 31
0.0
  0
LINE
  5
188
330
70
100
AcDbEntity
  8
Bemaßung
 62
     7
370
     9
100
AcDbLine
 10
318.7922549002256
 20
78.26103603118269
 30
0.0
 11
318.7922549002256
 21
79.05972491987164
 31
0.0
  0
LINE
  5
189
330
70
100
AcDbEntity
  8
Bemaßung
 62
     7
370
     9
100
AcDbLine
 10
318.8427021224351
 20
78.26103603118269
 30
0.0
 11
318.8427021224351
 21
79.44566380866406
 31
0.0
  0
LINE
  5
18A
330
70
100
AcDbEntity
  8
Bemaßung
 62
     7
370
     9
100
AcDbLine
 10
318.8935021224225
 20
78.26103603118269
 30
0.0
 11
318.8935021224225
 21
79.83160269745649
 31
0.0
  0
LINE
  5
18B
330
70
100
AcDbEntity
  8
Bemaßung
 62
     7
370
     9
100
AcDbLine
 10
318.9443021224099
 20
78.26103603118269
 30
0.0
 11
318.9443021224099
 21
80.2175415862489
 31
0.0
  0
LINE
  5
18C
330
70
100
AcDbEntity
  8
Bemaßung
 62
     7
370
     9
100
AcDbLine
 10
318.995102122397
 20
78.26103603118269
 30
0.0
 11
318.995102122397
 21
80.60312769726357
 31
0.0
  0
LINE
  5
18D
330
70
100
AcDbEntity
  8
Bemaßung
 62
     7
370
     9
100
AcDbLine
 10
319.0967021223717
 20
78.26103603118269
 30
0.0
 11
319.0967021223717
 21
81.3750054748484
 31
0.0
  0
LINE
  5
18E
330
70
100
AcDbEntity
  8
Bemaßung
 62
     7
370
     9
100
AcDbLine
 10
319.1475021223588
 20
78.26103603118269
 30
0.0
 11
319.1475021223588
 21
81.76094436364083
 31
0.0
  0
LINE
  5
18F
330
70
100
AcDbEntity
  8
Bemaßung
 62
     7
370
     9
100
AcDbLine
 10
319.6050549000224
 20
78.26103603118269
 30
0.0
 11
319.6050549000224
 21
78.28819992006455
 31
0.0
  0
LINE
  5
190
330
70
100
AcDbEntity
  8
Bemaßung
 62
     7
370
     9
100
AcDbLine
 10
319.6050549000224
 20
78.26103603118269
 30
0.0
 11
319.6050549000224
 21
78.28819992006455
 31
0.0
  0
LINE
  5
191
330
70
100
AcDbEntity
  8
Bemaßung
 62
     7
370
     9
100
AcDbLine
 10
319.554254900035
 20
78.26103603118269
 30
0.0
 11
319.554254900035
 21
78.67413880885698
 31
0.0
  0
LINE
  5
192
330
70
100
AcDbEntity
  8
Bemaßung
 62
     7
370
     9
100
AcDbLine
 10
319.5034549000476
 20
78.26103603118269
 30
0.0
 11
319.5034549000476
 21
79.05972491987164
 31
0.0
  0
LINE
  5
193
330
70
100
AcDbEntity
  8
Bemaßung
 62
     7
370
     9
100
AcDbLine
 10
319.4526549000605
 20
78.26103603118269
 30
0.0
 11
319.4526549000605
 21
79.44566380866406
 31
0.0
  0
LINE
  5
194
330
70
100
AcDbEntity
  8
Bemaßung
 62
     7
370
     9
100
AcDbLine
 10
319.4018549000731
 20
78.26103603118269
 30
0.0
 11
319.4018549000731
 21
79.83160269745649
 31
0.0
  0
LINE
  5
195
330
70
100
AcDbEntity
  8
Bemaßung
 62
     7
370
     9
100
AcDbLine
 10
319.3510549000858
 20
78.26103603118269
 30
0.0
 11
319.3510549000858
 21
80.2175415862489
 31
0.0
  0
LINE
  5
196
330
70
100
AcDbEntity
  8
Bemaßung
 62
     7
370
     9
100
AcDbLine
 10
319.2999021223209
 20
78.26103603118269
 30
0.0
 11
319.2999021223209
 21
80.60312769726357
 31
0.0
  0
LINE
  5
197
330
70
100
AcDbEntity
  8
Bemaßung
 62
     7
370
     9
100
AcDbLine
 10
319.2491021223336
 20
78.26103603118269
 30
0.0
 11
319.2491021223336
 21
80.98906658605597
 31
0.0
  0
LINE
  5
198
330
70
100
AcDbEntity
  8
Bemaßung
 62
     7
370
     9
100
AcDbLine
 10
319.1983021223462
 20
78.26103603118269
 30
0.0
 11
319.1983021223462
 21
81.3750054748484
 31
0.0
  0
LINE
  5
199
330
70
100
AcDbEntity
  8
Bemaßung
 62
     7
370
     9
100
AcDbLine
 10
319.1475021223588
 20
78.26103603118269
 30
0.0
 11
319.1475021223588
 21
81.76094436364083
 31
0.0
  0
LINE
  5
19A
330
70
100
AcDbEntity
  8
Bemaßung
 62
     7
370
     9
100
AcDbLine
 10
176.6333445521956
 20
81.88431206581737
 30
0.0
 11
136.5856584510965
 21
81.88431206581737
 31
0.0
  0
LINE
  5
19B
330
70
100
AcDbEntity
  8
Bemaßung
 62
     7
370
     9
100
AcDbLine
 10
158.6332112233625
 20
88.43610095306836
 30
0.0
 11
139.0007751171592
 21
95.58161484017089
 31
0.0
  0
SPLINE
  5
19C
330
70
100
AcDbEntity
  8
Bemaßung
 62
     7
370
     9
100
AcDbSpline
210
0.0
220
0.0
230
1.0
 70
     8
 71
     3
 72
     8
 73
     4
 74
     0
 42
0.0000000001
 43
0.0000000001
 40
0.0
 40
0.0
 40
0.0
 40
0.0
 40
1.0
 40
1.0
 40
1.0
 40
1.0
 10
140.8800223389117
 20
94.89722595145293
 30
0.0
 10
139.2826445615332
 20
90.50937595255019
 30
0.0
 10
138.5435751172738
 20
86.01851484256162
 30
0.0
 10
138.5855556728187
 20
81.88431206581737
 30
0.0
  0
LWPOLYLINE
  5
19D
330
70
100
AcDbEntity
  8
Bemaßung
 62
     7
370
     9
100
AcDbPolyline
 90
        4
 70
     0
 43
0.0
 10
138.5855556728187
 20
81.88431206581737
 10
139.1267167837944
 20
85.37293150938969
 10
138.2052612284695
 20
85.39409817605124
 10
138.5855556728187
 20
81.88431206581737
  0
LINE
  5
19E
330
70
100
AcDbEntity
  8
Bemaßung
 62
     7
370
     9
100
AcDbLine
 10
139.1231890060178
 20
85.37293150938969
 30
0.0
 11
139.1224834504622
 21
85.34576762050752
 31
0.0
  0
LINE
  5
19F
330
70
100
AcDbEntity
  8
Bemaßung
 62
     7
370
     9
100
AcDbLine
 10
139.1231890060178
 20
85.37293150938969
 30
0.0
 11
139.1224834504622
 21
85.34576762050752
 31
0.0
  0
LINE
  5
1A0
330
70
100
AcDbEntity
  8
Bemaßung
 62
     7
370
     9
100
AcDbLine
 10
139.0723890060304
 20
85.37398984272266
 30
0.0
 11
139.062511228255
 21
84.9608870650484
 31
0.0
  0
LINE
  5
1A1
330
70
100
AcDbEntity
  8
Bemaßung
 62
     7
370
     9
100
AcDbLine
 10
139.021589006043
 20
85.3754009538334
 30
0.0
 11
139.0032445616033
 21
84.57671206514445
 31
0.0
  0
LINE
  5
1A2
330
70
100
AcDbEntity
  8
Bemaßung
 62
     7
370
     9
100
AcDbLine
 10
138.9704362282782
 20
85.37645928716669
 30
0.0
 11
138.943272339396
 21
84.191831509685
 31
0.0
  0
LINE
  5
1A3
330
70
100
AcDbEntity
  8
Bemaßung
 62
     7
370
     9
100
AcDbLine
 10
138.9196362282908
 20
85.3778703982774
 30
0.0
 11
138.8836528949665
 21
83.80765650978107
 31
0.0
  0
LINE
  5
1A4
330
70
100
AcDbEntity
  8
Bemaßung
 62
     7
370
     9
100
AcDbLine
 10
138.8688362283034
 20
85.37892873161037
 30
0.0
 11
138.8243862283145
 21
83.42312873209937
 31
0.0
  0
LINE
  5
1A5
330
70
100
AcDbEntity
  8
Bemaßung
 62
     7
370
     9
100
AcDbLine
 10
138.8183890060938
 20
85.37963428716588
 30
0.0
 11
138.7640612283298
 21
83.03824817663992
 31
0.0
  0
LINE
  5
1A6
330
70
100
AcDbEntity
  8
Bemaßung
 62
     7
370
     9
100
AcDbLine
 10
138.7675890061064
 20
85.38139817605438
 30
0.0
 11
138.7047945616777
 21
82.65336762118076
 31
0.0
  0
LINE
  5
1A7
330
70
100
AcDbEntity
  8
Bemaßung
 62
     7
370
     9
100
AcDbLine
 10
138.7164362283416
 20
85.38245650938733
 30
0.0
 11
138.6448223394704
 21
82.26919262127683
 31
0.0
  0
LINE
  5
1A8
330
70
100
AcDbEntity
  8
Bemaßung
 62
     7
370
     9
100
AcDbLine
 10
138.6656362283542
 20
85.38316206494286
 30
0.0
 11
138.5855556728187
 21
81.88431206581737
 31
0.0
  0
LINE
  5
1A9
330
70
100
AcDbEntity
  8
Bemaßung
 62
     7
370
     9
100
AcDbLine
 10
138.2087890062462
 20
85.39409817605124
 30
0.0
 11
138.208083450691
 21
85.36693428716905
 31
0.0
  0
LINE
  5
1AA
330
70
100
AcDbEntity
  8
Bemaßung
 62
     7
370
     9
100
AcDbLine
 10
138.2087890062462
 20
85.39409817605124
 30
0.0
 11
138.208083450691
 21
85.36693428716905
 31
0.0
  0
LINE
  5
1AB
330
70
100
AcDbEntity
  8
Bemaßung
 62
     7
370
     9
100
AcDbLine
 10
138.2595890062335
 20
85.39268706494018
 30
0.0
 11
138.2500640062359
 21
84.97958428726589
 31
0.0
  0
LINE
  5
1AC
330
70
100
AcDbEntity
  8
Bemaßung
 62
     7
370
     9
100
AcDbLine
 10
138.3103890062209
 20
85.39162873160721
 30
0.0
 11
138.2916917840034
 21
84.59293984291795
 31
0.0
  0
LINE
  5
1AD
330
70
100
AcDbEntity
  8
Bemaßung
 62
     7
370
     9
100
AcDbLine
 10
138.3608362284306
 20
85.39057039827424
 30
0.0
 11
138.3336723395484
 21
84.20594262079257
 31
0.0
  0
LINE
  5
1AE
330
70
100
AcDbEntity
  8
Bemaßung
 62
     7
370
     9
100
AcDbLine
 10
138.4116362284176
 20
85.38915928716352
 30
0.0
 11
138.3756528950933
 21
83.81929817644461
 31
0.0
  0
LINE
  5
1AF
330
70
100
AcDbEntity
  8
Bemaßung
 62
     7
370
     9
100
AcDbLine
 10
138.462436228405
 20
85.38810095383025
 30
0.0
 11
138.4176334506386
 21
83.43194817654149
 31
0.0
  0
LINE
  5
1B0
330
70
100
AcDbEntity
  8
Bemaßung
 62
     7
370
     9
100
AcDbLine
 10
138.5135890061702
 20
85.38668984271952
 30
0.0
 11
138.4596140061836
 21
83.04530373219385
 31
0.0
  0
LINE
  5
1B1
330
70
100
AcDbEntity
  8
Bemaßung
 62
     7
370
     9
100
AcDbLine
 10
138.5643890061575
 20
85.38563150938655
 30
0.0
 11
138.5015945617285
 21
82.65830651006847
 31
0.0
  0
LINE
  5
1B2
330
70
100
AcDbEntity
  8
Bemaßung
 62
     7
370
     9
100
AcDbLine
 10
138.6148362283672
 20
85.38492595383102
 30
0.0
 11
138.5435751172738
 21
82.27166206572052
 31
0.0
  0
LINE
  5
1B3
330
70
100
AcDbEntity
  8
Bemaßung
 62
     7
370
     9
100
AcDbLine
 10
138.6656362283542
 20
85.38316206494286
 30
0.0
 11
138.5855556728187
 21
81.88431206581737
 31
0.0
  0
LWPOLYLINE
  5
1B4
330
70
100
AcDbEntity
  8
Bemaßung
 62
     7
370
     9
100
AcDbPolyline
 90
        4
 70
     0
 43
0.0
 10
140.8800223389117
 20
94.89722595145293
 10
139.3225084504122
 20
91.7296342855784
 10
140.1956334501941
 20
91.43471206342981
 10
140.8800223389117
 20
94.89722595145293
  0
LINE
  5
1B5
330
70
100
AcDbEntity
  8
Bemaßung
 62
     7
370
     9
100
AcDbLine
 10
139.3260362281892
 20
91.72822317446767
 30
0.0
 11
139.3345028948539
 21
91.75432873001657
 31
0.0
  0
LINE
  5
1B6
330
70
100
AcDbEntity
  8
Bemaßung
 62
     7
370
     9
100
AcDbLine
 10
139.3260362281892
 20
91.72822317446767
 30
0.0
 11
139.3345028948539
 21
91.75432873001657
 31
0.0
  0
LINE
  5
1B7
330
70
100
AcDbEntity
  8
Bemaßung
 62
     7
370
     9
100
AcDbLine
 10
139.3736612281774
 20
91.71199539669386
 30
0.0
 11
139.505952894811
 21
92.10357872992917
 31
0.0
  0
LINE
  5
1B8
330
70
100
AcDbEntity
  8
Bemaßung
 62
     7
370
     9
100
AcDbLine
 10
139.421639005943
 20
91.69576761892002
 30
0.0
 11
139.6777556725458
 21
92.45247595206434
 31
0.0
  0
LINE
  5
1B9
330
70
100
AcDbEntity
  8
Bemaßung
 62
     7
370
     9
100
AcDbLine
 10
139.4699695614864
 20
91.67989261892397
 30
0.0
 11
139.8495584502807
 21
92.80172595197695
 31
0.0
  0
LINE
  5
1BA
330
70
100
AcDbEntity
  8
Bemaßung
 62
     7
370
     9
100
AcDbLine
 10
139.5179473392523
 20
91.66366484115048
 30
0.0
 11
140.0213612280152
 21
93.15097595188957
 31
0.0
  0
LINE
  5
1BB
330
70
100
AcDbEntity
  8
Bemaßung
 62
     7
370
     9
100
AcDbLine
 10
139.5662778947957
 20
91.64743706337665
 30
0.0
 11
140.1931640057501
 21
93.50057872957993
 31
0.0
  0
LINE
  5
1BC
330
70
100
AcDbEntity
  8
Bemaßung
 62
     7
370
     9
100
AcDbLine
 10
139.6146084503393
 20
91.63050373004763
 30
0.0
 11
140.3646140057072
 21
93.84982872949287
 31
0.0
  0
LINE
  5
1BD
330
70
100
AcDbEntity
  8
Bemaßung
 62
     7
370
     9
100
AcDbLine
 10
139.662586228105
 20
91.61427595227381
 30
0.0
 11
140.536416783442
 21
94.19907872940546
 31
0.0
  0
LINE
  5
1BE
330
70
100
AcDbEntity
  8
Bemaßung
 62
     7
370
     9
100
AcDbLine
 10
139.7109167836487
 20
91.59840095227776
 30
0.0
 11
140.7085723389546
 21
94.54797595154031
 31
0.0
  0
LINE
  5
1BF
330
70
100
AcDbEntity
  8
Bemaßung
 62
     7
370
     9
100
AcDbLine
 10
139.7588945614143
 20
91.58217317450395
 30
0.0
 11
140.8800223389117
 21
94.89722595145293
 31
0.0
  0
LINE
  5
1C0
330
70
100
AcDbEntity
  8
Bemaßung
 62
     7
370
     9
100
AcDbLine
 10
140.1917528946393
 20
91.43541761898534
 30
0.0
 11
140.2005723390818
 21
91.46117039675647
 31
0.0
  0
LINE
  5
1C1
330
70
100
AcDbEntity
  8
Bemaßung
 62
     7
370
     9
100
AcDbLine
 10
140.1917528946393
 20
91.43541761898534
 30
0.0
 11
140.2005723390818
 21
91.46117039675647
 31
0.0
  0
LINE
  5
1C2
330
70
100
AcDbEntity
  8
Bemaßung
 62
     7
370
     9
100
AcDbLine
 10
140.1437751168737
 20
91.45164539675883
 30
0.0
 11
140.2760667835073
 21
91.84322872999448
 31
0.0
  0
LINE
  5
1C3
330
70
100
AcDbEntity
  8
Bemaßung
 62
     7
370
     9
100
AcDbLine
 10
140.0954445613301
 20
91.46787317453265
 30
0.0
 11
140.3515612279329
 21
92.2249342854544
 31
0.0
  0
LINE
  5
1C4
330
70
100
AcDbEntity
  8
Bemaßung
 62
     7
370
     9
100
AcDbLine
 10
140.0474667835644
 20
91.48445373008391
 30
0.0
 11
140.4270556723584
 21
92.60663984091465
 31
0.0
  0
LINE
  5
1C5
330
70
100
AcDbEntity
  8
Bemaßung
 62
     7
370
     9
100
AcDbLine
 10
139.9991362280208
 20
91.50068150785774
 30
0.0
 11
140.502550116784
 21
92.98834539637459
 31
0.0
  0
LINE
  5
1C6
330
70
100
AcDbEntity
  8
Bemaßung
 62
     7
370
     9
100
AcDbLine
 10
139.9511584502551
 20
91.51690928563155
 30
0.0
 11
140.5783973389873
 21
93.37005095183483
 31
0.0
  0
LINE
  5
1C7
330
70
100
AcDbEntity
  8
Bemaßung
 62
     7
370
     9
100
AcDbLine
 10
139.903533450267
 20
91.53313706340505
 30
0.0
 11
140.6538917834128
 21
93.75246206285027
 31
0.0
  0
LINE
  5
1C8
330
70
100
AcDbEntity
  8
Bemaßung
 62
     7
370
     9
100
AcDbLine
 10
139.8552028947236
 20
91.54936484117888
 30
0.0
 11
140.7293862278384
 21
94.13381484053276
 31
0.0
  0
LINE
  5
1C9
330
70
100
AcDbEntity
  8
Bemaßung
 62
     7
370
     9
100
AcDbLine
 10
139.8072251169577
 20
91.56594539673044
 30
0.0
 11
140.8045278944862
 21
94.51552039599301
 31
0.0
  0
LINE
  5
1CA
330
70
100
AcDbEntity
  8
Bemaßung
 62
     7
370
     9
100
AcDbLine
 10
139.7588945614143
 20
91.58217317450395
 30
0.0
 11
140.8800223389117
 21
94.89722595145293
 31
0.0
  0
MTEXT
  5
1CC
330
70
100
AcDbEntity
  8
Text
100
AcDbMText
 10
227.479138126724
 20
113.320903834517
 30
0.0
 40
0.2
 41
0.0
 46
0.0
 71
     7
 72
     1
  1
\C7;\FINDEX Univers 45 Light|b0|i0|c1;\H3.447529;\W1.000000;147
 73
     1
 44
1.0
  0
MTEXT
  5
1CD
330
70
100
AcDbEntity
  8
Text
100
AcDbMText
 10
317.6718886534922
 20
158.8549031178384
 30
0.0
 40
0.2
 41
0.0
 46
0.0
 71
     7
 72
     1
  1
\C7;\FINDEX Univers 45 Light|b0|i0|c1;\H3.447529;\W1.000000;36
 11
0.0000000000000001
 21
1.0
 31
0.0
 73
     1
 44
1.0
  0
MTEXT
  5
1CE
330
70
100
AcDbEntity
  8
Text
100
AcDbMText
 10
134.8777275595965
 20
168.7524901921868
 30
0.0
 40
0.2
 41
0.0
 46
0.0
 71
     7
 72
     1
  1
\C7;\FINDEX Univers 45 Light|b0|i0|c1;\H3.447529;\W1.000000;78
 11
0.0000000000000001
 21
1.0
 31
0.0
 73
     1
 44
1.0
  0
MTEXT
  5
1CF
330
70
100
AcDbEntity
  8
Text
100
AcDbMText
 10
144.8779784794055
 20
158.6926391204831
 30
0.0
 40
0.2
 41
0.0
 46
0.0
 71
     7
 72
     1
  1
\C7;\FINDEX Univers 45 Light|b0|i0|c1;\H3.447529;\W1.000000;45
 11
0.0000000000000001
 21
1.0
 31
0.0
 73
     1
 44
1.0
  0
MTEXT
  5
1D0
330
70
100
AcDbEntity
  8
Text
100
AcDbMText
 10
318.2805751216764
 20
84.96922004482826
 30
0.0
 40
0.2
 41
0.0
 46
0.0
 71
     7
 72
     1
  1
\C7;\FINDEX Univers 45 Light|b0|i0|c1;\H3.447529;\W1.000000;8
 11
0.0000000000000001
 21
1.0
 31
0.0
 73
     1
 44
1.0
  0
MTEXT
  5
1D1
330
70
100
AcDbEntity
  8
Text
100
AcDbMText
 10
136.710649990391
 20
85.72068757159426
 30
0.0
 40
0.2
 41
0.0
 46
0.0
 71
     7
 72
     1
  1
\C7;\FINDEX Univers 45 Light|b0|i0|c1;\H3.447529;\W1.000000;20°
 11
0.1736438156342692
 21
0.9848085221462962
 31
0.0
 73
     1
 44
1.0
  0
ENDSEC
  0
SECTION
  2
OBJECTS
  0
DICTIONARY
  5
C
330
0
100
AcDbDictionary
281
     1
  3
ACAD_COLOR
350
63
  3
ACAD_DETAILVIEWSTYLE
350
6A
  3
ACAD_GROUP
350
D
  3
ACAD_LAYOUT
350
62
  3
ACAD_MATERIAL
350
10
  3
ACAD_MLEADERSTYLE
350
66
  3
ACAD_MLINESTYLE
350
5F
  3
ACAD_PLOTSETTINGS
350
61
  3
ACAD_PLOTSTYLENAME
350
E
  3
ACAD_SCALELIST
350
42
  3
ACAD_SECTIONVIEWSTYLE
350
68
  3
ACAD_TABLESTYLE
350
64
  3
ACAD_VISUALSTYLE
350
29
  3
ACDB_RECOMPOSE_DATA
350
1DA
  3
AcDbVariableDictionary
350
1D2
  0
DICTIONARY
  5
63
102
{ACAD_REACTORS
330
C
102
}
330
C
100
AcDbDictionary
281
     1
  0
DICTIONARY
  5
6A
102
{ACAD_REACTORS
330
C
102
}
330
C
100
AcDbDictionary
281
     1
  3
Imperial24
350
6B
  0
DICTIONARY
  5
D
102
{ACAD_REACTORS
330
C
102
}
330
C
100
AcDbDictionary
281
     1
  0
DICTIONARY
  5
62
102
{ACAD_REACTORS
330
C
102
}
330
C
100
AcDbDictionary
281
     1
  3
Layout1
350
6F
  3
Layout2
350
77
  3
Model
350
73
  0
DICTIONARY
  5
10
102
{ACAD_REACTORS
330
C
102
}
330
C
100
AcDbDictionary
281
     1
  3
ByBlock
350
19
  3
ByLayer
350
11
  3
Global
350
21
  0
DICTIONARY
  5
66
102
{ACAD_REACTORS
330
C
102
}
330
C
100
AcDbDictionary
281
     1
  3
Standard
350
67
  0
DICTIONARY
  5
5F
102
{ACAD_REACTORS
330
C
102
}
330
C
100
AcDbDictionary
281
     1
  3
Standard
350
60
  0
DICTIONARY
  5
61
102
{ACAD_REACTORS
330
C
102
}
330
C
100
AcDbDictionary
281
     1
  0
ACDBDICTIONARYWDFLT
  5
E
102
{ACAD_REACTORS
330
C
102
}
330
C
100
AcDbDictionary
281
     1
  3
Normal
350
F
100
AcDbDictionaryWithDefault
340
F
  0
DICTIONARY
  5
42
102
{ACAD_REACTORS
330
C
102
}
330
C
100
AcDbDictionary
281
     1
  3
A0
350
43
  3
A1
350
44
  3
A2
350
45
  3
A3
350
46
  3
A4
350
47
  3
A5
350
48
  3
A6
350
49
  3
A7
350
4A
  3
A8
350
4B
  3
A9
350
4C
  3
B0
350
4D
  3
B1
350
4E
  3
B2
350
4F
  3
B3
350
50
  3
B4
350
51
  3
B5
350
52
  3
B6
350
53
  0
DICTIONARY
  5
68
102
{ACAD_REACTORS
330
C
102
}
330
C
100
AcDbDictionary
281
     1
  3
Imperial24
350
69
  0
DICTIONARY
  5
64
102
{ACAD_REACTORS
330
C
102
}
330
C
100
AcDbDictionary
281
     1
  3
Standard
350
65
  0
DICTIONARY
  5
29
102
{ACAD_REACTORS
330
C
102
}
330
C
100
AcDbDictionary
281
     1
  3
2dWireframe
350
2F
  3
Basic
350
2E
  3
Brighten
350
35
  3
ColorChange
350
39
  3
Conceptual
350
32
  3
Dim
350
34
  3
EdgeColorOff
350
41
  3
Facepattern
350
38
  3
Flat
350
2A
  3
FlatWithEdges
350
2B
  3
Gouraud
350
2C
  3
GouraudWithEdges
350
2D
  3
Hidden
350
31
  3
JitterOff
350
3F
  3
Linepattern
350
37
  3
OverhangOff
350
40
  3
Realistic
350
33
  3
Shaded
350
3E
  3
Shaded with edges
350
3D
  3
Shades of Gray
350
3A
  3
Sketchy
350
3B
  3
Thicken
350
36
  3
Wireframe
350
30
  3
X-Ray
350
3C
  0
XRECORD
  5
1DA
102
{ACAD_REACTORS
330
C
102
}
330
C
100
AcDbXrecord
280
     1
 90
        1
330
65
  0
DICTIONARY
  5
1D2
102
{ACAD_REACTORS
330
C
102
}
330
C
100
AcDbDictionary
281
     1
  3
CANNOSCALE
350
1D7
  3
CMLEADERSTYLE
350
1D4
  3
CTABLESTYLE
350
1D3
  3
CVIEWDETAILSTYLE
350
1D5
  3
CVIEWSECTIONSTYLE
350
1D6
  0
ACDBDETAILVIEWSTYLE
  5
6B
102
{ACAD_REACTORS
330
6A
102
}
330
6A
100
AcDbModelDocViewStyle
 70
     0
  3
Imperial24
290
     1
300
Imperial24
 90
        0
100
AcDbDetailViewStyle
 70
     0
 71
     0
 90
        3
 71
     1
340
55
 62
   256
 40
0.24
340
0
 62
   256
 40
0.24
300

 40
0.36
280
     3
 71
     2
340
5D
 90
       25
 62
   256
 71
     3
340
55
 62
   256
 40
0.24
 90
        1
 40
0.75
 90
        1
300
%<\AcVar ViewType \f "%tc1">% %<\AcVar ViewDetailId>%\PSCALE %<\AcVar ViewScale \f "%sn">%
 71
     4
340
5D
 90
       25
 62
   256
340
5D
 90
       25
 62
   256
280
     0
  0
LAYOUT
  5
6F
102
{ACAD_REACTORS
330
62
102
}
330
62
100
AcDbPlotSettings
  1

  2

  4

  6

 40
0.0
 41
0.0
 42
0.0
 43
0.0
 44
0.0
 45
0.0
 46
0.0
 47
0.0
 48
0.0
 49
0.0
140
0.0
141
0.0
142
1.0
143
1.0
 70
   688
 72
     0
 73
     0
 74
     5
  7

 75
    16
147
1.0
 76
     0
 77
     2
 78
   300
148
0.0
149
0.0
100
AcDbLayout
  1
Layout1
 70
     1
 71
     1
 10
0.0
 20
0.0
 11
12.0
 21
9.0
 12
0.0
 22
0.0
 32
0.0
 14
0.0
 24
0.0
 34
0.0
 15
0.0
 25
0.0
 35
0.0
146
0.0
 13
0.0
 23
0.0
 33
0.0
 16
1.0
 26
0.0
 36
0.0
 17
0.0
 27
1.0
 37
0.0
 76
     0
330
6C
  0
LAYOUT
  5
77
102
{ACAD_REACTORS
330
62
102
}
330
62
100
AcDbPlotSettings
  1

  2

  4

  6

 40
0.0
 41
0.0
 42
0.0
 43
0.0
 44
0.0
 45
0.0
 46
0.0
 47
0.0
 48
0.0
 49
0.0
140
0.0
141
0.0
142
1.0
143
1.0
 70
   688
 72
     0
 73
     0
 74
     5
  7

 75
    16
147
1.0
 76
     0
 77
     2
 78
   300
148
0.0
149
0.0
100
AcDbLayout
  1
Layout2
 70
     1
 71
     2
 10
0.0
 20
0.0
 11
12.0
 21
9.0
 12
0.0
 22
0.0
 32
0.0
 14
0.0
 24
0.0
 34
0.0
 15
0.0
 25
0.0
 35
0.0
146
0.0
 13
0.0
 23
0.0
 33
0.0
 16
1.0
 26
0.0
 36
0.0
 17
0.0
 27
1.0
 37
0.0
 76
     0
330
74
  0
LAYOUT
  5
73
102
{ACAD_REACTORS
330
62
102
}
330
62
100
AcDbPlotSettings
  1

  2

  4

  6

 40
0.0
 41
0.0
 42
0.0
 43
0.0
 44
0.0
 45
0.0
 46
0.0
 47
0.0
 48
0.0
 49
0.0
140
0.0
141
0.0
142
1.0
143
1.0
 70
  1712
 72
     0
 73
     0
 74
     0
  7

 75
     0
147
1.0
 76
     0
 77
     2
 78
   300
148
0.0
149
0.0
100
AcDbLayout
  1
Model
 70
     1
 71
     0
 10
0.0
 20
0.0
 11
12.0
 21
9.0
 12
0.0
 22
0.0
 32
0.0
 14
0.0
 24
0.0
 34
0.0
 15
0.0
 25
0.0
 35
0.0
146
0.0
 13
0.0
 23
0.0
 33
0.0
 16
1.0
 26
0.0
 36
0.0
 17
0.0
 27
1.0
 37
0.0
 76
     0
330
70
  0
MATERIAL
  5
19
102
{ACAD_XDICTIONARY
360
1A
102
}
102
{ACAD_REACTORS
330
10
102
}
330
10
100
AcDbMaterial
  1
ByBlock
 72
     0
 43
0.0208333333333333
 43
0.0
 43
0.0
 43
0.0
 43
0.0
 43
0.0208333333333333
 43
0.0
 43
0.0
 43
0.0
 43
0.0
 43
1.0
 43
0.0
 43
0.0
 43
0.0
 43
0.0
 43
1.0
 77
     0
 47
0.0208333333333333
 47
0.0
 47
0.0
 47
0.0
 47
0.0
 47
0.0208333333333333
 47
0.0
 47
0.0
 47
0.0
 47
0.0
 47
1.0
 47
0.0
 47
0.0
 47
0.0
 47
0.0
 47
1.0
171
     0
 49
0.0208333333333333
 49
0.0
 49
0.0
 49
0.0
 49
0.0
 49
0.0208333333333333
 49
0.0
 49
0.0
 49
0.0
 49
0.0
 49
1.0
 49
0.0
 49
0.0
 49
0.0
 49
0.0
 49
1.0
175
     0
142
0.0208333333333333
142
0.0
142
0.0
142
0.0
142
0.0
142
0.0208333333333333
142
0.0
142
0.0
142
0.0
142
0.0
142
1.0
142
0.0
142
0.0
142
0.0
142
0.0
142
1.0
179
     0
144
0.0208333333333333
144
0.0
144
0.0
144
0.0
144
0.0
144
0.0208333333333333
144
0.0
144
0.0
144
0.0
144
0.0
144
1.0
144
0.0
144
0.0
144
0.0
144
0.0
144
1.0
147
0.0208333333333333
147
0.0
147
0.0
147
0.0
147
0.0
147
0.0208333333333333
147
0.0
147
0.0
147
0.0
147
0.0
147
1.0
147
0.0
147
0.0
147
0.0
147
0.0
147
1.0
  0
MATERIAL
  5
11
102
{ACAD_XDICTIONARY
360
12
102
}
102
{ACAD_REACTORS
330
10
102
}
330
10
100
AcDbMaterial
  1
ByLayer
 72
     0
 43
0.0208333333333333
 43
0.0
 43
0.0
 43
0.0
 43
0.0
 43
0.0208333333333333
 43
0.0
 43
0.0
 43
0.0
 43
0.0
 43
1.0
 43
0.0
 43
0.0
 43
0.0
 43
0.0
 43
1.0
 77
     0
 47
0.0208333333333333
 47
0.0
 47
0.0
 47
0.0
 47
0.0
 47
0.0208333333333333
 47
0.0
 47
0.0
 47
0.0
 47
0.0
 47
1.0
 47
0.0
 47
0.0
 47
0.0
 47
0.0
 47
1.0
171
     0
 49
0.0208333333333333
 49
0.0
 49
0.0
 49
0.0
 49
0.0
 49
0.0208333333333333
 49
0.0
 49
0.0
 49
0.0
 49
0.0
 49
1.0
 49
0.0
 49
0.0
 49
0.0
 49
0.0
 49
1.0
175
     0
142
0.0208333333333333
142
0.0
142
0.0
142
0.0
142
0.0
142
0.0208333333333333
142
0.0
142
0.0
142
0.0
142
0.0
142
1.0
142
0.0
142
0.0
142
0.0
142
0.0
142
1.0
179
     0
144
0.0208333333333333
144
0.0
144
0.0
144
0.0
144
0.0
144
0.0208333333333333
144
0.0
144
0.0
144
0.0
144
0.0
144
1.0
144
0.0
144
0.0
144
0.0
144
0.0
144
1.0
147
0.0208333333333333
147
0.0
147
0.0
147
0.0
147
0.0
147
0.0208333333333333
147
0.0
147
0.0
147
0.0
147
0.0
147
1.0
147
0.0
147
0.0
147
0.0
147
0.0
147
1.0
  0
MATERIAL
  5
21
102
{ACAD_XDICTIONARY
360
22
102
}
102
{ACAD_REACTORS
330
10
102
}
330
10
100
AcDbMaterial
  1
Global
 72
     0
 43
0.0208333333333333
 43
0.0
 43
0.0
 43
0.0
 43
0.0
 43
0.0208333333333333
 43
0.0
 43
0.0
 43
0.0
 43
0.0
 43
1.0
 43
0.0
 43
0.0
 43
0.0
 43
0.0
 43
1.0
 77
     0
 47
0.0208333333333333
 47
0.0
 47
0.0
 47
0.0
 47
0.0
 47
0.0208333333333333
 47
0.0
 47
0.0
 47
0.0
 47
0.0
 47
1.0
 47
0.0
 47
0.0
 47
0.0
 47
0.0
 47
1.0
171
     0
 49
0.0208333333333333
 49
0.0
 49
0.0
 49
0.0
 49
0.0
 49
0.0208333333333333
 49
0.0
 49
0.0
 49
0.0
 49
0.0
 49
1.0
 49
0.0
 49
0.0
 49
0.0
 49
0.0
 49
1.0
175
     0
142
0.0208333333333333
142
0.0
142
0.0
142
0.0
142
0.0
142
0.0208333333333333
142
0.0
142
0.0
142
0.0
142
0.0
142
1.0
142
0.0
142
0.0
142
0.0
142
0.0
142
1.0
179
     0
144
0.0208333333333333
144
0.0
144
0.0
144
0.0
144
0.0
144
0.0208333333333333
144
0.0
144
0.0
144
0.0
144
0.0
144
1.0
144
0.0
144
0.0
144
0.0
144
0.0
144
1.0
147
0.0208333333333333
147
0.0
147
0.0
147
0.0
147
0.0
147
0.0208333333333333
147
0.0
147
0.0
147
0.0
147
0.0
147
1.0
147
0.0
147
0.0
147
0.0
147
0.0
147
1.0
  0
MLEADERSTYLE
  5
67
102
{ACAD_REACTORS
330
66
102
}
330
66
100
AcDbMLeaderStyle
179
     2
170
     2
171
     1
172
     0
 90
        2
 40
0.0
 41
0.0
173
     1
 91
-1056964608
340
5B
 92
       -2
290
     1
 42
0.09
291
     1
 43
0.36
  3
Standard
 44
0.18
300

342
55
174
     1
178
     6
175
     1
176
     0
 93
-1056964608
 45
0.18
292
     0
297
     0
 46
0.18
 94
-1056964608
 47
1.0
 49
1.0
140
1.0
293
     1
141
0.0
294
     1
177
     0
142
1.0
295
     1
296
     0
143
0.125
271
     0
272
     9
273
     9
298
     1
  0
MLINESTYLE
  5
60
102
{ACAD_REACTORS
330
5F
102
}
330
5F
100
AcDbMlineStyle
  2
STANDARD
 70
     0
  3

 62
   256
 51
90.0
 52
90.0
 71
     2
 49
0.5
 62
   256
  6
BYLAYER
 49
-0.5
 62
   256
  6
BYLAYER
  0
ACDBPLACEHOLDER
  5
F
102
{ACAD_REACTORS
330
E
102
}
330
E
  0
SCALE
  5
43
102
{ACAD_REACTORS
330
42
102
}
330
42
100
AcDbScale
 70
     0
300
1:1
140
1.0
141
1.0
290
     1
  0
SCALE
  5
44
102
{ACAD_REACTORS
330
42
102
}
330
42
100
AcDbScale
 70
     0
300
1/128" = 1'-0"
140
0.0078125
141
12.0
290
     0
  0
SCALE
  5
45
102
{ACAD_REACTORS
330
42
102
}
330
42
100
AcDbScale
 70
     0
300
1/64" = 1'-0"
140
0.015625
141
12.0
290
     0
  0
SCALE
  5
46
102
{ACAD_REACTORS
330
42
102
}
330
42
100
AcDbScale
 70
     0
300
1/32" = 1'-0"
140
0.03125
141
12.0
290
     0
  0
SCALE
  5
47
102
{ACAD_REACTORS
330
42
102
}
330
42
100
AcDbScale
 70
     0
300
1/16" = 1'-0"
140
0.0625
141
12.0
290
     0
  0
SCALE
  5
48
102
{ACAD_REACTORS
330
42
102
}
330
42
100
AcDbScale
 70
     0
300
3/32" = 1'-0"
140
0.09375
141
12.0
290
     0
  0
SCALE
  5
49
102
{ACAD_REACTORS
330
42
102
}
330
42
100
AcDbScale
 70
     0
300
1/8" = 1'-0"
140
0.125
141
12.0
290
     0
  0
SCALE
  5
4A
102
{ACAD_REACTORS
330
42
102
}
330
42
100
AcDbScale
 70
     0
300
3/16" = 1'-0"
140
0.1875
141
12.0
290
     0
  0
SCALE
  5
4B
102
{ACAD_REACTORS
330
42
102
}
330
42
100
AcDbScale
 70
     0
300
1/4" = 1'-0"
140
0.25
141
12.0
290
     0
  0
SCALE
  5
4C
102
{ACAD_REACTORS
330
42
102
}
330
42
100
AcDbScale
 70
     0
300
3/8" = 1'-0"
140
0.375
141
12.0
290
     0
  0
SCALE
  5
4D
102
{ACAD_REACTORS
330
42
102
}
330
42
100
AcDbScale
 70
     0
300
1/2" = 1'-0"
140
0.5
141
12.0
290
     0
  0
SCALE
  5
4E
102
{ACAD_REACTORS
330
42
102
}
330
42
100
AcDbScale
 70
     0
300
3/4" = 1'-0"
140
0.75
141
12.0
290
     0
  0
SCALE
  5
4F
102
{ACAD_REACTORS
330
42
102
}
330
42
100
AcDbScale
 70
     0
300
1" = 1'-0"
140
1.0
141
12.0
290
     0
  0
SCALE
  5
50
102
{ACAD_REACTORS
330
42
102
}
330
42
100
AcDbScale
 70
     0
300
1-1/2" = 1'-0"
140
1.5
141
12.0
290
     0
  0
SCALE
  5
51
102
{ACAD_REACTORS
330
42
102
}
330
42
100
AcDbScale
 70
     0
300
3" = 1'-0"
140
3.0
141
12.0
290
     0
  0
SCALE
  5
52
102
{ACAD_REACTORS
330
42
102
}
330
42
100
AcDbScale
 70
     0
300
6" = 1'-0"
140
6.0
141
12.0
290
     0
  0
SCALE
  5
53
102
{ACAD_REACTORS
330
42
102
}
330
42
100
AcDbScale
 70
     0
300
1'-0" = 1'-0"
140
12.0
141
12.0
290
     0
  0
ACDBSECTIONVIEWSTYLE
  5
69
102
{ACAD_REACTORS
330
68
102
}
330
68
100
AcDbModelDocViewStyle
 70
     0
  3
Imperial24
290
     1
300
Imperial24
 90
        0
100
AcDbSectionViewStyle
 70
     0
 71
     0
 90
       78
 71
     1
340
55
 62
   256
 40
0.24
340
0
340
0
 62
   256
 40
0.24
300
I, O, Q, S, X, Z
 40
0.48
 90
        3
 40
0.18
 90
        1
 71
     2
340
5D
 90
       25
 62
   256
340
5D
 90
       50
 62
   256
 40
0.24
 40
0.0
 40
0.24
 71
     3
340
55
 62
   256
 40
0.24
 90
        1
 40
0.75
 90
        1
300
%<\AcVar ViewType \f "%tc1">% %<\AcVar ViewSectionStartId>%-%<\AcVar ViewSectionEndId>%\PSCALE %<\AcVar ViewScale \f "%sn">%
 71
     4
 62
   256
 62
   257
300
ANSI31
 40
1.0
 90
        0
290
     0
290
     0
 90
        6
 40
0.0
 40
1.570796326794896
 40
0.2617993877991494
 40
1.308996938995747
 40
-0.2617993877991494
 40
1.832595714594046
  0
TABLESTYLE
  5
65
102
{ACAD_XDICTIONARY
360
1D8
102
}
102
{ACAD_REACTORS
330
64
102
}
330
64
100
AcDbTableStyle
280
     0
  3
Standard
 70
     0
 71
     0
 40
0.06
 41
0.06
280
     0
281
     0
  7
Standard
140
0.18
170
     2
 62
     0
 63
     7
283
     0
 90
      512
 91
        0
  1

274
    -2
284
     1
 64
     0
275
    -2
285
     1
 65
     0
276
    -2
286
     1
 66
     0
277
    -2
287
     1
 67
     0
278
    -2
288
     1
 68
     0
279
    -2
289
     1
 69
     0
  7
Standard
140
0.25
170
     5
 62
     0
 63
     7
283
     0
 90
      512
 91
        0
  1

274
    -2
284
     1
 64
     0
275
    -2
285
     1
 65
     0
276
    -2
286
     1
 66
     0
277
    -2
287
     1
 67
     0
278
    -2
288
     1
 68
     0
279
    -2
289
     1
 69
     0
  7
Standard
140
0.18
170
     5
 62
     0
 63
     7
283
     0
 90
      512
 91
        0
  1

274
    -2
284
     1
 64
     0
275
    -2
285
     1
 65
     0
276
    -2
286
     1
 66
     0
277
    -2
287
     1
 67
     0
278
    -2
288
     1
 68
     0
279
    -2
289
     1
 69
     0
  0
VISUALSTYLE
  5
2F
102
{ACAD_REACTORS
330
29
102
}
330
29
100
AcDbVisualStyle
  2
2dWireframe
 70
     4
177
     3
291
     0
 70
    58
 90
        0
176
     1
 90
        2
176
     1
 90
        0
176
     1
 90
        0
176
     1
 40
0.6
176
     1
 40
30.0
176
     1
 62
     7
420
 16777215
176
     1
 90
        1
176
     1
 90
        4
176
     1
 62
     7
176
     1
 62
   257
176
     1
 90
        1
176
     1
 90
        1
176
     1
 40
1.0
176
     1
 90
        0
176
     1
 62
   257
176
     1
 40
1.0
176
     1
 90
        1
176
     1
 90
        6
176
     1
 90
        2
176
     1
 62
     7
176
     1
 90
        5
176
     1
 90
        0
176
     1
 90
        0
176
     1
290
     0
176
     1
 90
        1
176
     1
 40
0.0
176
     1
 90
        0
176
     1
290
     1
176
     1
290
     1
176
     1
290
     0
176
     1
290
     0
176
     1
290
     0
176
     1
290
     0
176
     1
290
     0
176
     1
290
     0
176
     1
290
     0
176
     1
 90
       50
176
     1
 40
0.0
176
     1
 40
1.0
176
     1
 90
        0
176
     1
 62
    18
420
        0
176
     1
 90
       50
176
     1
 90
        3
176
     1
 62
     5
420
      255
176
     1
290
     0
176
     1
 90
       50
176
     1
 90
       50
176
     1
 90
       50
176
     1
290
     0
176
     1
 90
       50
176
     1
 62
   256
176
     0
 40
1.0
176
     0
 90
        2
176
     1
  1
strokes_ogs.tif
176
     1
290
     0
176
     1
 40
1.0
176
     1
 40
1.0
176
     1
  0
VISUALSTYLE
  5
2E
102
{ACAD_REACTORS
330
29
102
}
330
29
100
AcDbVisualStyle
  2
Basic
 70
     7
177
     3
291
     1
 70
    58
 90
        1
176
     1
 90
        0
176
     1
 90
        1
176
     1
 90
        0
176
     1
 40
0.6
176
     1
 40
30.0
176
     1
 62
     7
420
 16777215
176
     1
 90
        0
176
     1
 90
        4
176
     1
 62
     7
176
     1
 62
   257
176
     1
 90
        1
176
     1
 90
        1
176
     1
 40
1.0
176
     1
 90
        8
176
     1
 62
     7
176
     1
 40
1.0
176
     1
 90
        1
176
     1
 90
        6
176
     1
 90
        2
176
     1
 62
     7
176
     1
 90
        5
176
     1
 90
        0
176
     1
 90
        0
176
     1
290
     0
176
     1
 90
        1
176
     1
 40
0.0
176
     1
 90
        0
176
     1
290
     0
176
     1
290
     1
176
     1
290
     1
176
     1
290
     0
176
     1
290
     0
176
     1
290
     0
176
     1
290
     0
176
     1
290
     0
176
     1
290
     0
176
     1
 90
       50
176
     1
 40
0.0
176
     1
 40
1.0
176
     1
 90
        0
176
     1
 62
    18
420
        0
176
     1
 90
       50
176
     1
 90
        3
176
     1
 62
     5
420
      255
176
     1
290
     0
176
     1
 90
       50
176
     1
 90
       50
176
     1
 90
       50
176
     1
290
     0
176
     1
 90
       50
176
     1
 62
   256
176
     0
 40
1.0
176
     0
 90
        2
176
     1
  1
strokes_ogs.tif
176
     1
290
     0
176
     1
 40
1.0
176
     1
 40
1.0
176
     1
  0
VISUALSTYLE
  5
35
102
{ACAD_REACTORS
330
29
102
}
330
29
100
AcDbVisualStyle
  2
Brighten
 70
    12
177
     3
291
     1
 70
    58
 90
        2
176
     1
 90
        2
176
     1
 90
        0
176
     1
 90
        0
176
     1
 40
0.6
176
     1
 40
30.0
176
     1
 62
     7
420
 16777215
176
     1
 90
        1
176
     1
 90
        4
176
     1
 62
     7
176
     1
 62
   257
176
     1
 90
        1
176
     1
 90
        1
176
     1
 40
1.0
176
     1
 90
        8
176
     1
 62
     7
176
     1
 40
1.0
176
     1
 90
        1
176
     1
 90
        6
176
     1
 90
        2
176
     1
 62
     7
176
     1
 90
        5
176
     1
 90
        0
176
     1
 90
        0
176
     1
290
     0
176
     1
 90
        1
176
     1
 40
50.0
176
     1
 90
        0
176
     1
290
     0
176
     1
290
     1
176
     1
290
     1
176
     1
290
     0
176
     1
290
     0
176
     1
290
     0
176
     1
290
     0
176
     1
290
     0
176
     1
290
     0
176
     1
 90
       50
176
     1
 40
0.0
176
     1
 40
1.0
176
     1
 90
        0
176
     1
 62
    18
420
        0
176
     1
 90
       50
176
     1
 90
        3
176
     1
 62
     5
420
      255
176
     1
290
     0
176
     1
 90
       50
176
     1
 90
       50
176
     1
 90
       50
176
     1
290
     0
176
     1
 90
       50
176
     1
 62
   256
176
     0
 40
1.0
176
     0
 90
        2
176
     1
  1
strokes_ogs.tif
176
     1
290
     0
176
     1
 40
1.0
176
     1
 40
1.0
176
     1
  0
VISUALSTYLE
  5
39
102
{ACAD_REACTORS
330
29
102
}
330
29
100
AcDbVisualStyle
  2
ColorChange
 70
    16
177
     3
291
     1
 70
    58
 90
        2
176
     1
 90
        2
176
     1
 90
        3
176
     1
 90
        0
176
     1
 40
0.6
176
     1
 40
30.0
176
     1
 62
     8
420
  8421504
176
     1
 90
        1
176
     1
 90
        4
176
     1
 62
     7
176
     1
 62
   257
176
     1
 90
        1
176
     1
 90
        1
176
     1
 40
1.0
176
     1
 90
        8
176
     1
 62
     8
420
  8421504
176
     1
 40
1.0
176
     1
 90
        1
176
     1
 90
        6
176
     1
 90
        2
176
     1
 62
     7
176
     1
 90
        5
176
     1
 90
        0
176
     1
 90
        0
176
     1
290
     0
176
     1
 90
        1
176
     1
 40
0.0
176
     1
 90
        0
176
     1
290
     0
176
     1
290
     1
176
     1
290
     1
176
     1
290
     0
176
     1
290
     0
176
     1
290
     0
176
     1
290
     0
176
     1
290
     0
176
     1
290
     0
176
     1
 90
       50
176
     1
 40
0.0
176
     1
 40
1.0
176
     1
 90
        0
176
     1
 62
    18
420
        0
176
     1
 90
       50
176
     1
 90
        3
176
     1
 62
     5
420
      255
176
     1
290
     0
176
     1
 90
       50
176
     1
 90
       50
176
     1
 90
       50
176
     1
290
     0
176
     1
 90
       50
176
     1
 62
   256
176
     0
 40
1.0
176
     0
 90
        2
176
     1
  1
strokes_ogs.tif
176
     1
290
     0
176
     1
 40
1.0
176
     1
 40
1.0
176
     1
  0
VISUALSTYLE
  5
32
102
{ACAD_REACTORS
330
29
102
}
330
29
100
AcDbVisualStyle
  2
Conceptual
 70
     9
177
     3
291
     0
 70
    58
 90
        3
176
     1
 90
        2
176
     1
 90
        0
176
     1
 90
        0
176
     1
 40
0.6
176
     1
 40
30.0
176
     1
 62
     7
420
 16777215
176
     1
 90
        2
176
     1
 90
        2
176
     1
 62
     7
176
     1
 62
   257
176
     1
 90
        1
176
     1
 90
        1
176
     1
 40
179.0
176
     1
 90
        8
176
     1
 62
     7
176
     1
 40
1.0
176
     1
 90
        1
176
     1
 90
        6
176
     1
 90
        2
176
     1
 62
     7
176
     1
 90
        3
176
     1
 90
        0
176
     1
 90
        0
176
     1
290
     0
176
     1
 90
        1
176
     1
 40
0.0
176
     1
 90
        0
176
     1
290
     0
176
     1
290
     1
176
     1
290
     1
176
     1
290
     0
176
     1
290
     0
176
     1
290
     0
176
     1
290
     0
176
     1
290
     0
176
     1
290
     0
176
     1
 90
       50
176
     1
 40
0.0
176
     1
 40
1.0
176
     1
 90
        0
176
     1
 62
    18
420
        0
176
     1
 90
       50
176
     1
 90
        3
176
     1
 62
     5
420
      255
176
     1
290
     0
176
     1
 90
       50
176
     1
 90
       50
176
     1
 90
       50
176
     1
290
     0
176
     1
 90
       50
176
     1
 62
   256
176
     0
 40
1.0
176
     0
 90
        2
176
     1
  1
strokes_ogs.tif
176
     1
290
     0
176
     1
 40
1.0
176
     1
 40
1.0
176
     1
  0
VISUALSTYLE
  5
34
102
{ACAD_REACTORS
330
29
102
}
330
29
100
AcDbVisualStyle
  2
Dim
 70
    11
177
     3
291
     1
 70
    58
 90
        2
176
     1
 90
        2
176
     1
 90
        0
176
     1
 90
        0
176
     1
 40
0.6
176
     1
 40
30.0
176
     1
 62
     7
420
 16777215
176
     1
 90
        1
176
     1
 90
        4
176
     1
 62
     7
176
     1
 62
   257
176
     1
 90
        1
176
     1
 90
        1
176
     1
 40
1.0
176
     1
 90
        8
176
     1
 62
     7
176
     1
 40
1.0
176
     1
 90
        1
176
     1
 90
        6
176
     1
 90
        2
176
     1
 62
     7
176
     1
 90
        5
176
     1
 90
        0
176
     1
 90
        0
176
     1
290
     0
176
     1
 90
        1
176
     1
 40
-50.0
176
     1
 90
        0
176
     1
290
     0
176
     1
290
     1
176
     1
290
     1
176
     1
290
     0
176
     1
290
     0
176
     1
290
     0
176
     1
290
     0
176
     1
290
     0
176
     1
290
     0
176
     1
 90
       50
176
     1
 40
0.0
176
     1
 40
1.0
176
     1
 90
        0
176
     1
 62
    18
420
        0
176
     1
 90
       50
176
     1
 90
        3
176
     1
 62
     5
420
      255
176
     1
290
     0
176
     1
 90
       50
176
     1
 90
       50
176
     1
 90
       50
176
     1
290
     0
176
     1
 90
       50
176
     1
 62
   256
176
     0
 40
1.0
176
     0
 90
        2
176
     1
  1
strokes_ogs.tif
176
     1
290
     0
176
     1
 40
1.0
176
     1
 40
1.0
176
     1
  0
VISUALSTYLE
  5
41
102
{ACAD_REACTORS
330
29
102
}
330
29
100
AcDbVisualStyle
  2
EdgeColorOff
 70
    22
177
     3
291
     1
 70
    58
 90
        2
176
     0
 90
        2
176
     0
 90
        0
176
     0
 90
        0
176
     0
 40
0.6
176
     0
 40
30.0
176
     0
 62
     7
420
 16777215
176
     0
 90
        1
176
     0
 90
        4
176
     0
 62
     7
176
     0
 62
   257
176
     0
 90
        1
176
     0
 90
        1
176
     0
 40
1.0
176
     0
 90
        8
176
     2
 62
     7
176
     0
 40
1.0
176
     0
 90
        1
176
     0
 90
        6
176
     0
 90
        2
176
     0
 62
     7
176
     0
 90
        5
176
     0
 90
        0
176
     0
 90
        0
176
     0
290
     0
176
     0
 90
        1
176
     0
 40
0.0
176
     0
 90
        0
176
     0
290
     0
176
     0
290
     1
176
     0
290
     1
176
     0
290
     0
176
     0
290
     0
176
     0
290
     0
176
     0
290
     0
176
     0
290
     0
176
     0
290
     0
176
     0
 90
       50
176
     0
 40
0.0
176
     0
 40
1.0
176
     0
 90
        0
176
     0
 62
    18
420
        0
176
     0
 90
       50
176
     0
 90
        3
176
     0
 62
     5
420
      255
176
     0
290
     0
176
     0
 90
       50
176
     0
 90
       50
176
     0
 90
       50
176
     0
290
     0
176
     0
 90
       50
176
     0
 62
   256
176
     0
 40
1.0
176
     0
 90
        2
176
     0
  1
strokes_ogs.tif
176
     0
290
     0
176
     0
 40
1.0
176
     0
 40
1.0
176
     0
  0
VISUALSTYLE
  5
38
102
{ACAD_REACTORS
330
29
102
}
330
29
100
AcDbVisualStyle
  2
Facepattern
 70
    15
177
     3
291
     1
 70
    58
 90
        2
176
     1
 90
        2
176
     1
 90
        0
176
     1
 90
        0
176
     1
 40
0.6
176
     1
 40
30.0
176
     1
 62
     7
420
 16777215
176
     1
 90
        1
176
     1
 90
        4
176
     1
 62
     7
176
     1
 62
   257
176
     1
 90
        1
176
     1
 90
        1
176
     1
 40
1.0
176
     1
 90
        8
176
     1
 62
     7
176
     1
 40
1.0
176
     1
 90
        1
176
     1
 90
        6
176
     1
 90
        2
176
     1
 62
     7
176
     1
 90
        5
176
     1
 90
        0
176
     1
 90
        0
176
     1
290
     0
176
     1
 90
        1
176
     1
 40
0.0
176
     1
 90
        0
176
     1
290
     0
176
     1
290
     1
176
     1
290
     1
176
     1
290
     0
176
     1
290
     0
176
     1
290
     0
176
     1
290
     0
176
     1
290
     0
176
     1
290
     0
176
     1
 90
       50
176
     1
 40
0.0
176
     1
 40
1.0
176
     1
 90
        0
176
     1
 62
    18
420
        0
176
     1
 90
       50
176
     1
 90
        3
176
     1
 62
     5
420
      255
176
     1
290
     0
176
     1
 90
       50
176
     1
 90
       50
176
     1
 90
       50
176
     1
290
     0
176
     1
 90
       50
176
     1
 62
   256
176
     0
 40
1.0
176
     0
 90
        2
176
     1
  1
strokes_ogs.tif
176
     1
290
     0
176
     1
 40
1.0
176
     1
 40
1.0
176
     1
  0
VISUALSTYLE
  5
2A
102
{ACAD_REACTORS
330
29
102
}
330
29
100
AcDbVisualStyle
  2
Flat
 70
     0
177
     3
291
     1
 70
    58
 90
        2
176
     1
 90
        1
176
     1
 90
        1
176
     1
 90
        2
176
     1
 40
0.6
176
     1
 40
30.0
176
     1
 62
     7
420
 16777215
176
     1
 90
        0
176
     1
 90
        0
176
     1
 62
     7
176
     1
 62
   257
176
     1
 90
        1
176
     1
 90
        1
176
     1
 40
1.0
176
     1
 90
        8
176
     1
 62
     7
176
     1
 40
1.0
176
     1
 90
        1
176
     1
 90
        6
176
     1
 90
        2
176
     1
 62
     7
176
     1
 90
        5
176
     1
 90
        0
176
     1
 90
        0
176
     1
290
     0
176
     1
 90
       13
176
     1
 40
0.0
176
     1
 90
        0
176
     1
290
     0
176
     1
290
     1
176
     1
290
     1
176
     1
290
     0
176
     1
290
     0
176
     1
290
     0
176
     1
290
     0
176
     1
290
     0
176
     1
290
     0
176
     1
 90
       50
176
     1
 40
0.0
176
     1
 40
1.0
176
     1
 90
        0
176
     1
 62
    18
420
        0
176
     1
 90
       50
176
     1
 90
        3
176
     1
 62
     5
420
      255
176
     1
290
     0
176
     1
 90
       50
176
     1
 90
       50
176
     1
 90
       50
176
     1
290
     0
176
     1
 90
       50
176
     1
 62
   256
176
     0
 40
1.0
176
     0
 90
        2
176
     1
  1
strokes_ogs.tif
176
     1
290
     0
176
     1
 40
1.0
176
     1
 40
1.0
176
     1
  0
VISUALSTYLE
  5
2B
102
{ACAD_REACTORS
330
29
102
}
330
29
100
AcDbVisualStyle
  2
FlatWithEdges
 70
     1
177
     3
291
     1
 70
    58
 90
        2
176
     1
 90
        1
176
     1
 90
        1
176
     1
 90
        2
176
     1
 40
0.6
176
     1
 40
30.0
176
     1
 62
     7
420
 16777215
176
     1
 90
        1
176
     1
 90
        0
176
     1
 62
     7
176
     1
 62
   257
176
     1
 90
        1
176
     1
 90
        1
176
     1
 40
1.0
176
     1
 90
        0
176
     1
 62
   257
176
     1
 40
1.0
176
     1
 90
        1
176
     1
 90
        6
176
     1
 90
        2
176
     1
 62
     7
176
     1
 90
        5
176
     1
 90
        0
176
     1
 90
        0
176
     1
290
     0
176
     1
 90
       13
176
     1
 40
0.0
176
     1
 90
        0
176
     1
290
     0
176
     1
290
     1
176
     1
290
     1
176
     1
290
     0
176
     1
290
     0
176
     1
290
     0
176
     1
290
     0
176
     1
290
     0
176
     1
290
     0
176
     1
 90
       50
176
     1
 40
0.0
176
     1
 40
1.0
176
     1
 90
        0
176
     1
 62
    18
420
        0
176
     1
 90
       50
176
     1
 90
        3
176
     1
 62
     5
420
      255
176
     1
290
     0
176
     1
 90
       50
176
     1
 90
       50
176
     1
 90
       50
176
     1
290
     0
176
     1
 90
       50
176
     1
 62
   256
176
     0
 40
1.0
176
     0
 90
        2
176
     1
  1
strokes_ogs.tif
176
     1
290
     0
176
     1
 40
1.0
176
     1
 40
1.0
176
     1
  0
VISUALSTYLE
  5
2C
102
{ACAD_REACTORS
330
29
102
}
330
29
100
AcDbVisualStyle
  2
Gouraud
 70
     2
177
     3
291
     1
 70
    58
 90
        2
176
     1
 90
        2
176
     1
 90
        1
176
     1
 90
        2
176
     1
 40
0.6
176
     1
 40
30.0
176
     1
 62
     7
420
 16777215
176
     1
 90
        0
176
     1
 90
        0
176
     1
 62
     7
176
     1
 62
   257
176
     1
 90
        1
176
     1
 90
        1
176
     1
 40
1.0
176
     1
 90
        0
176
     1
 62
     7
176
     1
 40
1.0
176
     1
 90
        1
176
     1
 90
        6
176
     1
 90
        2
176
     1
 62
     7
176
     1
 90
        5
176
     1
 90
        0
176
     1
 90
        0
176
     1
290
     0
176
     1
 90
       13
176
     1
 40
0.0
176
     1
 90
        0
176
     1
290
     0
176
     1
290
     1
176
     1
290
     1
176
     1
290
     0
176
     1
290
     0
176
     1
290
     0
176
     1
290
     0
176
     1
290
     0
176
     1
290
     0
176
     1
 90
       50
176
     1
 40
0.0
176
     1
 40
1.0
176
     1
 90
        0
176
     1
 62
    18
420
        0
176
     1
 90
       50
176
     1
 90
        3
176
     1
 62
     5
420
      255
176
     1
290
     0
176
     1
 90
       50
176
     1
 90
       50
176
     1
 90
       50
176
     1
290
     0
176
     1
 90
       50
176
     1
 62
   256
176
     0
 40
1.0
176
     0
 90
        2
176
     1
  1
strokes_ogs.tif
176
     1
290
     0
176
     1
 40
1.0
176
     1
 40
1.0
176
     1
  0
VISUALSTYLE
  5
2D
102
{ACAD_REACTORS
330
29
102
}
330
29
100
AcDbVisualStyle
  2
GouraudWithEdges
 70
     3
177
     3
291
     1
 70
    58
 90
        2
176
     1
 90
        2
176
     1
 90
        1
176
     1
 90
        2
176
     1
 40
0.6
176
     1
 40
30.0
176
     1
 62
     7
420
 16777215
176
     1
 90
        1
176
     1
 90
        0
176
     1
 62
     7
176
     1
 62
   257
176
     1
 90
        1
176
     1
 90
        1
176
     1
 40
1.0
176
     1
 90
        0
176
     1
 62
   257
176
     1
 40
1.0
176
     1
 90
        1
176
     1
 90
        6
176
     1
 90
        2
176
     1
 62
     7
176
     1
 90
        5
176
     1
 90
        0
176
     1
 90
        0
176
     1
290
     0
176
     1
 90
       13
176
     1
 40
0.0
176
     1
 90
        0
176
     1
290
     0
176
     1
290
     1
176
     1
290
     1
176
     1
290
     0
176
     1
290
     0
176
     1
290
     0
176
     1
290
     0
176
     1
290
     0
176
     1
290
     0
176
     1
 90
       50
176
     1
 40
0.0
176
     1
 40
1.0
176
     1
 90
        0
176
     1
 62
    18
420
        0
176
     1
 90
       50
176
     1
 90
        3
176
     1
 62
     5
420
      255
176
     1
290
     0
176
     1
 90
       50
176
     1
 90
       50
176
     1
 90
       50
176
     1
290
     0
176
     1
 90
       50
176
     1
 62
   256
176
     0
 40
1.0
176
     0
 90
        2
176
     1
  1
strokes_ogs.tif
176
     1
290
     0
176
     1
 40
1.0
176
     1
 40
1.0
176
     1
  0
VISUALSTYLE
  5
31
102
{ACAD_REACTORS
330
29
102
}
330
29
100
AcDbVisualStyle
  2
Hidden
 70
     6
177
     3
291
     0
 70
    58
 90
        1
176
     1
 90
        2
176
     1
 90
        2
176
     1
 90
        0
176
     1
 40
0.6
176
     1
 40
30.0
176
     1
 62
     7
420
 16777215
176
     1
 90
        2
176
     1
 90
        2
176
     1
 62
     7
176
     1
 62
   257
176
     1
 90
        2
176
     1
 90
        1
176
     1
 40
40.0
176
     1
 90
        0
176
     1
 62
   257
176
     1
 40
1.0
176
     1
 90
        1
176
     1
 90
        6
176
     1
 90
        2
176
     1
 62
     7
176
     1
 90
        3
176
     1
 90
        0
176
     1
 90
        0
176
     1
290
     0
176
     1
 90
        1
176
     1
 40
0.0
176
     1
 90
        0
176
     1
290
     0
176
     1
290
     1
176
     1
290
     1
176
     1
290
     0
176
     1
290
     0
176
     1
290
     0
176
     1
290
     0
176
     1
290
     0
176
     1
290
     0
176
     1
 90
       50
176
     1
 40
0.0
176
     1
 40
1.0
176
     1
 90
        0
176
     1
 62
    18
420
        0
176
     1
 90
       50
176
     1
 90
        3
176
     1
 62
     5
420
      255
176
     1
290
     0
176
     1
 90
       50
176
     1
 90
       50
176
     1
 90
       50
176
     1
290
     0
176
     1
 90
       50
176
     1
 62
   256
176
     0
 40
1.0
176
     0
 90
        2
176
     1
  1
strokes_ogs.tif
176
     1
290
     0
176
     1
 40
1.0
176
     1
 40
1.0
176
     1
  0
VISUALSTYLE
  5
3F
102
{ACAD_REACTORS
330
29
102
}
330
29
100
AcDbVisualStyle
  2
JitterOff
 70
    20
177
     3
291
     1
 70
    58
 90
        2
176
     0
 90
        2
176
     0
 90
        0
176
     0
 90
        0
176
     0
 40
0.6
176
     0
 40
30.0
176
     0
 62
     7
420
 16777215
176
     0
 90
        1
176
     0
 90
        4
176
     0
 62
     7
176
     0
 62
   257
176
     0
 90
        1
176
     0
 90
        1
176
     0
 40
1.0
176
     0
 90
       10
176
     2
 62
     7
176
     0
 40
1.0
176
     0
 90
        1
176
     0
 90
        6
176
     0
 90
        2
176
     0
 62
     7
176
     0
 90
        5
176
     0
 90
        0
176
     0
 90
        0
176
     0
290
     0
176
     0
 90
        1
176
     0
 40
0.0
176
     0
 90
        0
176
     0
290
     0
176
     0
290
     1
176
     0
290
     1
176
     0
290
     0
176
     0
290
     0
176
     0
290
     0
176
     0
290
     0
176
     0
290
     0
176
     0
290
     0
176
     0
 90
       50
176
     0
 40
0.0
176
     0
 40
1.0
176
     0
 90
        0
176
     0
 62
    18
420
        0
176
     0
 90
       50
176
     0
 90
        3
176
     0
 62
     5
420
      255
176
     0
290
     0
176
     0
 90
       50
176
     0
 90
       50
176
     0
 90
       50
176
     0
290
     0
176
     0
 90
       50
176
     0
 62
   256
176
     0
 40
1.0
176
     0
 90
        2
176
     0
  1
strokes_ogs.tif
176
     0
290
     0
176
     0
 40
1.0
176
     0
 40
1.0
176
     0
  0
VISUALSTYLE
  5
37
102
{ACAD_REACTORS
330
29
102
}
330
29
100
AcDbVisualStyle
  2
Linepattern
 70
    14
177
     3
291
     1
 70
    58
 90
        2
176
     1
 90
        2
176
     1
 90
        0
176
     1
 90
        0
176
     1
 40
0.6
176
     1
 40
30.0
176
     1
 62
     7
420
 16777215
176
     1
 90
        1
176
     1
 90
        4
176
     1
 62
     7
176
     1
 62
   257
176
     1
 90
        7
176
     1
 90
        7
176
     1
 40
1.0
176
     1
 90
        8
176
     1
 62
     7
176
     1
 40
1.0
176
     1
 90
        1
176
     1
 90
        6
176
     1
 90
        2
176
     1
 62
     7
176
     1
 90
        5
176
     1
 90
        0
176
     1
 90
        0
176
     1
290
     0
176
     1
 90
        1
176
     1
 40
0.0
176
     1
 90
        0
176
     1
290
     0
176
     1
290
     1
176
     1
290
     1
176
     1
290
     0
176
     1
290
     0
176
     1
290
     0
176
     1
290
     0
176
     1
290
     0
176
     1
290
     0
176
     1
 90
       50
176
     1
 40
0.0
176
     1
 40
1.0
176
     1
 90
        0
176
     1
 62
    18
420
        0
176
     1
 90
       50
176
     1
 90
        3
176
     1
 62
     5
420
      255
176
     1
290
     0
176
     1
 90
       50
176
     1
 90
       50
176
     1
 90
       50
176
     1
290
     0
176
     1
 90
       50
176
     1
 62
   256
176
     0
 40
1.0
176
     0
 90
        2
176
     1
  1
strokes_ogs.tif
176
     1
290
     0
176
     1
 40
1.0
176
     1
 40
1.0
176
     1
  0
VISUALSTYLE
  5
40
102
{ACAD_REACTORS
330
29
102
}
330
29
100
AcDbVisualStyle
  2
OverhangOff
 70
    21
177
     3
291
     1
 70
    58
 90
        2
176
     0
 90
        2
176
     0
 90
        0
176
     0
 90
        0
176
     0
 40
0.6
176
     0
 40
30.0
176
     0
 62
     7
420
 16777215
176
     0
 90
        1
176
     0
 90
        4
176
     0
 62
     7
176
     0
 62
   257
176
     0
 90
        1
176
     0
 90
        1
176
     0
 40
1.0
176
     0
 90
        9
176
     2
 62
     7
176
     0
 40
1.0
176
     0
 90
        1
176
     0
 90
        6
176
     0
 90
        2
176
     0
 62
     7
176
     0
 90
        5
176
     0
 90
        0
176
     0
 90
        0
176
     0
290
     0
176
     0
 90
        1
176
     0
 40
0.0
176
     0
 90
        0
176
     0
290
     0
176
     0
290
     1
176
     0
290
     1
176
     0
290
     0
176
     0
290
     0
176
     0
290
     0
176
     0
290
     0
176
     0
290
     0
176
     0
290
     0
176
     0
 90
       50
176
     0
 40
0.0
176
     0
 40
1.0
176
     0
 90
        0
176
     0
 62
    18
420
        0
176
     0
 90
       50
176
     0
 90
        3
176
     0
 62
     5
420
      255
176
     0
290
     0
176
     0
 90
       50
176
     0
 90
       50
176
     0
 90
       50
176
     0
290
     0
176
     0
 90
       50
176
     0
 62
   256
176
     0
 40
1.0
176
     0
 90
        2
176
     0
  1
strokes_ogs.tif
176
     0
290
     0
176
     0
 40
1.0
176
     0
 40
1.0
176
     0
  0
VISUALSTYLE
  5
33
102
{ACAD_REACTORS
330
29
102
}
330
29
100
AcDbVisualStyle
  2
Realistic
 70
     8
177
     3
291
     0
 70
    58
 90
        2
176
     1
 90
        3
176
     1
 90
        0
176
     1
 90
        2
176
     1
 40
0.6
176
     1
 40
30.0
176
     1
 62
     7
420
 16777215
176
     1
 90
        0
176
     1
 90
        0
176
     1
 62
     7
176
     1
 62
   257
176
     1
 90
        1
176
     1
 90
        1
176
     1
 40
1.0
176
     1
 90
        8
176
     1
 62
   257
176
     1
 40
1.0
176
     1
 90
        1
176
     1
 90
        6
176
     1
 90
        2
176
     1
 62
     7
176
     1
 90
        3
176
     1
 90
        0
176
     1
 90
        0
176
     1
290
     0
176
     1
 90
       13
176
     1
 40
0.0
176
     1
 90
        0
176
     1
290
     0
176
     1
290
     1
176
     1
290
     1
176
     1
290
     0
176
     1
290
     0
176
     1
290
     0
176
     1
290
     0
176
     1
290
     0
176
     1
290
     0
176
     1
 90
       50
176
     1
 40
0.0
176
     1
 40
1.0
176
     1
 90
        0
176
     1
 62
    18
420
        0
176
     1
 90
       50
176
     1
 90
        3
176
     1
 62
     5
420
      255
176
     1
290
     0
176
     1
 90
       50
176
     1
 90
       50
176
     1
 90
       50
176
     1
290
     0
176
     1
 90
       50
176
     1
 62
   256
176
     0
 40
1.0
176
     0
 90
        2
176
     1
  1
strokes_ogs.tif
176
     1
290
     0
176
     1
 40
1.0
176
     1
 40
1.0
176
     1
  0
VISUALSTYLE
  5
3E
102
{ACAD_REACTORS
330
29
102
}
330
29
100
AcDbVisualStyle
  2
Shaded
 70
    27
177
     3
291
     0
 70
    58
 90
        2
176
     1
 90
        2
176
     1
 90
        1
176
     1
 90
        2
176
     1
 40
0.6
176
     1
 40
30.0
176
     1
 62
     7
420
 16777215
176
     1
 90
        0
176
     1
 90
        4
176
     1
 62
     7
176
     1
 62
   257
176
     1
 90
        1
176
     1
 90
        1
176
     1
 40
1.0
176
     1
 90
        8
176
     1
 62
   257
176
     1
 40
1.0
176
     1
 90
        1
176
     1
 90
        6
176
     1
 90
        2
176
     1
 62
     8
420
  7895160
176
     1
 90
        3
176
     1
 90
        0
176
     1
 90
        0
176
     1
290
     0
176
     1
 90
        5
176
     1
 40
0.0
176
     1
 90
        0
176
     1
290
     0
176
     1
290
     1
176
     1
290
     1
176
     1
290
     0
176
     1
290
     0
176
     1
290
     0
176
     1
290
     0
176
     1
290
     0
176
     1
290
     0
176
     1
 90
       50
176
     1
 40
0.0
176
     1
 40
1.0
176
     1
 90
        0
176
     1
 62
    18
420
        0
176
     1
 90
       50
176
     1
 90
        3
176
     1
 62
     5
420
      255
176
     1
290
     0
176
     1
 90
       50
176
     1
 90
       50
176
     1
 90
       50
176
     1
290
     0
176
     1
 90
       50
176
     1
 62
   256
176
     0
 40
1.0
176
     0
 90
        2
176
     1
  1
strokes_ogs.tif
176
     1
290
     0
176
     1
 40
1.0
176
     1
 40
1.0
176
     1
  0
VISUALSTYLE
  5
3D
102
{ACAD_REACTORS
330
29
102
}
330
29
100
AcDbVisualStyle
  2
Shaded with edges
 70
    26
177
     3
291
     0
 70
    58
 90
        2
176
     1
 90
        2
176
     1
 90
        1
176
     1
 90
        2
176
     1
 40
0.6
176
     1
 40
30.0
176
     1
 62
     7
420
 16777215
176
     1
 90
        1
176
     1
 90
        2
176
     1
 62
     7
176
     1
 62
   257
176
     1
 90
        2
176
     1
 90
        1
176
     1
 40
1.0
176
     1
 90
        8
176
     1
 62
   257
176
     1
 40
1.0
176
     1
 90
        1
176
     1
 90
        6
176
     1
 90
        2
176
     1
 62
     7
176
     1
 90
        3
176
     1
 90
        0
176
     1
 90
        0
176
     1
290
     0
176
     1
 90
        5
176
     1
 40
0.0
176
     1
 90
        0
176
     1
290
     0
176
     1
290
     1
176
     1
290
     1
176
     1
290
     0
176
     1
290
     0
176
     1
290
     0
176
     1
290
     0
176
     1
290
     0
176
     1
290
     0
176
     1
 90
       50
176
     1
 40
0.0
176
     1
 40
1.0
176
     1
 90
        0
176
     1
 62
    18
420
        0
176
     1
 90
       50
176
     1
 90
        3
176
     1
 62
     5
420
      255
176
     1
290
     0
176
     1
 90
       50
176
     1
 90
       50
176
     1
 90
       50
176
     1
290
     0
176
     1
 90
       50
176
     1
 62
   256
176
     0
 40
1.0
176
     0
 90
        2
176
     1
  1
strokes_ogs.tif
176
     1
290
     0
176
     1
 40
1.0
176
     1
 40
1.0
176
     1
  0
VISUALSTYLE
  5
3A
102
{ACAD_REACTORS
330
29
102
}
330
29
100
AcDbVisualStyle
  2
Shades of Gray
 70
    23
177
     3
291
     0
 70
    58
 90
        2
176
     1
 90
        2
176
     1
 90
        3
176
     1
 90
        0
176
     1
 40
0.6
176
     1
 40
30.0
176
     1
 62
     7
420
 16777215
176
     1
 90
        2
176
     1
 90
        2
176
     1
 62
     7
176
     1
 62
     7
176
     1
 90
        1
176
     1
 90
        1
176
     1
 40
40.0
176
     1
 90
        8
176
     1
 62
     7
176
     1
 40
1.0
176
     1
 90
        1
176
     1
 90
        6
176
     1
 90
        2
176
     1
 62
     7
176
     1
 90
        3
176
     1
 90
        0
176
     1
 90
        0
176
     1
290
     0
176
     1
 90
        1
176
     1
 40
0.0
176
     1
 90
        0
176
     1
290
     0
176
     1
290
     1
176
     1
290
     1
176
     1
290
     0
176
     1
290
     0
176
     1
290
     0
176
     1
290
     0
176
     1
290
     0
176
     1
290
     0
176
     1
 90
       50
176
     1
 40
0.0
176
     1
 40
1.0
176
     1
 90
        0
176
     1
 62
    18
420
        0
176
     1
 90
       50
176
     1
 90
        3
176
     1
 62
     5
420
      255
176
     1
290
     0
176
     1
 90
       50
176
     1
 90
       50
176
     1
 90
       50
176
     1
290
     0
176
     1
 90
       50
176
     1
 62
   256
176
     0
 40
1.0
176
     0
 90
        2
176
     1
  1
strokes_ogs.tif
176
     1
290
     0
176
     1
 40
1.0
176
     1
 40
1.0
176
     1
  0
VISUALSTYLE
  5
3B
102
{ACAD_REACTORS
330
29
102
}
330
29
100
AcDbVisualStyle
  2
Sketchy
 70
    24
177
     3
291
     0
 70
    58
 90
        1
176
     1
 90
        2
176
     1
 90
        2
176
     1
 90
        0
176
     1
 40
0.6
176
     1
 40
30.0
176
     1
 62
     7
420
 16777215
176
     1
 90
        2
176
     1
 90
        2
176
     1
 62
     7
176
     1
 62
     7
176
     1
 90
        1
176
     1
 90
        1
176
     1
 40
40.0
176
     1
 90
       11
176
     1
 62
     7
176
     1
 40
1.0
176
     1
 90
        1
176
     1
 90
        6
176
     1
 90
        2
176
     1
 62
     7
176
     1
 90
        6
176
     1
 90
        0
176
     1
 90
        0
176
     1
290
     0
176
     1
 90
        1
176
     1
 40
0.0
176
     1
 90
        0
176
     1
290
     0
176
     1
290
     1
176
     1
290
     1
176
     1
290
     0
176
     1
290
     0
176
     1
290
     0
176
     1
290
     0
176
     1
290
     0
176
     1
290
     0
176
     1
 90
       50
176
     1
 40
0.0
176
     1
 40
1.0
176
     1
 90
        0
176
     1
 62
    18
420
        0
176
     1
 90
       50
176
     1
 90
        3
176
     1
 62
     5
420
      255
176
     1
290
     0
176
     1
 90
       50
176
     1
 90
       50
176
     1
 90
       50
176
     1
290
     0
176
     1
 90
       50
176
     1
 62
   256
176
     0
 40
1.0
176
     0
 90
        2
176
     1
  1
strokes_ogs.tif
176
     1
290
     0
176
     1
 40
1.0
176
     1
 40
1.0
176
     1
  0
VISUALSTYLE
  5
36
102
{ACAD_REACTORS
330
29
102
}
330
29
100
AcDbVisualStyle
  2
Thicken
 70
    13
177
     3
291
     1
 70
    58
 90
        2
176
     1
 90
        2
176
     1
 90
        0
176
     1
 90
        0
176
     1
 40
0.6
176
     1
 40
30.0
176
     1
 62
     7
420
 16777215
176
     1
 90
        1
176
     1
 90
        4
176
     1
 62
     7
176
     1
 62
   257
176
     1
 90
        1
176
     1
 90
        1
176
     1
 40
1.0
176
     1
 90
       12
176
     1
 62
     7
176
     1
 40
1.0
176
     1
 90
        1
176
     1
 90
        6
176
     1
 90
        2
176
     1
 62
     7
176
     1
 90
        5
176
     1
 90
        0
176
     1
 90
        0
176
     1
290
     0
176
     1
 90
        1
176
     1
 40
0.0
176
     1
 90
        0
176
     1
290
     0
176
     1
290
     1
176
     1
290
     1
176
     1
290
     0
176
     1
290
     0
176
     1
290
     0
176
     1
290
     0
176
     1
290
     0
176
     1
290
     0
176
     1
 90
       50
176
     1
 40
0.0
176
     1
 40
1.0
176
     1
 90
        0
176
     1
 62
    18
420
        0
176
     1
 90
       50
176
     1
 90
        3
176
     1
 62
     5
420
      255
176
     1
290
     0
176
     1
 90
       50
176
     1
 90
       50
176
     1
 90
       50
176
     1
290
     0
176
     1
 90
       50
176
     1
 62
   256
176
     0
 40
1.0
176
     0
 90
        2
176
     1
  1
strokes_ogs.tif
176
     1
290
     0
176
     1
 40
1.0
176
     1
 40
1.0
176
     1
  0
VISUALSTYLE
  5
30
102
{ACAD_REACTORS
330
29
102
}
330
29
100
AcDbVisualStyle
  2
Wireframe
 70
     5
177
     3
291
     0
 70
    58
 90
        0
176
     1
 90
        2
176
     1
 90
        0
176
     1
 90
        0
176
     1
 40
0.6
176
     1
 40
30.0
176
     1
 62
     7
420
 16777215
176
     1
 90
        1
176
     1
 90
        4
176
     1
 62
     7
176
     1
 62
   257
176
     1
 90
        1
176
     1
 90
        1
176
     1
 40
1.0
176
     1
 90
        0
176
     1
 62
   257
176
     1
 40
1.0
176
     1
 90
        1
176
     1
 90
        6
176
     1
 90
        2
176
     1
 62
     7
176
     1
 90
        3
176
     1
 90
        0
176
     1
 90
        0
176
     1
290
     0
176
     1
 90
        1
176
     1
 40
0.0
176
     1
 90
        0
176
     1
290
     0
176
     1
290
     1
176
     1
290
     1
176
     1
290
     0
176
     1
290
     0
176
     1
290
     0
176
     1
290
     0
176
     1
290
     0
176
     1
290
     0
176
     1
 90
       50
176
     1
 40
0.0
176
     1
 40
1.0
176
     1
 90
        0
176
     1
 62
    18
420
        0
176
     1
 90
       50
176
     1
 90
        3
176
     1
 62
     5
420
      255
176
     1
290
     0
176
     1
 90
       50
176
     1
 90
       50
176
     1
 90
       50
176
     1
290
     0
176
     1
 90
       50
176
     1
 62
   256
176
     0
 40
1.0
176
     0
 90
        2
176
     1
  1
strokes_ogs.tif
176
     1
290
     0
176
     1
 40
1.0
176
     1
 40
1.0
176
     1
  0
VISUALSTYLE
  5
3C
102
{ACAD_REACTORS
330
29
102
}
330
29
100
AcDbVisualStyle
  2
X-Ray
 70
    25
177
     3
291
     0
 70
    58
 90
        2
176
     1
 90
        2
176
     1
 90
        1
176
     1
 90
        1
176
     1
 40
0.5
176
     1
 40
30.0
176
     1
 62
     7
420
 16777215
176
     1
 90
        1
176
     1
 90
        0
176
     1
 62
     7
176
     1
 62
   257
176
     1
 90
        1
176
     1
 90
        1
176
     1
 40
1.0
176
     1
 90
        8
176
     1
 62
     7
176
     1
 40
1.0
176
     1
 90
        1
176
     1
 90
        6
176
     1
 90
        2
176
     1
 62
     7
176
     1
 90
        3
176
     1
 90
        0
176
     1
 90
        0
176
     1
290
     0
176
     1
 90
       13
176
     1
 40
0.0
176
     1
 90
        0
176
     1
290
     0
176
     1
290
     1
176
     1
290
     1
176
     1
290
     0
176
     1
290
     0
176
     1
290
     0
176
     1
290
     0
176
     1
290
     0
176
     1
290
     0
176
     1
 90
       50
176
     1
 40
0.0
176
     1
 40
1.0
176
     1
 90
        0
176
     1
 62
    18
420
        0
176
     1
 90
       50
176
     1
 90
        3
176
     1
 62
     5
420
      255
176
     1
290
     0
176
     1
 90
       50
176
     1
 90
       50
176
     1
 90
       50
176
     1
290
     0
176
     1
 90
       50
176
     1
 62
   256
176
     0
 40
1.0
176
     0
 90
        2
176
     1
  1
strokes_ogs.tif
176
     1
290
     0
176
     1
 40
1.0
176
     1
 40
1.0
176
     1
  0
DICTIONARYVAR
  5
1D7
102
{ACAD_REACTORS
330
1D2
102
}
330
1D2
100
DictionaryVariables
280
     0
  1
1:1
  0
DICTIONARYVAR
  5
1D4
102
{ACAD_REACTORS
330
1D2
102
}
330
1D2
100
DictionaryVariables
280
     0
  1
STANDARD
  0
DICTIONARYVAR
  5
1D3
102
{ACAD_REACTORS
330
1D2
102
}
330
1D2
100
DictionaryVariables
280
     0
  1
STANDARD
  0
DICTIONARYVAR
  5
1D5
102
{ACAD_REACTORS
330
1D2
102
}
330
1D2
100
DictionaryVariables
280
     0
  1
Imperial24
  0
DICTIONARYVAR
  5
1D6
102
{ACAD_REACTORS
330
1D2
102
}
330
1D2
100
DictionaryVariables
280
     0
  1
Imperial24
  0
DICTIONARY
  5
1A
330
19
100
AcDbDictionary
280
     1
281
     1
  3
BUMPTILE
360
1C
  3
DIFFUSETILE
360
1B
  3
OPACITYTILE
360
1F
  3
REFLECTIONTILE
360
1E
  3
REFRACTIONTILE
360
20
  3
SPECULARTILE
360
1D
  0
DICTIONARY
  5
12
330
11
100
AcDbDictionary
280
     1
281
     1
  3
BUMPTILE
360
14
  3
DIFFUSETILE
360
13
  3
OPACITYTILE
360
17
  3
REFLECTIONTILE
360
16
  3
REFRACTIONTILE
360
18
  3
SPECULARTILE
360
15
  0
DICTIONARY
  5
22
330
21
100
AcDbDictionary
280
     1
281
     1
  3
BUMPTILE
360
24
  3
DIFFUSETILE
360
23
  3
OPACITYTILE
360
27
  3
REFLECTIONTILE
360
26
  3
REFRACTIONTILE
360
28
  3
SPECULARTILE
360
25
  0
DICTIONARY
  5
1D8
330
65
100
AcDbDictionary
280
     1
281
     1
  3
ACAD_ROUNDTRIP_2008_TABLESTYLE_CELLSTYLEMAP
360
1D9
  0
XRECORD
  5
1C
102
{ACAD_REACTORS
330
1A
102
}
330
1A
100
AcDbXrecord
280
     1
270
     1
271
     1
  0
XRECORD
  5
1B
102
{ACAD_REACTORS
330
1A
102
}
330
1A
100
AcDbXrecord
280
     1
270
     1
271
     1
  0
XRECORD
  5
1F
102
{ACAD_REACTORS
330
1A
102
}
330
1A
100
AcDbXrecord
280
     1
270
     1
271
     1
  0
XRECORD
  5
1E
102
{ACAD_REACTORS
330
1A
102
}
330
1A
100
AcDbXrecord
280
     1
270
     1
271
     1
  0
XRECORD
  5
20
102
{ACAD_REACTORS
330
1A
102
}
330
1A
100
AcDbXrecord
280
     1
270
     1
271
     1
  0
XRECORD
  5
1D
102
{ACAD_REACTORS
330
1A
102
}
330
1A
100
AcDbXrecord
280
     1
270
     1
271
     1
  0
XRECORD
  5
14
102
{ACAD_REACTORS
330
12
102
}
330
12
100
AcDbXrecord
280
     1
270
     1
271
     1
  0
XRECORD
  5
13
102
{ACAD_REACTORS
330
12
102
}
330
12
100
AcDbXrecord
280
     1
270
     1
271
     1
  0
XRECORD
  5
17
102
{ACAD_REACTORS
330
12
102
}
330
12
100
AcDbXrecord
280
     1
270
     1
271
     1
  0
XRECORD
  5
16
102
{ACAD_REACTORS
330
12
102
}
330
12
100
AcDbXrecord
280
     1
270
     1
271
     1
  0
XRECORD
  5
18
102
{ACAD_REACTORS
330
12
102
}
330
12
100
AcDbXrecord
280
     1
270
     1
271
     1
  0
XRECORD
  5
15
102
{ACAD_REACTORS
330
12
102
}
330
12
100
AcDbXrecord
280
     1
270
     1
271
     1
  0
XRECORD
  5
24
102
{ACAD_REACTORS
330
22
102
}
330
22
100
AcDbXrecord
280
     1
270
     1
271
     1
  0
XRECORD
  5
23
102
{ACAD_REACTORS
330
22
102
}
330
22
100
AcDbXrecord
280
     1
270
     1
271
     1
  0
XRECORD
  5
27
102
{ACAD_REACTORS
330
22
102
}
330
22
100
AcDbXrecord
280
     1
270
     1
271
     1
  0
XRECORD
  5
26
102
{ACAD_REACTORS
330
22
102
}
330
22
100
AcDbXrecord
280
     1
270
     1
271
     1
  0
XRECORD
  5
28
102
{ACAD_REACTORS
330
22
102
}
330
22
100
AcDbXrecord
280
     1
270
     1
271
     1
  0
XRECORD
  5
25
102
{ACAD_REACTORS
330
22
102
}
330
22
100
AcDbXrecord
280
     1
270
     1
271
     1
  0
CELLSTYLEMAP
  5
1D9
102
{ACAD_REACTORS
330
1D8
102
}
330
1D8
100
AcDbCellStyleMap
 90
        3
300
CELLSTYLE
  1
TABLEFORMAT_BEGIN
 90
        5
170
     1
 91
        0
 92
    32768
 62
   257
 93
        1
300
CONTENTFORMAT
  1
CONTENTFORMAT_BEGIN
 90
        0
 91
        0
 92
      512
 93
        0
300

 40
0.0
140
1.0
 94
        5
 62
     0
340
55
144
0.25
309
CONTENTFORMAT_END
171
     0
 94
        0
309
TABLEFORMAT_END
  1
CELLSTYLE_BEGIN
 90
        1
 91
        1
300
_TITLE
309
CELLSTYLE_END
300
CELLSTYLE
  1
TABLEFORMAT_BEGIN
 90
        5
170
     1
 91
        0
 92
        0
 62
   257
 93
        1
300
CONTENTFORMAT
  1
CONTENTFORMAT_BEGIN
 90
        0
 91
        0
 92
      512
 93
        0
300

 40
0.0
140
1.0
 94
        5
 62
     0
340
55
144
0.18
309
CONTENTFORMAT_END
171
     0
 94
        0
309
TABLEFORMAT_END
  1
CELLSTYLE_BEGIN
 90
        2
 91
        1
300
_HEADER
309
CELLSTYLE_END
300
CELLSTYLE
  1
TABLEFORMAT_BEGIN
 90
        5
170
     1
 91
        0
 92
        0
 62
   257
 93
        1
300
CONTENTFORMAT
  1
CONTENTFORMAT_BEGIN
 90
        0
 91
        0
 92
      512
 93
        0
300

 40
0.0
140
1.0
 94
        2
 62
     0
340
55
144
0.18
309
CONTENTFORMAT_END
171
     0
 94
        0
309
TABLEFORMAT_END
  1
CELLSTYLE_BEGIN
 90
        3
 91
        2
300
_DATA
309
CELLSTYLE_END
  0
ENDSEC
  0
EOF
